999
"DXF R12 Output" (www.mydxf.blogspot.com)
 0 
SECTION
 2 
HEADER
 9 
$ACADVER
 1 
AC1009
 9 
$EXTMIN
 10 
 0 
 20 
 0 
 9 
$EXTMAX
 10 
 8.5 
 20 
 11 
 0 
ENDSEC
 0 
SECTION
 2 
ENTITIES
0
LINE
8
Layer 1
10
0.123472
20
304.800000
11
0.000000
21
304.676528
0
LINE
8
Layer 1
10
0.000000
20
304.676528
11
0.000000
21
304.429583
0
LINE
8
Layer 1
10
0.000000
20
304.429583
11
0.000000
21
304.050347
0
LINE
8
Layer 1
10
0.000000
20
304.050347
11
0.017639
21
304.041528
0
LINE
8
Layer 1
10
0.017639
20
304.041528
11
0.281963
21
300.057478
0
LINE
8
Layer 1
10
0.281963
20
300.057478
11
0.687917
21
296.176181
0
LINE
8
Layer 1
10
0.687917
20
296.176181
11
1.233821
21
292.395360
0
LINE
8
Layer 1
10
1.233821
20
292.395360
11
1.917997
21
288.712738
0
LINE
8
Layer 1
10
1.917997
20
288.712738
11
2.738765
21
285.126036
0
LINE
8
Layer 1
10
2.738765
20
285.126036
11
3.694446
21
281.632978
0
LINE
8
Layer 1
10
3.694446
20
281.632978
11
4.783362
21
278.231285
0
LINE
8
Layer 1
10
4.783362
20
278.231285
11
6.003834
21
274.918681
0
LINE
8
Layer 1
10
6.003834
20
274.918681
11
7.354182
21
271.692888
0
LINE
8
Layer 1
10
7.354182
20
271.692888
11
8.832728
21
268.551629
0
LINE
8
Layer 1
10
8.832728
20
268.551629
11
12.167697
21
262.513601
0
LINE
8
Layer 1
10
12.167697
20
262.513601
11
15.995309
21
256.786379
0
LINE
8
Layer 1
10
15.995309
20
256.786379
11
20.302133
21
251.351742
0
LINE
8
Layer 1
10
20.302133
20
251.351742
11
25.074736
21
246.191471
0
LINE
8
Layer 1
10
25.074736
20
246.191471
11
30.299688
21
241.287347
0
LINE
8
Layer 1
10
30.299688
20
241.287347
11
35.963556
21
236.621149
0
LINE
8
Layer 1
10
35.963556
20
236.621149
11
42.052910
21
232.174659
0
LINE
8
Layer 1
10
42.052910
20
232.174659
11
48.554316
21
227.929656
0
LINE
8
Layer 1
10
48.554316
20
227.929656
11
55.454343
21
223.867922
0
LINE
8
Layer 1
10
55.454343
20
223.867922
11
62.739561
21
219.971237
0
LINE
8
Layer 1
10
62.739561
20
219.971237
11
70.396537
21
216.221380
0
LINE
8
Layer 1
10
70.396537
20
216.221380
11
78.411839
21
212.600133
0
LINE
8
Layer 1
10
78.411839
20
212.600133
11
86.772036
21
209.089276
0
LINE
8
Layer 1
10
86.772036
20
209.089276
11
95.463696
21
205.670590
0
LINE
8
Layer 1
10
95.463696
20
205.670590
11
104.473388
21
202.325854
0
LINE
8
Layer 1
10
104.473388
20
202.325854
11
123.393139
21
195.785358
0
LINE
8
Layer 1
10
123.393139
20
195.785358
11
143.423835
21
189.322030
0
LINE
8
Layer 1
10
143.423835
20
189.322030
11
186.388253
21
176.043855
0
LINE
8
Layer 1
10
186.388253
20
176.043855
11
209.107067
21
168.937495
0
LINE
8
Layer 1
10
209.107067
20
168.937495
11
232.507014
21
161.325278
0
LINE
8
Layer 1
10
232.507014
20
161.325278
11
256.313385
21
153.165569
0
LINE
8
Layer 1
10
256.313385
20
153.165569
11
280.576515
21
144.448938
0
LINE
8
Layer 1
10
280.576515
20
144.448938
11
305.191725
21
135.239777
0
LINE
8
Layer 1
10
305.191725
20
135.239777
11
330.054337
21
125.602482
0
LINE
8
Layer 1
10
330.054337
20
125.602482
11
355.059672
21
115.601447
0
LINE
8
Layer 1
10
355.059672
20
115.601447
11
380.103052
21
105.301066
0
LINE
8
Layer 1
10
380.103052
20
105.301066
11
405.079797
21
94.765733
0
LINE
8
Layer 1
10
405.079797
20
94.765733
11
429.885230
21
84.059843
0
LINE
8
Layer 1
10
429.885230
20
84.059843
11
454.414671
21
73.247791
0
LINE
8
Layer 1
10
454.414671
20
73.247791
11
478.563443
21
62.393971
0
LINE
8
Layer 1
10
478.563443
20
62.393971
11
502.226866
21
51.562776
0
LINE
8
Layer 1
10
502.226866
20
51.562776
11
525.300261
21
40.818602
0
LINE
8
Layer 1
10
525.300261
20
40.818602
11
547.678951
21
30.225844
0
LINE
8
Layer 1
10
547.678951
20
30.225844
11
569.258257
21
19.848894
0
LINE
8
Layer 1
10
569.258257
20
19.848894
11
609.600000
21
0.000000
0
LINE
8
Layer 1
10
609.600000
20
0.000000
11
609.600000
21
304.800000
0
LINE
8
Layer 1
10
609.600000
20
304.800000
11
0.123472
21
304.800000
0
LINE
8
Layer 1
10
0.123472
20
304.800000
11
0.123472
21
304.800000
0
LINE
8
Layer 1
10
33.593264
20
278.288750
11
77.893333
21
278.288750
0
LINE
8
Layer 1
10
77.893333
20
278.288750
11
74.336280
21
276.249569
0
LINE
8
Layer 1
10
74.336280
20
276.249569
11
71.143320
21
273.958005
0
LINE
8
Layer 1
10
71.143320
20
273.958005
11
68.348413
21
271.436733
0
LINE
8
Layer 1
10
68.348413
20
271.436733
11
65.985518
21
268.708428
0
LINE
8
Layer 1
10
65.985518
20
268.708428
11
64.088597
21
265.795768
0
LINE
8
Layer 1
10
64.088597
20
265.795768
11
62.691607
21
262.721426
0
LINE
8
Layer 1
10
62.691607
20
262.721426
11
61.828510
21
259.508079
0
LINE
8
Layer 1
10
61.828510
20
259.508079
11
61.533264
21
256.178403
0
LINE
8
Layer 1
10
61.533264
20
256.178403
11
61.745844
21
253.346412
0
LINE
8
Layer 1
10
61.745844
20
253.346412
11
62.371111
21
250.595694
0
LINE
8
Layer 1
10
62.371111
20
250.595694
11
55.771130
21
254.979269
0
LINE
8
Layer 1
10
55.771130
20
254.979269
11
49.914551
21
259.443897
0
LINE
8
Layer 1
10
49.914551
20
259.443897
11
44.800558
21
263.988954
0
LINE
8
Layer 1
10
44.800558
20
263.988954
11
40.428333
21
268.613819
0
LINE
8
Layer 1
10
40.428333
20
268.613819
11
36.717537
21
273.364230
0
LINE
8
Layer 1
10
36.717537
20
273.364230
11
33.593264
21
278.288750
0
LINE
8
Layer 1
10
33.593264
20
278.288750
11
33.593264
21
278.288750
0
LINE
8
Layer 1
10
141.322318
20
278.288750
11
302.727416
21
278.288750
0
LINE
8
Layer 1
10
302.727416
20
278.288750
11
299.367222
21
276.586597
0
LINE
8
Layer 1
10
299.367222
20
276.586597
11
295.678773
21
274.162570
0
LINE
8
Layer 1
10
295.678773
20
274.162570
11
292.389992
21
271.488411
0
LINE
8
Layer 1
10
292.389992
20
271.488411
11
289.530469
21
268.601276
0
LINE
8
Layer 1
10
289.530469
20
268.601276
11
287.129792
21
265.538320
0
LINE
8
Layer 1
10
287.129792
20
265.538320
11
285.217548
21
262.336698
0
LINE
8
Layer 1
10
285.217548
20
262.336698
11
283.823327
21
259.033566
0
LINE
8
Layer 1
10
283.823327
20
259.033566
11
282.976717
21
255.666078
0
LINE
8
Layer 1
10
282.976717
20
255.666078
11
282.707306
21
252.271389
0
LINE
8
Layer 1
10
282.707306
20
252.271389
11
282.844700
21
250.382853
0
LINE
8
Layer 1
10
282.844700
20
250.382853
11
283.246786
21
248.576869
0
LINE
8
Layer 1
10
283.246786
20
248.576869
11
283.898369
21
246.858288
0
LINE
8
Layer 1
10
283.898369
20
246.858288
11
284.784257
21
245.231957
0
LINE
8
Layer 1
10
284.784257
20
245.231957
11
285.889255
21
243.702726
0
LINE
8
Layer 1
10
285.889255
20
243.702726
11
287.198171
21
242.275444
0
LINE
8
Layer 1
10
287.198171
20
242.275444
11
288.695810
21
240.954959
0
LINE
8
Layer 1
10
288.695810
20
240.954959
11
290.366979
21
239.746122
0
LINE
8
Layer 1
10
290.366979
20
239.746122
11
292.196485
21
238.653780
0
LINE
8
Layer 1
10
292.196485
20
238.653780
11
294.169134
21
237.682784
0
LINE
8
Layer 1
10
294.169134
20
237.682784
11
296.269733
21
236.837982
0
LINE
8
Layer 1
10
296.269733
20
236.837982
11
298.483087
21
236.124222
0
LINE
8
Layer 1
10
298.483087
20
236.124222
11
300.794004
21
235.546355
0
LINE
8
Layer 1
10
300.794004
20
235.546355
11
303.187290
21
235.109229
0
LINE
8
Layer 1
10
303.187290
20
235.109229
11
305.647751
21
234.817694
0
LINE
8
Layer 1
10
305.647751
20
234.817694
11
308.160194
21
234.676597
0
LINE
8
Layer 1
10
308.160194
20
234.676597
11
313.133063
21
234.727792
0
LINE
8
Layer 1
10
313.133063
20
234.727792
11
317.797005
21
235.168848
0
LINE
8
Layer 1
10
317.797005
20
235.168848
11
321.970427
21
236.045412
0
LINE
8
Layer 1
10
321.970427
20
236.045412
11
323.816445
21
236.661273
0
LINE
8
Layer 1
10
323.816445
20
236.661273
11
325.471737
21
237.403128
0
LINE
8
Layer 1
10
325.471737
20
237.403128
11
326.913603
21
238.276681
0
LINE
8
Layer 1
10
326.913603
20
238.276681
11
328.119344
21
239.287640
0
LINE
8
Layer 1
10
328.119344
20
239.287640
11
329.066262
21
240.441709
0
LINE
8
Layer 1
10
329.066262
20
240.441709
11
329.731656
21
241.744593
0
LINE
8
Layer 1
10
329.731656
20
241.744593
11
330.092829
21
243.201999
0
LINE
8
Layer 1
10
330.092829
20
243.201999
11
330.127081
21
244.819633
0
LINE
8
Layer 1
10
330.127081
20
244.819633
11
329.811714
21
246.603199
0
LINE
8
Layer 1
10
329.811714
20
246.603199
11
329.124028
21
248.558403
0
LINE
8
Layer 1
10
329.124028
20
248.558403
11
327.191089
21
247.582226
0
LINE
8
Layer 1
10
327.191089
20
247.582226
11
325.371523
21
246.823869
0
LINE
8
Layer 1
10
325.371523
20
246.823869
11
323.666289
21
246.269571
0
LINE
8
Layer 1
10
323.666289
20
246.269571
11
322.076349
21
245.905570
0
LINE
8
Layer 1
10
322.076349
20
245.905570
11
320.602664
21
245.718106
0
LINE
8
Layer 1
10
320.602664
20
245.718106
11
319.246194
21
245.693416
0
LINE
8
Layer 1
10
319.246194
20
245.693416
11
318.007900
21
245.817741
0
LINE
8
Layer 1
10
318.007900
20
245.817741
11
316.888744
21
246.077320
0
LINE
8
Layer 1
10
316.888744
20
246.077320
11
315.889686
21
246.458390
0
LINE
8
Layer 1
10
315.889686
20
246.458390
11
315.011687
21
246.947192
0
LINE
8
Layer 1
10
315.011687
20
246.947192
11
313.622711
21
248.192945
0
LINE
8
Layer 1
10
313.622711
20
248.192945
11
312.729502
21
249.704489
0
LINE
8
Layer 1
10
312.729502
20
249.704489
11
312.339747
21
251.371737
0
LINE
8
Layer 1
10
312.339747
20
251.371737
11
312.461133
21
253.084601
0
LINE
8
Layer 1
10
312.461133
20
253.084601
11
313.101349
21
254.732991
0
LINE
8
Layer 1
10
313.101349
20
254.732991
11
314.268080
21
256.206820
0
LINE
8
Layer 1
10
314.268080
20
256.206820
11
315.051291
21
256.843871
0
LINE
8
Layer 1
10
315.051291
20
256.843871
11
315.969015
21
257.395998
0
LINE
8
Layer 1
10
315.969015
20
257.395998
11
317.022210
21
257.849441
0
LINE
8
Layer 1
10
317.022210
20
257.849441
11
318.211839
21
258.190438
0
LINE
8
Layer 1
10
318.211839
20
258.190438
11
319.538863
21
258.405229
0
LINE
8
Layer 1
10
319.538863
20
258.405229
11
321.004242
21
258.480052
0
LINE
8
Layer 1
10
321.004242
20
258.480052
11
322.608937
21
258.401146
0
LINE
8
Layer 1
10
322.608937
20
258.401146
11
324.353909
21
258.154750
0
LINE
8
Layer 1
10
324.353909
20
258.154750
11
326.240119
21
257.727103
0
LINE
8
Layer 1
10
326.240119
20
257.727103
11
328.268528
21
257.104444
0
LINE
8
Layer 1
10
328.268528
20
257.104444
11
330.296490
21
256.123509
0
LINE
8
Layer 1
10
330.296490
20
256.123509
11
332.084191
21
255.011636
0
LINE
8
Layer 1
10
332.084191
20
255.011636
11
333.635237
21
253.785571
0
LINE
8
Layer 1
10
333.635237
20
253.785571
11
334.953234
21
252.462056
0
LINE
8
Layer 1
10
334.953234
20
252.462056
11
336.041790
21
251.057835
0
LINE
8
Layer 1
10
336.041790
20
251.057835
11
336.904510
21
249.589652
0
LINE
8
Layer 1
10
336.904510
20
249.589652
11
337.545000
21
248.074250
0
LINE
8
Layer 1
10
337.545000
20
248.074250
11
337.966868
21
246.528373
0
LINE
8
Layer 1
10
337.966868
20
246.528373
11
338.173720
21
244.968764
0
LINE
8
Layer 1
10
338.173720
20
244.968764
11
338.169162
21
243.412167
0
LINE
8
Layer 1
10
338.169162
20
243.412167
11
337.956800
21
241.875325
0
LINE
8
Layer 1
10
337.956800
20
241.875325
11
337.540242
21
240.374982
0
LINE
8
Layer 1
10
337.540242
20
240.374982
11
336.923093
21
238.927882
0
LINE
8
Layer 1
10
336.923093
20
238.927882
11
336.108960
21
237.550768
0
LINE
8
Layer 1
10
336.108960
20
237.550768
11
335.101449
21
236.260384
0
LINE
8
Layer 1
10
335.101449
20
236.260384
11
333.904167
21
235.073472
0
LINE
8
Layer 1
10
333.904167
20
235.073472
11
332.522950
21
234.003763
0
LINE
8
Layer 1
10
332.522950
20
234.003763
11
330.972261
21
233.052673
0
LINE
8
Layer 1
10
330.972261
20
233.052673
11
329.268647
21
232.218480
0
LINE
8
Layer 1
10
329.268647
20
232.218480
11
327.428654
21
231.499462
0
LINE
8
Layer 1
10
327.428654
20
231.499462
11
323.405721
21
230.400067
0
LINE
8
Layer 1
10
323.405721
20
230.400067
11
319.035836
21
229.740712
0
LINE
8
Layer 1
10
319.035836
20
229.740712
11
314.451372
21
229.507622
0
LINE
8
Layer 1
10
314.451372
20
229.507622
11
309.784704
21
229.687022
0
LINE
8
Layer 1
10
309.784704
20
229.687022
11
305.168205
21
230.265138
0
LINE
8
Layer 1
10
305.168205
20
230.265138
11
300.734250
21
231.228194
0
LINE
8
Layer 1
10
300.734250
20
231.228194
11
285.631271
21
235.867319
0
LINE
8
Layer 1
10
285.631271
20
235.867319
11
270.731535
21
240.781894
0
LINE
8
Layer 1
10
270.731535
20
240.781894
11
241.220625
21
250.992569
0
LINE
8
Layer 1
10
241.220625
20
250.992569
11
242.856182
21
252.940810
0
LINE
8
Layer 1
10
242.856182
20
252.940810
11
244.094875
21
255.207859
0
LINE
8
Layer 1
10
244.094875
20
255.207859
11
244.879811
21
257.733079
0
LINE
8
Layer 1
10
244.879811
20
257.733079
11
245.154097
21
260.455833
0
LINE
8
Layer 1
10
245.154097
20
260.455833
11
244.903791
21
263.056839
0
LINE
8
Layer 1
10
244.903791
20
263.056839
11
244.185977
21
265.479953
0
LINE
8
Layer 1
10
244.185977
20
265.479953
11
243.050311
21
267.673116
0
LINE
8
Layer 1
10
243.050311
20
267.673116
11
241.546449
21
269.584264
0
LINE
8
Layer 1
10
241.546449
20
269.584264
11
239.724046
21
271.161338
0
LINE
8
Layer 1
10
239.724046
20
271.161338
11
237.632758
21
272.352276
0
LINE
8
Layer 1
10
237.632758
20
272.352276
11
235.322242
21
273.105017
0
LINE
8
Layer 1
10
235.322242
20
273.105017
11
232.842153
21
273.367500
0
LINE
8
Layer 1
10
232.842153
20
273.367500
11
230.978980
21
273.220021
0
LINE
8
Layer 1
10
230.978980
20
273.220021
11
229.203349
21
272.792090
0
LINE
8
Layer 1
10
229.203349
20
272.792090
11
227.535755
21
272.105465
0
LINE
8
Layer 1
10
227.535755
20
272.105465
11
225.996691
21
271.181904
0
LINE
8
Layer 1
10
225.996691
20
271.181904
11
224.606652
21
270.043167
0
LINE
8
Layer 1
10
224.606652
20
270.043167
11
223.386132
21
268.711010
0
LINE
8
Layer 1
10
223.386132
20
268.711010
11
222.355625
21
267.207192
0
LINE
8
Layer 1
10
222.355625
20
267.207192
11
221.535625
21
265.553472
0
LINE
8
Layer 1
10
221.535625
20
265.553472
11
217.766921
21
265.078242
0
LINE
8
Layer 1
10
217.766921
20
265.078242
11
214.004440
21
264.851405
0
LINE
8
Layer 1
10
214.004440
20
264.851405
11
210.248462
21
264.847206
0
LINE
8
Layer 1
10
210.248462
20
264.847206
11
206.499269
21
265.039894
0
LINE
8
Layer 1
10
206.499269
20
265.039894
11
202.757142
21
265.403715
0
LINE
8
Layer 1
10
202.757142
20
265.403715
11
199.022363
21
265.912916
0
LINE
8
Layer 1
10
199.022363
20
265.912916
11
191.575972
21
267.264444
0
LINE
8
Layer 1
10
191.575972
20
267.264444
11
176.783433
21
270.585378
0
LINE
8
Layer 1
10
176.783433
20
270.585378
11
169.440956
21
272.146188
0
LINE
8
Layer 1
10
169.440956
20
272.146188
11
162.136667
21
273.367500
0
LINE
8
Layer 1
10
162.136667
20
273.367500
11
141.337363
21
276.866448
0
LINE
8
Layer 1
10
141.337363
20
276.866448
11
141.322318
21
278.288750
0
LINE
8
Layer 1
10
141.322318
20
278.288750
11
141.322318
21
278.288750
0
LINE
8
Layer 1
10
343.340972
20
278.288750
11
402.219583
21
278.288750
0
LINE
8
Layer 1
10
402.219583
20
278.288750
11
397.590925
21
275.508595
0
LINE
8
Layer 1
10
397.590925
20
275.508595
11
392.928627
21
272.501314
0
LINE
8
Layer 1
10
392.928627
20
272.501314
11
388.319054
21
269.328630
0
LINE
8
Layer 1
10
388.319054
20
269.328630
11
383.848575
21
266.052269
0
LINE
8
Layer 1
10
383.848575
20
266.052269
11
379.603555
21
262.733952
0
LINE
8
Layer 1
10
379.603555
20
262.733952
11
375.670360
21
259.435405
0
LINE
8
Layer 1
10
375.670360
20
259.435405
11
372.135359
21
256.218351
0
LINE
8
Layer 1
10
372.135359
20
256.218351
11
369.084916
21
253.144514
0
LINE
8
Layer 1
10
369.084916
20
253.144514
11
367.768921
21
256.198842
0
LINE
8
Layer 1
10
367.768921
20
256.198842
11
366.072218
21
259.153189
0
LINE
8
Layer 1
10
366.072218
20
259.153189
11
364.038653
21
261.996984
0
LINE
8
Layer 1
10
364.038653
20
261.996984
11
361.712069
21
264.719655
0
LINE
8
Layer 1
10
361.712069
20
264.719655
11
359.136309
21
267.310634
0
LINE
8
Layer 1
10
359.136309
20
267.310634
11
356.355218
21
269.759350
0
LINE
8
Layer 1
10
356.355218
20
269.759350
11
353.412639
21
272.055231
0
LINE
8
Layer 1
10
353.412639
20
272.055231
11
350.352416
21
274.187708
0
LINE
8
Layer 1
10
350.352416
20
274.187708
11
346.862135
21
276.353341
0
LINE
8
Layer 1
10
346.862135
20
276.353341
11
343.340972
21
278.288750
0
LINE
8
Layer 1
10
343.340972
20
278.288750
11
343.340972
21
278.288750
0
LINE
8
Layer 1
10
506.553611
20
278.288750
11
583.088750
21
278.288750
0
LINE
8
Layer 1
10
583.088750
20
278.288750
11
583.088750
21
218.713403
0
LINE
8
Layer 1
10
583.088750
20
218.713403
11
582.374361
21
218.616389
0
LINE
8
Layer 1
10
582.374361
20
218.616389
11
581.721475
21
221.567261
0
LINE
8
Layer 1
10
581.721475
20
221.567261
11
580.773776
21
224.565072
0
LINE
8
Layer 1
10
580.773776
20
224.565072
11
579.539485
21
227.599787
0
LINE
8
Layer 1
10
579.539485
20
227.599787
11
578.026823
21
230.661371
0
LINE
8
Layer 1
10
578.026823
20
230.661371
11
576.244009
21
233.739789
0
LINE
8
Layer 1
10
576.244009
20
233.739789
11
574.199264
21
236.825005
0
LINE
8
Layer 1
10
574.199264
20
236.825005
11
571.900808
21
239.906985
0
LINE
8
Layer 1
10
571.900808
20
239.906985
11
569.356861
21
242.975694
0
LINE
8
Layer 1
10
569.356861
20
242.975694
11
566.575592
21
246.015188
0
LINE
8
Layer 1
10
566.575592
20
246.015188
11
563.564874
21
249.007859
0
LINE
8
Layer 1
10
563.564874
20
249.007859
11
560.332483
21
251.941166
0
LINE
8
Layer 1
10
560.332483
20
251.941166
11
556.886195
21
254.802569
0
LINE
8
Layer 1
10
556.886195
20
254.802569
11
553.234160
21
257.578900
0
LINE
8
Layer 1
10
553.234160
20
257.578900
11
549.384739
21
260.257234
0
LINE
8
Layer 1
10
549.384739
20
260.257234
11
545.345955
21
262.825406
0
LINE
8
Layer 1
10
545.345955
20
262.825406
11
541.125833
21
265.271250
0
LINE
8
Layer 1
10
541.125833
20
265.271250
11
536.719979
21
267.586899
0
LINE
8
Layer 1
10
536.719979
20
267.586899
11
532.306851
21
269.674396
0
LINE
8
Layer 1
10
532.306851
20
269.674396
11
527.902312
21
271.533671
0
LINE
8
Layer 1
10
527.902312
20
271.533671
11
523.522222
21
273.164653
0
LINE
8
Layer 1
10
523.522222
20
273.164653
11
519.181962
21
274.567604
0
LINE
8
Layer 1
10
519.181962
20
274.567604
11
514.897455
21
275.742558
0
LINE
8
Layer 1
10
514.897455
20
275.742558
11
510.685380
21
276.689097
0
LINE
8
Layer 1
10
510.685380
20
276.689097
11
506.562416
21
277.406806
0
LINE
8
Layer 1
10
506.562416
20
277.406806
11
506.553611
21
278.288750
0
LINE
8
Layer 1
10
506.553611
20
278.288750
11
506.553611
21
278.288750
0
LINE
8
Layer 1
10
460.828051
20
256.368685
11
469.340641
21
255.769749
0
LINE
8
Layer 1
10
469.340641
20
255.769749
11
478.550538
21
254.742773
0
LINE
8
Layer 1
10
478.550538
20
254.742773
11
487.483728
21
253.324195
0
LINE
8
Layer 1
10
487.483728
20
253.324195
11
491.542179
21
252.479441
0
LINE
8
Layer 1
10
491.542179
20
252.479441
11
495.166198
21
251.550449
0
LINE
8
Layer 1
10
495.166198
20
251.550449
11
492.642217
21
250.048293
0
LINE
8
Layer 1
10
492.642217
20
250.048293
11
490.564530
21
248.183076
0
LINE
8
Layer 1
10
490.564530
20
248.183076
11
489.708973
21
247.117964
0
LINE
8
Layer 1
10
489.708973
20
247.117964
11
488.984100
21
245.966459
0
LINE
8
Layer 1
10
488.984100
20
245.966459
11
488.396284
21
244.730019
0
LINE
8
Layer 1
10
488.396284
20
244.730019
11
487.951893
21
243.410102
0
LINE
8
Layer 1
10
487.951893
20
243.410102
11
487.548482
21
240.997294
0
LINE
8
Layer 1
10
487.548482
20
240.997294
11
487.608626
21
238.500920
0
LINE
8
Layer 1
10
487.608626
20
238.500920
11
488.109397
21
235.950004
0
LINE
8
Layer 1
10
488.109397
20
235.950004
11
489.027865
21
233.373574
0
LINE
8
Layer 1
10
489.027865
20
233.373574
11
481.532743
21
234.817012
0
LINE
8
Layer 1
10
481.532743
20
234.817012
11
473.042756
21
235.992386
0
LINE
8
Layer 1
10
473.042756
20
235.992386
11
464.215224
21
236.743301
0
LINE
8
Layer 1
10
464.215224
20
236.743301
11
459.880292
21
236.910713
0
LINE
8
Layer 1
10
459.880292
20
236.910713
11
455.707468
21
236.913361
0
LINE
8
Layer 1
10
455.707468
20
236.913361
11
451.832708
21
236.753799
0
LINE
8
Layer 1
10
451.832708
20
236.753799
11
447.944400
21
236.431479
0
LINE
8
Layer 1
10
447.944400
20
236.431479
11
444.074751
21
235.932721
0
LINE
8
Layer 1
10
444.074751
20
235.932721
11
440.255969
21
235.243846
0
LINE
8
Layer 1
10
440.255969
20
235.243846
11
436.520261
21
234.351174
0
LINE
8
Layer 1
10
436.520261
20
234.351174
11
432.899835
21
233.241025
0
LINE
8
Layer 1
10
432.899835
20
233.241025
11
429.426900
21
231.899719
0
LINE
8
Layer 1
10
429.426900
20
231.899719
11
426.133662
21
230.313577
0
LINE
8
Layer 1
10
426.133662
20
230.313577
11
423.052330
21
228.468919
0
LINE
8
Layer 1
10
423.052330
20
228.468919
11
420.215111
21
226.352064
0
LINE
8
Layer 1
10
420.215111
20
226.352064
11
417.654212
21
223.949333
0
LINE
8
Layer 1
10
417.654212
20
223.949333
11
415.401843
21
221.247047
0
LINE
8
Layer 1
10
415.401843
20
221.247047
11
413.490210
21
218.231525
0
LINE
8
Layer 1
10
413.490210
20
218.231525
11
411.951521
21
214.889089
0
LINE
8
Layer 1
10
411.951521
20
214.889089
11
410.817983
21
211.206057
0
LINE
8
Layer 1
10
410.817983
20
211.206057
11
410.121806
21
207.168750
0
LINE
8
Layer 1
10
410.121806
20
207.168750
11
410.008011
21
205.124893
0
LINE
8
Layer 1
10
410.008011
20
205.124893
11
410.144054
21
203.188146
0
LINE
8
Layer 1
10
410.144054
20
203.188146
11
410.509888
21
201.354424
0
LINE
8
Layer 1
10
410.509888
20
201.354424
11
411.085464
21
199.619640
0
LINE
8
Layer 1
10
411.085464
20
199.619640
11
411.850737
21
197.979706
0
LINE
8
Layer 1
10
411.850737
20
197.979706
11
412.785658
21
196.430539
0
LINE
8
Layer 1
10
412.785658
20
196.430539
11
413.870180
21
194.968049
0
LINE
8
Layer 1
10
413.870180
20
194.968049
11
415.084256
21
193.588153
0
LINE
8
Layer 1
10
415.084256
20
193.588153
11
417.820882
21
191.059791
0
LINE
8
Layer 1
10
417.820882
20
191.059791
11
420.835156
21
188.812763
0
LINE
8
Layer 1
10
420.835156
20
188.812763
11
423.966701
21
186.814378
0
LINE
8
Layer 1
10
423.966701
20
186.814378
11
427.055139
21
185.031944
0
LINE
8
Layer 1
10
427.055139
20
185.031944
11
430.191686
21
183.617954
0
LINE
8
Layer 1
10
430.191686
20
183.617954
11
433.417287
21
182.412619
0
LINE
8
Layer 1
10
433.417287
20
182.412619
11
436.688970
21
181.437072
0
LINE
8
Layer 1
10
436.688970
20
181.437072
11
439.963765
21
180.712442
0
LINE
8
Layer 1
10
439.963765
20
180.712442
11
443.198700
21
180.259858
0
LINE
8
Layer 1
10
443.198700
20
180.259858
11
446.350805
21
180.100453
0
LINE
8
Layer 1
10
446.350805
20
180.100453
11
449.377108
21
180.255355
0
LINE
8
Layer 1
10
449.377108
20
180.255355
11
452.234639
21
180.745694
0
LINE
8
Layer 1
10
452.234639
20
180.745694
11
455.226739
21
181.739447
0
LINE
8
Layer 1
10
455.226739
20
181.739447
11
456.599375
21
182.419584
0
LINE
8
Layer 1
10
456.599375
20
182.419584
11
457.879401
21
183.227136
0
LINE
8
Layer 1
10
457.879401
20
183.227136
11
459.059067
21
184.166030
0
LINE
8
Layer 1
10
459.059067
20
184.166030
11
460.130626
21
185.240198
0
LINE
8
Layer 1
10
460.130626
20
185.240198
11
461.086325
21
186.453568
0
LINE
8
Layer 1
10
461.086325
20
186.453568
11
461.918417
21
187.810069
0
LINE
8
Layer 1
10
461.918417
20
187.810069
11
461.995863
21
188.395500
0
LINE
8
Layer 1
10
461.995863
20
188.395500
11
461.917539
21
188.990605
0
LINE
8
Layer 1
10
461.917539
20
188.990605
11
461.363688
21
190.210625
0
LINE
8
Layer 1
10
461.363688
20
190.210625
11
460.397076
21
191.471704
0
LINE
8
Layer 1
10
460.397076
20
191.471704
11
459.157917
21
192.775417
0
LINE
8
Layer 1
10
459.157917
20
192.775417
11
456.426425
21
195.518679
0
LINE
8
Layer 1
10
456.426425
20
195.518679
11
455.218976
21
196.961926
0
LINE
8
Layer 1
10
455.218976
20
196.961926
11
454.307222
21
198.455139
0
LINE
8
Layer 1
10
454.307222
20
198.455139
11
453.832868
21
200.000007
0
LINE
8
Layer 1
10
453.832868
20
200.000007
11
453.803637
21
200.792402
0
LINE
8
Layer 1
10
453.803637
20
200.792402
11
453.936523
21
201.598435
0
LINE
8
Layer 1
10
453.936523
20
201.598435
11
454.249141
21
202.418353
0
LINE
8
Layer 1
10
454.249141
20
202.418353
11
454.759104
21
203.252404
0
LINE
8
Layer 1
10
454.759104
20
203.252404
11
455.484028
21
204.100833
0
LINE
8
Layer 1
10
455.484028
20
204.100833
11
456.441528
21
204.963889
0
LINE
8
Layer 1
10
456.441528
20
204.963889
11
458.264648
21
205.995758
0
LINE
8
Layer 1
10
458.264648
20
205.995758
11
460.052286
21
206.830868
0
LINE
8
Layer 1
10
460.052286
20
206.830868
11
461.801059
21
207.478037
0
LINE
8
Layer 1
10
461.801059
20
207.478037
11
463.507587
21
207.946085
0
LINE
8
Layer 1
10
463.507587
20
207.946085
11
465.168490
21
208.243829
0
LINE
8
Layer 1
10
465.168490
20
208.243829
11
466.780386
21
208.380090
0
LINE
8
Layer 1
10
466.780386
20
208.380090
11
469.843635
21
208.203434
0
LINE
8
Layer 1
10
469.843635
20
208.203434
11
472.670288
21
207.486667
0
LINE
8
Layer 1
10
472.670288
20
207.486667
11
475.233299
21
206.300340
0
LINE
8
Layer 1
10
475.233299
20
206.300340
11
477.505619
21
204.715003
0
LINE
8
Layer 1
10
477.505619
20
204.715003
11
479.460204
21
202.801207
0
LINE
8
Layer 1
10
479.460204
20
202.801207
11
481.070005
21
200.629502
0
LINE
8
Layer 1
10
481.070005
20
200.629502
11
482.307977
21
198.270439
0
LINE
8
Layer 1
10
482.307977
20
198.270439
11
483.147073
21
195.794568
0
LINE
8
Layer 1
10
483.147073
20
195.794568
11
483.560247
21
193.272440
0
LINE
8
Layer 1
10
483.560247
20
193.272440
11
483.520450
21
190.774604
0
LINE
8
Layer 1
10
483.520450
20
190.774604
11
483.000638
21
188.371612
0
LINE
8
Layer 1
10
483.000638
20
188.371612
11
481.973762
21
186.134014
0
LINE
8
Layer 1
10
481.973762
20
186.134014
11
481.261724
21
185.099285
0
LINE
8
Layer 1
10
481.261724
20
185.099285
11
480.412778
21
184.132361
0
LINE
8
Layer 1
10
480.412778
20
184.132361
11
479.013752
21
182.493248
0
LINE
8
Layer 1
10
479.013752
20
182.493248
11
477.459470
21
180.976118
0
LINE
8
Layer 1
10
477.459470
20
180.976118
11
475.759634
21
179.579199
0
LINE
8
Layer 1
10
475.759634
20
179.579199
11
473.923951
21
178.300721
0
LINE
8
Layer 1
10
473.923951
20
178.300721
11
471.962123
21
177.138913
0
LINE
8
Layer 1
10
471.962123
20
177.138913
11
469.883856
21
176.092003
0
LINE
8
Layer 1
10
469.883856
20
176.092003
11
465.416822
21
174.335796
0
LINE
8
Layer 1
10
465.416822
20
174.335796
11
460.600483
21
173.017934
0
LINE
8
Layer 1
10
460.600483
20
173.017934
11
455.512476
21
172.124249
0
LINE
8
Layer 1
10
455.512476
20
172.124249
11
450.230435
21
171.640574
0
LINE
8
Layer 1
10
450.230435
20
171.640574
11
444.831996
21
171.552742
0
LINE
8
Layer 1
10
444.831996
20
171.552742
11
439.394794
21
171.846585
0
LINE
8
Layer 1
10
439.394794
20
171.846585
11
433.996466
21
172.507936
0
LINE
8
Layer 1
10
433.996466
20
172.507936
11
428.714646
21
173.522628
0
LINE
8
Layer 1
10
428.714646
20
173.522628
11
423.626970
21
174.876494
0
LINE
8
Layer 1
10
423.626970
20
174.876494
11
418.811074
21
176.555366
0
LINE
8
Layer 1
10
418.811074
20
176.555366
11
414.344592
21
178.545077
0
LINE
8
Layer 1
10
414.344592
20
178.545077
11
410.305162
21
180.831460
0
LINE
8
Layer 1
10
410.305162
20
180.831460
11
406.770417
21
183.400347
0
LINE
8
Layer 1
10
406.770417
20
183.400347
11
402.451436
21
186.813952
0
LINE
8
Layer 1
10
402.451436
20
186.813952
11
398.670891
21
190.499167
0
LINE
8
Layer 1
10
398.670891
20
190.499167
11
395.443942
21
194.413352
0
LINE
8
Layer 1
10
395.443942
20
194.413352
11
392.785748
21
198.513869
0
LINE
8
Layer 1
10
392.785748
20
198.513869
11
390.711472
21
202.758077
0
LINE
8
Layer 1
10
390.711472
20
202.758077
11
389.898040
21
204.920741
0
LINE
8
Layer 1
10
389.898040
20
204.920741
11
389.236273
21
207.103338
0
LINE
8
Layer 1
10
389.236273
20
207.103338
11
388.728065
21
209.300538
0
LINE
8
Layer 1
10
388.728065
20
209.300538
11
388.375312
21
211.507011
0
LINE
8
Layer 1
10
388.375312
20
211.507011
11
388.179909
21
213.717428
0
LINE
8
Layer 1
10
388.179909
20
213.717428
11
388.143750
21
215.926458
0
LINE
8
Layer 1
10
388.143750
20
215.926458
11
388.268783
21
218.128804
0
LINE
8
Layer 1
10
388.268783
20
218.128804
11
388.556946
21
220.319188
0
LINE
8
Layer 1
10
388.556946
20
220.319188
11
389.010122
21
222.492307
0
LINE
8
Layer 1
10
389.010122
20
222.492307
11
389.630195
21
224.642860
0
LINE
8
Layer 1
10
389.630195
20
224.642860
11
390.419047
21
226.765544
0
LINE
8
Layer 1
10
390.419047
20
226.765544
11
391.378562
21
228.855056
0
LINE
8
Layer 1
10
391.378562
20
228.855056
11
392.510622
21
230.906094
0
LINE
8
Layer 1
10
392.510622
20
230.906094
11
393.817112
21
232.913357
0
LINE
8
Layer 1
10
393.817112
20
232.913357
11
395.299913
21
234.871541
0
LINE
8
Layer 1
10
395.299913
20
234.871541
11
396.960910
21
236.775344
0
LINE
8
Layer 1
10
396.960910
20
236.775344
11
398.801985
21
238.619464
0
LINE
8
Layer 1
10
398.801985
20
238.619464
11
400.825021
21
240.398599
0
LINE
8
Layer 1
10
400.825021
20
240.398599
11
403.031903
21
242.107446
0
LINE
8
Layer 1
10
403.031903
20
242.107446
11
405.424511
21
243.740702
0
LINE
8
Layer 1
10
405.424511
20
243.740702
11
408.004731
21
245.293067
0
LINE
8
Layer 1
10
408.004731
20
245.293067
11
410.774444
21
246.759236
0
LINE
8
Layer 1
10
410.774444
20
246.759236
11
415.000675
21
248.935765
0
LINE
8
Layer 1
10
415.000675
20
248.935765
11
419.528027
21
250.859262
0
LINE
8
Layer 1
10
419.528027
20
250.859262
11
424.312629
21
252.518076
0
LINE
8
Layer 1
10
424.312629
20
252.518076
11
429.310613
21
253.900559
0
LINE
8
Layer 1
10
429.310613
20
253.900559
11
434.478109
21
254.995059
0
LINE
8
Layer 1
10
434.478109
20
254.995059
11
439.771247
21
255.789927
0
LINE
8
Layer 1
10
439.771247
20
255.789927
11
445.146158
21
256.273513
0
LINE
8
Layer 1
10
445.146158
20
256.273513
11
450.558972
21
256.434167
0
LINE
8
Layer 1
10
450.558972
20
256.434167
11
455.694147
21
256.506994
0
LINE
8
Layer 1
10
455.694147
20
256.506994
11
460.828051
21
256.368685
0
LINE
8
Layer 1
10
460.828051
20
256.368685
11
460.828051
21
256.368685
0
LINE
8
Layer 1
10
144.330208
20
253.073958
11
152.338409
21
251.836314
0
LINE
8
Layer 1
10
152.338409
20
251.836314
11
160.252295
21
250.381013
0
LINE
8
Layer 1
10
160.252295
20
250.381013
11
168.069877
21
248.717758
0
LINE
8
Layer 1
10
168.069877
20
248.717758
11
175.789167
21
246.856250
0
LINE
8
Layer 1
10
175.789167
20
246.856250
11
183.407599
21
244.807087
0
LINE
8
Layer 1
10
183.407599
20
244.807087
11
190.921124
21
242.581926
0
LINE
8
Layer 1
10
190.921124
20
242.581926
11
198.325511
21
240.192052
0
LINE
8
Layer 1
10
198.325511
20
240.192052
11
205.616528
21
237.648750
0
LINE
8
Layer 1
10
205.616528
20
237.648750
11
212.545066
21
235.080717
0
LINE
8
Layer 1
10
212.545066
20
235.080717
11
219.413237
21
232.344835
0
LINE
8
Layer 1
10
219.413237
20
232.344835
11
226.223697
21
229.452808
0
LINE
8
Layer 1
10
226.223697
20
229.452808
11
232.979104
21
226.416340
0
LINE
8
Layer 1
10
232.979104
20
226.416340
11
246.335384
21
219.956898
0
LINE
8
Layer 1
10
246.335384
20
219.956898
11
259.503333
21
213.060139
0
LINE
8
Layer 1
10
259.503333
20
213.060139
11
268.978474
21
206.910315
0
LINE
8
Layer 1
10
268.978474
20
206.910315
11
278.092042
21
200.507629
0
LINE
8
Layer 1
10
278.092042
20
200.507629
11
286.791459
21
193.857942
0
LINE
8
Layer 1
10
286.791459
20
193.857942
11
295.024147
21
186.967112
0
LINE
8
Layer 1
10
295.024147
20
186.967112
11
302.737526
21
179.841002
0
LINE
8
Layer 1
10
302.737526
20
179.841002
11
309.879018
21
172.485470
0
LINE
8
Layer 1
10
309.879018
20
172.485470
11
313.218876
21
168.723502
0
LINE
8
Layer 1
10
313.218876
20
168.723502
11
316.396045
21
164.906377
0
LINE
8
Layer 1
10
316.396045
20
164.906377
11
319.403953
21
161.034826
0
LINE
8
Layer 1
10
319.403953
20
161.034826
11
322.236028
21
157.109583
0
LINE
8
Layer 1
10
322.236028
20
157.109583
11
301.573182
21
164.948076
0
LINE
8
Layer 1
10
301.573182
20
164.948076
11
281.092698
21
172.477992
0
LINE
8
Layer 1
10
281.092698
20
172.477992
11
260.850652
21
179.663687
0
LINE
8
Layer 1
10
260.850652
20
179.663687
11
240.903125
21
186.469514
0
LINE
8
Layer 1
10
240.903125
20
186.469514
11
222.352578
21
192.546526
0
LINE
8
Layer 1
10
222.352578
20
192.546526
11
204.284552
21
198.282740
0
LINE
8
Layer 1
10
204.284552
20
198.282740
11
169.856264
21
208.959932
0
LINE
8
Layer 1
10
169.856264
20
208.959932
11
138.138663
21
218.955405
0
LINE
8
Layer 1
10
138.138663
20
218.955405
11
123.458997
21
223.839469
0
LINE
8
Layer 1
10
123.458997
20
223.839469
11
109.652153
21
228.723472
0
LINE
8
Layer 1
10
109.652153
20
228.723472
11
113.033583
21
229.182860
0
LINE
8
Layer 1
10
113.033583
20
229.182860
11
116.309772
21
229.821786
0
LINE
8
Layer 1
10
116.309772
20
229.821786
11
119.468584
21
230.632137
0
LINE
8
Layer 1
10
119.468584
20
230.632137
11
122.497885
21
231.605795
0
LINE
8
Layer 1
10
122.497885
20
231.605795
11
125.385539
21
232.734648
0
LINE
8
Layer 1
10
125.385539
20
232.734648
11
128.119409
21
234.010580
0
LINE
8
Layer 1
10
128.119409
20
234.010580
11
130.687360
21
235.425475
0
LINE
8
Layer 1
10
130.687360
20
235.425475
11
133.077258
21
236.971220
0
LINE
8
Layer 1
10
133.077258
20
236.971220
11
135.276965
21
238.639699
0
LINE
8
Layer 1
10
135.276965
20
238.639699
11
137.274347
21
240.422798
0
LINE
8
Layer 1
10
137.274347
20
240.422798
11
139.057268
21
242.312400
0
LINE
8
Layer 1
10
139.057268
20
242.312400
11
140.613592
21
244.300393
0
LINE
8
Layer 1
10
140.613592
20
244.300393
11
141.931183
21
246.378659
0
LINE
8
Layer 1
10
141.931183
20
246.378659
11
142.997907
21
248.539086
0
LINE
8
Layer 1
10
142.997907
20
248.539086
11
143.801627
21
250.773557
0
LINE
8
Layer 1
10
143.801627
20
250.773557
11
144.330208
21
253.073958
0
LINE
8
Layer 1
10
144.330208
20
253.073958
11
144.330208
21
253.073958
0
LINE
8
Layer 1
10
528.857859
20
234.183326
11
531.750431
21
231.410166
0
LINE
8
Layer 1
10
531.750431
20
231.410166
11
534.297431
21
228.555109
0
LINE
8
Layer 1
10
534.297431
20
228.555109
11
536.734185
21
225.432923
0
LINE
8
Layer 1
10
536.734185
20
225.432923
11
539.296017
21
221.858372
0
LINE
8
Layer 1
10
539.296017
20
221.858372
11
541.441429
21
218.561379
0
LINE
8
Layer 1
10
541.441429
20
218.561379
11
543.328343
21
215.166695
0
LINE
8
Layer 1
10
543.328343
20
215.166695
11
544.960709
21
211.671992
0
LINE
8
Layer 1
10
544.960709
20
211.671992
11
546.342478
21
208.074940
0
LINE
8
Layer 1
10
546.342478
20
208.074940
11
547.477600
21
204.373211
0
LINE
8
Layer 1
10
547.477600
20
204.373211
11
548.370024
21
200.564474
0
LINE
8
Layer 1
10
548.370024
20
200.564474
11
549.023702
21
196.646403
0
LINE
8
Layer 1
10
549.023702
20
196.646403
11
549.442584
21
192.616667
0
LINE
8
Layer 1
10
549.442584
20
192.616667
11
549.654013
21
188.891789
0
LINE
8
Layer 1
10
549.654013
20
188.891789
11
549.544886
21
185.185595
0
LINE
8
Layer 1
10
549.544886
20
185.185595
11
549.126635
21
181.501795
0
LINE
8
Layer 1
10
549.126635
20
181.501795
11
548.410694
21
177.844097
0
LINE
8
Layer 1
10
548.410694
20
177.844097
11
547.447875
21
174.643185
0
LINE
8
Layer 1
10
547.447875
20
174.643185
11
546.222248
21
171.480030
0
LINE
8
Layer 1
10
546.222248
20
171.480030
11
544.739114
21
168.363598
0
LINE
8
Layer 1
10
544.739114
20
168.363598
11
543.003773
21
165.302852
0
LINE
8
Layer 1
10
543.003773
20
165.302852
11
541.021525
21
162.306761
0
LINE
8
Layer 1
10
541.021525
20
162.306761
11
538.797673
21
159.384288
0
LINE
8
Layer 1
10
538.797673
20
159.384288
11
536.337514
21
156.544400
0
LINE
8
Layer 1
10
536.337514
20
156.544400
11
533.646352
21
153.796063
0
LINE
8
Layer 1
10
533.646352
20
153.796063
11
530.729485
21
151.148241
0
LINE
8
Layer 1
10
530.729485
20
151.148241
11
527.592214
21
148.609900
0
LINE
8
Layer 1
10
527.592214
20
148.609900
11
524.239841
21
146.190007
0
LINE
8
Layer 1
10
524.239841
20
146.190007
11
520.677665
21
143.897526
0
LINE
8
Layer 1
10
520.677665
20
143.897526
11
516.910987
21
141.741424
0
LINE
8
Layer 1
10
516.910987
20
141.741424
11
512.945107
21
139.730665
0
LINE
8
Layer 1
10
512.945107
20
139.730665
11
508.785326
21
137.874216
0
LINE
8
Layer 1
10
508.785326
20
137.874216
11
504.436944
21
136.181042
0
LINE
8
Layer 1
10
504.436944
20
136.181042
11
503.886454
21
137.262243
0
LINE
8
Layer 1
10
503.886454
20
137.262243
11
503.207090
21
138.243107
0
LINE
8
Layer 1
10
503.207090
20
138.243107
11
501.501271
21
139.908223
0
LINE
8
Layer 1
10
501.501271
20
139.908223
11
499.398553
21
141.185194
0
LINE
8
Layer 1
10
499.398553
20
141.185194
11
496.978002
21
142.082823
0
LINE
8
Layer 1
10
496.978002
20
142.082823
11
494.318682
21
142.609913
0
LINE
8
Layer 1
10
494.318682
20
142.609913
11
491.499661
21
142.775266
0
LINE
8
Layer 1
10
491.499661
20
142.775266
11
488.600002
21
142.587685
0
LINE
8
Layer 1
10
488.600002
20
142.587685
11
485.698772
21
142.055974
0
LINE
8
Layer 1
10
485.698772
20
142.055974
11
482.875025
21
141.188935
0
LINE
8
Layer 1
10
482.875025
20
141.188935
11
480.207837
21
139.995372
0
LINE
8
Layer 1
10
480.207837
20
139.995372
11
477.776275
21
138.484087
0
LINE
8
Layer 1
10
477.776275
20
138.484087
11
475.659404
21
136.663883
0
LINE
8
Layer 1
10
475.659404
20
136.663883
11
473.936290
21
134.543564
0
LINE
8
Layer 1
10
473.936290
20
134.543564
11
472.685999
21
132.131932
0
LINE
8
Layer 1
10
472.685999
20
132.131932
11
472.262869
21
130.819624
0
LINE
8
Layer 1
10
472.262869
20
130.819624
11
471.987596
21
129.437790
0
LINE
8
Layer 1
10
471.987596
20
129.437790
11
471.870060
21
127.987529
0
LINE
8
Layer 1
10
471.870060
20
127.987529
11
471.920147
21
126.469942
0
LINE
8
Layer 1
10
471.920147
20
126.469942
11
464.930935
21
126.578441
0
LINE
8
Layer 1
10
464.930935
20
126.578441
11
458.053315
21
126.974495
0
LINE
8
Layer 1
10
458.053315
20
126.974495
11
451.261533
21
127.670978
0
LINE
8
Layer 1
10
451.261533
20
127.670978
11
444.529838
21
128.680767
0
LINE
8
Layer 1
10
444.529838
20
128.680767
11
437.832478
21
130.016737
0
LINE
8
Layer 1
10
437.832478
20
130.016737
11
431.143701
21
131.691763
0
LINE
8
Layer 1
10
431.143701
20
131.691763
11
424.437755
21
133.718721
0
LINE
8
Layer 1
10
424.437755
20
133.718721
11
417.688889
21
136.110486
0
LINE
8
Layer 1
10
417.688889
20
136.110486
11
409.162487
21
139.140182
0
LINE
8
Layer 1
10
409.162487
20
139.140182
11
401.133690
21
142.516017
0
LINE
8
Layer 1
10
401.133690
20
142.516017
11
393.557767
21
146.205561
0
LINE
8
Layer 1
10
393.557767
20
146.205561
11
386.389989
21
150.176387
0
LINE
8
Layer 1
10
386.389989
20
150.176387
11
379.585625
21
154.396067
0
LINE
8
Layer 1
10
379.585625
20
154.396067
11
373.099945
21
158.832172
0
LINE
8
Layer 1
10
373.099945
20
158.832172
11
366.888220
21
163.452276
0
LINE
8
Layer 1
10
366.888220
20
163.452276
11
360.905718
21
168.223950
0
LINE
8
Layer 1
10
360.905718
20
168.223950
11
355.107710
21
173.114766
0
LINE
8
Layer 1
10
355.107710
20
173.114766
11
349.449465
21
178.092295
0
LINE
8
Layer 1
10
349.449465
20
178.092295
11
338.373345
21
188.177785
0
LINE
8
Layer 1
10
338.373345
20
188.177785
11
327.319517
21
198.220994
0
LINE
8
Layer 1
10
327.319517
20
198.220994
11
321.689137
21
203.145674
0
LINE
8
Layer 1
10
321.689137
20
203.145674
11
315.930139
21
207.962500
0
LINE
8
Layer 1
10
315.930139
20
207.962500
11
318.316995
21
208.898700
0
LINE
8
Layer 1
10
318.316995
20
208.898700
11
322.340314
21
210.035702
0
LINE
8
Layer 1
10
322.340314
20
210.035702
11
333.215245
21
212.638257
0
LINE
8
Layer 1
10
333.215245
20
212.638257
11
344.392748
21
215.222447
0
LINE
8
Layer 1
10
344.392748
20
215.222447
11
348.794282
21
216.336494
0
LINE
8
Layer 1
10
348.794282
20
216.336494
11
351.710639
21
217.240556
0
LINE
8
Layer 1
10
351.710639
20
217.240556
11
352.341617
21
211.778924
0
LINE
8
Layer 1
10
352.341617
20
211.778924
11
353.549544
21
206.310250
0
LINE
8
Layer 1
10
353.549544
20
206.310250
11
355.324974
21
200.870175
0
LINE
8
Layer 1
10
355.324974
20
200.870175
11
357.658458
21
195.494342
0
LINE
8
Layer 1
10
357.658458
20
195.494342
11
360.540550
21
190.218394
0
LINE
8
Layer 1
10
360.540550
20
190.218394
11
363.961804
21
185.077975
0
LINE
8
Layer 1
10
363.961804
20
185.077975
11
367.912771
21
180.108726
0
LINE
8
Layer 1
10
367.912771
20
180.108726
11
372.384006
21
175.346291
0
LINE
8
Layer 1
10
372.384006
20
175.346291
11
377.366061
21
170.826313
0
LINE
8
Layer 1
10
377.366061
20
170.826313
11
382.849489
21
166.584433
0
LINE
8
Layer 1
10
382.849489
20
166.584433
11
388.824843
21
162.656296
0
LINE
8
Layer 1
10
388.824843
20
162.656296
11
395.282676
21
159.077543
0
LINE
8
Layer 1
10
395.282676
20
159.077543
11
402.213542
21
155.883818
0
LINE
8
Layer 1
10
402.213542
20
155.883818
11
409.607992
21
153.110763
0
LINE
8
Layer 1
10
409.607992
20
153.110763
11
417.456581
21
150.794022
0
LINE
8
Layer 1
10
417.456581
20
150.794022
11
425.749861
21
148.969236
0
LINE
8
Layer 1
10
425.749861
20
148.969236
11
430.202592
21
148.263896
0
LINE
8
Layer 1
10
430.202592
20
148.263896
11
434.706032
21
147.739099
0
LINE
8
Layer 1
10
434.706032
20
147.739099
11
439.245063
21
147.392247
0
LINE
8
Layer 1
10
439.245063
20
147.392247
11
443.804567
21
147.220743
0
LINE
8
Layer 1
10
443.804567
20
147.220743
11
448.369423
21
147.221990
0
LINE
8
Layer 1
10
448.369423
20
147.221990
11
452.924512
21
147.393392
0
LINE
8
Layer 1
10
452.924512
20
147.393392
11
457.454717
21
147.732350
0
LINE
8
Layer 1
10
457.454717
20
147.732350
11
461.944918
21
148.236268
0
LINE
8
Layer 1
10
461.944918
20
148.236268
11
466.379995
21
148.902549
0
LINE
8
Layer 1
10
466.379995
20
148.902549
11
470.744829
21
149.728595
0
LINE
8
Layer 1
10
470.744829
20
149.728595
11
475.024303
21
150.711810
0
LINE
8
Layer 1
10
475.024303
20
150.711810
11
479.203296
21
151.849597
0
LINE
8
Layer 1
10
479.203296
20
151.849597
11
483.266690
21
153.139357
0
LINE
8
Layer 1
10
483.266690
20
153.139357
11
487.199365
21
154.578495
0
LINE
8
Layer 1
10
487.199365
20
154.578495
11
490.986202
21
156.164413
0
LINE
8
Layer 1
10
490.986202
20
156.164413
11
494.612083
21
157.894514
0
LINE
8
Layer 1
10
494.612083
20
157.894514
11
500.490807
21
161.490650
0
LINE
8
Layer 1
10
500.490807
20
161.490650
11
503.301047
21
163.438097
0
LINE
8
Layer 1
10
503.301047
20
163.438097
11
505.989199
21
165.491109
0
LINE
8
Layer 1
10
505.989199
20
165.491109
11
508.528259
21
167.654170
0
LINE
8
Layer 1
10
508.528259
20
167.654170
11
510.891222
21
169.931766
0
LINE
8
Layer 1
10
510.891222
20
169.931766
11
513.051083
21
172.328380
0
LINE
8
Layer 1
10
513.051083
20
172.328380
11
514.980837
21
174.848496
0
LINE
8
Layer 1
10
514.980837
20
174.848496
11
516.653480
21
177.496600
0
LINE
8
Layer 1
10
516.653480
20
177.496600
11
518.042006
21
180.277176
0
LINE
8
Layer 1
10
518.042006
20
180.277176
11
519.119412
21
183.194708
0
LINE
8
Layer 1
10
519.119412
20
183.194708
11
519.858691
21
186.253681
0
LINE
8
Layer 1
10
519.858691
20
186.253681
11
520.232840
21
189.458579
0
LINE
8
Layer 1
10
520.232840
20
189.458579
11
520.214853
21
192.813886
0
LINE
8
Layer 1
10
520.214853
20
192.813886
11
519.777727
21
196.324088
0
LINE
8
Layer 1
10
519.777727
20
196.324088
11
518.894455
21
199.993668
0
LINE
8
Layer 1
10
518.894455
20
199.993668
11
518.004074
21
202.605858
0
LINE
8
Layer 1
10
518.004074
20
202.605858
11
516.968609
21
205.107330
0
LINE
8
Layer 1
10
516.968609
20
205.107330
11
515.786796
21
207.511099
0
LINE
8
Layer 1
10
515.786796
20
207.511099
11
514.457371
21
209.830184
0
LINE
8
Layer 1
10
514.457371
20
209.830184
11
512.979071
21
212.077598
0
LINE
8
Layer 1
10
512.979071
20
212.077598
11
511.350631
21
214.266361
0
LINE
8
Layer 1
10
511.350631
20
214.266361
11
507.638276
21
218.519993
0
LINE
8
Layer 1
10
507.638276
20
218.519993
11
511.765342
21
218.463083
0
LINE
8
Layer 1
10
511.765342
20
218.463083
11
515.599567
21
218.878711
0
LINE
8
Layer 1
10
515.599567
20
218.878711
11
519.077769
21
219.753621
0
LINE
8
Layer 1
10
519.077769
20
219.753621
11
522.136765
21
221.074559
0
LINE
8
Layer 1
10
522.136765
20
221.074559
11
523.888934
21
222.192137
0
LINE
8
Layer 1
10
523.888934
20
222.192137
11
525.384365
21
223.494399
0
LINE
8
Layer 1
10
525.384365
20
223.494399
11
526.621139
21
224.963434
0
LINE
8
Layer 1
10
526.621139
20
224.963434
11
527.597331
21
226.581330
0
LINE
8
Layer 1
10
527.597331
20
226.581330
11
528.311021
21
228.330178
0
LINE
8
Layer 1
10
528.311021
20
228.330178
11
528.760287
21
230.192067
0
LINE
8
Layer 1
10
528.760287
20
230.192067
11
528.943207
21
232.149087
0
LINE
8
Layer 1
10
528.943207
20
232.149087
11
528.857859
21
234.183326
0
LINE
8
Layer 1
10
528.857859
20
234.183326
11
528.857859
21
234.183326
0
LINE
8
Layer 1
10
583.088750
20
167.251944
11
583.088750
21
90.884375
0
LINE
8
Layer 1
10
583.088750
20
90.884375
11
580.875387
21
93.713006
0
LINE
8
Layer 1
10
580.875387
20
93.713006
11
578.238056
21
96.281875
0
LINE
8
Layer 1
10
578.238056
20
96.281875
11
575.692322
21
98.118435
0
LINE
8
Layer 1
10
575.692322
20
98.118435
11
572.918827
21
99.800048
0
LINE
8
Layer 1
10
572.918827
20
99.800048
11
569.941557
21
101.341517
0
LINE
8
Layer 1
10
569.941557
20
101.341517
11
566.784497
21
102.757650
0
LINE
8
Layer 1
10
566.784497
20
102.757650
11
560.026946
21
105.273129
0
LINE
8
Layer 1
10
560.026946
20
105.273129
11
552.838056
21
107.464931
0
LINE
8
Layer 1
10
552.838056
20
107.464931
11
537.934168
21
111.354833
0
LINE
8
Layer 1
10
537.934168
20
111.354833
11
530.603626
21
113.294968
0
LINE
8
Layer 1
10
530.603626
20
113.294968
11
523.610417
21
115.393611
0
LINE
8
Layer 1
10
523.610417
20
115.393611
11
527.761542
21
117.441989
0
LINE
8
Layer 1
10
527.761542
20
117.441989
11
531.968037
21
119.761986
0
LINE
8
Layer 1
10
531.968037
20
119.761986
11
536.205643
21
122.329477
0
LINE
8
Layer 1
10
536.205643
20
122.329477
11
540.450103
21
125.120339
0
LINE
8
Layer 1
10
540.450103
20
125.120339
11
544.677162
21
128.110444
0
LINE
8
Layer 1
10
544.677162
20
128.110444
11
548.862561
21
131.275669
0
LINE
8
Layer 1
10
548.862561
20
131.275669
11
552.982044
21
134.591888
0
LINE
8
Layer 1
10
552.982044
20
134.591888
11
557.011353
21
138.034975
0
LINE
8
Layer 1
10
557.011353
20
138.034975
11
560.926232
21
141.580807
0
LINE
8
Layer 1
10
560.926232
20
141.580807
11
564.702424
21
145.205257
0
LINE
8
Layer 1
10
564.702424
20
145.205257
11
568.315672
21
148.884201
0
LINE
8
Layer 1
10
568.315672
20
148.884201
11
571.741718
21
152.593513
0
LINE
8
Layer 1
10
571.741718
20
152.593513
11
574.956306
21
156.309069
0
LINE
8
Layer 1
10
574.956306
20
156.309069
11
577.935179
21
160.006743
0
LINE
8
Layer 1
10
577.935179
20
160.006743
11
580.654079
21
163.662410
0
LINE
8
Layer 1
10
580.654079
20
163.662410
11
583.088750
21
167.251944
0
LINE
8
Layer 1
10
583.088750
20
167.251944
11
583.088750
21
167.251944
0
LINE
8
Layer 1
10
456.079916
20
101.529444
11
473.584937
21
99.197750
0
LINE
8
Layer 1
10
473.584937
20
99.197750
11
491.098067
21
96.906750
0
LINE
8
Layer 1
10
491.098067
20
96.906750
11
499.826116
21
95.622060
0
LINE
8
Layer 1
10
499.826116
20
95.622060
11
508.518324
21
94.162201
0
LINE
8
Layer 1
10
508.518324
20
94.162201
11
517.162067
21
92.465395
0
LINE
8
Layer 1
10
517.162067
20
92.465395
11
525.744722
21
90.469861
0
LINE
8
Layer 1
10
525.744722
20
90.469861
11
524.216337
21
87.719307
0
LINE
8
Layer 1
10
524.216337
20
87.719307
11
523.089967
21
84.812648
0
LINE
8
Layer 1
10
523.089967
20
84.812648
11
522.393593
21
81.771263
0
LINE
8
Layer 1
10
522.393593
20
81.771263
11
522.155194
21
78.616528
0
LINE
8
Layer 1
10
522.155194
20
78.616528
11
522.250872
21
76.613372
0
LINE
8
Layer 1
10
522.250872
20
76.613372
11
522.533030
21
74.650785
0
LINE
8
Layer 1
10
522.533030
20
74.650785
11
522.994486
21
72.735202
0
LINE
8
Layer 1
10
522.994486
20
72.735202
11
523.628056
21
70.873056
0
LINE
8
Layer 1
10
523.628056
20
70.873056
11
490.346725
21
86.174578
0
LINE
8
Layer 1
10
490.346725
20
86.174578
11
456.079916
21
101.529444
0
LINE
8
Layer 1
10
456.079916
20
101.529444
11
456.079916
21
101.529444
0
LINE
8
Layer 1
10
583.088750
20
66.348681
11
583.088750
21
42.597917
0
LINE
8
Layer 1
10
583.088750
20
42.597917
11
561.040139
21
53.216528
0
LINE
8
Layer 1
10
561.040139
20
53.216528
11
564.543858
21
53.953487
0
LINE
8
Layer 1
10
564.543858
20
53.953487
11
567.880861
21
54.987042
0
LINE
8
Layer 1
10
567.880861
20
54.987042
11
571.027699
21
56.298118
0
LINE
8
Layer 1
10
571.027699
20
56.298118
11
573.960925
21
57.867639
0
LINE
8
Layer 1
10
573.960925
20
57.867639
11
576.657090
21
59.676531
0
LINE
8
Layer 1
10
576.657090
20
59.676531
11
579.092748
21
61.705718
0
LINE
8
Layer 1
10
579.092748
20
61.705718
11
581.244451
21
63.936126
0
LINE
8
Layer 1
10
581.244451
20
63.936126
11
583.088750
21
66.348681
0
LINE
8
Layer 1
10
583.088750
20
66.348681
11
583.088750
21
66.348681
 0 
ENDSEC
 0 
EOF
