  0
SECTION
  2
HEADER
  9
$ACADVER
  1
AC1018
  9
$ACADMAINTVER
 70
    76
  9
$DWGCODEPAGE
  3
ANSI_1252
  9
$INSBASE
 10
0.0
 20
0.0
 30
0.0
  9
$EXTMIN
 10
-8.004211764972069
 20
-11.97101506873468
 30
-0.0015258207003583
  9
$EXTMAX
 10
8.001716123505332
 20
9.050257138463734
 30
0.0000000349246037
  9
$LIMMIN
 10
0.0
 20
0.0
  9
$LIMMAX
 10
12.0
 20
9.0
  9
$ORTHOMODE
 70
     1
  9
$REGENMODE
 70
     1
  9
$FILLMODE
 70
     1
  9
$QTEXTMODE
 70
     0
  9
$MIRRTEXT
 70
     0
  9
$LTSCALE
 40
1.0
  9
$ATTMODE
 70
     1
  9
$TEXTSIZE
 40
0.2
  9
$TRACEWID
 40
0.05
  9
$TEXTSTYLE
  7
Standard
  9
$CLAYER
  8
0
  9
$CELTYPE
  6
ByLayer
  9
$CECOLOR
 62
   256
  9
$CELTSCALE
 40
1.0
  9
$DISPSILH
 70
     0
  9
$DIMSCALE
 40
1.0
  9
$DIMASZ
 40
0.18
  9
$DIMEXO
 40
0.0625
  9
$DIMDLI
 40
0.38
  9
$DIMRND
 40
0.0
  9
$DIMDLE
 40
0.0
  9
$DIMEXE
 40
0.18
  9
$DIMTP
 40
0.0
  9
$DIMTM
 40
0.0
  9
$DIMTXT
 40
0.18
  9
$DIMCEN
 40
0.09
  9
$DIMTSZ
 40
0.0
  9
$DIMTOL
 70
     0
  9
$DIMLIM
 70
     0
  9
$DIMTIH
 70
     1
  9
$DIMTOH
 70
     1
  9
$DIMSE1
 70
     0
  9
$DIMSE2
 70
     0
  9
$DIMTAD
 70
     0
  9
$DIMZIN
 70
     0
  9
$DIMBLK
  1

  9
$DIMASO
 70
     1
  9
$DIMSHO
 70
     1
  9
$DIMPOST
  1

  9
$DIMAPOST
  1

  9
$DIMALT
 70
     0
  9
$DIMALTD
 70
     2
  9
$DIMALTF
 40
25.4
  9
$DIMLFAC
 40
1.0
  9
$DIMTOFL
 70
     0
  9
$DIMTVP
 40
0.0
  9
$DIMTIX
 70
     0
  9
$DIMSOXD
 70
     0
  9
$DIMSAH
 70
     0
  9
$DIMBLK1
  1

  9
$DIMBLK2
  1

  9
$DIMSTYLE
  2
Standard
  9
$DIMCLRD
 70
     0
  9
$DIMCLRE
 70
     0
  9
$DIMCLRT
 70
     0
  9
$DIMTFAC
 40
1.0
  9
$DIMGAP
 40
0.09
  9
$DIMJUST
 70
     0
  9
$DIMSD1
 70
     0
  9
$DIMSD2
 70
     0
  9
$DIMTOLJ
 70
     1
  9
$DIMTZIN
 70
     0
  9
$DIMALTZ
 70
     0
  9
$DIMALTTZ
 70
     0
  9
$DIMUPT
 70
     0
  9
$DIMDEC
 70
     4
  9
$DIMTDEC
 70
     4
  9
$DIMALTU
 70
     2
  9
$DIMALTTD
 70
     2
  9
$DIMTXSTY
  7
Standard
  9
$DIMAUNIT
 70
     0
  9
$DIMADEC
 70
     0
  9
$DIMALTRND
 40
0.0
  9
$DIMAZIN
 70
     0
  9
$DIMDSEP
 70
    46
  9
$DIMATFIT
 70
     3
  9
$DIMFRAC
 70
     0
  9
$DIMLDRBLK
  1

  9
$DIMLUNIT
 70
     2
  9
$DIMLWD
 70
    -2
  9
$DIMLWE
 70
    -2
  9
$DIMTMOVE
 70
     0
  9
$LUNITS
 70
     2
  9
$LUPREC
 70
     4
  9
$SKETCHINC
 40
0.1
  9
$FILLETRAD
 40
0.25
  9
$AUNITS
 70
     0
  9
$AUPREC
 70
     0
  9
$MENU
  1
.
  9
$ELEVATION
 40
0.0
  9
$PELEVATION
 40
0.0
  9
$THICKNESS
 40
0.0
  9
$LIMCHECK
 70
     0
  9
$CHAMFERA
 40
0.0
  9
$CHAMFERB
 40
0.0
  9
$CHAMFERC
 40
0.0
  9
$CHAMFERD
 40
0.0
  9
$SKPOLY
 70
     0
  9
$TDCREATE
 40
2455101.808741725
  9
$TDUCREATE
 40
2455101.975408391
  9
$TDUPDATE
 40
2455101.967179074
  9
$TDUUPDATE
 40
2455102.133845741
  9
$TDINDWG
 40
0.1486028704
  9
$TDUSRTIMER
 40
0.1485998611
  9
$USRTIMER
 70
     1
  9
$ANGBASE
 50
0.0
  9
$ANGDIR
 70
     0
  9
$PDMODE
 70
     0
  9
$PDSIZE
 40
0.0
  9
$PLINEWID
 40
0.0
  9
$SPLFRAME
 70
     0
  9
$SPLINETYPE
 70
     6
  9
$SPLINESEGS
 70
     8
  9
$HANDSEED
  5
6C0
  9
$SURFTAB1
 70
     6
  9
$SURFTAB2
 70
     6
  9
$SURFTYPE
 70
     6
  9
$SURFU
 70
     6
  9
$SURFV
 70
     6
  9
$UCSBASE
  2

  9
$UCSNAME
  2

  9
$UCSORG
 10
0.0
 20
0.0
 30
0.0
  9
$UCSXDIR
 10
1.0
 20
0.0
 30
0.0
  9
$UCSYDIR
 10
0.0
 20
1.0
 30
0.0
  9
$UCSORTHOREF
  2

  9
$UCSORTHOVIEW
 70
     0
  9
$UCSORGTOP
 10
0.0
 20
0.0
 30
0.0
  9
$UCSORGBOTTOM
 10
0.0
 20
0.0
 30
0.0
  9
$UCSORGLEFT
 10
0.0
 20
0.0
 30
0.0
  9
$UCSORGRIGHT
 10
0.0
 20
0.0
 30
0.0
  9
$UCSORGFRONT
 10
0.0
 20
0.0
 30
0.0
  9
$UCSORGBACK
 10
0.0
 20
0.0
 30
0.0
  9
$PUCSBASE
  2

  9
$PUCSNAME
  2

  9
$PUCSORG
 10
0.0
 20
0.0
 30
0.0
  9
$PUCSXDIR
 10
1.0
 20
0.0
 30
0.0
  9
$PUCSYDIR
 10
0.0
 20
1.0
 30
0.0
  9
$PUCSORTHOREF
  2

  9
$PUCSORTHOVIEW
 70
     0
  9
$PUCSORGTOP
 10
0.0
 20
0.0
 30
0.0
  9
$PUCSORGBOTTOM
 10
0.0
 20
0.0
 30
0.0
  9
$PUCSORGLEFT
 10
0.0
 20
0.0
 30
0.0
  9
$PUCSORGRIGHT
 10
0.0
 20
0.0
 30
0.0
  9
$PUCSORGFRONT
 10
0.0
 20
0.0
 30
0.0
  9
$PUCSORGBACK
 10
0.0
 20
0.0
 30
0.0
  9
$USERI1
 70
     0
  9
$USERI2
 70
     0
  9
$USERI3
 70
     0
  9
$USERI4
 70
     0
  9
$USERI5
 70
     0
  9
$USERR1
 40
0.0
  9
$USERR2
 40
0.0
  9
$USERR3
 40
0.0
  9
$USERR4
 40
0.0
  9
$USERR5
 40
0.0
  9
$WORLDVIEW
 70
     1
  9
$SHADEDGE
 70
     3
  9
$SHADEDIF
 70
    70
  9
$TILEMODE
 70
     1
  9
$MAXACTVP
 70
    64
  9
$PINSBASE
 10
0.0
 20
0.0
 30
0.0
  9
$PLIMCHECK
 70
     0
  9
$PEXTMIN
 10
0.0
 20
0.0
 30
0.0
  9
$PEXTMAX
 10
0.0
 20
0.0
 30
0.0
  9
$PLIMMIN
 10
0.0
 20
0.0
  9
$PLIMMAX
 10
12.0
 20
9.0
  9
$UNITMODE
 70
     0
  9
$VISRETAIN
 70
     1
  9
$PLINEGEN
 70
     0
  9
$PSLTSCALE
 70
     1
  9
$TREEDEPTH
 70
  3020
  9
$CMLSTYLE
  2
Standard
  9
$CMLJUST
 70
     0
  9
$CMLSCALE
 40
1.0
  9
$PROXYGRAPHICS
 70
     1
  9
$MEASUREMENT
 70
     0
  9
$CELWEIGHT
370
    -1
  9
$ENDCAPS
280
     0
  9
$JOINSTYLE
280
     0
  9
$LWDISPLAY
290
     0
  9
$INSUNITS
 70
     1
  9
$HYPERLINKBASE
  1

  9
$STYLESHEET
  1

  9
$XEDIT
290
     1
  9
$CEPSNTYPE
380
     0
  9
$PSTYLEMODE
290
     1
  9
$FINGERPRINTGUID
  2
{BA9DB33D-8947-499A-952E-BCF2F12501D6}
  9
$VERSIONGUID
  2
{51D1D478-2BA6-468D-A937-BAA77403158E}
  9
$EXTNAMES
290
     1
  9
$PSVPSCALE
 40
0.0
  9
$OLESTARTUP
290
     0
  9
$SORTENTS
280
   127
  9
$INDEXCTL
280
     0
  9
$HIDETEXT
280
     1
  9
$XCLIPFRAME
290
     0
  9
$HALOGAP
280
     0
  9
$OBSCOLOR
 70
   257
  9
$OBSLTYPE
280
     0
  9
$INTERSECTIONDISPLAY
280
     0
  9
$INTERSECTIONCOLOR
 70
   257
  9
$DIMASSOC
280
     2
  9
$PROJECTNAME
  1

  0
ENDSEC
  0
SECTION
  2
CLASSES
  0
CLASS
  1
ACDBDICTIONARYWDFLT
  2
AcDbDictionaryWithDefault
  3
ObjectDBX Classes
 90
        0
 91
        1
280
     0
281
     0
  0
CLASS
  1
DICTIONARYVAR
  2
AcDbDictionaryVar
  3
ObjectDBX Classes
 90
        0
 91
        3
280
     0
281
     0
  0
CLASS
  1
TABLESTYLE
  2
AcDbTableStyle
  3
ObjectDBX Classes
 90
     2047
 91
        1
280
     0
281
     0
  0
CLASS
  1
SORTENTSTABLE
  2
AcDbSortentsTable
  3
ObjectDBX Classes
 90
        0
 91
        1
280
     0
281
     0
  0
CLASS
  1
DIMASSOC
  2
AcDbDimAssoc
  3
"AcDbDimAssoc|Product Desc:     AcDim ARX App For Dimension|Company:          Autodesk, Inc.|WEB Address:      www.autodesk.com"
 90
        0
 91
        2
280
     0
281
     0
  0
ENDSEC
  0
SECTION
  2
TABLES
  0
TABLE
  2
VPORT
  5
8
330
0
100
AcDbSymbolTable
 70
     9
  0
VPORT
  5
6BF
330
8
100
AcDbSymbolTableRecord
100
AcDbViewportTableRecord
  2
*Active
 70
     0
 10
0.0
 20
0.0
 11
1.0
 21
1.0
 12
0.2014259968768322
 22
0.0897614816566943
 13
0.0
 23
0.0
 14
0.5
 24
0.5
 15
0.5
 25
0.5
 16
0.0
 26
0.0
 36
1.0
 17
0.0
 27
0.0
 37
0.0
 40
20.22685190980622
 41
1.955911823647294
 42
50.0
 43
0.0
 44
0.0
 50
0.0
 51
0.0
 71
     0
 72
  1000
 73
     1
 74
     2
 75
     0
 76
     0
 77
     0
 78
     0
281
     0
 65
     1
110
0.0
120
0.0
130
0.0
111
1.0
121
0.0
131
0.0
112
0.0
122
1.0
132
0.0
 79
     0
146
0.0
  0
ENDTAB
  0
TABLE
  2
LTYPE
  5
5
330
0
100
AcDbSymbolTable
 70
     2
  0
LTYPE
  5
14
330
5
100
AcDbSymbolTableRecord
100
AcDbLinetypeTableRecord
  2
ByBlock
 70
     0
  3

 72
    65
 73
     0
 40
0.0
  0
LTYPE
  5
15
330
5
100
AcDbSymbolTableRecord
100
AcDbLinetypeTableRecord
  2
ByLayer
 70
     0
  3

 72
    65
 73
     0
 40
0.0
  0
LTYPE
  5
16
330
5
100
AcDbSymbolTableRecord
100
AcDbLinetypeTableRecord
  2
Continuous
 70
     0
  3
Solid line
 72
    65
 73
     0
 40
0.0
  0
ENDTAB
  0
TABLE
  2
LAYER
  5
2
102
{ACAD_XDICTIONARY
360
1E4
102
}
330
0
100
AcDbSymbolTable
 70
     5
  0
LAYER
  5
10
330
2
100
AcDbSymbolTableRecord
100
AcDbLayerTableRecord
  2
0
 70
     0
 62
     7
  6
Continuous
370
    -3
390
F
  0
LAYER
  5
1C8
330
2
100
AcDbSymbolTableRecord
100
AcDbLayerTableRecord
  2
Defpoints
 70
     0
 62
     7
  6
Continuous
290
     0
370
    -3
390
F
  0
LAYER
  5
1E2
330
2
100
AcDbSymbolTableRecord
100
AcDbLayerTableRecord
  2
letters
 70
     0
 62
   140
  6
Continuous
290
     0
370
    -3
390
F
1001
AcAecLayerStandard
1000

1000

  0
LAYER
  5
233
330
2
100
AcDbSymbolTableRecord
100
AcDbLayerTableRecord
  2
CLOUDS
 70
     0
 62
    40
  6
Continuous
370
    -3
390
F
1001
AcAecLayerStandard
1000

1000

  0
LAYER
  5
316
330
2
100
AcDbSymbolTableRecord
100
AcDbLayerTableRecord
  2
Layer 1
 70
     0
 62
     7
  6
Continuous
370
    -3
390
F
  0
ENDTAB
  0
TABLE
  2
STYLE
  5
3
330
0
100
AcDbSymbolTable
 70
     1
  0
STYLE
  5
11
330
3
100
AcDbSymbolTableRecord
100
AcDbTextStyleTableRecord
  2
Standard
 70
     0
 40
0.0
 41
1.0
 50
0.0
 71
     0
 42
0.2
  3
txt
  4

  0
ENDTAB
  0
TABLE
  2
VIEW
  5
6
330
0
100
AcDbSymbolTable
 70
     0
  0
ENDTAB
  0
TABLE
  2
UCS
  5
7
330
0
100
AcDbSymbolTable
 70
     0
  0
ENDTAB
  0
TABLE
  2
APPID
  5
9
330
0
100
AcDbSymbolTable
 70
    11
  0
APPID
  5
12
330
9
100
AcDbSymbolTableRecord
100
AcDbRegAppTableRecord
  2
ACAD
 70
     0
  0
APPID
  5
94
330
9
100
AcDbSymbolTableRecord
100
AcDbRegAppTableRecord
  2
ACAD_EXEMPT_FROM_CAD_STANDARDS
 70
     0
  0
APPID
  5
1E3
330
9
100
AcDbSymbolTableRecord
100
AcDbRegAppTableRecord
  2
AcAecLayerStandard
 70
     0
  0
APPID
  5
317
330
9
100
AcDbSymbolTableRecord
100
AcDbRegAppTableRecord
  2
ACAD_DSTYLE_DIMTEXT_FILL
 70
     0
  0
APPID
  5
318
330
9
100
AcDbSymbolTableRecord
100
AcDbRegAppTableRecord
  2
ACAD_DSTYLE_DIMEXT_LENGTH
 70
     0
  0
APPID
  5
319
330
9
100
AcDbSymbolTableRecord
100
AcDbRegAppTableRecord
  2
ACAD_DSTYLE_DIMEXT_ENABLED
 70
     0
  0
APPID
  5
31A
330
9
100
AcDbSymbolTableRecord
100
AcDbRegAppTableRecord
  2
ACAD_DSTYLE_DIM_LINETYPE
 70
     0
  0
APPID
  5
31B
330
9
100
AcDbSymbolTableRecord
100
AcDbRegAppTableRecord
  2
ACAD_DSTYLE_DIM_EXT1_LINETYPE
 70
     0
  0
APPID
  5
31C
330
9
100
AcDbSymbolTableRecord
100
AcDbRegAppTableRecord
  2
ACAD_DSTYLE_DIM_EXT2_LINETYPE
 70
     0
  0
APPID
  5
31D
330
9
100
AcDbSymbolTableRecord
100
AcDbRegAppTableRecord
  2
ACAD_DSTYLE_DIMJOGGED_JOGANGLE_SYMBOL
 70
     0
  0
APPID
  5
31E
330
9
100
AcDbSymbolTableRecord
100
AcDbRegAppTableRecord
  2
ACAD_DSTYLE_DIMARC_LENGTH_SYMBOL
 70
     0
  0
ENDTAB
  0
TABLE
  2
DIMSTYLE
  5
A
330
0
100
AcDbSymbolTable
 70
     2
100
AcDbDimStyleTable
 71
     1
340
27
  0
DIMSTYLE
105
27
330
A
100
AcDbSymbolTableRecord
100
AcDbDimStyleTableRecord
  2
Standard
 70
     0
340
11
  0
ENDTAB
  0
TABLE
  2
BLOCK_RECORD
  5
1
330
0
100
AcDbSymbolTable
 70
     6
  0
BLOCK_RECORD
  5
1F
102
{ACAD_XDICTIONARY
360
A1
102
}
330
1
100
AcDbSymbolTableRecord
100
AcDbBlockTableRecord
  2
*Model_Space
340
22
  0
BLOCK_RECORD
  5
58
330
1
100
AcDbSymbolTableRecord
100
AcDbBlockTableRecord
  2
*Paper_Space
340
59
  0
BLOCK_RECORD
  5
5D
330
1
100
AcDbSymbolTableRecord
100
AcDbBlockTableRecord
  2
*Paper_Space0
340
5E
  0
BLOCK_RECORD
  5
31F
330
1
100
AcDbSymbolTableRecord
100
AcDbBlockTableRecord
  2
CERLTIC CROSS
340
0
102
{BLKREFS
331
6B6
102
}
1001
ACAD
1000
DesignCenter Data
1002
{
1070
     1
1070
     0
1002
}
  0
BLOCK_RECORD
  5
646
330
1
100
AcDbSymbolTableRecord
100
AcDbBlockTableRecord
  2
*D3
340
0
  0
BLOCK_RECORD
  5
660
330
1
100
AcDbSymbolTableRecord
100
AcDbBlockTableRecord
  2
*D4
340
0
  0
ENDTAB
  0
ENDSEC
  0
SECTION
  2
BLOCKS
  0
BLOCK
  5
20
330
1F
100
AcDbEntity
  8
0
100
AcDbBlockBegin
  2
*Model_Space
 70
     0
 10
0.0
 20
0.0
 30
0.0
  3
*Model_Space
  1

  0
ENDBLK
  5
21
330
1F
100
AcDbEntity
  8
0
100
AcDbBlockEnd
  0
BLOCK
  5
5A
330
58
100
AcDbEntity
 67
     1
  8
0
100
AcDbBlockBegin
  2
*Paper_Space
 70
     0
 10
0.0
 20
0.0
 30
0.0
  3
*Paper_Space
  1

  0
ENDBLK
  5
5B
330
58
100
AcDbEntity
 67
     1
  8
0
100
AcDbBlockEnd
  0
BLOCK
  5
5F
330
5D
100
AcDbEntity
 67
     1
  8
0
100
AcDbBlockBegin
  2
*Paper_Space0
 70
     0
 10
0.0
 20
0.0
 30
0.0
  3
*Paper_Space0
  1

  0
ENDBLK
  5
60
330
5D
100
AcDbEntity
 67
     1
  8
0
100
AcDbBlockEnd
  0
BLOCK
  5
642
330
31F
100
AcDbEntity
  8
0
100
AcDbBlockBegin
  2
CERLTIC CROSS
 70
     0
 10
0.0
 20
0.0
 30
0.0
  3
CERLTIC CROSS
  1

  0
LINE
  5
320
330
31F
100
AcDbEntity
  8
Layer 1
100
AcDbLine
 10
103.8772741414318
 20
423.8971581484374
 30
0.0
 11
103.8318942898693
 21
423.8077635156249
 31
0.0
  0
LINE
  5
321
330
31F
100
AcDbEntity
  8
Layer 1
100
AcDbLine
 10
103.8318942898693
 20
423.8077635156249
 30
0.0
 11
103.7735798445568
 21
423.703440859375
 31
0.0
  0
LINE
  5
322
330
31F
100
AcDbEntity
  8
Layer 1
100
AcDbLine
 10
103.7735798445568
 20
423.703440859375
 30
0.0
 11
103.7098550398693
 21
423.5971715078124
 31
0.0
  0
LINE
  5
323
330
31F
100
AcDbEntity
  8
Layer 1
100
AcDbLine
 10
103.7098550398693
 20
423.5971715078124
 30
0.0
 11
103.6482441804943
 21
423.5019367890625
 31
0.0
  0
LINE
  5
324
330
31F
100
AcDbEntity
  8
Layer 1
100
AcDbLine
 10
103.6482441804943
 20
423.5019367890625
 30
0.0
 11
103.5488378914318
 21
423.3530391953125
 31
0.0
  0
LINE
  5
325
330
31F
100
AcDbEntity
  8
Layer 1
100
AcDbLine
 10
103.5488378914318
 20
423.3530391953125
 30
0.0
 11
103.5074775945568
 21
423.2857225937499
 31
0.0
  0
LINE
  5
326
330
31F
100
AcDbEntity
  8
Layer 1
100
AcDbLine
 10
103.5074775945568
 20
423.2857225937499
 30
0.0
 11
103.5133292351818
 21
423.282126390625
 31
0.0
  0
LINE
  5
327
330
31F
100
AcDbEntity
  8
Layer 1
100
AcDbLine
 10
103.5133292351818
 20
423.282126390625
 30
0.0
 11
103.5292487117443
 21
423.2791670312499
 31
0.0
  0
LINE
  5
328
330
31F
100
AcDbEntity
  8
Layer 1
100
AcDbLine
 10
103.5292487117443
 20
423.2791670312499
 30
0.0
 11
103.5814782429943
 21
423.2764208359374
 31
0.0
  0
LINE
  5
329
330
31F
100
AcDbEntity
  8
Layer 1
100
AcDbLine
 10
103.5814782429943
 20
423.2764208359374
 30
0.0
 11
103.6119796414318
 21
423.274575203125
 31
0.0
  0
LINE
  5
32A
330
31F
100
AcDbEntity
  8
Layer 1
100
AcDbLine
 10
103.6119796414318
 20
423.274575203125
 30
0.0
 11
103.6352893367443
 21
423.269311515625
 31
0.0
  0
LINE
  5
32B
330
31F
100
AcDbEntity
  8
Layer 1
100
AcDbLine
 10
103.6352893367443
 20
423.269311515625
 30
0.0
 11
103.6501936648693
 21
423.2610395781249
 31
0.0
  0
LINE
  5
32C
330
31F
100
AcDbEntity
  8
Layer 1
100
AcDbLine
 10
103.6501936648693
 20
423.2610395781249
 30
0.0
 11
103.6554788914318
 21
423.25016921875
 31
0.0
  0
LINE
  5
32D
330
31F
100
AcDbEntity
  8
Layer 1
100
AcDbLine
 10
103.6554788914318
 20
423.25016921875
 30
0.0
 11
103.6288603836193
 21
423.1376389609375
 31
0.0
  0
LINE
  5
32E
330
31F
100
AcDbEntity
  8
Layer 1
100
AcDbLine
 10
103.6288603836193
 20
423.1376389609375
 30
0.0
 11
103.5693661179943
 21
422.91320265625
 31
0.0
  0
LINE
  5
32F
330
31F
100
AcDbEntity
  8
Layer 1
100
AcDbLine
 10
103.5693661179943
 20
422.91320265625
 30
0.0
 11
103.5078663758068
 21
422.6908515156249
 31
0.0
  0
LINE
  5
330
330
31F
100
AcDbEntity
  8
Layer 1
100
AcDbLine
 10
103.5078663758068
 20
422.6908515156249
 30
0.0
 11
103.4752314851818
 21
422.5845767734375
 31
0.0
  0
LINE
  5
331
330
31F
100
AcDbEntity
  8
Layer 1
100
AcDbLine
 10
103.4752314851818
 20
422.5845767734375
 30
0.0
 11
103.4322661179943
 21
422.5934234218749
 31
0.0
  0
LINE
  5
332
330
31F
100
AcDbEntity
  8
Layer 1
100
AcDbLine
 10
103.4322661179943
 20
422.5934234218749
 30
0.0
 11
103.3359118367443
 21
422.62364415625
 31
0.0
  0
LINE
  5
333
330
31F
100
AcDbEntity
  8
Layer 1
100
AcDbLine
 10
103.3359118367443
 20
422.62364415625
 30
0.0
 11
103.2462079929943
 21
422.6472208749999
 31
0.0
  0
LINE
  5
334
330
31F
100
AcDbEntity
  8
Layer 1
100
AcDbLine
 10
103.2462079929943
 20
422.6472208749999
 30
0.0
 11
103.1536674383068
 21
422.6585728281249
 31
0.0
  0
LINE
  5
335
330
31F
100
AcDbEntity
  8
Layer 1
100
AcDbLine
 10
103.1536674383068
 20
422.6585728281249
 30
0.0
 11
103.0594787117443
 21
422.6579269140625
 31
0.0
  0
LINE
  5
336
330
31F
100
AcDbEntity
  8
Layer 1
100
AcDbLine
 10
103.0594787117443
 20
422.6579269140625
 30
0.0
 11
102.9648304226818
 21
422.64551003125
 31
0.0
  0
LINE
  5
337
330
31F
100
AcDbEntity
  8
Layer 1
100
AcDbLine
 10
102.9648304226818
 20
422.64551003125
 30
0.0
 11
102.8709112039318
 21
422.6215491015625
 31
0.0
  0
LINE
  5
338
330
31F
100
AcDbEntity
  8
Layer 1
100
AcDbLine
 10
102.8709112039318
 20
422.6215491015625
 30
0.0
 11
102.7789095945568
 21
422.5862709765625
 31
0.0
  0
LINE
  5
339
330
31F
100
AcDbEntity
  8
Layer 1
100
AcDbLine
 10
102.7789095945568
 20
422.5862709765625
 30
0.0
 11
102.6900142508068
 21
422.5399026015624
 31
0.0
  0
LINE
  5
33A
330
31F
100
AcDbEntity
  8
Layer 1
100
AcDbLine
 10
102.6900142508068
 20
422.5399026015624
 30
0.0
 11
102.6054137117443
 21
422.4826708515624
 31
0.0
  0
LINE
  5
33B
330
31F
100
AcDbEntity
  8
Layer 1
100
AcDbLine
 10
102.6054137117443
 20
422.4826708515624
 30
0.0
 11
102.5668650008068
 21
422.449142875
 31
0.0
  0
LINE
  5
33C
330
31F
100
AcDbEntity
  8
Layer 1
100
AcDbLine
 10
102.5668650008068
 20
422.449142875
 30
0.0
 11
102.5207993679943
 21
422.4028474843749
 31
0.0
  0
LINE
  5
33D
330
31F
100
AcDbEntity
  8
Layer 1
100
AcDbLine
 10
102.5207993679943
 20
422.4028474843749
 30
0.0
 11
102.4225822976818
 21
422.2918139453124
 31
0.0
  0
LINE
  5
33E
330
31F
100
AcDbEntity
  8
Layer 1
100
AcDbLine
 10
102.4225822976818
 20
422.2918139453124
 30
0.0
 11
102.3436923054943
 21
422.189289109375
 31
0.0
  0
LINE
  5
33F
330
31F
100
AcDbEntity
  8
Layer 1
100
AcDbLine
 10
102.3436923054943
 20
422.189289109375
 30
0.0
 11
102.3217855320567
 21
422.1536295859374
 31
0.0
  0
LINE
  5
340
330
31F
100
AcDbEntity
  8
Layer 1
100
AcDbLine
 10
102.3217855320567
 20
422.1536295859374
 30
0.0
 11
102.3170175711193
 21
422.1418726796875
 31
0.0
  0
LINE
  5
341
330
31F
100
AcDbEntity
  8
Layer 1
100
AcDbLine
 10
102.3170175711193
 20
422.1418726796875
 30
0.0
 11
102.3170592195568
 21
422.1349918046874
 31
0.0
  0
LINE
  5
342
330
31F
100
AcDbEntity
  8
Layer 1
100
AcDbLine
 10
102.3170592195568
 20
422.1349918046874
 30
0.0
 11
102.3285950867443
 21
422.1323937812499
 31
0.0
  0
LINE
  5
343
330
31F
100
AcDbEntity
  8
Layer 1
100
AcDbLine
 10
102.3285950867443
 20
422.1323937812499
 30
0.0
 11
102.3522700086193
 21
422.1378429296875
 31
0.0
  0
LINE
  5
344
330
31F
100
AcDbEntity
  8
Layer 1
100
AcDbLine
 10
102.3522700086193
 20
422.1378429296875
 30
0.0
 11
102.4222724539318
 21
422.1684781328124
 31
0.0
  0
LINE
  5
345
330
31F
100
AcDbEntity
  8
Layer 1
100
AcDbLine
 10
102.4222724539318
 20
422.1684781328124
 30
0.0
 11
102.4752800867443
 21
422.1940223828124
 31
0.0
  0
LINE
  5
346
330
31F
100
AcDbEntity
  8
Layer 1
100
AcDbLine
 10
102.4752800867443
 20
422.1940223828124
 30
0.0
 11
102.5297094617443
 21
422.2152635312499
 31
0.0
  0
LINE
  5
347
330
31F
100
AcDbEntity
  8
Layer 1
100
AcDbLine
 10
102.5297094617443
 20
422.2152635312499
 30
0.0
 11
102.5846115476818
 21
422.2320290781249
 31
0.0
  0
LINE
  5
348
330
31F
100
AcDbEntity
  8
Layer 1
100
AcDbLine
 10
102.5846115476818
 20
422.2320290781249
 30
0.0
 11
102.6390373133068
 21
422.2441465468749
 31
0.0
  0
LINE
  5
349
330
31F
100
AcDbEntity
  8
Layer 1
100
AcDbLine
 10
102.6390373133068
 20
422.2441465468749
 30
0.0
 11
102.6920377508068
 21
422.2514434374999
 31
0.0
  0
LINE
  5
34A
330
31F
100
AcDbEntity
  8
Layer 1
100
AcDbLine
 10
102.6920377508068
 20
422.2514434374999
 30
0.0
 11
102.7426638289318
 21
422.2537472265624
 31
0.0
  0
LINE
  5
34B
330
31F
100
AcDbEntity
  8
Layer 1
100
AcDbLine
 10
102.7426638289318
 20
422.2537472265624
 30
0.0
 11
102.7899665164318
 21
422.2508854140625
 31
0.0
  0
LINE
  5
34C
330
31F
100
AcDbEntity
  8
Layer 1
100
AcDbLine
 10
102.7899665164318
 20
422.2508854140625
 30
0.0
 11
102.8329968054943
 21
422.2426855
 31
0.0
  0
LINE
  5
34D
330
31F
100
AcDbEntity
  8
Layer 1
100
AcDbLine
 10
102.8329968054943
 20
422.2426855
 30
0.0
 11
102.8756256804943
 21
422.22705240625
 31
0.0
  0
LINE
  5
34E
330
31F
100
AcDbEntity
  8
Layer 1
100
AcDbLine
 10
102.8756256804943
 20
422.22705240625
 30
0.0
 11
102.9202746804943
 21
422.2029535937499
 31
0.0
  0
LINE
  5
34F
330
31F
100
AcDbEntity
  8
Layer 1
100
AcDbLine
 10
102.9202746804943
 20
422.2029535937499
 30
0.0
 11
102.9660450945568
 21
422.1712114375
 31
0.0
  0
LINE
  5
350
330
31F
100
AcDbEntity
  8
Layer 1
100
AcDbLine
 10
102.9660450945568
 20
422.1712114375
 30
0.0
 11
103.0120381414318
 21
422.1326482421875
 31
0.0
  0
LINE
  5
351
330
31F
100
AcDbEntity
  8
Layer 1
100
AcDbLine
 10
103.0120381414318
 20
422.1326482421875
 30
0.0
 11
103.0573551336193
 21
422.0880864062499
 31
0.0
  0
LINE
  5
352
330
31F
100
AcDbEntity
  8
Layer 1
100
AcDbLine
 10
103.0573551336193
 20
422.0880864062499
 30
0.0
 11
103.1010973367443
 21
422.0383482578125
 31
0.0
  0
LINE
  5
353
330
31F
100
AcDbEntity
  8
Layer 1
100
AcDbLine
 10
103.1010973367443
 20
422.0383482578125
 30
0.0
 11
103.1423659929943
 21
421.9842561484375
 31
0.0
  0
LINE
  5
354
330
31F
100
AcDbEntity
  8
Layer 1
100
AcDbLine
 10
103.1423659929943
 20
421.9842561484375
 30
0.0
 11
103.1802624148693
 21
421.9266324296874
 31
0.0
  0
LINE
  5
355
330
31F
100
AcDbEntity
  8
Layer 1
100
AcDbLine
 10
103.1802624148693
 20
421.9266324296874
 30
0.0
 11
103.2130784773693
 21
421.8668669218749
 31
0.0
  0
LINE
  5
356
330
31F
100
AcDbEntity
  8
Layer 1
100
AcDbLine
 10
103.2130784773693
 20
421.8668669218749
 30
0.0
 11
103.2510408054942
 21
421.7881749531249
 31
0.0
  0
LINE
  5
357
330
31F
100
AcDbEntity
  8
Layer 1
100
AcDbLine
 10
103.2510408054942
 20
421.7881749531249
 30
0.0
 11
103.3349456258068
 21
421.5924941875
 31
0.0
  0
LINE
  5
358
330
31F
100
AcDbEntity
  8
Layer 1
100
AcDbLine
 10
103.3349456258068
 20
421.5924941875
 30
0.0
 11
103.4170597976818
 21
421.3765555
 31
0.0
  0
LINE
  5
359
330
31F
100
AcDbEntity
  8
Layer 1
100
AcDbLine
 10
103.4170597976818
 20
421.3765555
 30
0.0
 11
103.4824661961193
 21
421.1773241406249
 31
0.0
  0
LINE
  5
35A
330
31F
100
AcDbEntity
  8
Layer 1
100
AcDbLine
 10
103.4824661961193
 20
421.1773241406249
 30
0.0
 11
103.5301153836193
 21
420.9893279687499
 31
0.0
  0
LINE
  5
35B
330
31F
100
AcDbEntity
  8
Layer 1
100
AcDbLine
 10
103.5301153836193
 20
420.9893279687499
 30
0.0
 11
103.5790581336193
 21
420.754613359375
 31
0.0
  0
LINE
  5
35C
330
31F
100
AcDbEntity
  8
Layer 1
100
AcDbLine
 10
103.5790581336193
 20
420.754613359375
 30
0.0
 11
103.6261297976818
 21
420.4944979843749
 31
0.0
  0
LINE
  5
35D
330
31F
100
AcDbEntity
  8
Layer 1
100
AcDbLine
 10
103.6261297976818
 20
420.4944979843749
 30
0.0
 11
103.6681656570568
 21
420.2302993984374
 31
0.0
  0
LINE
  5
35E
330
31F
100
AcDbEntity
  8
Layer 1
100
AcDbLine
 10
103.6681656570568
 20
420.2302993984374
 30
0.0
 11
103.7020011101817
 21
419.983335203125
 31
0.0
  0
LINE
  5
35F
330
31F
100
AcDbEntity
  8
Layer 1
100
AcDbLine
 10
103.7020011101817
 20
419.983335203125
 30
0.0
 11
103.7244714617443
 21
419.774923
 31
0.0
  0
LINE
  5
360
330
31F
100
AcDbEntity
  8
Layer 1
100
AcDbLine
 10
103.7244714617443
 20
419.774923
 30
0.0
 11
103.7324120633068
 21
419.6263804140625
 31
0.0
  0
LINE
  5
361
330
31F
100
AcDbEntity
  8
Layer 1
100
AcDbLine
 10
103.7324120633068
 20
419.6263804140625
 30
0.0
 11
103.7299447508068
 21
419.5812219531249
 31
0.0
  0
LINE
  5
362
330
31F
100
AcDbEntity
  8
Layer 1
100
AcDbLine
 10
103.7299447508068
 20
419.5812219531249
 30
0.0
 11
103.7226582429943
 21
419.5590250234374
 31
0.0
  0
LINE
  5
363
330
31F
100
AcDbEntity
  8
Layer 1
100
AcDbLine
 10
103.7226582429943
 20
419.5590250234374
 30
0.0
 11
103.7119953054943
 21
419.5542366953124
 31
0.0
  0
LINE
  5
364
330
31F
100
AcDbEntity
  8
Layer 1
100
AcDbLine
 10
103.7119953054943
 20
419.5542366953124
 30
0.0
 11
103.6913528679943
 21
419.5507647109375
 31
0.0
  0
LINE
  5
365
330
31F
100
AcDbEntity
  8
Layer 1
100
AcDbLine
 10
103.6913528679943
 20
419.5507647109375
 30
0.0
 11
103.6226152039318
 21
419.5475349062499
 31
0.0
  0
LINE
  5
366
330
31F
100
AcDbEntity
  8
Layer 1
100
AcDbLine
 10
103.6226152039318
 20
419.5475349062499
 30
0.0
 11
103.3927296336192
 21
419.5542887968749
 31
0.0
  0
LINE
  5
367
330
31F
100
AcDbEntity
  8
Layer 1
100
AcDbLine
 10
103.3927296336192
 20
419.5542887968749
 30
0.0
 11
103.0727744539318
 21
419.5755305078124
 31
0.0
  0
LINE
  5
368
330
31F
100
AcDbEntity
  8
Layer 1
100
AcDbLine
 10
103.0727744539318
 20
419.5755305078124
 30
0.0
 11
102.7025225867443
 21
419.6075038984374
 31
0.0
  0
LINE
  5
369
330
31F
100
AcDbEntity
  8
Layer 1
100
AcDbLine
 10
102.7025225867443
 20
419.6075038984374
 30
0.0
 11
102.3217470242443
 21
419.6464528046875
 31
0.0
  0
LINE
  5
36A
330
31F
100
AcDbEntity
  8
Layer 1
100
AcDbLine
 10
102.3217470242443
 20
419.6464528046875
 30
0.0
 11
101.9702206883068
 21
419.6886210859374
 31
0.0
  0
LINE
  5
36B
330
31F
100
AcDbEntity
  8
Layer 1
100
AcDbLine
 10
101.9702206883068
 20
419.6886210859374
 30
0.0
 11
101.6877165242443
 21
419.7302525546874
 31
0.0
  0
LINE
  5
36C
330
31F
100
AcDbEntity
  8
Layer 1
100
AcDbLine
 10
101.6877165242443
 20
419.7302525546874
 30
0.0
 11
101.5847767976818
 21
419.7496932109374
 31
0.0
  0
LINE
  5
36D
330
31F
100
AcDbEntity
  8
Layer 1
100
AcDbLine
 10
101.5847767976818
 20
419.7496932109374
 30
0.0
 11
101.5140074773693
 21
419.7675910937499
 31
0.0
  0
LINE
  5
36E
330
31F
100
AcDbEntity
  8
Layer 1
100
AcDbLine
 10
101.5140074773693
 20
419.7675910937499
 30
0.0
 11
101.4173002273693
 21
419.8026973281249
 31
0.0
  0
LINE
  5
36F
330
31F
100
AcDbEntity
  8
Layer 1
100
AcDbLine
 10
101.4173002273693
 20
419.8026973281249
 30
0.0
 11
101.3282027586193
 21
419.8436200937499
 31
0.0
  0
LINE
  5
370
330
31F
100
AcDbEntity
  8
Layer 1
100
AcDbLine
 10
101.3282027586193
 20
419.8436200937499
 30
0.0
 11
101.2469106804943
 21
419.8902021953125
 31
0.0
  0
LINE
  5
371
330
31F
100
AcDbEntity
  8
Layer 1
100
AcDbLine
 10
101.2469106804943
 20
419.8902021953125
 30
0.0
 11
101.1736195789318
 21
419.9422863906249
 31
0.0
  0
LINE
  5
372
330
31F
100
AcDbEntity
  8
Layer 1
100
AcDbLine
 10
101.1736195789318
 20
419.9422863906249
 30
0.0
 11
101.1085250398693
 21
419.9997154609374
 31
0.0
  0
LINE
  5
373
330
31F
100
AcDbEntity
  8
Layer 1
100
AcDbLine
 10
101.1085250398693
 20
419.9997154609374
 30
0.0
 11
101.0518226961193
 21
420.062332234375
 31
0.0
  0
LINE
  5
374
330
31F
100
AcDbEntity
  8
Layer 1
100
AcDbLine
 10
101.0518226961193
 20
420.062332234375
 30
0.0
 11
101.0037081101818
 21
420.1299794687499
 31
0.0
  0
LINE
  5
375
330
31F
100
AcDbEntity
  8
Layer 1
100
AcDbLine
 10
101.0037081101818
 20
420.1299794687499
 30
0.0
 11
100.9643769148693
 21
420.2024999453124
 31
0.0
  0
LINE
  5
376
330
31F
100
AcDbEntity
  8
Layer 1
100
AcDbLine
 10
100.9643769148693
 20
420.2024999453124
 30
0.0
 11
100.9457917039318
 21
420.2485427031249
 31
0.0
  0
LINE
  5
377
330
31F
100
AcDbEntity
  8
Layer 1
100
AcDbLine
 10
100.9457917039318
 20
420.2485427031249
 30
0.0
 11
100.9312104851818
 21
420.2973465390624
 31
0.0
  0
LINE
  5
378
330
31F
100
AcDbEntity
  8
Layer 1
100
AcDbLine
 10
100.9312104851818
 20
420.2973465390624
 30
0.0
 11
100.9207658445568
 21
420.3472948046874
 31
0.0
  0
LINE
  5
379
330
31F
100
AcDbEntity
  8
Layer 1
100
AcDbLine
 10
100.9207658445568
 20
420.3472948046874
 30
0.0
 11
100.9145903445568
 21
420.3967708515625
 31
0.0
  0
LINE
  5
37A
330
31F
100
AcDbEntity
  8
Layer 1
100
AcDbLine
 10
100.9145903445568
 20
420.3967708515625
 30
0.0
 11
100.9128165945568
 21
420.4441580781249
 31
0.0
  0
LINE
  5
37B
330
31F
100
AcDbEntity
  8
Layer 1
100
AcDbLine
 10
100.9128165945568
 20
420.4441580781249
 30
0.0
 11
100.9155771336193
 21
420.4878398359374
 31
0.0
  0
LINE
  5
37C
330
31F
100
AcDbEntity
  8
Layer 1
100
AcDbLine
 10
100.9155771336193
 20
420.4878398359374
 30
0.0
 11
100.9230045476818
 21
420.5261994765625
 31
0.0
  0
LINE
  5
37D
330
31F
100
AcDbEntity
  8
Layer 1
100
AcDbLine
 10
100.9230045476818
 20
420.5261994765625
 30
0.0
 11
100.9352313992443
 21
420.5576203749999
 31
0.0
  0
LINE
  5
37E
330
31F
100
AcDbEntity
  8
Layer 1
100
AcDbLine
 10
100.9352313992443
 20
420.5576203749999
 30
0.0
 11
100.9480566804943
 21
420.5852502109374
 31
0.0
  0
LINE
  5
37F
330
31F
100
AcDbEntity
  8
Layer 1
100
AcDbLine
 10
100.9480566804943
 20
420.5852502109374
 30
0.0
 11
100.9536164070568
 21
420.6058629999999
 31
0.0
  0
LINE
  5
380
330
31F
100
AcDbEntity
  8
Layer 1
100
AcDbLine
 10
100.9536164070568
 20
420.6058629999999
 30
0.0
 11
100.9524598601817
 21
420.619326484375
 31
0.0
  0
LINE
  5
381
330
31F
100
AcDbEntity
  8
Layer 1
100
AcDbLine
 10
100.9524598601817
 20
420.619326484375
 30
0.0
 11
100.9451363211193
 21
420.6255084531249
 31
0.0
  0
LINE
  5
382
330
31F
100
AcDbEntity
  8
Layer 1
100
AcDbLine
 10
100.9451363211193
 20
420.6255084531249
 30
0.0
 11
100.9321950711193
 21
420.6242766953124
 31
0.0
  0
LINE
  5
383
330
31F
100
AcDbEntity
  8
Layer 1
100
AcDbLine
 10
100.9321950711193
 20
420.6242766953124
 30
0.0
 11
100.9141854383068
 21
420.6154990234375
 31
0.0
  0
LINE
  5
384
330
31F
100
AcDbEntity
  8
Layer 1
100
AcDbLine
 10
100.9141854383068
 20
420.6154990234375
 30
0.0
 11
100.8916567039318
 21
420.5990431796875
 31
0.0
  0
LINE
  5
385
330
31F
100
AcDbEntity
  8
Layer 1
100
AcDbLine
 10
100.8916567039318
 20
420.5990431796875
 30
0.0
 11
100.8651581492443
 21
420.5747769531249
 31
0.0
  0
LINE
  5
386
330
31F
100
AcDbEntity
  8
Layer 1
100
AcDbLine
 10
100.8651581492443
 20
420.5747769531249
 30
0.0
 11
100.8317228445567
 21
420.5372737421874
 31
0.0
  0
LINE
  5
387
330
31F
100
AcDbEntity
  8
Layer 1
100
AcDbLine
 10
100.8317228445567
 20
420.5372737421874
 30
0.0
 11
100.8041422039318
 21
420.4969648046875
 31
0.0
  0
LINE
  5
388
330
31F
100
AcDbEntity
  8
Layer 1
100
AcDbLine
 10
100.8041422039318
 20
420.4969648046875
 30
0.0
 11
100.7822389226818
 21
420.4532134374999
 31
0.0
  0
LINE
  5
389
330
31F
100
AcDbEntity
  8
Layer 1
100
AcDbLine
 10
100.7822389226818
 20
420.4532134374999
 30
0.0
 11
100.7658356726818
 21
420.405383078125
 31
0.0
  0
LINE
  5
38A
330
31F
100
AcDbEntity
  8
Layer 1
100
AcDbLine
 10
100.7658356726818
 20
420.405383078125
 30
0.0
 11
100.7547551726818
 21
420.3528370234375
 31
0.0
  0
LINE
  5
38B
330
31F
100
AcDbEntity
  8
Layer 1
100
AcDbLine
 10
100.7547551726818
 20
420.3528370234375
 30
0.0
 11
100.7488200711193
 21
420.2949387109375
 31
0.0
  0
LINE
  5
38C
330
31F
100
AcDbEntity
  8
Layer 1
100
AcDbLine
 10
100.7488200711193
 20
420.2949387109375
 30
0.0
 11
100.7478530398693
 21
420.2310514843749
 31
0.0
  0
LINE
  5
38D
330
31F
100
AcDbEntity
  8
Layer 1
100
AcDbLine
 10
100.7478530398693
 20
420.2310514843749
 30
0.0
 11
100.7516767976817
 21
420.1605386875
 31
0.0
  0
LINE
  5
38E
330
31F
100
AcDbEntity
  8
Layer 1
100
AcDbLine
 10
100.7516767976817
 20
420.1605386875
 30
0.0
 11
100.7587256492443
 21
420.0980520859374
 31
0.0
  0
LINE
  5
38F
330
31F
100
AcDbEntity
  8
Layer 1
100
AcDbLine
 10
100.7587256492443
 20
420.0980520859374
 30
0.0
 11
100.7693377273693
 21
420.0366604609375
 31
0.0
  0
LINE
  5
390
330
31F
100
AcDbEntity
  8
Layer 1
100
AcDbLine
 10
100.7693377273693
 20
420.0366604609375
 30
0.0
 11
100.7834226804943
 21
419.9766335078124
 31
0.0
  0
LINE
  5
391
330
31F
100
AcDbEntity
  8
Layer 1
100
AcDbLine
 10
100.7834226804943
 20
419.9766335078124
 30
0.0
 11
100.8008901804943
 21
419.9182408515625
 31
0.0
  0
LINE
  5
392
330
31F
100
AcDbEntity
  8
Layer 1
100
AcDbLine
 10
100.8008901804943
 20
419.9182408515625
 30
0.0
 11
100.8216498523693
 21
419.861752140625
 31
0.0
  0
LINE
  5
393
330
31F
100
AcDbEntity
  8
Layer 1
100
AcDbLine
 10
100.8216498523693
 20
419.861752140625
 30
0.0
 11
100.8456113914318
 21
419.8074370234374
 31
0.0
  0
LINE
  5
394
330
31F
100
AcDbEntity
  8
Layer 1
100
AcDbLine
 10
100.8456113914318
 20
419.8074370234374
 30
0.0
 11
100.8726844226818
 21
419.7555651718749
 31
0.0
  0
LINE
  5
395
330
31F
100
AcDbEntity
  8
Layer 1
100
AcDbLine
 10
100.8726844226818
 20
419.7555651718749
 30
0.0
 11
100.9027785945568
 21
419.7064061875
 31
0.0
  0
LINE
  5
396
330
31F
100
AcDbEntity
  8
Layer 1
100
AcDbLine
 10
100.9027785945568
 20
419.7064061875
 30
0.0
 11
100.9397829617443
 21
419.64597334375
 31
0.0
  0
LINE
  5
397
330
31F
100
AcDbEntity
  8
Layer 1
100
AcDbLine
 10
100.9397829617443
 20
419.64597334375
 30
0.0
 11
100.9511477351818
 21
419.6179361406249
 31
0.0
  0
LINE
  5
398
330
31F
100
AcDbEntity
  8
Layer 1
100
AcDbLine
 10
100.9511477351818
 20
419.6179361406249
 30
0.0
 11
100.8234037039318
 21
419.5867235781249
 31
0.0
  0
LINE
  5
399
330
31F
100
AcDbEntity
  8
Layer 1
100
AcDbLine
 10
100.8234037039318
 20
419.5867235781249
 30
0.0
 11
100.6495994070568
 21
419.5406031484374
 31
0.0
  0
LINE
  5
39A
330
31F
100
AcDbEntity
  8
Layer 1
100
AcDbLine
 10
100.6495994070568
 20
419.5406031484374
 30
0.0
 11
100.4015173133068
 21
419.4664208359374
 31
0.0
  0
LINE
  5
39B
330
31F
100
AcDbEntity
  8
Layer 1
100
AcDbLine
 10
100.4015173133068
 20
419.4664208359374
 30
0.0
 11
100.1623362195568
 21
419.3961275546874
 31
0.0
  0
LINE
  5
39C
330
31F
100
AcDbEntity
  8
Layer 1
100
AcDbLine
 10
100.1623362195568
 20
419.3961275546874
 30
0.0
 11
100.0688902273693
 21
419.3717880156249
 31
0.0
  0
LINE
  5
39D
330
31F
100
AcDbEntity
  8
Layer 1
100
AcDbLine
 10
100.0688902273693
 20
419.3717880156249
 30
0.0
 11
100.0100166570568
 21
419.3593472734375
 31
0.0
  0
LINE
  5
39E
330
31F
100
AcDbEntity
  8
Layer 1
100
AcDbLine
 10
100.0100166570568
 20
419.3593472734375
 30
0.0
 11
99.97447389924429
 21
419.3524575390624
 31
0.0
  0
LINE
  5
39F
330
31F
100
AcDbEntity
  8
Layer 1
100
AcDbLine
 10
99.97447389924429
 20
419.3524575390624
 30
0.0
 11
99.94740232111929
 21
419.3435305234374
 31
0.0
  0
LINE
  5
3A0
330
31F
100
AcDbEntity
  8
Layer 1
100
AcDbLine
 10
99.94740232111929
 20
419.3435305234374
 30
0.0
 11
99.93091565705679
 21
419.3334685234375
 31
0.0
  0
LINE
  5
3A1
330
31F
100
AcDbEntity
  8
Layer 1
100
AcDbLine
 10
99.93091565705679
 20
419.3334685234375
 30
0.0
 11
99.92712766486929
 21
419.3231737656249
 31
0.0
  0
LINE
  5
3A2
330
31F
100
AcDbEntity
  8
Layer 1
100
AcDbLine
 10
99.92712766486929
 20
419.3231737656249
 30
0.0
 11
99.94813544611929
 21
419.3046583515624
 31
0.0
  0
LINE
  5
3A3
330
31F
100
AcDbEntity
  8
Layer 1
100
AcDbLine
 10
99.94813544611929
 20
419.3046583515624
 30
0.0
 11
99.9997537742443
 21
419.2715482656249
 31
0.0
  0
LINE
  5
3A4
330
31F
100
AcDbEntity
  8
Layer 1
100
AcDbLine
 10
99.9997537742443
 20
419.2715482656249
 30
0.0
 11
100.1638057039318
 21
419.1803401093749
 31
0.0
  0
LINE
  5
3A5
330
31F
100
AcDbEntity
  8
Layer 1
100
AcDbLine
 10
100.1638057039318
 20
419.1803401093749
 30
0.0
 11
100.2517753133068
 21
419.13704659375
 31
0.0
  0
LINE
  5
3A6
330
31F
100
AcDbEntity
  8
Layer 1
100
AcDbLine
 10
100.2517753133068
 20
419.13704659375
 30
0.0
 11
100.3439828914318
 21
419.0965080156249
 31
0.0
  0
LINE
  5
3A7
330
31F
100
AcDbEntity
  8
Layer 1
100
AcDbLine
 10
100.3439828914318
 20
419.0965080156249
 30
0.0
 11
100.4398684929943
 21
419.0589066249999
 31
0.0
  0
LINE
  5
3A8
330
31F
100
AcDbEntity
  8
Layer 1
100
AcDbLine
 10
100.4398684929943
 20
419.0589066249999
 30
0.0
 11
100.5388721492443
 21
419.0244247421874
 31
0.0
  0
LINE
  5
3A9
330
31F
100
AcDbEntity
  8
Layer 1
100
AcDbLine
 10
100.5388721492443
 20
419.0244247421874
 30
0.0
 11
100.6404339383068
 21
418.993244640625
 31
0.0
  0
LINE
  5
3AA
330
31F
100
AcDbEntity
  8
Layer 1
100
AcDbLine
 10
100.6404339383068
 20
418.993244640625
 30
0.0
 11
100.7439938914318
 21
418.96554859375
 31
0.0
  0
LINE
  5
3AB
330
31F
100
AcDbEntity
  8
Layer 1
100
AcDbLine
 10
100.7439938914318
 20
418.96554859375
 30
0.0
 11
100.8489920398693
 21
418.9415188984374
 31
0.0
  0
LINE
  5
3AC
330
31F
100
AcDbEntity
  8
Layer 1
100
AcDbLine
 10
100.8489920398693
 20
418.9415188984374
 30
0.0
 11
100.9548684383068
 21
418.921337828125
 31
0.0
  0
LINE
  5
3AD
330
31F
100
AcDbEntity
  8
Layer 1
100
AcDbLine
 10
100.9548684383068
 20
418.921337828125
 30
0.0
 11
101.0919143445568
 21
418.8977733906249
 31
0.0
  0
LINE
  5
3AE
330
31F
100
AcDbEntity
  8
Layer 1
100
AcDbLine
 10
101.0919143445568
 20
418.8977733906249
 30
0.0
 11
101.0846796336193
 21
418.7262076328125
 31
0.0
  0
LINE
  5
3AF
330
31F
100
AcDbEntity
  8
Layer 1
100
AcDbLine
 10
101.0846796336193
 20
418.7262076328125
 30
0.0
 11
101.0842893523693
 21
418.6215492812499
 31
0.0
  0
LINE
  5
3B0
330
31F
100
AcDbEntity
  8
Layer 1
100
AcDbLine
 10
101.0842893523693
 20
418.6215492812499
 30
0.0
 11
101.0929069929943
 21
418.5269991953124
 31
0.0
  0
LINE
  5
3B1
330
31F
100
AcDbEntity
  8
Layer 1
100
AcDbLine
 10
101.0929069929943
 20
418.5269991953124
 30
0.0
 11
101.1110748054943
 21
418.4413476953124
 31
0.0
  0
LINE
  5
3B2
330
31F
100
AcDbEntity
  8
Layer 1
100
AcDbLine
 10
101.1110748054943
 20
418.4413476953124
 30
0.0
 11
101.1393350398693
 21
418.3633851015624
 31
0.0
  0
LINE
  5
3B3
330
31F
100
AcDbEntity
  8
Layer 1
100
AcDbLine
 10
101.1393350398693
 20
418.3633851015624
 30
0.0
 11
101.1782300164318
 21
418.2919017343749
 31
0.0
  0
LINE
  5
3B4
330
31F
100
AcDbEntity
  8
Layer 1
100
AcDbLine
 10
101.1782300164318
 20
418.2919017343749
 30
0.0
 11
101.2283019383068
 21
418.2256878906249
 31
0.0
  0
LINE
  5
3B5
330
31F
100
AcDbEntity
  8
Layer 1
100
AcDbLine
 10
101.2283019383068
 20
418.2256878906249
 30
0.0
 11
101.2900931258068
 21
418.1635339140624
 31
0.0
  0
LINE
  5
3B6
330
31F
100
AcDbEntity
  8
Layer 1
100
AcDbLine
 10
101.2900931258068
 20
418.1635339140624
 30
0.0
 11
101.3641458054943
 21
418.1042301015625
 31
0.0
  0
LINE
  5
3B7
330
31F
100
AcDbEntity
  8
Layer 1
100
AcDbLine
 10
101.3641458054943
 20
418.1042301015625
 30
0.0
 11
101.4042483054943
 21
418.0786554765624
 31
0.0
  0
LINE
  5
3B8
330
31F
100
AcDbEntity
  8
Layer 1
100
AcDbLine
 10
101.4042483054943
 20
418.0786554765624
 30
0.0
 11
101.4442970633068
 21
418.0599250234374
 31
0.0
  0
LINE
  5
3B9
330
31F
100
AcDbEntity
  8
Layer 1
100
AcDbLine
 10
101.4442970633068
 20
418.0599250234374
 30
0.0
 11
101.4833375633068
 21
418.048412640625
 31
0.0
  0
LINE
  5
3BA
330
31F
100
AcDbEntity
  8
Layer 1
100
AcDbLine
 10
101.4833375633068
 20
418.048412640625
 30
0.0
 11
101.5204153367443
 21
418.0444921328125
 31
0.0
  0
LINE
  5
3BB
330
31F
100
AcDbEntity
  8
Layer 1
100
AcDbLine
 10
101.5204153367443
 20
418.0444921328125
 30
0.0
 11
101.5601295242443
 21
418.0454492265625
 31
0.0
  0
LINE
  5
3BC
330
31F
100
AcDbEntity
  8
Layer 1
100
AcDbLine
 10
101.5601295242443
 20
418.0454492265625
 30
0.0
 11
101.5782513054943
 21
418.0501277265625
 31
0.0
  0
LINE
  5
3BD
330
31F
100
AcDbEntity
  8
Layer 1
100
AcDbLine
 10
101.5782513054943
 20
418.0501277265625
 30
0.0
 11
101.5801717273693
 21
418.0547096406248
 31
0.0
  0
LINE
  5
3BE
330
31F
100
AcDbEntity
  8
Layer 1
100
AcDbLine
 10
101.5801717273693
 20
418.0547096406248
 30
0.0
 11
101.5778420867443
 21
418.0612385078124
 31
0.0
  0
LINE
  5
3BF
330
31F
100
AcDbEntity
  8
Layer 1
100
AcDbLine
 10
101.5778420867443
 20
418.0612385078124
 30
0.0
 11
101.5619632039318
 21
418.08149246875
 31
0.0
  0
LINE
  5
3C0
330
31F
100
AcDbEntity
  8
Layer 1
100
AcDbLine
 10
101.5619632039318
 20
418.08149246875
 30
0.0
 11
101.5447818523693
 21
418.1032728671874
 31
0.0
  0
LINE
  5
3C1
330
31F
100
AcDbEntity
  8
Layer 1
100
AcDbLine
 10
101.5447818523693
 20
418.1032728671874
 30
0.0
 11
101.5314502976818
 21
418.125625328125
 31
0.0
  0
LINE
  5
3C2
330
31F
100
AcDbEntity
  8
Layer 1
100
AcDbLine
 10
101.5314502976818
 20
418.125625328125
 30
0.0
 11
101.5218189148693
 21
418.1495115859375
 31
0.0
  0
LINE
  5
3C3
330
31F
100
AcDbEntity
  8
Layer 1
100
AcDbLine
 10
101.5218189148693
 20
418.1495115859375
 30
0.0
 11
101.5157381258068
 21
418.1758934218749
 31
0.0
  0
LINE
  5
3C4
330
31F
100
AcDbEntity
  8
Layer 1
100
AcDbLine
 10
101.5157381258068
 20
418.1758934218749
 30
0.0
 11
101.5136300398693
 21
418.23999090625
 31
0.0
  0
LINE
  5
3C5
330
31F
100
AcDbEntity
  8
Layer 1
100
AcDbLine
 10
101.5136300398693
 20
418.23999090625
 30
0.0
 11
101.5239293445568
 21
418.3256119374999
 31
0.0
  0
LINE
  5
3C6
330
31F
100
AcDbEntity
  8
Layer 1
100
AcDbLine
 10
101.5239293445568
 20
418.3256119374999
 30
0.0
 11
101.5550559383068
 21
418.4304268046875
 31
0.0
  0
LINE
  5
3C7
330
31F
100
AcDbEntity
  8
Layer 1
100
AcDbLine
 10
101.5550559383068
 20
418.4304268046875
 30
0.0
 11
101.5942765554943
 21
418.5257636406249
 31
0.0
  0
LINE
  5
3C8
330
31F
100
AcDbEntity
  8
Layer 1
100
AcDbLine
 10
101.5942765554943
 20
418.5257636406249
 30
0.0
 11
101.6411156726818
 21
418.6121362890625
 31
0.0
  0
LINE
  5
3C9
330
31F
100
AcDbEntity
  8
Layer 1
100
AcDbLine
 10
101.6411156726818
 20
418.6121362890625
 30
0.0
 11
101.6950977898693
 21
418.6900586640624
 31
0.0
  0
LINE
  5
3CA
330
31F
100
AcDbEntity
  8
Layer 1
100
AcDbLine
 10
101.6950977898693
 20
418.6900586640624
 30
0.0
 11
101.7557474070568
 21
418.7600445859374
 31
0.0
  0
LINE
  5
3CB
330
31F
100
AcDbEntity
  8
Layer 1
100
AcDbLine
 10
101.7557474070568
 20
418.7600445859374
 30
0.0
 11
101.8225890711193
 21
418.8226079921874
 31
0.0
  0
LINE
  5
3CC
330
31F
100
AcDbEntity
  8
Layer 1
100
AcDbLine
 10
101.8225890711193
 20
418.8226079921874
 30
0.0
 11
101.8951472117443
 21
418.8782627265625
 31
0.0
  0
LINE
  5
3CD
330
31F
100
AcDbEntity
  8
Layer 1
100
AcDbLine
 10
101.8951472117443
 20
418.8782627265625
 30
0.0
 11
101.9729463992443
 21
418.9275226562499
 31
0.0
  0
LINE
  5
3CE
330
31F
100
AcDbEntity
  8
Layer 1
100
AcDbLine
 10
101.9729463992443
 20
418.9275226562499
 30
0.0
 11
102.0555110867443
 21
418.9709016953124
 31
0.0
  0
LINE
  5
3CF
330
31F
100
AcDbEntity
  8
Layer 1
100
AcDbLine
 10
102.0555110867443
 20
418.9709016953124
 30
0.0
 11
102.1423658211193
 21
419.0089136875
 31
0.0
  0
LINE
  5
3D0
330
31F
100
AcDbEntity
  8
Layer 1
100
AcDbLine
 10
102.1423658211193
 20
419.0089136875
 30
0.0
 11
102.2330350554943
 21
419.0420725234374
 31
0.0
  0
LINE
  5
3D1
330
31F
100
AcDbEntity
  8
Layer 1
100
AcDbLine
 10
102.2330350554943
 20
419.0420725234374
 30
0.0
 11
102.3270433367443
 21
419.0708920703125
 31
0.0
  0
LINE
  5
3D2
330
31F
100
AcDbEntity
  8
Layer 1
100
AcDbLine
 10
102.3270433367443
 20
419.0708920703125
 30
0.0
 11
102.4239151414318
 21
419.0958861953125
 31
0.0
  0
LINE
  5
3D3
330
31F
100
AcDbEntity
  8
Layer 1
100
AcDbLine
 10
102.4239151414318
 20
419.0958861953125
 30
0.0
 11
102.5231749695568
 21
419.1175688124999
 31
0.0
  0
LINE
  5
3D4
330
31F
100
AcDbEntity
  8
Layer 1
100
AcDbLine
 10
102.5231749695568
 20
419.1175688124999
 30
0.0
 11
102.7269567664318
 21
419.15305496875
 31
0.0
  0
LINE
  5
3D5
330
31F
100
AcDbEntity
  8
Layer 1
100
AcDbLine
 10
102.7269567664318
 20
419.15305496875
 30
0.0
 11
102.8509574773693
 21
419.1688789609374
 31
0.0
  0
LINE
  5
3D6
330
31F
100
AcDbEntity
  8
Layer 1
100
AcDbLine
 10
102.8509574773693
 20
419.1688789609374
 30
0.0
 11
102.9970616961193
 21
419.1820278437499
 31
0.0
  0
LINE
  5
3D7
330
31F
100
AcDbEntity
  8
Layer 1
100
AcDbLine
 10
102.9970616961193
 20
419.1820278437499
 30
0.0
 11
103.3105302664318
 21
419.1988524296875
 31
0.0
  0
LINE
  5
3D8
330
31F
100
AcDbEntity
  8
Layer 1
100
AcDbLine
 10
103.3105302664318
 20
419.1988524296875
 30
0.0
 11
103.4553694461193
 21
419.2018042421874
 31
0.0
  0
LINE
  5
3D9
330
31F
100
AcDbEntity
  8
Layer 1
100
AcDbLine
 10
103.4553694461193
 20
419.2018042421874
 30
0.0
 11
103.5772617195568
 21
419.20063309375
 31
0.0
  0
LINE
  5
3DA
330
31F
100
AcDbEntity
  8
Layer 1
100
AcDbLine
 10
103.5772617195568
 20
419.20063309375
 30
0.0
 11
103.6649445476818
 21
419.1949770859374
 31
0.0
  0
LINE
  5
3DB
330
31F
100
AcDbEntity
  8
Layer 1
100
AcDbLine
 10
103.6649445476818
 20
419.1949770859374
 30
0.0
 11
103.6924378601818
 21
419.1903541328125
 31
0.0
  0
LINE
  5
3DC
330
31F
100
AcDbEntity
  8
Layer 1
100
AcDbLine
 10
103.6924378601818
 20
419.1903541328125
 30
0.0
 11
103.7071553211193
 21
419.1844742265624
 31
0.0
  0
LINE
  5
3DD
330
31F
100
AcDbEntity
  8
Layer 1
100
AcDbLine
 10
103.7071553211193
 20
419.1844742265624
 30
0.0
 11
103.7163652742443
 21
419.173349171875
 31
0.0
  0
LINE
  5
3DE
330
31F
100
AcDbEntity
  8
Layer 1
100
AcDbLine
 10
103.7163652742443
 20
419.173349171875
 30
0.0
 11
103.7237125320568
 21
419.15519096875
 31
0.0
  0
LINE
  5
3DF
330
31F
100
AcDbEntity
  8
Layer 1
100
AcDbLine
 10
103.7237125320568
 20
419.15519096875
 30
0.0
 11
103.7335848992443
 21
419.0874437265625
 31
0.0
  0
LINE
  5
3E0
330
31F
100
AcDbEntity
  8
Layer 1
100
AcDbLine
 10
103.7335848992443
 20
419.0874437265625
 30
0.0
 11
103.7383039695568
 21
418.9605697421875
 31
0.0
  0
LINE
  5
3E1
330
31F
100
AcDbEntity
  8
Layer 1
100
AcDbLine
 10
103.7383039695568
 20
418.9605697421875
 30
0.0
 11
103.7394014070568
 21
418.7539061875
 31
0.0
  0
LINE
  5
3E2
330
31F
100
AcDbEntity
  8
Layer 1
100
AcDbLine
 10
103.7394014070568
 20
418.7539061875
 30
0.0
 11
103.7314835164318
 21
418.269005171875
 31
0.0
  0
LINE
  5
3E3
330
31F
100
AcDbEntity
  8
Layer 1
100
AcDbLine
 10
103.7314835164318
 20
418.269005171875
 30
0.0
 11
103.7196808367443
 21
417.785264921875
 31
0.0
  0
LINE
  5
3E4
330
31F
100
AcDbEntity
  8
Layer 1
100
AcDbLine
 10
103.7196808367443
 20
417.785264921875
 30
0.0
 11
103.7036636258068
 21
417.3023517109374
 31
0.0
  0
LINE
  5
3E5
330
31F
100
AcDbEntity
  8
Layer 1
100
AcDbLine
 10
103.7036636258068
 20
417.3023517109374
 30
0.0
 11
103.6831021179943
 21
416.8199317421874
 31
0.0
  0
LINE
  5
3E6
330
31F
100
AcDbEntity
  8
Layer 1
100
AcDbLine
 10
103.6831021179943
 20
416.8199317421874
 30
0.0
 11
103.6576666414318
 21
416.3376712656249
 31
0.0
  0
LINE
  5
3E7
330
31F
100
AcDbEntity
  8
Layer 1
100
AcDbLine
 10
103.6576666414318
 20
416.3376712656249
 30
0.0
 11
103.6270273836193
 21
415.8552365078125
 31
0.0
  0
LINE
  5
3E8
330
31F
100
AcDbEntity
  8
Layer 1
100
AcDbLine
 10
103.6270273836193
 20
415.8552365078125
 30
0.0
 11
103.5908546726818
 21
415.3722936953125
 31
0.0
  0
LINE
  5
3E9
330
31F
100
AcDbEntity
  8
Layer 1
100
AcDbLine
 10
103.5908546726818
 20
415.3722936953125
 30
0.0
 11
103.5488187429943
 21
414.8885090546874
 31
0.0
  0
LINE
  5
3EA
330
31F
100
AcDbEntity
  8
Layer 1
100
AcDbLine
 10
103.5488187429943
 20
414.8885090546874
 30
0.0
 11
103.5166395945568
 21
414.7040646249999
 31
0.0
  0
LINE
  5
3EB
330
31F
100
AcDbEntity
  8
Layer 1
100
AcDbLine
 10
103.5166395945568
 20
414.7040646249999
 30
0.0
 11
103.4703347351818
 21
414.4553206796875
 31
0.0
  0
LINE
  5
3EC
330
31F
100
AcDbEntity
  8
Layer 1
100
AcDbLine
 10
103.4703347351818
 20
414.4553206796875
 30
0.0
 11
103.4130423992443
 21
414.1861827812499
 31
0.0
  0
LINE
  5
3ED
330
31F
100
AcDbEntity
  8
Layer 1
100
AcDbLine
 10
103.4130423992443
 20
414.1861827812499
 30
0.0
 11
103.3812566023693
 21
414.05768659375
 31
0.0
  0
LINE
  5
3EE
330
31F
100
AcDbEntity
  8
Layer 1
100
AcDbLine
 10
103.3812566023693
 20
414.05768659375
 30
0.0
 11
103.3479007742442
 21
413.940556515625
 31
0.0
  0
LINE
  5
3EF
330
31F
100
AcDbEntity
  8
Layer 1
100
AcDbLine
 10
103.3479007742442
 20
413.940556515625
 30
0.0
 11
103.2521550008068
 21
413.647357046875
 31
0.0
  0
LINE
  5
3F0
330
31F
100
AcDbEntity
  8
Layer 1
100
AcDbLine
 10
103.2521550008068
 20
413.647357046875
 30
0.0
 11
103.1545636648693
 21
413.3771991484374
 31
0.0
  0
LINE
  5
3F1
330
31F
100
AcDbEntity
  8
Layer 1
100
AcDbLine
 10
103.1545636648693
 20
413.3771991484374
 30
0.0
 11
103.0575023211193
 21
413.1350302421875
 31
0.0
  0
LINE
  5
3F2
330
31F
100
AcDbEntity
  8
Layer 1
100
AcDbLine
 10
103.0575023211193
 20
413.1350302421875
 30
0.0
 11
102.9633465945568
 21
412.92579775
 31
0.0
  0
LINE
  5
3F3
330
31F
100
AcDbEntity
  8
Layer 1
100
AcDbLine
 10
102.9633465945568
 20
412.92579775
 30
0.0
 11
102.8744720633067
 21
412.7544490703124
 31
0.0
  0
LINE
  5
3F4
330
31F
100
AcDbEntity
  8
Layer 1
100
AcDbLine
 10
102.8744720633067
 20
412.7544490703124
 30
0.0
 11
102.8327576023693
 21
412.6845272499999
 31
0.0
  0
LINE
  5
3F5
330
31F
100
AcDbEntity
  8
Layer 1
100
AcDbLine
 10
102.8327576023693
 20
412.6845272499999
 30
0.0
 11
102.7932542820568
 21
412.6259316484374
 31
0.0
  0
LINE
  5
3F6
330
31F
100
AcDbEntity
  8
Layer 1
100
AcDbLine
 10
102.7932542820568
 20
412.6259316484374
 30
0.0
 11
102.7562590554943
 21
412.5792807109375
 31
0.0
  0
LINE
  5
3F7
330
31F
100
AcDbEntity
  8
Layer 1
100
AcDbLine
 10
102.7562590554943
 20
412.5792807109375
 30
0.0
 11
102.7220688758068
 21
412.5451928828125
 31
0.0
  0
LINE
  5
3F8
330
31F
100
AcDbEntity
  8
Layer 1
100
AcDbLine
 10
102.7220688758068
 20
412.5451928828125
 30
0.0
 11
102.6909806726818
 21
412.5242865859375
 31
0.0
  0
LINE
  5
3F9
330
31F
100
AcDbEntity
  8
Layer 1
100
AcDbLine
 10
102.6909806726818
 20
412.5242865859375
 30
0.0
 11
102.6632913992443
 21
412.5171802187499
 31
0.0
  0
LINE
  5
3FA
330
31F
100
AcDbEntity
  8
Layer 1
100
AcDbLine
 10
102.6632913992443
 20
412.5171802187499
 30
0.0
 11
102.6452104226817
 21
412.5155334062499
 31
0.0
  0
LINE
  5
3FB
330
31F
100
AcDbEntity
  8
Layer 1
100
AcDbLine
 10
102.6452104226817
 20
412.5155334062499
 30
0.0
 11
102.6326224695568
 21
412.5104931484374
 31
0.0
  0
LINE
  5
3FC
330
31F
100
AcDbEntity
  8
Layer 1
100
AcDbLine
 10
102.6326224695568
 20
412.5104931484374
 30
0.0
 11
102.6255412039318
 21
412.5019095624999
 31
0.0
  0
LINE
  5
3FD
330
31F
100
AcDbEntity
  8
Layer 1
100
AcDbLine
 10
102.6255412039318
 20
412.5019095624999
 30
0.0
 11
102.6239802664318
 21
412.489632859375
 31
0.0
  0
LINE
  5
3FE
330
31F
100
AcDbEntity
  8
Layer 1
100
AcDbLine
 10
102.6239802664318
 20
412.489632859375
 30
0.0
 11
102.6279533679943
 21
412.473513203125
 31
0.0
  0
LINE
  5
3FF
330
31F
100
AcDbEntity
  8
Layer 1
100
AcDbLine
 10
102.6279533679943
 20
412.473513203125
 30
0.0
 11
102.6374741258068
 21
412.4534007578124
 31
0.0
  0
LINE
  5
400
330
31F
100
AcDbEntity
  8
Layer 1
100
AcDbLine
 10
102.6374741258068
 20
412.4534007578124
 30
0.0
 11
102.6732132664318
 21
412.4005981796875
 31
0.0
  0
LINE
  5
401
330
31F
100
AcDbEntity
  8
Layer 1
100
AcDbLine
 10
102.6732132664318
 20
412.4005981796875
 30
0.0
 11
102.6955855554943
 21
412.3749616796875
 31
0.0
  0
LINE
  5
402
330
31F
100
AcDbEntity
  8
Layer 1
100
AcDbLine
 10
102.6955855554943
 20
412.3749616796875
 30
0.0
 11
102.7218855945567
 21
412.3512205234375
 31
0.0
  0
LINE
  5
403
330
31F
100
AcDbEntity
  8
Layer 1
100
AcDbLine
 10
102.7218855945567
 20
412.3512205234375
 30
0.0
 11
102.7843703211193
 21
412.3098421328124
 31
0.0
  0
LINE
  5
404
330
31F
100
AcDbEntity
  8
Layer 1
100
AcDbLine
 10
102.7843703211193
 20
412.3098421328124
 30
0.0
 11
102.8568702195568
 21
412.277298953125
 31
0.0
  0
LINE
  5
405
330
31F
100
AcDbEntity
  8
Layer 1
100
AcDbLine
 10
102.8568702195568
 20
412.277298953125
 30
0.0
 11
102.9355880164318
 21
412.2544268828124
 31
0.0
  0
LINE
  5
406
330
31F
100
AcDbEntity
  8
Layer 1
100
AcDbLine
 10
102.9355880164318
 20
412.2544268828124
 30
0.0
 11
103.0167264383067
 21
412.2420618671874
 31
0.0
  0
LINE
  5
407
330
31F
100
AcDbEntity
  8
Layer 1
100
AcDbLine
 10
103.0167264383067
 20
412.2420618671874
 30
0.0
 11
103.0964882586193
 21
412.241039828125
 31
0.0
  0
LINE
  5
408
330
31F
100
AcDbEntity
  8
Layer 1
100
AcDbLine
 10
103.0964882586193
 20
412.241039828125
 30
0.0
 11
103.1710762273693
 21
412.2521966874999
 31
0.0
  0
LINE
  5
409
330
31F
100
AcDbEntity
  8
Layer 1
100
AcDbLine
 10
103.1710762273693
 20
412.2521966874999
 30
0.0
 11
103.2052433679943
 21
412.2626034296875
 31
0.0
  0
LINE
  5
40A
330
31F
100
AcDbEntity
  8
Layer 1
100
AcDbLine
 10
103.2052433679943
 20
412.2626034296875
 30
0.0
 11
103.2366930945568
 21
412.2763683671875
 31
0.0
  0
LINE
  5
40B
330
31F
100
AcDbEntity
  8
Layer 1
100
AcDbLine
 10
103.2366930945568
 20
412.2763683671875
 30
0.0
 11
103.2650441023693
 21
412.2893230703125
 31
0.0
  0
LINE
  5
40C
330
31F
100
AcDbEntity
  8
Layer 1
100
AcDbLine
 10
103.2650441023693
 20
412.2893230703125
 30
0.0
 11
103.2882973367443
 21
412.2956173984374
 31
0.0
  0
LINE
  5
40D
330
31F
100
AcDbEntity
  8
Layer 1
100
AcDbLine
 10
103.2882973367443
 20
412.2956173984374
 30
0.0
 11
103.3070628992443
 21
412.2946490546874
 31
0.0
  0
LINE
  5
40E
330
31F
100
AcDbEntity
  8
Layer 1
100
AcDbLine
 10
103.3070628992443
 20
412.2946490546874
 30
0.0
 11
103.3219508679943
 21
412.2858157187499
 31
0.0
  0
LINE
  5
40F
330
31F
100
AcDbEntity
  8
Layer 1
100
AcDbLine
 10
103.3219508679943
 20
412.2858157187499
 30
0.0
 11
103.3335713445568
 21
412.2685151171874
 31
0.0
  0
LINE
  5
410
330
31F
100
AcDbEntity
  8
Layer 1
100
AcDbLine
 10
103.3335713445568
 20
412.2685151171874
 30
0.0
 11
103.3425344304943
 21
412.2421448828125
 31
0.0
  0
LINE
  5
411
330
31F
100
AcDbEntity
  8
Layer 1
100
AcDbLine
 10
103.3425344304943
 20
412.2421448828125
 30
0.0
 11
103.3549287664318
 21
412.159786328125
 31
0.0
  0
LINE
  5
412
330
31F
100
AcDbEntity
  8
Layer 1
100
AcDbLine
 10
103.3549287664318
 20
412.159786328125
 30
0.0
 11
103.3652640476818
 21
412.0529198124999
 31
0.0
  0
LINE
  5
413
330
31F
100
AcDbEntity
  8
Layer 1
100
AcDbLine
 10
103.3652640476818
 20
412.0529198124999
 30
0.0
 11
103.2993249148693
 21
412.0661489687499
 31
0.0
  0
LINE
  5
414
330
31F
100
AcDbEntity
  8
Layer 1
100
AcDbLine
 10
103.2993249148693
 20
412.0661489687499
 30
0.0
 11
103.2701074461193
 21
412.0704342578124
 31
0.0
  0
LINE
  5
415
330
31F
100
AcDbEntity
  8
Layer 1
100
AcDbLine
 10
103.2701074461193
 20
412.0704342578124
 30
0.0
 11
103.2495424929943
 21
412.069817828125
 31
0.0
  0
LINE
  5
416
330
31F
100
AcDbEntity
  8
Layer 1
100
AcDbLine
 10
103.2495424929943
 20
412.069817828125
 30
0.0
 11
103.2373839617443
 21
412.0642663984375
 31
0.0
  0
LINE
  5
417
330
31F
100
AcDbEntity
  8
Layer 1
100
AcDbLine
 10
103.2373839617443
 20
412.0642663984375
 30
0.0
 11
103.2333857820568
 21
412.0537466171874
 31
0.0
  0
LINE
  5
418
330
31F
100
AcDbEntity
  8
Layer 1
100
AcDbLine
 10
103.2333857820568
 20
412.0537466171874
 30
0.0
 11
103.2420607508068
 21
412.0269502890625
 31
0.0
  0
LINE
  5
419
330
31F
100
AcDbEntity
  8
Layer 1
100
AcDbLine
 10
103.2420607508068
 20
412.0269502890625
 30
0.0
 11
103.2656830086193
 21
411.9728594453125
 31
0.0
  0
LINE
  5
41A
330
31F
100
AcDbEntity
  8
Layer 1
100
AcDbLine
 10
103.2656830086193
 20
411.9728594453125
 30
0.0
 11
103.3433532429943
 21
411.8141743515624
 31
0.0
  0
LINE
  5
41B
330
31F
100
AcDbEntity
  8
Layer 1
100
AcDbLine
 10
103.3433532429943
 20
411.8141743515624
 30
0.0
 11
103.4082659304943
 21
411.6952069140624
 31
0.0
  0
LINE
  5
41C
330
31F
100
AcDbEntity
  8
Layer 1
100
AcDbLine
 10
103.4082659304943
 20
411.6952069140624
 30
0.0
 11
103.4735801961193
 21
411.5976750859375
 31
0.0
  0
LINE
  5
41D
330
31F
100
AcDbEntity
  8
Layer 1
100
AcDbLine
 10
103.4735801961193
 20
411.5976750859375
 30
0.0
 11
103.5570833914318
 21
411.4980636015625
 31
0.0
  0
LINE
  5
41E
330
31F
100
AcDbEntity
  8
Layer 1
100
AcDbLine
 10
103.5570833914318
 20
411.4980636015625
 30
0.0
 11
103.6765628679943
 21
411.3728572890624
 31
0.0
  0
LINE
  5
41F
330
31F
100
AcDbEntity
  8
Layer 1
100
AcDbLine
 10
103.6765628679943
 20
411.3728572890624
 30
0.0
 11
103.7861295476818
 21
411.2638118125
 31
0.0
  0
LINE
  5
420
330
31F
100
AcDbEntity
  8
Layer 1
100
AcDbLine
 10
103.7861295476818
 20
411.2638118125
 30
0.0
 11
103.8621183523692
 21
411.1951233671875
 31
0.0
  0
LINE
  5
421
330
31F
100
AcDbEntity
  8
Layer 1
100
AcDbLine
 10
103.8621183523692
 20
411.1951233671875
 30
0.0
 11
103.9146275164318
 21
411.1586645078125
 31
0.0
  0
LINE
  5
422
330
31F
100
AcDbEntity
  8
Layer 1
100
AcDbLine
 10
103.9146275164318
 20
411.1586645078125
 30
0.0
 11
103.9352329226818
 21
411.1499813593749
 31
0.0
  0
LINE
  5
423
330
31F
100
AcDbEntity
  8
Layer 1
100
AcDbLine
 10
103.9352329226818
 20
411.1499813593749
 30
0.0
 11
103.9537552508068
 21
411.1463078124999
 31
0.0
  0
LINE
  5
424
330
31F
100
AcDbEntity
  8
Layer 1
100
AcDbLine
 10
103.9537552508068
 20
411.1463078124999
 30
0.0
 11
103.9671911258068
 21
411.1463078124999
 31
0.0
  0
LINE
  5
425
330
31F
100
AcDbEntity
  8
Layer 1
100
AcDbLine
 10
103.9671911258068
 20
411.1463078124999
 30
0.0
 11
103.9857134539318
 21
411.1499813593749
 31
0.0
  0
LINE
  5
426
330
31F
100
AcDbEntity
  8
Layer 1
100
AcDbLine
 10
103.9857134539318
 20
411.1499813593749
 30
0.0
 11
104.0063188367443
 21
411.1586645078125
 31
0.0
  0
LINE
  5
427
330
31F
100
AcDbEntity
  8
Layer 1
100
AcDbLine
 10
104.0063188367443
 20
411.1586645078125
 30
0.0
 11
104.0588279773693
 21
411.1951233671875
 31
0.0
  0
LINE
  5
428
330
31F
100
AcDbEntity
  8
Layer 1
100
AcDbLine
 10
104.0588279773693
 20
411.1951233671875
 30
0.0
 11
104.1348167820568
 21
411.2638118125
 31
0.0
  0
LINE
  5
429
330
31F
100
AcDbEntity
  8
Layer 1
100
AcDbLine
 10
104.1348167820568
 20
411.2638118125
 30
0.0
 11
104.2443835086193
 21
411.3728572890624
 31
0.0
  0
LINE
  5
42A
330
31F
100
AcDbEntity
  8
Layer 1
100
AcDbLine
 10
104.2443835086193
 20
411.3728572890624
 30
0.0
 11
104.3638629851818
 21
411.4980636015625
 31
0.0
  0
LINE
  5
42B
330
31F
100
AcDbEntity
  8
Layer 1
100
AcDbLine
 10
104.3638629851818
 20
411.4980636015625
 30
0.0
 11
104.4473661570568
 21
411.5976750859375
 31
0.0
  0
LINE
  5
42C
330
31F
100
AcDbEntity
  8
Layer 1
100
AcDbLine
 10
104.4473661570568
 20
411.5976750859375
 30
0.0
 11
104.5126804226818
 21
411.6952069140624
 31
0.0
  0
LINE
  5
42D
330
31F
100
AcDbEntity
  8
Layer 1
100
AcDbLine
 10
104.5126804226818
 20
411.6952069140624
 30
0.0
 11
104.5775931570568
 21
411.8141743515624
 31
0.0
  0
LINE
  5
42E
330
31F
100
AcDbEntity
  8
Layer 1
100
AcDbLine
 10
104.5775931570568
 20
411.8141743515624
 30
0.0
 11
104.6552633679943
 21
411.9728594453125
 31
0.0
  0
LINE
  5
42F
330
31F
100
AcDbEntity
  8
Layer 1
100
AcDbLine
 10
104.6552633679943
 20
411.9728594453125
 30
0.0
 11
104.6788856023693
 21
412.0269502890625
 31
0.0
  0
LINE
  5
430
330
31F
100
AcDbEntity
  8
Layer 1
100
AcDbLine
 10
104.6788856023693
 20
412.0269502890625
 30
0.0
 11
104.6875605945568
 21
412.0537466171874
 31
0.0
  0
LINE
  5
431
330
31F
100
AcDbEntity
  8
Layer 1
100
AcDbLine
 10
104.6875605945568
 20
412.0537466171874
 30
0.0
 11
104.6835624148693
 21
412.0642663984375
 31
0.0
  0
LINE
  5
432
330
31F
100
AcDbEntity
  8
Layer 1
100
AcDbLine
 10
104.6835624148693
 20
412.0642663984375
 30
0.0
 11
104.6714038836193
 21
412.069817828125
 31
0.0
  0
LINE
  5
433
330
31F
100
AcDbEntity
  8
Layer 1
100
AcDbLine
 10
104.6714038836193
 20
412.069817828125
 30
0.0
 11
104.6508389070568
 21
412.0704342578124
 31
0.0
  0
LINE
  5
434
330
31F
100
AcDbEntity
  8
Layer 1
100
AcDbLine
 10
104.6508389070568
 20
412.0704342578124
 30
0.0
 11
104.6216214617442
 21
412.0661489687499
 31
0.0
  0
LINE
  5
435
330
31F
100
AcDbEntity
  8
Layer 1
100
AcDbLine
 10
104.6216214617442
 20
412.0661489687499
 30
0.0
 11
104.5556823523693
 21
412.0529198124999
 31
0.0
  0
LINE
  5
436
330
31F
100
AcDbEntity
  8
Layer 1
100
AcDbLine
 10
104.5556823523693
 20
412.0529198124999
 30
0.0
 11
104.5660176336193
 21
412.159786328125
 31
0.0
  0
LINE
  5
437
330
31F
100
AcDbEntity
  8
Layer 1
100
AcDbLine
 10
104.5660176336193
 20
412.159786328125
 30
0.0
 11
104.5784119461193
 21
412.2421448828125
 31
0.0
  0
LINE
  5
438
330
31F
100
AcDbEntity
  8
Layer 1
100
AcDbLine
 10
104.5784119461193
 20
412.2421448828125
 30
0.0
 11
104.5873750320568
 21
412.2685151171874
 31
0.0
  0
LINE
  5
439
330
31F
100
AcDbEntity
  8
Layer 1
100
AcDbLine
 10
104.5873750320568
 20
412.2685151171874
 30
0.0
 11
104.5989954851818
 21
412.2858157187499
 31
0.0
  0
LINE
  5
43A
330
31F
100
AcDbEntity
  8
Layer 1
100
AcDbLine
 10
104.5989954851818
 20
412.2858157187499
 30
0.0
 11
104.6138834539318
 21
412.2946490546874
 31
0.0
  0
LINE
  5
43B
330
31F
100
AcDbEntity
  8
Layer 1
100
AcDbLine
 10
104.6138834539318
 20
412.2946490546874
 30
0.0
 11
104.6326490164318
 21
412.2956173984374
 31
0.0
  0
LINE
  5
43C
330
31F
100
AcDbEntity
  8
Layer 1
100
AcDbLine
 10
104.6326490164318
 20
412.2956173984374
 30
0.0
 11
104.6559022742443
 21
412.2893230703125
 31
0.0
  0
LINE
  5
43D
330
31F
100
AcDbEntity
  8
Layer 1
100
AcDbLine
 10
104.6559022742443
 20
412.2893230703125
 30
0.0
 11
104.6842533054943
 21
412.2763683671875
 31
0.0
  0
LINE
  5
43E
330
31F
100
AcDbEntity
  8
Layer 1
100
AcDbLine
 10
104.6842533054943
 20
412.2763683671875
 30
0.0
 11
104.7157030086193
 21
412.2626034296875
 31
0.0
  0
LINE
  5
43F
330
31F
100
AcDbEntity
  8
Layer 1
100
AcDbLine
 10
104.7157030086193
 20
412.2626034296875
 30
0.0
 11
104.7498701492443
 21
412.2521966874999
 31
0.0
  0
LINE
  5
440
330
31F
100
AcDbEntity
  8
Layer 1
100
AcDbLine
 10
104.7498701492443
 20
412.2521966874999
 30
0.0
 11
104.8244581179943
 21
412.241039828125
 31
0.0
  0
LINE
  5
441
330
31F
100
AcDbEntity
  8
Layer 1
100
AcDbLine
 10
104.8244581179943
 20
412.241039828125
 30
0.0
 11
104.9042199383068
 21
412.2420618671874
 31
0.0
  0
LINE
  5
442
330
31F
100
AcDbEntity
  8
Layer 1
100
AcDbLine
 10
104.9042199383068
 20
412.2420618671874
 30
0.0
 11
104.9853583601818
 21
412.2544268828124
 31
0.0
  0
LINE
  5
443
330
31F
100
AcDbEntity
  8
Layer 1
100
AcDbLine
 10
104.9853583601818
 20
412.2544268828124
 30
0.0
 11
105.0640761336193
 21
412.277298953125
 31
0.0
  0
LINE
  5
444
330
31F
100
AcDbEntity
  8
Layer 1
100
AcDbLine
 10
105.0640761336193
 20
412.277298953125
 30
0.0
 11
105.1365760320568
 21
412.3098421328124
 31
0.0
  0
LINE
  5
445
330
31F
100
AcDbEntity
  8
Layer 1
100
AcDbLine
 10
105.1365760320568
 20
412.3098421328124
 30
0.0
 11
105.1990607820568
 21
412.3512205234375
 31
0.0
  0
LINE
  5
446
330
31F
100
AcDbEntity
  8
Layer 1
100
AcDbLine
 10
105.1990607820568
 20
412.3512205234375
 30
0.0
 11
105.2253608211193
 21
412.3749616796875
 31
0.0
  0
LINE
  5
447
330
31F
100
AcDbEntity
  8
Layer 1
100
AcDbLine
 10
105.2253608211193
 20
412.3749616796875
 30
0.0
 11
105.2477331336193
 21
412.4005981796875
 31
0.0
  0
LINE
  5
448
330
31F
100
AcDbEntity
  8
Layer 1
100
AcDbLine
 10
105.2477331336193
 20
412.4005981796875
 30
0.0
 11
105.2834722273693
 21
412.4534007578124
 31
0.0
  0
LINE
  5
449
330
31F
100
AcDbEntity
  8
Layer 1
100
AcDbLine
 10
105.2834722273693
 20
412.4534007578124
 30
0.0
 11
105.2929929617443
 21
412.473513203125
 31
0.0
  0
LINE
  5
44A
330
31F
100
AcDbEntity
  8
Layer 1
100
AcDbLine
 10
105.2929929617443
 20
412.473513203125
 30
0.0
 11
105.2969660398692
 21
412.489632859375
 31
0.0
  0
LINE
  5
44B
330
31F
100
AcDbEntity
  8
Layer 1
100
AcDbLine
 10
105.2969660398692
 20
412.489632859375
 30
0.0
 11
105.2954051258068
 21
412.5019095624999
 31
0.0
  0
LINE
  5
44C
330
31F
100
AcDbEntity
  8
Layer 1
100
AcDbLine
 10
105.2954051258068
 20
412.5019095624999
 30
0.0
 11
105.2883238601818
 21
412.5104931484374
 31
0.0
  0
LINE
  5
44D
330
31F
100
AcDbEntity
  8
Layer 1
100
AcDbLine
 10
105.2883238601818
 20
412.5104931484374
 30
0.0
 11
105.2757359304943
 21
412.5155334062499
 31
0.0
  0
LINE
  5
44E
330
31F
100
AcDbEntity
  8
Layer 1
100
AcDbLine
 10
105.2757359304943
 20
412.5155334062499
 30
0.0
 11
105.2576550008068
 21
412.5171802187499
 31
0.0
  0
LINE
  5
44F
330
31F
100
AcDbEntity
  8
Layer 1
100
AcDbLine
 10
105.2576550008068
 20
412.5171802187499
 30
0.0
 11
105.2299657273693
 21
412.5242865859375
 31
0.0
  0
LINE
  5
450
330
31F
100
AcDbEntity
  8
Layer 1
100
AcDbLine
 10
105.2299657273693
 20
412.5242865859375
 30
0.0
 11
105.1988775242443
 21
412.5451928828125
 31
0.0
  0
LINE
  5
451
330
31F
100
AcDbEntity
  8
Layer 1
100
AcDbLine
 10
105.1988775242443
 20
412.5451928828125
 30
0.0
 11
105.1646873211193
 21
412.5792807109375
 31
0.0
  0
LINE
  5
452
330
31F
100
AcDbEntity
  8
Layer 1
100
AcDbLine
 10
105.1646873211193
 20
412.5792807109375
 30
0.0
 11
105.1276920945568
 21
412.6259316484374
 31
0.0
  0
LINE
  5
453
330
31F
100
AcDbEntity
  8
Layer 1
100
AcDbLine
 10
105.1276920945568
 20
412.6259316484374
 30
0.0
 11
105.0881887742443
 21
412.6845272499999
 31
0.0
  0
LINE
  5
454
330
31F
100
AcDbEntity
  8
Layer 1
100
AcDbLine
 10
105.0881887742443
 20
412.6845272499999
 30
0.0
 11
105.0464743133068
 21
412.7544490703124
 31
0.0
  0
LINE
  5
455
330
31F
100
AcDbEntity
  8
Layer 1
100
AcDbLine
 10
105.0464743133068
 20
412.7544490703124
 30
0.0
 11
104.9575997586193
 21
412.92579775
 31
0.0
  0
LINE
  5
456
330
31F
100
AcDbEntity
  8
Layer 1
100
AcDbLine
 10
104.9575997586193
 20
412.92579775
 30
0.0
 11
104.8634440320568
 21
413.1350302421875
 31
0.0
  0
LINE
  5
457
330
31F
100
AcDbEntity
  8
Layer 1
100
AcDbLine
 10
104.8634440320568
 20
413.1350302421875
 30
0.0
 11
104.7663827117443
 21
413.3771991484374
 31
0.0
  0
LINE
  5
458
330
31F
100
AcDbEntity
  8
Layer 1
100
AcDbLine
 10
104.7663827117443
 20
413.3771991484374
 30
0.0
 11
104.6687913758068
 21
413.647357046875
 31
0.0
  0
LINE
  5
459
330
31F
100
AcDbEntity
  8
Layer 1
100
AcDbLine
 10
104.6687913758068
 20
413.647357046875
 30
0.0
 11
104.5730456258068
 21
413.940556515625
 31
0.0
  0
LINE
  5
45A
330
31F
100
AcDbEntity
  8
Layer 1
100
AcDbLine
 10
104.5730456258068
 20
413.940556515625
 30
0.0
 11
104.5396897742443
 21
414.05768659375
 31
0.0
  0
LINE
  5
45B
330
31F
100
AcDbEntity
  8
Layer 1
100
AcDbLine
 10
104.5396897742443
 20
414.05768659375
 30
0.0
 11
104.5079039773693
 21
414.1861827812499
 31
0.0
  0
LINE
  5
45C
330
31F
100
AcDbEntity
  8
Layer 1
100
AcDbLine
 10
104.5079039773693
 20
414.1861827812499
 30
0.0
 11
104.4506116179943
 21
414.4553206796875
 31
0.0
  0
LINE
  5
45D
330
31F
100
AcDbEntity
  8
Layer 1
100
AcDbLine
 10
104.4506116179943
 20
414.4553206796875
 30
0.0
 11
104.4043067586193
 21
414.7040646249999
 31
0.0
  0
LINE
  5
45E
330
31F
100
AcDbEntity
  8
Layer 1
100
AcDbLine
 10
104.4043067586193
 20
414.7040646249999
 30
0.0
 11
104.3721276570568
 21
414.8885090546874
 31
0.0
  0
LINE
  5
45F
330
31F
100
AcDbEntity
  8
Layer 1
100
AcDbLine
 10
104.3721276570568
 20
414.8885090546874
 30
0.0
 11
104.3267529383068
 21
415.3698966249999
 31
0.0
  0
LINE
  5
460
330
31F
100
AcDbEntity
  8
Layer 1
100
AcDbLine
 10
104.3267529383068
 20
415.3698966249999
 30
0.0
 11
104.2885295398693
 21
415.8522643984374
 31
0.0
  0
LINE
  5
461
330
31F
100
AcDbEntity
  8
Layer 1
100
AcDbLine
 10
104.2885295398693
 20
415.8522643984374
 30
0.0
 11
104.2569606336193
 21
416.3353776015624
 31
0.0
  0
LINE
  5
462
330
31F
100
AcDbEntity
  8
Layer 1
100
AcDbLine
 10
104.2569606336193
 20
416.3353776015624
 30
0.0
 11
104.2315493914317
 21
416.8190013671874
 31
0.0
  0
LINE
  5
463
330
31F
100
AcDbEntity
  8
Layer 1
100
AcDbLine
 10
104.2315493914317
 20
416.8190013671874
 30
0.0
 11
104.2117990320568
 21
417.3029009453125
 31
0.0
  0
LINE
  5
464
330
31F
100
AcDbEntity
  8
Layer 1
100
AcDbLine
 10
104.2117990320568
 20
417.3029009453125
 30
0.0
 11
104.1972127273693
 21
417.7868414921874
 31
0.0
  0
LINE
  5
465
330
31F
100
AcDbEntity
  8
Layer 1
100
AcDbLine
 10
104.1972127273693
 20
417.7868414921874
 30
0.0
 11
104.1872936492443
 21
418.2705881640624
 31
0.0
  0
LINE
  5
466
330
31F
100
AcDbEntity
  8
Layer 1
100
AcDbLine
 10
104.1872936492443
 20
418.2705881640624
 30
0.0
 11
104.1815449695568
 21
418.7539061875
 31
0.0
  0
LINE
  5
467
330
31F
100
AcDbEntity
  8
Layer 1
100
AcDbLine
 10
104.1815449695568
 20
418.7539061875
 30
0.0
 11
104.1826424070568
 21
418.9605697421875
 31
0.0
  0
LINE
  5
468
330
31F
100
AcDbEntity
  8
Layer 1
100
AcDbLine
 10
104.1826424070568
 20
418.9605697421875
 30
0.0
 11
104.1873614773693
 21
419.0874437265625
 31
0.0
  0
LINE
  5
469
330
31F
100
AcDbEntity
  8
Layer 1
100
AcDbLine
 10
104.1873614773693
 20
419.0874437265625
 30
0.0
 11
104.1972338211193
 21
419.15519096875
 31
0.0
  0
LINE
  5
46A
330
31F
100
AcDbEntity
  8
Layer 1
100
AcDbLine
 10
104.1972338211193
 20
419.15519096875
 30
0.0
 11
104.2045811023693
 21
419.173349171875
 31
0.0
  0
LINE
  5
46B
330
31F
100
AcDbEntity
  8
Layer 1
100
AcDbLine
 10
104.2045811023693
 20
419.173349171875
 30
0.0
 11
104.2137910554943
 21
419.1844742265624
 31
0.0
  0
LINE
  5
46C
330
31F
100
AcDbEntity
  8
Layer 1
100
AcDbLine
 10
104.2137910554943
 20
419.1844742265624
 30
0.0
 11
104.2285085398693
 21
419.1903541328125
 31
0.0
  0
LINE
  5
46D
330
31F
100
AcDbEntity
  8
Layer 1
100
AcDbLine
 10
104.2285085398693
 20
419.1903541328125
 30
0.0
 11
104.2560018289318
 21
419.1949770859374
 31
0.0
  0
LINE
  5
46E
330
31F
100
AcDbEntity
  8
Layer 1
100
AcDbLine
 10
104.2560018289318
 20
419.1949770859374
 30
0.0
 11
104.3436846570568
 21
419.20063309375
 31
0.0
  0
LINE
  5
46F
330
31F
100
AcDbEntity
  8
Layer 1
100
AcDbLine
 10
104.3436846570568
 20
419.20063309375
 30
0.0
 11
104.4655769304943
 21
419.2018042421874
 31
0.0
  0
LINE
  5
470
330
31F
100
AcDbEntity
  8
Layer 1
100
AcDbLine
 10
104.4655769304943
 20
419.2018042421874
 30
0.0
 11
104.6104160867443
 21
419.1988524296875
 31
0.0
  0
LINE
  5
471
330
31F
100
AcDbEntity
  8
Layer 1
100
AcDbLine
 10
104.6104160867443
 20
419.1988524296875
 30
0.0
 11
104.9238846570568
 21
419.1820278437499
 31
0.0
  0
LINE
  5
472
330
31F
100
AcDbEntity
  8
Layer 1
100
AcDbLine
 10
104.9238846570568
 20
419.1820278437499
 30
0.0
 11
105.0699888992443
 21
419.1688789609374
 31
0.0
  0
LINE
  5
473
330
31F
100
AcDbEntity
  8
Layer 1
100
AcDbLine
 10
105.0699888992443
 20
419.1688789609374
 30
0.0
 11
105.1939896336193
 21
419.15305496875
 31
0.0
  0
LINE
  5
474
330
31F
100
AcDbEntity
  8
Layer 1
100
AcDbLine
 10
105.1939896336193
 20
419.15305496875
 30
0.0
 11
105.3977713836193
 21
419.1175688124999
 31
0.0
  0
LINE
  5
475
330
31F
100
AcDbEntity
  8
Layer 1
100
AcDbLine
 10
105.3977713836193
 20
419.1175688124999
 30
0.0
 11
105.4970312117443
 21
419.0958861953125
 31
0.0
  0
LINE
  5
476
330
31F
100
AcDbEntity
  8
Layer 1
100
AcDbLine
 10
105.4970312117443
 20
419.0958861953125
 30
0.0
 11
105.5939030164318
 21
419.0708920703125
 31
0.0
  0
LINE
  5
477
330
31F
100
AcDbEntity
  8
Layer 1
100
AcDbLine
 10
105.5939030164318
 20
419.0708920703125
 30
0.0
 11
105.6879112742443
 21
419.0420725234374
 31
0.0
  0
LINE
  5
478
330
31F
100
AcDbEntity
  8
Layer 1
100
AcDbLine
 10
105.6879112742443
 20
419.0420725234374
 30
0.0
 11
105.7785805086193
 21
419.0089136875
 31
0.0
  0
LINE
  5
479
330
31F
100
AcDbEntity
  8
Layer 1
100
AcDbLine
 10
105.7785805086193
 20
419.0089136875
 30
0.0
 11
105.8654352195568
 21
418.9709016953124
 31
0.0
  0
LINE
  5
47A
330
31F
100
AcDbEntity
  8
Layer 1
100
AcDbLine
 10
105.8654352195568
 20
418.9709016953124
 30
0.0
 11
105.9479999304943
 21
418.9275226562499
 31
0.0
  0
LINE
  5
47B
330
31F
100
AcDbEntity
  8
Layer 1
100
AcDbLine
 10
105.9479999304943
 20
418.9275226562499
 30
0.0
 11
106.0257990945568
 21
418.8782627265625
 31
0.0
  0
LINE
  5
47C
330
31F
100
AcDbEntity
  8
Layer 1
100
AcDbLine
 10
106.0257990945568
 20
418.8782627265625
 30
0.0
 11
106.0983572586193
 21
418.8226079921874
 31
0.0
  0
LINE
  5
47D
330
31F
100
AcDbEntity
  8
Layer 1
100
AcDbLine
 10
106.0983572586193
 20
418.8226079921874
 30
0.0
 11
106.1651988992443
 21
418.7600445859374
 31
0.0
  0
LINE
  5
47E
330
31F
100
AcDbEntity
  8
Layer 1
100
AcDbLine
 10
106.1651988992443
 20
418.7600445859374
 30
0.0
 11
106.2258485164317
 21
418.6900586640624
 31
0.0
  0
LINE
  5
47F
330
31F
100
AcDbEntity
  8
Layer 1
100
AcDbLine
 10
106.2258485164317
 20
418.6900586640624
 30
0.0
 11
106.2798306336192
 21
418.6121362890625
 31
0.0
  0
LINE
  5
480
330
31F
100
AcDbEntity
  8
Layer 1
100
AcDbLine
 10
106.2798306336192
 20
418.6121362890625
 30
0.0
 11
106.3266697508068
 21
418.5257636406249
 31
0.0
  0
LINE
  5
481
330
31F
100
AcDbEntity
  8
Layer 1
100
AcDbLine
 10
106.3266697508068
 20
418.5257636406249
 30
0.0
 11
106.3658903679943
 21
418.4304268046875
 31
0.0
  0
LINE
  5
482
330
31F
100
AcDbEntity
  8
Layer 1
100
AcDbLine
 10
106.3658903679943
 20
418.4304268046875
 30
0.0
 11
106.3970169851818
 21
418.3256119374999
 31
0.0
  0
LINE
  5
483
330
31F
100
AcDbEntity
  8
Layer 1
100
AcDbLine
 10
106.3970169851818
 20
418.3256119374999
 30
0.0
 11
106.4073162664318
 21
418.23999090625
 31
0.0
  0
LINE
  5
484
330
31F
100
AcDbEntity
  8
Layer 1
100
AcDbLine
 10
106.4073162664318
 20
418.23999090625
 30
0.0
 11
106.4052081570568
 21
418.1758934218749
 31
0.0
  0
LINE
  5
485
330
31F
100
AcDbEntity
  8
Layer 1
100
AcDbLine
 10
106.4052081570568
 20
418.1758934218749
 30
0.0
 11
106.3991273914318
 21
418.1495115859375
 31
0.0
  0
LINE
  5
486
330
31F
100
AcDbEntity
  8
Layer 1
100
AcDbLine
 10
106.3991273914318
 20
418.1495115859375
 30
0.0
 11
106.3894960086193
 21
418.125625328125
 31
0.0
  0
LINE
  5
487
330
31F
100
AcDbEntity
  8
Layer 1
100
AcDbLine
 10
106.3894960086193
 20
418.125625328125
 30
0.0
 11
106.3761644539318
 21
418.1032728671874
 31
0.0
  0
LINE
  5
488
330
31F
100
AcDbEntity
  8
Layer 1
100
AcDbLine
 10
106.3761644539318
 20
418.1032728671874
 30
0.0
 11
106.3589831258068
 21
418.08149246875
 31
0.0
  0
LINE
  5
489
330
31F
100
AcDbEntity
  8
Layer 1
100
AcDbLine
 10
106.3589831258068
 20
418.08149246875
 30
0.0
 11
106.3431042195568
 21
418.0612385078124
 31
0.0
  0
LINE
  5
48A
330
31F
100
AcDbEntity
  8
Layer 1
100
AcDbLine
 10
106.3431042195568
 20
418.0612385078124
 30
0.0
 11
106.3407745554943
 21
418.0547096406248
 31
0.0
  0
LINE
  5
48B
330
31F
100
AcDbEntity
  8
Layer 1
100
AcDbLine
 10
106.3407745554943
 20
418.0547096406248
 30
0.0
 11
106.3426949773693
 21
418.0501277265625
 31
0.0
  0
LINE
  5
48C
330
31F
100
AcDbEntity
  8
Layer 1
100
AcDbLine
 10
106.3426949773693
 20
418.0501277265625
 30
0.0
 11
106.3608167586193
 21
418.0454492265625
 31
0.0
  0
LINE
  5
48D
330
31F
100
AcDbEntity
  8
Layer 1
100
AcDbLine
 10
106.3608167586193
 20
418.0454492265625
 30
0.0
 11
106.4005309695568
 21
418.0444921328125
 31
0.0
  0
LINE
  5
48E
330
31F
100
AcDbEntity
  8
Layer 1
100
AcDbLine
 10
106.4005309695568
 20
418.0444921328125
 30
0.0
 11
106.4376087195568
 21
418.048412640625
 31
0.0
  0
LINE
  5
48F
330
31F
100
AcDbEntity
  8
Layer 1
100
AcDbLine
 10
106.4376087195568
 20
418.048412640625
 30
0.0
 11
106.4766492195568
 21
418.0599250234374
 31
0.0
  0
LINE
  5
490
330
31F
100
AcDbEntity
  8
Layer 1
100
AcDbLine
 10
106.4766492195568
 20
418.0599250234374
 30
0.0
 11
106.5166979773693
 21
418.0786554765624
 31
0.0
  0
LINE
  5
491
330
31F
100
AcDbEntity
  8
Layer 1
100
AcDbLine
 10
106.5166979773693
 20
418.0786554765624
 30
0.0
 11
106.5568005008068
 21
418.1042301015625
 31
0.0
  0
LINE
  5
492
330
31F
100
AcDbEntity
  8
Layer 1
100
AcDbLine
 10
106.5568005008068
 20
418.1042301015625
 30
0.0
 11
106.6308531804943
 21
418.1635339140624
 31
0.0
  0
LINE
  5
493
330
31F
100
AcDbEntity
  8
Layer 1
100
AcDbLine
 10
106.6308531804943
 20
418.1635339140624
 30
0.0
 11
106.6926443445568
 21
418.2256878906249
 31
0.0
  0
LINE
  5
494
330
31F
100
AcDbEntity
  8
Layer 1
100
AcDbLine
 10
106.6926443445568
 20
418.2256878906249
 30
0.0
 11
106.7427162664318
 21
418.2919017343749
 31
0.0
  0
LINE
  5
495
330
31F
100
AcDbEntity
  8
Layer 1
100
AcDbLine
 10
106.7427162664318
 20
418.2919017343749
 30
0.0
 11
106.7816112195568
 21
418.3633851015624
 31
0.0
  0
LINE
  5
496
330
31F
100
AcDbEntity
  8
Layer 1
100
AcDbLine
 10
106.7816112195568
 20
418.3633851015624
 30
0.0
 11
106.8098714773693
 21
418.4413476953124
 31
0.0
  0
LINE
  5
497
330
31F
100
AcDbEntity
  8
Layer 1
100
AcDbLine
 10
106.8098714773693
 20
418.4413476953124
 30
0.0
 11
106.8280392898693
 21
418.5269991953124
 31
0.0
  0
LINE
  5
498
330
31F
100
AcDbEntity
  8
Layer 1
100
AcDbLine
 10
106.8280392898693
 20
418.5269991953124
 30
0.0
 11
106.8366569070568
 21
418.6215492812499
 31
0.0
  0
LINE
  5
499
330
31F
100
AcDbEntity
  8
Layer 1
100
AcDbLine
 10
106.8366569070568
 20
418.6215492812499
 30
0.0
 11
106.8362666492443
 21
418.7262076328125
 31
0.0
  0
LINE
  5
49A
330
31F
100
AcDbEntity
  8
Layer 1
100
AcDbLine
 10
106.8362666492443
 20
418.7262076328125
 30
0.0
 11
106.8290319617443
 21
418.8977733906249
 31
0.0
  0
LINE
  5
49B
330
31F
100
AcDbEntity
  8
Layer 1
100
AcDbLine
 10
106.8290319617443
 20
418.8977733906249
 30
0.0
 11
106.9660778445568
 21
418.921337828125
 31
0.0
  0
LINE
  5
49C
330
31F
100
AcDbEntity
  8
Layer 1
100
AcDbLine
 10
106.9660778445568
 20
418.921337828125
 30
0.0
 11
107.0719542898693
 21
418.9415188984374
 31
0.0
  0
LINE
  5
49D
330
31F
100
AcDbEntity
  8
Layer 1
100
AcDbLine
 10
107.0719542898693
 20
418.9415188984374
 30
0.0
 11
107.1769524617443
 21
418.96554859375
 31
0.0
  0
LINE
  5
49E
330
31F
100
AcDbEntity
  8
Layer 1
100
AcDbLine
 10
107.1769524617443
 20
418.96554859375
 30
0.0
 11
107.2805124148693
 21
418.993244640625
 31
0.0
  0
LINE
  5
49F
330
31F
100
AcDbEntity
  8
Layer 1
100
AcDbLine
 10
107.2805124148693
 20
418.993244640625
 30
0.0
 11
107.3820742039318
 21
419.0244247421874
 31
0.0
  0
LINE
  5
4A0
330
31F
100
AcDbEntity
  8
Layer 1
100
AcDbLine
 10
107.3820742039318
 20
419.0244247421874
 30
0.0
 11
107.4810778601818
 21
419.0589066249999
 31
0.0
  0
LINE
  5
4A1
330
31F
100
AcDbEntity
  8
Layer 1
100
AcDbLine
 10
107.4810778601818
 20
419.0589066249999
 30
0.0
 11
107.5769634617443
 21
419.0965080156249
 31
0.0
  0
LINE
  5
4A2
330
31F
100
AcDbEntity
  8
Layer 1
100
AcDbLine
 10
107.5769634617443
 20
419.0965080156249
 30
0.0
 11
107.6691710633068
 21
419.13704659375
 31
0.0
  0
LINE
  5
4A3
330
31F
100
AcDbEntity
  8
Layer 1
100
AcDbLine
 10
107.6691710633068
 20
419.13704659375
 30
0.0
 11
107.7571406726818
 21
419.1803401093749
 31
0.0
  0
LINE
  5
4A4
330
31F
100
AcDbEntity
  8
Layer 1
100
AcDbLine
 10
107.7571406726818
 20
419.1803401093749
 30
0.0
 11
107.9211925789318
 21
419.2715482656249
 31
0.0
  0
LINE
  5
4A5
330
31F
100
AcDbEntity
  8
Layer 1
100
AcDbLine
 10
107.9211925789318
 20
419.2715482656249
 30
0.0
 11
107.9728109070568
 21
419.3046583515624
 31
0.0
  0
LINE
  5
4A6
330
31F
100
AcDbEntity
  8
Layer 1
100
AcDbLine
 10
107.9728109070568
 20
419.3046583515624
 30
0.0
 11
107.9938187351818
 21
419.3231737656249
 31
0.0
  0
LINE
  5
4A7
330
31F
100
AcDbEntity
  8
Layer 1
100
AcDbLine
 10
107.9938187351818
 20
419.3231737656249
 30
0.0
 11
107.9900307429943
 21
419.3334685234375
 31
0.0
  0
LINE
  5
4A8
330
31F
100
AcDbEntity
  8
Layer 1
100
AcDbLine
 10
107.9900307429943
 20
419.3334685234375
 30
0.0
 11
107.9735440554943
 21
419.3435305234374
 31
0.0
  0
LINE
  5
4A9
330
31F
100
AcDbEntity
  8
Layer 1
100
AcDbLine
 10
107.9735440554943
 20
419.3435305234374
 30
0.0
 11
107.9464724539318
 21
419.3524575390624
 31
0.0
  0
LINE
  5
4AA
330
31F
100
AcDbEntity
  8
Layer 1
100
AcDbLine
 10
107.9464724539318
 20
419.3524575390624
 30
0.0
 11
107.9109297429943
 21
419.3593472734375
 31
0.0
  0
LINE
  5
4AB
330
31F
100
AcDbEntity
  8
Layer 1
100
AcDbLine
 10
107.9109297429943
 20
419.3593472734375
 30
0.0
 11
107.8520561492443
 21
419.3717880156249
 31
0.0
  0
LINE
  5
4AC
330
31F
100
AcDbEntity
  8
Layer 1
100
AcDbLine
 10
107.8520561492443
 20
419.3717880156249
 30
0.0
 11
107.7586101336193
 21
419.3961275546874
 31
0.0
  0
LINE
  5
4AD
330
31F
100
AcDbEntity
  8
Layer 1
100
AcDbLine
 10
107.7586101336193
 20
419.3961275546874
 30
0.0
 11
107.5194290867443
 21
419.4664208359374
 31
0.0
  0
LINE
  5
4AE
330
31F
100
AcDbEntity
  8
Layer 1
100
AcDbLine
 10
107.5194290867443
 20
419.4664208359374
 30
0.0
 11
107.2713469461193
 21
419.5406031484374
 31
0.0
  0
LINE
  5
4AF
330
31F
100
AcDbEntity
  8
Layer 1
100
AcDbLine
 10
107.2713469461193
 20
419.5406031484374
 30
0.0
 11
107.0975426961193
 21
419.5867235781249
 31
0.0
  0
LINE
  5
4B0
330
31F
100
AcDbEntity
  8
Layer 1
100
AcDbLine
 10
107.0975426961193
 20
419.5867235781249
 30
0.0
 11
106.9697985476818
 21
419.6179361406249
 31
0.0
  0
LINE
  5
4B1
330
31F
100
AcDbEntity
  8
Layer 1
100
AcDbLine
 10
106.9697985476818
 20
419.6179361406249
 30
0.0
 11
106.9811633211193
 21
419.64597334375
 31
0.0
  0
LINE
  5
4B2
330
31F
100
AcDbEntity
  8
Layer 1
100
AcDbLine
 10
106.9811633211193
 20
419.64597334375
 30
0.0
 11
107.0181676883068
 21
419.7064061875
 31
0.0
  0
LINE
  5
4B3
330
31F
100
AcDbEntity
  8
Layer 1
100
AcDbLine
 10
107.0181676883068
 20
419.7064061875
 30
0.0
 11
107.0482619070568
 21
419.7555651718749
 31
0.0
  0
LINE
  5
4B4
330
31F
100
AcDbEntity
  8
Layer 1
100
AcDbLine
 10
107.0482619070568
 20
419.7555651718749
 30
0.0
 11
107.0753349617443
 21
419.8074370234374
 31
0.0
  0
LINE
  5
4B5
330
31F
100
AcDbEntity
  8
Layer 1
100
AcDbLine
 10
107.0753349617443
 20
419.8074370234374
 30
0.0
 11
107.0992965008068
 21
419.861752140625
 31
0.0
  0
LINE
  5
4B6
330
31F
100
AcDbEntity
  8
Layer 1
100
AcDbLine
 10
107.0992965008068
 20
419.861752140625
 30
0.0
 11
107.1200561726818
 21
419.9182408515625
 31
0.0
  0
LINE
  5
4B7
330
31F
100
AcDbEntity
  8
Layer 1
100
AcDbLine
 10
107.1200561726818
 20
419.9182408515625
 30
0.0
 11
107.1375236726818
 21
419.9766335078124
 31
0.0
  0
LINE
  5
4B8
330
31F
100
AcDbEntity
  8
Layer 1
100
AcDbLine
 10
107.1375236726818
 20
419.9766335078124
 30
0.0
 11
107.1516086258068
 21
420.0366604609375
 31
0.0
  0
LINE
  5
4B9
330
31F
100
AcDbEntity
  8
Layer 1
100
AcDbLine
 10
107.1516086258068
 20
420.0366604609375
 30
0.0
 11
107.1622207273693
 21
420.0980520859374
 31
0.0
  0
LINE
  5
4BA
330
31F
100
AcDbEntity
  8
Layer 1
100
AcDbLine
 10
107.1622207273693
 20
420.0980520859374
 30
0.0
 11
107.1692695789318
 21
420.1605386875
 31
0.0
  0
LINE
  5
4BB
330
31F
100
AcDbEntity
  8
Layer 1
100
AcDbLine
 10
107.1692695789318
 20
420.1605386875
 30
0.0
 11
107.1730933367443
 21
420.2310514843749
 31
0.0
  0
LINE
  5
4BC
330
31F
100
AcDbEntity
  8
Layer 1
100
AcDbLine
 10
107.1730933367443
 20
420.2310514843749
 30
0.0
 11
107.1721263289318
 21
420.2949387109375
 31
0.0
  0
LINE
  5
4BD
330
31F
100
AcDbEntity
  8
Layer 1
100
AcDbLine
 10
107.1721263289318
 20
420.2949387109375
 30
0.0
 11
107.1661912039318
 21
420.3528370234375
 31
0.0
  0
LINE
  5
4BE
330
31F
100
AcDbEntity
  8
Layer 1
100
AcDbLine
 10
107.1661912039318
 20
420.3528370234375
 30
0.0
 11
107.1551106570568
 21
420.405383078125
 31
0.0
  0
LINE
  5
4BF
330
31F
100
AcDbEntity
  8
Layer 1
100
AcDbLine
 10
107.1551106570568
 20
420.405383078125
 30
0.0
 11
107.1387074070567
 21
420.4532134374999
 31
0.0
  0
LINE
  5
4C0
330
31F
100
AcDbEntity
  8
Layer 1
100
AcDbLine
 10
107.1387074070567
 20
420.4532134374999
 30
0.0
 11
107.1168041023693
 21
420.4969648046875
 31
0.0
  0
LINE
  5
4C1
330
31F
100
AcDbEntity
  8
Layer 1
100
AcDbLine
 10
107.1168041023693
 20
420.4969648046875
 30
0.0
 11
107.0892234617442
 21
420.5372737421874
 31
0.0
  0
LINE
  5
4C2
330
31F
100
AcDbEntity
  8
Layer 1
100
AcDbLine
 10
107.0892234617442
 20
420.5372737421874
 30
0.0
 11
107.0557881336193
 21
420.5747769531249
 31
0.0
  0
LINE
  5
4C3
330
31F
100
AcDbEntity
  8
Layer 1
100
AcDbLine
 10
107.0557881336193
 20
420.5747769531249
 30
0.0
 11
107.0292895789318
 21
420.5990431796875
 31
0.0
  0
LINE
  5
4C4
330
31F
100
AcDbEntity
  8
Layer 1
100
AcDbLine
 10
107.0292895789318
 20
420.5990431796875
 30
0.0
 11
107.0067608445568
 21
420.6154990234375
 31
0.0
  0
LINE
  5
4C5
330
31F
100
AcDbEntity
  8
Layer 1
100
AcDbLine
 10
107.0067608445568
 20
420.6154990234375
 30
0.0
 11
106.9887511883068
 21
420.6242766953124
 31
0.0
  0
LINE
  5
4C6
330
31F
100
AcDbEntity
  8
Layer 1
100
AcDbLine
 10
106.9887511883068
 20
420.6242766953124
 30
0.0
 11
106.9758099617442
 21
420.6255084531249
 31
0.0
  0
LINE
  5
4C7
330
31F
100
AcDbEntity
  8
Layer 1
100
AcDbLine
 10
106.9758099617442
 20
420.6255084531249
 30
0.0
 11
106.9684864226818
 21
420.619326484375
 31
0.0
  0
LINE
  5
4C8
330
31F
100
AcDbEntity
  8
Layer 1
100
AcDbLine
 10
106.9684864226818
 20
420.619326484375
 30
0.0
 11
106.9673298523693
 21
420.6058629999999
 31
0.0
  0
LINE
  5
4C9
330
31F
100
AcDbEntity
  8
Layer 1
100
AcDbLine
 10
106.9673298523693
 20
420.6058629999999
 30
0.0
 11
106.9728895789318
 21
420.5852502109374
 31
0.0
  0
LINE
  5
4CA
330
31F
100
AcDbEntity
  8
Layer 1
100
AcDbLine
 10
106.9728895789318
 20
420.5852502109374
 30
0.0
 11
106.9857148836193
 21
420.5576203749999
 31
0.0
  0
LINE
  5
4CB
330
31F
100
AcDbEntity
  8
Layer 1
100
AcDbLine
 10
106.9857148836193
 20
420.5576203749999
 30
0.0
 11
106.9979417586193
 21
420.5261994765625
 31
0.0
  0
LINE
  5
4CC
330
31F
100
AcDbEntity
  8
Layer 1
100
AcDbLine
 10
106.9979417586193
 20
420.5261994765625
 30
0.0
 11
107.0053691492443
 21
420.4878398359374
 31
0.0
  0
LINE
  5
4CD
330
31F
100
AcDbEntity
  8
Layer 1
100
AcDbLine
 10
107.0053691492443
 20
420.4878398359374
 30
0.0
 11
107.0081296883068
 21
420.4441580781249
 31
0.0
  0
LINE
  5
4CE
330
31F
100
AcDbEntity
  8
Layer 1
100
AcDbLine
 10
107.0081296883068
 20
420.4441580781249
 30
0.0
 11
107.0063559148693
 21
420.3967708515625
 31
0.0
  0
LINE
  5
4CF
330
31F
100
AcDbEntity
  8
Layer 1
100
AcDbLine
 10
107.0063559148693
 20
420.3967708515625
 30
0.0
 11
107.0001804148693
 21
420.3472948046874
 31
0.0
  0
LINE
  5
4D0
330
31F
100
AcDbEntity
  8
Layer 1
100
AcDbLine
 10
107.0001804148693
 20
420.3472948046874
 30
0.0
 11
106.9897357742443
 21
420.2973465390624
 31
0.0
  0
LINE
  5
4D1
330
31F
100
AcDbEntity
  8
Layer 1
100
AcDbLine
 10
106.9897357742443
 20
420.2973465390624
 30
0.0
 11
106.9751545789318
 21
420.2485427031249
 31
0.0
  0
LINE
  5
4D2
330
31F
100
AcDbEntity
  8
Layer 1
100
AcDbLine
 10
106.9751545789318
 20
420.2485427031249
 30
0.0
 11
106.9565693914318
 21
420.2024999453124
 31
0.0
  0
LINE
  5
4D3
330
31F
100
AcDbEntity
  8
Layer 1
100
AcDbLine
 10
106.9565693914318
 20
420.2024999453124
 30
0.0
 11
106.9172381726818
 21
420.1299794687499
 31
0.0
  0
LINE
  5
4D4
330
31F
100
AcDbEntity
  8
Layer 1
100
AcDbLine
 10
106.9172381726818
 20
420.1299794687499
 30
0.0
 11
106.8691235867443
 21
420.062332234375
 31
0.0
  0
LINE
  5
4D5
330
31F
100
AcDbEntity
  8
Layer 1
100
AcDbLine
 10
106.8691235867443
 20
420.062332234375
 30
0.0
 11
106.8124212195568
 21
419.9997154609374
 31
0.0
  0
LINE
  5
4D6
330
31F
100
AcDbEntity
  8
Layer 1
100
AcDbLine
 10
106.8124212195568
 20
419.9997154609374
 30
0.0
 11
106.7473267039318
 21
419.9422863906249
 31
0.0
  0
LINE
  5
4D7
330
31F
100
AcDbEntity
  8
Layer 1
100
AcDbLine
 10
106.7473267039318
 20
419.9422863906249
 30
0.0
 11
106.6740356023693
 21
419.8902021953125
 31
0.0
  0
LINE
  5
4D8
330
31F
100
AcDbEntity
  8
Layer 1
100
AcDbLine
 10
106.6740356023693
 20
419.8902021953125
 30
0.0
 11
106.5927435242443
 21
419.8436200937499
 31
0.0
  0
LINE
  5
4D9
330
31F
100
AcDbEntity
  8
Layer 1
100
AcDbLine
 10
106.5927435242443
 20
419.8436200937499
 30
0.0
 11
106.5036460789318
 21
419.8026973281249
 31
0.0
  0
LINE
  5
4DA
330
31F
100
AcDbEntity
  8
Layer 1
100
AcDbLine
 10
106.5036460789318
 20
419.8026973281249
 30
0.0
 11
106.4069388523693
 21
419.7675910937499
 31
0.0
  0
LINE
  5
4DB
330
31F
100
AcDbEntity
  8
Layer 1
100
AcDbLine
 10
106.4069388523693
 20
419.7675910937499
 30
0.0
 11
106.3361695320568
 21
419.7496932109374
 31
0.0
  0
LINE
  5
4DC
330
31F
100
AcDbEntity
  8
Layer 1
100
AcDbLine
 10
106.3361695320568
 20
419.7496932109374
 30
0.0
 11
106.2332297820568
 21
419.7302525546874
 31
0.0
  0
LINE
  5
4DD
330
31F
100
AcDbEntity
  8
Layer 1
100
AcDbLine
 10
106.2332297820568
 20
419.7302525546874
 30
0.0
 11
105.9507256179943
 21
419.6886210859374
 31
0.0
  0
LINE
  5
4DE
330
31F
100
AcDbEntity
  8
Layer 1
100
AcDbLine
 10
105.9507256179943
 20
419.6886210859374
 30
0.0
 11
105.5991992820568
 21
419.6464528046875
 31
0.0
  0
LINE
  5
4DF
330
31F
100
AcDbEntity
  8
Layer 1
100
AcDbLine
 10
105.5991992820568
 20
419.6464528046875
 30
0.0
 11
105.2184237195568
 21
419.6075038984374
 31
0.0
  0
LINE
  5
4E0
330
31F
100
AcDbEntity
  8
Layer 1
100
AcDbLine
 10
105.2184237195568
 20
419.6075038984374
 30
0.0
 11
104.8481718992443
 21
419.5755305078124
 31
0.0
  0
LINE
  5
4E1
330
31F
100
AcDbEntity
  8
Layer 1
100
AcDbLine
 10
104.8481718992443
 20
419.5755305078124
 30
0.0
 11
104.5282167195568
 21
419.5542887968749
 31
0.0
  0
LINE
  5
4E2
330
31F
100
AcDbEntity
  8
Layer 1
100
AcDbLine
 10
104.5282167195568
 20
419.5542887968749
 30
0.0
 11
104.2983311492443
 21
419.5475349062499
 31
0.0
  0
LINE
  5
4E3
330
31F
100
AcDbEntity
  8
Layer 1
100
AcDbLine
 10
104.2983311492443
 20
419.5475349062499
 30
0.0
 11
104.2295935086193
 21
419.5507647109375
 31
0.0
  0
LINE
  5
4E4
330
31F
100
AcDbEntity
  8
Layer 1
100
AcDbLine
 10
104.2295935086193
 20
419.5507647109375
 30
0.0
 11
104.2089510711193
 21
419.5542366953124
 31
0.0
  0
LINE
  5
4E5
330
31F
100
AcDbEntity
  8
Layer 1
100
AcDbLine
 10
104.2089510711193
 20
419.5542366953124
 30
0.0
 11
104.1982881336193
 21
419.5590250234374
 31
0.0
  0
LINE
  5
4E6
330
31F
100
AcDbEntity
  8
Layer 1
100
AcDbLine
 10
104.1982881336193
 20
419.5590250234374
 30
0.0
 11
104.1910016258068
 21
419.5812219531249
 31
0.0
  0
LINE
  5
4E7
330
31F
100
AcDbEntity
  8
Layer 1
100
AcDbLine
 10
104.1910016258068
 20
419.5812219531249
 30
0.0
 11
104.1885343133068
 21
419.6263804140625
 31
0.0
  0
LINE
  5
4E8
330
31F
100
AcDbEntity
  8
Layer 1
100
AcDbLine
 10
104.1885343133068
 20
419.6263804140625
 30
0.0
 11
104.1964749148693
 21
419.774923
 31
0.0
  0
LINE
  5
4E9
330
31F
100
AcDbEntity
  8
Layer 1
100
AcDbLine
 10
104.1964749148693
 20
419.774923
 30
0.0
 11
104.2189452664318
 21
419.983335203125
 31
0.0
  0
LINE
  5
4EA
330
31F
100
AcDbEntity
  8
Layer 1
100
AcDbLine
 10
104.2189452664318
 20
419.983335203125
 30
0.0
 11
104.2527806961193
 21
420.2302993984374
 31
0.0
  0
LINE
  5
4EB
330
31F
100
AcDbEntity
  8
Layer 1
100
AcDbLine
 10
104.2527806961193
 20
420.2302993984374
 30
0.0
 11
104.2948165789318
 21
420.4944979843749
 31
0.0
  0
LINE
  5
4EC
330
31F
100
AcDbEntity
  8
Layer 1
100
AcDbLine
 10
104.2948165789318
 20
420.4944979843749
 30
0.0
 11
104.3418882195568
 21
420.754613359375
 31
0.0
  0
LINE
  5
4ED
330
31F
100
AcDbEntity
  8
Layer 1
100
AcDbLine
 10
104.3418882195568
 20
420.754613359375
 30
0.0
 11
104.3908309695568
 21
420.9893279687499
 31
0.0
  0
LINE
  5
4EE
330
31F
100
AcDbEntity
  8
Layer 1
100
AcDbLine
 10
104.3908309695568
 20
420.9893279687499
 30
0.0
 11
104.4384802039318
 21
421.1773241406249
 31
0.0
  0
LINE
  5
4EF
330
31F
100
AcDbEntity
  8
Layer 1
100
AcDbLine
 10
104.4384802039318
 20
421.1773241406249
 30
0.0
 11
104.5038865789318
 21
421.3765555
 31
0.0
  0
LINE
  5
4F0
330
31F
100
AcDbEntity
  8
Layer 1
100
AcDbLine
 10
104.5038865789318
 20
421.3765555
 30
0.0
 11
104.5860007273693
 21
421.5924941875
 31
0.0
  0
LINE
  5
4F1
330
31F
100
AcDbEntity
  8
Layer 1
100
AcDbLine
 10
104.5860007273693
 20
421.5924941875
 30
0.0
 11
104.6699055711193
 21
421.7881749531249
 31
0.0
  0
LINE
  5
4F2
330
31F
100
AcDbEntity
  8
Layer 1
100
AcDbLine
 10
104.6699055711193
 20
421.7881749531249
 30
0.0
 11
104.7078678992443
 21
421.8668669218749
 31
0.0
  0
LINE
  5
4F3
330
31F
100
AcDbEntity
  8
Layer 1
100
AcDbLine
 10
104.7078678992443
 20
421.8668669218749
 30
0.0
 11
104.7406839617443
 21
421.9266324296874
 31
0.0
  0
LINE
  5
4F4
330
31F
100
AcDbEntity
  8
Layer 1
100
AcDbLine
 10
104.7406839617443
 20
421.9266324296874
 30
0.0
 11
104.7785803836193
 21
421.9842561484375
 31
0.0
  0
LINE
  5
4F5
330
31F
100
AcDbEntity
  8
Layer 1
100
AcDbLine
 10
104.7785803836193
 20
421.9842561484375
 30
0.0
 11
104.8198490398693
 21
422.0383482578125
 31
0.0
  0
LINE
  5
4F6
330
31F
100
AcDbEntity
  8
Layer 1
100
AcDbLine
 10
104.8198490398693
 20
422.0383482578125
 30
0.0
 11
104.8635912429943
 21
422.0880864062499
 31
0.0
  0
LINE
  5
4F7
330
31F
100
AcDbEntity
  8
Layer 1
100
AcDbLine
 10
104.8635912429943
 20
422.0880864062499
 30
0.0
 11
104.9089082117443
 21
422.1326482421875
 31
0.0
  0
LINE
  5
4F8
330
31F
100
AcDbEntity
  8
Layer 1
100
AcDbLine
 10
104.9089082117443
 20
422.1326482421875
 30
0.0
 11
104.9549012820568
 21
422.1712114375
 31
0.0
  0
LINE
  5
4F9
330
31F
100
AcDbEntity
  8
Layer 1
100
AcDbLine
 10
104.9549012820568
 20
422.1712114375
 30
0.0
 11
105.0006716726817
 21
422.2029535937499
 31
0.0
  0
LINE
  5
4FA
330
31F
100
AcDbEntity
  8
Layer 1
100
AcDbLine
 10
105.0006716726817
 20
422.2029535937499
 30
0.0
 11
105.0453206961192
 21
422.22705240625
 31
0.0
  0
LINE
  5
4FB
330
31F
100
AcDbEntity
  8
Layer 1
100
AcDbLine
 10
105.0453206961192
 20
422.22705240625
 30
0.0
 11
105.0879495945568
 21
422.2426855
 31
0.0
  0
LINE
  5
4FC
330
31F
100
AcDbEntity
  8
Layer 1
100
AcDbLine
 10
105.0879495945568
 20
422.2426855
 30
0.0
 11
105.1309798836193
 21
422.2508854140625
 31
0.0
  0
LINE
  5
4FD
330
31F
100
AcDbEntity
  8
Layer 1
100
AcDbLine
 10
105.1309798836193
 20
422.2508854140625
 30
0.0
 11
105.1782825476818
 21
422.2537472265624
 31
0.0
  0
LINE
  5
4FE
330
31F
100
AcDbEntity
  8
Layer 1
100
AcDbLine
 10
105.1782825476818
 20
422.2537472265624
 30
0.0
 11
105.2289086023693
 21
422.2514434374999
 31
0.0
  0
LINE
  5
4FF
330
31F
100
AcDbEntity
  8
Layer 1
100
AcDbLine
 10
105.2289086023693
 20
422.2514434374999
 30
0.0
 11
105.2819090164317
 21
422.2441465468749
 31
0.0
  0
LINE
  5
500
330
31F
100
AcDbEntity
  8
Layer 1
100
AcDbLine
 10
105.2819090164317
 20
422.2441465468749
 30
0.0
 11
105.3363347820568
 21
422.2320290781249
 31
0.0
  0
LINE
  5
501
330
31F
100
AcDbEntity
  8
Layer 1
100
AcDbLine
 10
105.3363347820568
 20
422.2320290781249
 30
0.0
 11
105.3912368445568
 21
422.2152635312499
 31
0.0
  0
LINE
  5
502
330
31F
100
AcDbEntity
  8
Layer 1
100
AcDbLine
 10
105.3912368445568
 20
422.2152635312499
 30
0.0
 11
105.4456662195568
 21
422.1940223828124
 31
0.0
  0
LINE
  5
503
330
31F
100
AcDbEntity
  8
Layer 1
100
AcDbLine
 10
105.4456662195568
 20
422.1940223828124
 30
0.0
 11
105.4986738758068
 21
422.1684781328124
 31
0.0
  0
LINE
  5
504
330
31F
100
AcDbEntity
  8
Layer 1
100
AcDbLine
 10
105.4986738758068
 20
422.1684781328124
 30
0.0
 11
105.5686762976818
 21
422.1378429296875
 31
0.0
  0
LINE
  5
505
330
31F
100
AcDbEntity
  8
Layer 1
100
AcDbLine
 10
105.5686762976818
 20
422.1378429296875
 30
0.0
 11
105.5923511961193
 21
422.1323937812499
 31
0.0
  0
LINE
  5
506
330
31F
100
AcDbEntity
  8
Layer 1
100
AcDbLine
 10
105.5923511961193
 20
422.1323937812499
 30
0.0
 11
105.6038870867443
 21
422.1349918046874
 31
0.0
  0
LINE
  5
507
330
31F
100
AcDbEntity
  8
Layer 1
100
AcDbLine
 10
105.6038870867443
 20
422.1349918046874
 30
0.0
 11
105.6039287586193
 21
422.1418726796875
 31
0.0
  0
LINE
  5
508
330
31F
100
AcDbEntity
  8
Layer 1
100
AcDbLine
 10
105.6039287586193
 20
422.1418726796875
 30
0.0
 11
105.5991607742443
 21
422.1536295859374
 31
0.0
  0
LINE
  5
509
330
31F
100
AcDbEntity
  8
Layer 1
100
AcDbLine
 10
105.5991607742443
 20
422.1536295859374
 30
0.0
 11
105.5772540242443
 21
422.189289109375
 31
0.0
  0
LINE
  5
50A
330
31F
100
AcDbEntity
  8
Layer 1
100
AcDbLine
 10
105.5772540242443
 20
422.189289109375
 30
0.0
 11
105.4983640086193
 21
422.2918139453124
 31
0.0
  0
LINE
  5
50B
330
31F
100
AcDbEntity
  8
Layer 1
100
AcDbLine
 10
105.4983640086193
 20
422.2918139453124
 30
0.0
 11
105.4001469148693
 21
422.4028474843749
 31
0.0
  0
LINE
  5
50C
330
31F
100
AcDbEntity
  8
Layer 1
100
AcDbLine
 10
105.4001469148693
 20
422.4028474843749
 30
0.0
 11
105.3540813054943
 21
422.449142875
 31
0.0
  0
LINE
  5
50D
330
31F
100
AcDbEntity
  8
Layer 1
100
AcDbLine
 10
105.3540813054943
 20
422.449142875
 30
0.0
 11
105.3155325945568
 21
422.4826708515624
 31
0.0
  0
LINE
  5
50E
330
31F
100
AcDbEntity
  8
Layer 1
100
AcDbLine
 10
105.3155325945568
 20
422.4826708515624
 30
0.0
 11
105.2309321023693
 21
422.5399026015624
 31
0.0
  0
LINE
  5
50F
330
31F
100
AcDbEntity
  8
Layer 1
100
AcDbLine
 10
105.2309321023693
 20
422.5399026015624
 30
0.0
 11
105.1420367586193
 21
422.5862709765625
 31
0.0
  0
LINE
  5
510
330
31F
100
AcDbEntity
  8
Layer 1
100
AcDbLine
 10
105.1420367586193
 20
422.5862709765625
 30
0.0
 11
105.0500351726818
 21
422.6215491015625
 31
0.0
  0
LINE
  5
511
330
31F
100
AcDbEntity
  8
Layer 1
100
AcDbLine
 10
105.0500351726818
 20
422.6215491015625
 30
0.0
 11
104.9561159304943
 21
422.64551003125
 31
0.0
  0
LINE
  5
512
330
31F
100
AcDbEntity
  8
Layer 1
100
AcDbLine
 10
104.9561159304943
 20
422.64551003125
 30
0.0
 11
104.8614676414318
 21
422.6579269140625
 31
0.0
  0
LINE
  5
513
330
31F
100
AcDbEntity
  8
Layer 1
100
AcDbLine
 10
104.8614676414318
 20
422.6579269140625
 30
0.0
 11
104.7672789383068
 21
422.6585728281249
 31
0.0
  0
LINE
  5
514
330
31F
100
AcDbEntity
  8
Layer 1
100
AcDbLine
 10
104.7672789383068
 20
422.6585728281249
 30
0.0
 11
104.6747383601818
 21
422.6472208749999
 31
0.0
  0
LINE
  5
515
330
31F
100
AcDbEntity
  8
Layer 1
100
AcDbLine
 10
104.6747383601818
 20
422.6472208749999
 30
0.0
 11
104.5850345633068
 21
422.62364415625
 31
0.0
  0
LINE
  5
516
330
31F
100
AcDbEntity
  8
Layer 1
100
AcDbLine
 10
104.5850345633068
 20
422.62364415625
 30
0.0
 11
104.4886802351818
 21
422.5934234218749
 31
0.0
  0
LINE
  5
517
330
31F
100
AcDbEntity
  8
Layer 1
100
AcDbLine
 10
104.4886802351818
 20
422.5934234218749
 30
0.0
 11
104.4457148914318
 21
422.5845767734375
 31
0.0
  0
LINE
  5
518
330
31F
100
AcDbEntity
  8
Layer 1
100
AcDbLine
 10
104.4457148914318
 20
422.5845767734375
 30
0.0
 11
104.4130800008068
 21
422.6908515156249
 31
0.0
  0
LINE
  5
519
330
31F
100
AcDbEntity
  8
Layer 1
100
AcDbLine
 10
104.4130800008068
 20
422.6908515156249
 30
0.0
 11
104.3515802586193
 21
422.91320265625
 31
0.0
  0
LINE
  5
51A
330
31F
100
AcDbEntity
  8
Layer 1
100
AcDbLine
 10
104.3515802586193
 20
422.91320265625
 30
0.0
 11
104.2920859695568
 21
423.1376389609375
 31
0.0
  0
LINE
  5
51B
330
31F
100
AcDbEntity
  8
Layer 1
100
AcDbLine
 10
104.2920859695568
 20
423.1376389609375
 30
0.0
 11
104.2654675086193
 21
423.25016921875
 31
0.0
  0
LINE
  5
51C
330
31F
100
AcDbEntity
  8
Layer 1
100
AcDbLine
 10
104.2654675086193
 20
423.25016921875
 30
0.0
 11
104.2707527117443
 21
423.2610395781249
 31
0.0
  0
LINE
  5
51D
330
31F
100
AcDbEntity
  8
Layer 1
100
AcDbLine
 10
104.2707527117443
 20
423.2610395781249
 30
0.0
 11
104.2856570164318
 21
423.269311515625
 31
0.0
  0
LINE
  5
51E
330
31F
100
AcDbEntity
  8
Layer 1
100
AcDbLine
 10
104.2856570164318
 20
423.269311515625
 30
0.0
 11
104.3089667351818
 21
423.274575203125
 31
0.0
  0
LINE
  5
51F
330
31F
100
AcDbEntity
  8
Layer 1
100
AcDbLine
 10
104.3089667351818
 20
423.274575203125
 30
0.0
 11
104.3394681570568
 21
423.2764208359374
 31
0.0
  0
LINE
  5
520
330
31F
100
AcDbEntity
  8
Layer 1
100
AcDbLine
 10
104.3394681570568
 20
423.2764208359374
 30
0.0
 11
104.3916976648693
 21
423.2791670312499
 31
0.0
  0
LINE
  5
521
330
31F
100
AcDbEntity
  8
Layer 1
100
AcDbLine
 10
104.3916976648693
 20
423.2791670312499
 30
0.0
 11
104.4076171179943
 21
423.282126390625
 31
0.0
  0
LINE
  5
522
330
31F
100
AcDbEntity
  8
Layer 1
100
AcDbLine
 10
104.4076171179943
 20
423.282126390625
 30
0.0
 11
104.4134688054942
 21
423.2857225937499
 31
0.0
  0
LINE
  5
523
330
31F
100
AcDbEntity
  8
Layer 1
100
AcDbLine
 10
104.4134688054942
 20
423.2857225937499
 30
0.0
 11
104.3721084617443
 21
423.3530391953125
 31
0.0
  0
LINE
  5
524
330
31F
100
AcDbEntity
  8
Layer 1
100
AcDbLine
 10
104.3721084617443
 20
423.3530391953125
 30
0.0
 11
104.2727021961193
 21
423.5019367890625
 31
0.0
  0
LINE
  5
525
330
31F
100
AcDbEntity
  8
Layer 1
100
AcDbLine
 10
104.2727021961193
 20
423.5019367890625
 30
0.0
 11
104.2110913367443
 21
423.5971715078124
 31
0.0
  0
LINE
  5
526
330
31F
100
AcDbEntity
  8
Layer 1
100
AcDbLine
 10
104.2110913367443
 20
423.5971715078124
 30
0.0
 11
104.1473665320568
 21
423.703440859375
 31
0.0
  0
LINE
  5
527
330
31F
100
AcDbEntity
  8
Layer 1
100
AcDbLine
 10
104.1473665320568
 20
423.703440859375
 30
0.0
 11
104.0890520633068
 21
423.8077635156249
 31
0.0
  0
LINE
  5
528
330
31F
100
AcDbEntity
  8
Layer 1
100
AcDbLine
 10
104.0890520633068
 20
423.8077635156249
 30
0.0
 11
104.0436722586193
 21
423.8971581484374
 31
0.0
  0
LINE
  5
529
330
31F
100
AcDbEntity
  8
Layer 1
100
AcDbLine
 10
104.0436722586193
 20
423.8971581484374
 30
0.0
 11
103.9605765476818
 21
424.0745116562499
 31
0.0
  0
LINE
  5
52A
330
31F
100
AcDbEntity
  8
Layer 1
100
AcDbLine
 10
103.9605765476818
 20
424.0745116562499
 30
0.0
 11
103.8772741414318
 21
423.8971581484374
 31
0.0
  0
LINE
  5
52B
330
31F
100
AcDbEntity
  8
Layer 1
100
AcDbLine
 10
103.8772741414318
 20
423.8971581484374
 30
0.0
 11
103.8772741414318
 21
423.8971581484374
 31
0.0
  0
LINE
  5
52C
330
31F
100
AcDbEntity
  8
Layer 1
100
AcDbLine
 10
103.9537552508068
 20
422.9574739140624
 30
0.0
 11
103.9671911258068
 21
422.9574739140624
 31
0.0
  0
LINE
  5
52D
330
31F
100
AcDbEntity
  8
Layer 1
100
AcDbLine
 10
103.9671911258068
 20
422.9574739140624
 30
0.0
 11
103.9824893211193
 21
422.9506454921875
 31
0.0
  0
LINE
  5
52E
330
31F
100
AcDbEntity
  8
Layer 1
100
AcDbLine
 10
103.9824893211193
 20
422.9506454921875
 30
0.0
 11
103.9981795554943
 21
422.9345572890625
 31
0.0
  0
LINE
  5
52F
330
31F
100
AcDbEntity
  8
Layer 1
100
AcDbLine
 10
103.9981795554943
 20
422.9345572890625
 30
0.0
 11
104.0145305867443
 21
422.9089161718749
 31
0.0
  0
LINE
  5
530
330
31F
100
AcDbEntity
  8
Layer 1
100
AcDbLine
 10
104.0145305867443
 20
422.9089161718749
 30
0.0
 11
104.0318112429943
 21
422.8734290546874
 31
0.0
  0
LINE
  5
531
330
31F
100
AcDbEntity
  8
Layer 1
100
AcDbLine
 10
104.0318112429943
 20
422.8734290546874
 30
0.0
 11
104.0702365789318
 21
422.7717442890624
 31
0.0
  0
LINE
  5
532
330
31F
100
AcDbEntity
  8
Layer 1
100
AcDbLine
 10
104.0702365789318
 20
422.7717442890624
 30
0.0
 11
104.1156058367443
 21
422.6271581406249
 31
0.0
  0
LINE
  5
533
330
31F
100
AcDbEntity
  8
Layer 1
100
AcDbLine
 10
104.1156058367443
 20
422.6271581406249
 30
0.0
 11
104.1644952195568
 21
422.439859609375
 31
0.0
  0
LINE
  5
534
330
31F
100
AcDbEntity
  8
Layer 1
100
AcDbLine
 10
104.1644952195568
 20
422.439859609375
 30
0.0
 11
104.1826160867443
 21
422.3542375703124
 31
0.0
  0
LINE
  5
535
330
31F
100
AcDbEntity
  8
Layer 1
100
AcDbLine
 10
104.1826160867443
 20
422.3542375703124
 30
0.0
 11
104.1931204929943
 21
422.288780875
 31
0.0
  0
LINE
  5
536
330
31F
100
AcDbEntity
  8
Layer 1
100
AcDbLine
 10
104.1931204929943
 20
422.288780875
 30
0.0
 11
104.2074722820568
 21
422.1865231796875
 31
0.0
  0
LINE
  5
537
330
31F
100
AcDbEntity
  8
Layer 1
100
AcDbLine
 10
104.2074722820568
 20
422.1865231796875
 30
0.0
 11
104.2165799773693
 21
422.1563649765625
 31
0.0
  0
LINE
  5
538
330
31F
100
AcDbEntity
  8
Layer 1
100
AcDbLine
 10
104.2165799773693
 20
422.1563649765625
 30
0.0
 11
104.2291510789318
 21
422.1383790625
 31
0.0
  0
LINE
  5
539
330
31F
100
AcDbEntity
  8
Layer 1
100
AcDbLine
 10
104.2291510789318
 20
422.1383790625
 30
0.0
 11
104.2468172586193
 21
422.1312093671874
 31
0.0
  0
LINE
  5
53A
330
31F
100
AcDbEntity
  8
Layer 1
100
AcDbLine
 10
104.2468172586193
 20
422.1312093671874
 30
0.0
 11
104.2712101648693
 21
422.1334998203124
 31
0.0
  0
LINE
  5
53B
330
31F
100
AcDbEntity
  8
Layer 1
100
AcDbLine
 10
104.2712101648693
 20
422.1334998203124
 30
0.0
 11
104.3039614695568
 21
422.1438943046875
 31
0.0
  0
LINE
  5
53C
330
31F
100
AcDbEntity
  8
Layer 1
100
AcDbLine
 10
104.3039614695568
 20
422.1438943046875
 30
0.0
 11
104.3467028445568
 21
422.1610367265625
 31
0.0
  0
LINE
  5
53D
330
31F
100
AcDbEntity
  8
Layer 1
100
AcDbLine
 10
104.3467028445568
 20
422.1610367265625
 30
0.0
 11
104.4272815789317
 21
422.1902255312499
 31
0.0
  0
LINE
  5
53E
330
31F
100
AcDbEntity
  8
Layer 1
100
AcDbLine
 10
104.4272815789317
 20
422.1902255312499
 30
0.0
 11
104.4541522508068
 21
422.19675934375
 31
0.0
  0
LINE
  5
53F
330
31F
100
AcDbEntity
  8
Layer 1
100
AcDbLine
 10
104.4541522508068
 20
422.19675934375
 30
0.0
 11
104.4667988679943
 21
422.1963834062499
 31
0.0
  0
LINE
  5
540
330
31F
100
AcDbEntity
  8
Layer 1
100
AcDbLine
 10
104.4667988679943
 20
422.1963834062499
 30
0.0
 11
104.4623458601818
 21
422.1764019765624
 31
0.0
  0
LINE
  5
541
330
31F
100
AcDbEntity
  8
Layer 1
100
AcDbLine
 10
104.4623458601818
 20
422.1764019765624
 30
0.0
 11
104.4426650398693
 21
422.1295551953124
 31
0.0
  0
LINE
  5
542
330
31F
100
AcDbEntity
  8
Layer 1
100
AcDbLine
 10
104.4426650398693
 20
422.1295551953124
 30
0.0
 11
104.3702673054943
 21
421.9832698046874
 31
0.0
  0
LINE
  5
543
330
31F
100
AcDbEntity
  8
Layer 1
100
AcDbLine
 10
104.3702673054943
 20
421.9832698046874
 30
0.0
 11
104.2781869695568
 21
421.7949411953124
 31
0.0
  0
LINE
  5
544
330
31F
100
AcDbEntity
  8
Layer 1
100
AcDbLine
 10
104.2781869695568
 20
421.7949411953124
 30
0.0
 11
104.2379791414318
 21
421.7007138203125
 31
0.0
  0
LINE
  5
545
330
31F
100
AcDbEntity
  8
Layer 1
100
AcDbLine
 10
104.2379791414318
 20
421.7007138203125
 30
0.0
 11
104.2005392820568
 21
421.6033593906249
 31
0.0
  0
LINE
  5
546
330
31F
100
AcDbEntity
  8
Layer 1
100
AcDbLine
 10
104.2005392820568
 20
421.6033593906249
 30
0.0
 11
104.1306026961193
 21
421.3900144609374
 31
0.0
  0
LINE
  5
547
330
31F
100
AcDbEntity
  8
Layer 1
100
AcDbLine
 10
104.1306026961193
 20
421.3900144609374
 30
0.0
 11
104.0616556414318
 21
421.1363964062499
 31
0.0
  0
LINE
  5
548
330
31F
100
AcDbEntity
  8
Layer 1
100
AcDbLine
 10
104.0616556414318
 20
421.1363964062499
 30
0.0
 11
104.0059372742443
 21
420.9222056640625
 31
0.0
  0
LINE
  5
549
330
31F
100
AcDbEntity
  8
Layer 1
100
AcDbLine
 10
104.0059372742443
 20
420.9222056640625
 30
0.0
 11
103.9771130164318
 21
420.8236506484374
 31
0.0
  0
LINE
  5
54A
330
31F
100
AcDbEntity
  8
Layer 1
100
AcDbLine
 10
103.9771130164318
 20
420.8236506484374
 30
0.0
 11
103.9671911258068
 21
420.8133153671875
 31
0.0
  0
LINE
  5
54B
330
31F
100
AcDbEntity
  8
Layer 1
100
AcDbLine
 10
103.9671911258068
 20
420.8133153671875
 30
0.0
 11
103.9537552508068
 21
420.8133153671875
 31
0.0
  0
LINE
  5
54C
330
31F
100
AcDbEntity
  8
Layer 1
100
AcDbLine
 10
103.9537552508068
 20
420.8133153671875
 30
0.0
 11
103.9438333836193
 21
420.8236506484374
 31
0.0
  0
LINE
  5
54D
330
31F
100
AcDbEntity
  8
Layer 1
100
AcDbLine
 10
103.9438333836193
 20
420.8236506484374
 30
0.0
 11
103.9150090789318
 21
420.9222056640625
 31
0.0
  0
LINE
  5
54E
330
31F
100
AcDbEntity
  8
Layer 1
100
AcDbLine
 10
103.9150090789318
 20
420.9222056640625
 30
0.0
 11
103.8592907351818
 21
421.1363964062499
 31
0.0
  0
LINE
  5
54F
330
31F
100
AcDbEntity
  8
Layer 1
100
AcDbLine
 10
103.8592907351818
 20
421.1363964062499
 30
0.0
 11
103.7903436804943
 21
421.3900144609374
 31
0.0
  0
LINE
  5
550
330
31F
100
AcDbEntity
  8
Layer 1
100
AcDbLine
 10
103.7903436804943
 20
421.3900144609374
 30
0.0
 11
103.7204070711193
 21
421.6033593906249
 31
0.0
  0
LINE
  5
551
330
31F
100
AcDbEntity
  8
Layer 1
100
AcDbLine
 10
103.7204070711193
 20
421.6033593906249
 30
0.0
 11
103.6829672117443
 21
421.7007138203125
 31
0.0
  0
LINE
  5
552
330
31F
100
AcDbEntity
  8
Layer 1
100
AcDbLine
 10
103.6829672117443
 20
421.7007138203125
 30
0.0
 11
103.6427594070568
 21
421.7949411953124
 31
0.0
  0
LINE
  5
553
330
31F
100
AcDbEntity
  8
Layer 1
100
AcDbLine
 10
103.6427594070568
 20
421.7949411953124
 30
0.0
 11
103.5506790945568
 21
421.9832698046874
 31
0.0
  0
LINE
  5
554
330
31F
100
AcDbEntity
  8
Layer 1
100
AcDbLine
 10
103.5506790945568
 20
421.9832698046874
 30
0.0
 11
103.4782813133068
 21
422.1295551953124
 31
0.0
  0
LINE
  5
555
330
31F
100
AcDbEntity
  8
Layer 1
100
AcDbLine
 10
103.4782813133068
 20
422.1295551953124
 30
0.0
 11
103.4586005164318
 21
422.1764019765624
 31
0.0
  0
LINE
  5
556
330
31F
100
AcDbEntity
  8
Layer 1
100
AcDbLine
 10
103.4586005164318
 20
422.1764019765624
 30
0.0
 11
103.4541475086193
 21
422.1963834062499
 31
0.0
  0
LINE
  5
557
330
31F
100
AcDbEntity
  8
Layer 1
100
AcDbLine
 10
103.4541475086193
 20
422.1963834062499
 30
0.0
 11
103.4667941258068
 21
422.19675934375
 31
0.0
  0
LINE
  5
558
330
31F
100
AcDbEntity
  8
Layer 1
100
AcDbLine
 10
103.4667941258068
 20
422.19675934375
 30
0.0
 11
103.4936647742443
 21
422.1902255312499
 31
0.0
  0
LINE
  5
559
330
31F
100
AcDbEntity
  8
Layer 1
100
AcDbLine
 10
103.4936647742443
 20
422.1902255312499
 30
0.0
 11
103.5742435320568
 21
422.1610367265625
 31
0.0
  0
LINE
  5
55A
330
31F
100
AcDbEntity
  8
Layer 1
100
AcDbLine
 10
103.5742435320568
 20
422.1610367265625
 30
0.0
 11
103.6169848836193
 21
422.1438943046875
 31
0.0
  0
LINE
  5
55B
330
31F
100
AcDbEntity
  8
Layer 1
100
AcDbLine
 10
103.6169848836193
 20
422.1438943046875
 30
0.0
 11
103.6497361883068
 21
422.1334998203124
 31
0.0
  0
LINE
  5
55C
330
31F
100
AcDbEntity
  8
Layer 1
100
AcDbLine
 10
103.6497361883068
 20
422.1334998203124
 30
0.0
 11
103.6741291179943
 21
422.1312093671874
 31
0.0
  0
LINE
  5
55D
330
31F
100
AcDbEntity
  8
Layer 1
100
AcDbLine
 10
103.6741291179943
 20
422.1312093671874
 30
0.0
 11
103.6917952976818
 21
422.1383790625
 31
0.0
  0
LINE
  5
55E
330
31F
100
AcDbEntity
  8
Layer 1
100
AcDbLine
 10
103.6917952976818
 20
422.1383790625
 30
0.0
 11
103.7043663992443
 21
422.1563649765625
 31
0.0
  0
LINE
  5
55F
330
31F
100
AcDbEntity
  8
Layer 1
100
AcDbLine
 10
103.7043663992443
 20
422.1563649765625
 30
0.0
 11
103.7134740945568
 21
422.1865231796875
 31
0.0
  0
LINE
  5
560
330
31F
100
AcDbEntity
  8
Layer 1
100
AcDbLine
 10
103.7134740945568
 20
422.1865231796875
 30
0.0
 11
103.7278259070568
 21
422.288780875
 31
0.0
  0
LINE
  5
561
330
31F
100
AcDbEntity
  8
Layer 1
100
AcDbLine
 10
103.7278259070568
 20
422.288780875
 30
0.0
 11
103.7383302664318
 21
422.3542375703124
 31
0.0
  0
LINE
  5
562
330
31F
100
AcDbEntity
  8
Layer 1
100
AcDbLine
 10
103.7383302664318
 20
422.3542375703124
 30
0.0
 11
103.7564511570568
 21
422.439859609375
 31
0.0
  0
LINE
  5
563
330
31F
100
AcDbEntity
  8
Layer 1
100
AcDbLine
 10
103.7564511570568
 20
422.439859609375
 30
0.0
 11
103.8053405398692
 21
422.6271581406249
 31
0.0
  0
LINE
  5
564
330
31F
100
AcDbEntity
  8
Layer 1
100
AcDbLine
 10
103.8053405398692
 20
422.6271581406249
 30
0.0
 11
103.8507097976818
 21
422.7717442890624
 31
0.0
  0
LINE
  5
565
330
31F
100
AcDbEntity
  8
Layer 1
100
AcDbLine
 10
103.8507097976818
 20
422.7717442890624
 30
0.0
 11
103.8891351101818
 21
422.8734290546874
 31
0.0
  0
LINE
  5
566
330
31F
100
AcDbEntity
  8
Layer 1
100
AcDbLine
 10
103.8891351101818
 20
422.8734290546874
 30
0.0
 11
103.9064157664318
 21
422.9089161718749
 31
0.0
  0
LINE
  5
567
330
31F
100
AcDbEntity
  8
Layer 1
100
AcDbLine
 10
103.9064157664318
 20
422.9089161718749
 30
0.0
 11
103.9227668211193
 21
422.9345572890625
 31
0.0
  0
LINE
  5
568
330
31F
100
AcDbEntity
  8
Layer 1
100
AcDbLine
 10
103.9227668211193
 20
422.9345572890625
 30
0.0
 11
103.9384570554943
 21
422.9506454921875
 31
0.0
  0
LINE
  5
569
330
31F
100
AcDbEntity
  8
Layer 1
100
AcDbLine
 10
103.9384570554943
 20
422.9506454921875
 30
0.0
 11
103.9537552508068
 21
422.9574739140624
 31
0.0
  0
LINE
  5
56A
330
31F
100
AcDbEntity
  8
Layer 1
100
AcDbLine
 10
103.9537552508068
 20
422.9574739140624
 30
0.0
 11
103.9537552508068
 21
422.9574739140624
 31
0.0
  0
LINE
  5
56B
330
31F
100
AcDbEntity
  8
Layer 1
100
AcDbLine
 10
101.0497463679943
 20
419.8033511874999
 30
0.0
 11
101.1235403211192
 21
419.755808875
 31
0.0
  0
LINE
  5
56C
330
31F
100
AcDbEntity
  8
Layer 1
100
AcDbLine
 10
101.1235403211192
 20
419.755808875
 30
0.0
 11
101.2248728914318
 21
419.696079671875
 31
0.0
  0
LINE
  5
56D
330
31F
100
AcDbEntity
  8
Layer 1
100
AcDbLine
 10
101.2248728914318
 20
419.696079671875
 30
0.0
 11
101.3343293445568
 21
419.6430182265625
 31
0.0
  0
LINE
  5
56E
330
31F
100
AcDbEntity
  8
Layer 1
100
AcDbLine
 10
101.3343293445568
 20
419.6430182265625
 30
0.0
 11
101.4545737273693
 21
419.5958769296874
 31
0.0
  0
LINE
  5
56F
330
31F
100
AcDbEntity
  8
Layer 1
100
AcDbLine
 10
101.4545737273693
 20
419.5958769296874
 30
0.0
 11
101.5882701570568
 21
419.553908171875
 31
0.0
  0
LINE
  5
570
330
31F
100
AcDbEntity
  8
Layer 1
100
AcDbLine
 10
101.5882701570568
 20
419.553908171875
 30
0.0
 11
101.7380827039318
 21
419.516364296875
 31
0.0
  0
LINE
  5
571
330
31F
100
AcDbEntity
  8
Layer 1
100
AcDbLine
 10
101.7380827039318
 20
419.516364296875
 30
0.0
 11
101.9066754851818
 21
419.48249771875
 31
0.0
  0
LINE
  5
572
330
31F
100
AcDbEntity
  8
Layer 1
100
AcDbLine
 10
101.9066754851818
 20
419.48249771875
 30
0.0
 11
102.0967125711192
 21
419.4515608046875
 31
0.0
  0
LINE
  5
573
330
31F
100
AcDbEntity
  8
Layer 1
100
AcDbLine
 10
102.0967125711192
 20
419.4515608046875
 30
0.0
 11
102.3108580554943
 21
419.4228059453124
 31
0.0
  0
LINE
  5
574
330
31F
100
AcDbEntity
  8
Layer 1
100
AcDbLine
 10
102.3108580554943
 20
419.4228059453124
 30
0.0
 11
102.5111735633068
 21
419.3932176015624
 31
0.0
  0
LINE
  5
575
330
31F
100
AcDbEntity
  8
Layer 1
100
AcDbLine
 10
102.5111735633068
 20
419.3932176015624
 30
0.0
 11
102.5683630554943
 21
419.38079940625
 31
0.0
  0
LINE
  5
576
330
31F
100
AcDbEntity
  8
Layer 1
100
AcDbLine
 10
102.5683630554943
 20
419.38079940625
 30
0.0
 11
102.5822922898693
 21
419.3759054687499
 31
0.0
  0
LINE
  5
577
330
31F
100
AcDbEntity
  8
Layer 1
100
AcDbLine
 10
102.5822922898693
 20
419.3759054687499
 30
0.0
 11
102.5849498445568
 21
419.3721630390625
 31
0.0
  0
LINE
  5
578
330
31F
100
AcDbEntity
  8
Layer 1
100
AcDbLine
 10
102.5849498445568
 20
419.3721630390625
 30
0.0
 11
102.5620008054943
 21
419.3626665859374
 31
0.0
  0
LINE
  5
579
330
31F
100
AcDbEntity
  8
Layer 1
100
AcDbLine
 10
102.5620008054943
 20
419.3626665859374
 30
0.0
 11
102.5115253133068
 21
419.3479193593749
 31
0.0
  0
LINE
  5
57A
330
31F
100
AcDbEntity
  8
Layer 1
100
AcDbLine
 10
102.5115253133068
 20
419.3479193593749
 30
0.0
 11
102.3577802586193
 21
419.3107714375
 31
0.0
  0
LINE
  5
57B
330
31F
100
AcDbEntity
  8
Layer 1
100
AcDbLine
 10
102.3577802586193
 20
419.3107714375
 30
0.0
 11
102.1642953992443
 21
419.2659604609374
 31
0.0
  0
LINE
  5
57C
330
31F
100
AcDbEntity
  8
Layer 1
100
AcDbLine
 10
102.1642953992443
 20
419.2659604609374
 30
0.0
 11
102.0043135554943
 21
419.2229001249999
 31
0.0
  0
LINE
  5
57D
330
31F
100
AcDbEntity
  8
Layer 1
100
AcDbLine
 10
102.0043135554943
 20
419.2229001249999
 30
0.0
 11
101.8730733289318
 21
419.17917325
 31
0.0
  0
LINE
  5
57E
330
31F
100
AcDbEntity
  8
Layer 1
100
AcDbLine
 10
101.8730733289318
 20
419.17917325
 30
0.0
 11
101.7658133679943
 21
419.1323626796874
 31
0.0
  0
LINE
  5
57F
330
31F
100
AcDbEntity
  8
Layer 1
100
AcDbLine
 10
101.7658133679943
 20
419.1323626796874
 30
0.0
 11
101.7196880164318
 21
419.1070456796874
 31
0.0
  0
LINE
  5
580
330
31F
100
AcDbEntity
  8
Layer 1
100
AcDbLine
 10
101.7196880164318
 20
419.1070456796874
 30
0.0
 11
101.6777722273693
 21
419.0800513046874
 31
0.0
  0
LINE
  5
581
330
31F
100
AcDbEntity
  8
Layer 1
100
AcDbLine
 10
101.6777722273693
 20
419.0800513046874
 30
0.0
 11
101.6394707820568
 21
419.0510774453125
 31
0.0
  0
LINE
  5
582
330
31F
100
AcDbEntity
  8
Layer 1
100
AcDbLine
 10
101.6394707820568
 20
419.0510774453125
 30
0.0
 11
101.6041885320568
 21
419.0198219453124
 31
0.0
  0
LINE
  5
583
330
31F
100
AcDbEntity
  8
Layer 1
100
AcDbLine
 10
101.6041885320568
 20
419.0198219453124
 30
0.0
 11
101.5403009070568
 21
418.9492574687499
 31
0.0
  0
LINE
  5
584
330
31F
100
AcDbEntity
  8
Layer 1
100
AcDbLine
 10
101.5403009070568
 20
418.9492574687499
 30
0.0
 11
101.4813479539318
 21
418.8659406953124
 31
0.0
  0
LINE
  5
585
330
31F
100
AcDbEntity
  8
Layer 1
100
AcDbLine
 10
101.4813479539318
 20
418.8659406953124
 30
0.0
 11
101.4513037273693
 21
418.8129269453124
 31
0.0
  0
LINE
  5
586
330
31F
100
AcDbEntity
  8
Layer 1
100
AcDbLine
 10
101.4513037273693
 20
418.8129269453124
 30
0.0
 11
101.4195978758068
 21
418.74666615625
 31
0.0
  0
LINE
  5
587
330
31F
100
AcDbEntity
  8
Layer 1
100
AcDbLine
 10
101.4195978758068
 20
418.74666615625
 30
0.0
 11
101.3899832820568
 21
418.67560215625
 31
0.0
  0
LINE
  5
588
330
31F
100
AcDbEntity
  8
Layer 1
100
AcDbLine
 10
101.3899832820568
 20
418.67560215625
 30
0.0
 11
101.3662128523693
 21
418.60817865625
 31
0.0
  0
LINE
  5
589
330
31F
100
AcDbEntity
  8
Layer 1
100
AcDbLine
 10
101.3662128523693
 20
418.60817865625
 30
0.0
 11
101.3186705398693
 21
418.455836546875
 31
0.0
  0
LINE
  5
58A
330
31F
100
AcDbEntity
  8
Layer 1
100
AcDbLine
 10
101.3186705398693
 20
418.455836546875
 30
0.0
 11
101.2930390086193
 21
418.5190884999999
 31
0.0
  0
LINE
  5
58B
330
31F
100
AcDbEntity
  8
Layer 1
100
AcDbLine
 10
101.2930390086193
 20
418.5190884999999
 30
0.0
 11
101.2814842039318
 21
418.5581912265623
 31
0.0
  0
LINE
  5
58C
330
31F
100
AcDbEntity
  8
Layer 1
100
AcDbLine
 10
101.2814842039318
 20
418.5581912265623
 30
0.0
 11
101.2760692742443
 21
418.6024580546875
 31
0.0
  0
LINE
  5
58D
330
31F
100
AcDbEntity
  8
Layer 1
100
AcDbLine
 10
101.2760692742443
 20
418.6024580546875
 30
0.0
 11
101.2766705633068
 21
418.651180703125
 31
0.0
  0
LINE
  5
58E
330
31F
100
AcDbEntity
  8
Layer 1
100
AcDbLine
 10
101.2766705633068
 20
418.651180703125
 30
0.0
 11
101.2831644383068
 21
418.70365084375
 31
0.0
  0
LINE
  5
58F
330
31F
100
AcDbEntity
  8
Layer 1
100
AcDbLine
 10
101.2831644383068
 20
418.70365084375
 30
0.0
 11
101.2954272664318
 21
418.75916021875
 31
0.0
  0
LINE
  5
590
330
31F
100
AcDbEntity
  8
Layer 1
100
AcDbLine
 10
101.2954272664318
 20
418.75916021875
 30
0.0
 11
101.3133353445568
 21
418.8170005234374
 31
0.0
  0
LINE
  5
591
330
31F
100
AcDbEntity
  8
Layer 1
100
AcDbLine
 10
101.3133353445568
 20
418.8170005234374
 30
0.0
 11
101.3367650633067
 21
418.8764634765624
 31
0.0
  0
LINE
  5
592
330
31F
100
AcDbEntity
  8
Layer 1
100
AcDbLine
 10
101.3367650633067
 20
418.8764634765624
 30
0.0
 11
101.3655927429943
 21
418.9368407734375
 31
0.0
  0
LINE
  5
593
330
31F
100
AcDbEntity
  8
Layer 1
100
AcDbLine
 10
101.3655927429943
 20
418.9368407734375
 30
0.0
 11
101.4181706258068
 21
419.0409427656249
 31
0.0
  0
LINE
  5
594
330
31F
100
AcDbEntity
  8
Layer 1
100
AcDbLine
 10
101.4181706258068
 20
419.0409427656249
 30
0.0
 11
101.4400068054943
 21
419.0898030156249
 31
0.0
  0
LINE
  5
595
330
31F
100
AcDbEntity
  8
Layer 1
100
AcDbLine
 10
101.4400068054943
 20
419.0898030156249
 30
0.0
 11
101.4224408445568
 21
419.0934968359374
 31
0.0
  0
LINE
  5
596
330
31F
100
AcDbEntity
  8
Layer 1
100
AcDbLine
 10
101.4224408445568
 20
419.0934968359374
 30
0.0
 11
101.3746123836193
 21
419.0965200390625
 31
0.0
  0
LINE
  5
597
330
31F
100
AcDbEntity
  8
Layer 1
100
AcDbLine
 10
101.3746123836193
 20
419.0965200390625
 30
0.0
 11
101.2173847273693
 21
419.0993114687499
 31
0.0
  0
LINE
  5
598
330
31F
100
AcDbEntity
  8
Layer 1
100
AcDbLine
 10
101.2173847273693
 20
419.0993114687499
 30
0.0
 11
101.1308859383068
 21
419.1011251796874
 31
0.0
  0
LINE
  5
599
330
31F
100
AcDbEntity
  8
Layer 1
100
AcDbLine
 10
101.1308859383068
 20
419.1011251796874
 30
0.0
 11
101.0458066179943
 21
419.1064895781249
 31
0.0
  0
LINE
  5
59A
330
31F
100
AcDbEntity
  8
Layer 1
100
AcDbLine
 10
101.0458066179943
 20
419.1064895781249
 30
0.0
 11
100.9628053601818
 21
419.1152896562499
 31
0.0
  0
LINE
  5
59B
330
31F
100
AcDbEntity
  8
Layer 1
100
AcDbLine
 10
100.9628053601818
 20
419.1152896562499
 30
0.0
 11
100.8825408054943
 21
419.1274103359375
 31
0.0
  0
LINE
  5
59C
330
31F
100
AcDbEntity
  8
Layer 1
100
AcDbLine
 10
100.8825408054943
 20
419.1274103359375
 30
0.0
 11
100.8056715476818
 21
419.1427366093749
 31
0.0
  0
LINE
  5
59D
330
31F
100
AcDbEntity
  8
Layer 1
100
AcDbLine
 10
100.8056715476818
 20
419.1427366093749
 30
0.0
 11
100.7328562273693
 21
419.1611533984375
 31
0.0
  0
LINE
  5
59E
330
31F
100
AcDbEntity
  8
Layer 1
100
AcDbLine
 10
100.7328562273693
 20
419.1611533984375
 30
0.0
 11
100.6647534617443
 21
419.1825456953124
 31
0.0
  0
LINE
  5
59F
330
31F
100
AcDbEntity
  8
Layer 1
100
AcDbLine
 10
100.6647534617443
 20
419.1825456953124
 30
0.0
 11
100.6020218679943
 21
419.2067984453125
 31
0.0
  0
LINE
  5
5A0
330
31F
100
AcDbEntity
  8
Layer 1
100
AcDbLine
 10
100.6020218679943
 20
419.2067984453125
 30
0.0
 11
100.5383444070568
 21
419.2399585703125
 31
0.0
  0
LINE
  5
5A1
330
31F
100
AcDbEntity
  8
Layer 1
100
AcDbLine
 10
100.5383444070568
 20
419.2399585703125
 30
0.0
 11
100.5189991414318
 21
419.2545713828124
 31
0.0
  0
LINE
  5
5A2
330
31F
100
AcDbEntity
  8
Layer 1
100
AcDbLine
 10
100.5189991414318
 20
419.2545713828124
 30
0.0
 11
100.5118981648693
 21
419.2652961718749
 31
0.0
  0
LINE
  5
5A3
330
31F
100
AcDbEntity
  8
Layer 1
100
AcDbLine
 10
100.5118981648693
 20
419.2652961718749
 30
0.0
 11
100.5173126492443
 21
419.2719727187499
 31
0.0
  0
LINE
  5
5A4
330
31F
100
AcDbEntity
  8
Layer 1
100
AcDbLine
 10
100.5173126492443
 20
419.2719727187499
 30
0.0
 11
100.5328209148693
 21
419.2816955546875
 31
0.0
  0
LINE
  5
5A5
330
31F
100
AcDbEntity
  8
Layer 1
100
AcDbLine
 10
100.5328209148693
 20
419.2816955546875
 30
0.0
 11
100.5897071023693
 21
419.3086746953125
 31
0.0
  0
LINE
  5
5A6
330
31F
100
AcDbEntity
  8
Layer 1
100
AcDbLine
 10
100.5897071023693
 20
419.3086746953125
 30
0.0
 11
100.7760777195568
 21
419.3815297890625
 31
0.0
  0
LINE
  5
5A7
330
31F
100
AcDbEntity
  8
Layer 1
100
AcDbLine
 10
100.7760777195568
 20
419.3815297890625
 30
0.0
 11
101.0004256648693
 21
419.4581764375
 31
0.0
  0
LINE
  5
5A8
330
31F
100
AcDbEntity
  8
Layer 1
100
AcDbLine
 10
101.0004256648693
 20
419.4581764375
 30
0.0
 11
101.1047835242443
 21
419.4898950390625
 31
0.0
  0
LINE
  5
5A9
330
31F
100
AcDbEntity
  8
Layer 1
100
AcDbLine
 10
101.1047835242443
 20
419.4898950390625
 30
0.0
 11
101.1921666336193
 21
419.512929625
 31
0.0
  0
LINE
  5
5AA
330
31F
100
AcDbEntity
  8
Layer 1
100
AcDbLine
 10
101.1921666336193
 20
419.512929625
 30
0.0
 11
101.3076406179943
 21
419.543714453125
 31
0.0
  0
LINE
  5
5AB
330
31F
100
AcDbEntity
  8
Layer 1
100
AcDbLine
 10
101.3076406179943
 20
419.543714453125
 30
0.0
 11
101.3427690242443
 21
419.5561704531248
 31
0.0
  0
LINE
  5
5AC
330
31F
100
AcDbEntity
  8
Layer 1
100
AcDbLine
 10
101.3427690242443
 20
419.5561704531248
 30
0.0
 11
101.3556708758068
 21
419.5643993593749
 31
0.0
  0
LINE
  5
5AD
330
31F
100
AcDbEntity
  8
Layer 1
100
AcDbLine
 10
101.3556708758068
 20
419.5643993593749
 30
0.0
 11
101.3477464461193
 21
419.5739482890624
 31
0.0
  0
LINE
  5
5AE
330
31F
100
AcDbEntity
  8
Layer 1
100
AcDbLine
 10
101.3477464461193
 20
419.5739482890624
 30
0.0
 11
101.3261674695568
 21
419.58999934375
 31
0.0
  0
LINE
  5
5AF
330
31F
100
AcDbEntity
  8
Layer 1
100
AcDbLine
 10
101.3261674695568
 20
419.58999934375
 30
0.0
 11
101.2552118679943
 21
419.6326122578124
 31
0.0
  0
LINE
  5
5B0
330
31F
100
AcDbEntity
  8
Layer 1
100
AcDbLine
 10
101.2552118679943
 20
419.6326122578124
 30
0.0
 11
101.1688250164318
 21
419.6882403437499
 31
0.0
  0
LINE
  5
5B1
330
31F
100
AcDbEntity
  8
Layer 1
100
AcDbLine
 10
101.1688250164318
 20
419.6882403437499
 30
0.0
 11
101.1305505476818
 21
419.7184176015625
 31
0.0
  0
LINE
  5
5B2
330
31F
100
AcDbEntity
  8
Layer 1
100
AcDbLine
 10
101.1305505476818
 20
419.7184176015625
 30
0.0
 11
101.1022496258068
 21
419.745266875
 31
0.0
  0
LINE
  5
5B3
330
31F
100
AcDbEntity
  8
Layer 1
100
AcDbLine
 10
101.1022496258068
 20
419.745266875
 30
0.0
 11
101.0497463679943
 21
419.8033511874999
 31
0.0
  0
LINE
  5
5B4
330
31F
100
AcDbEntity
  8
Layer 1
100
AcDbLine
 10
101.0497463679943
 20
419.8033511874999
 30
0.0
 11
101.0497463679943
 21
419.8033511874999
 31
0.0
  0
LINE
  5
5B5
330
31F
100
AcDbEntity
  8
Layer 1
100
AcDbLine
 10
106.8711999148693
 20
419.8033511874999
 30
0.0
 11
106.8186966570568
 21
419.745266875
 31
0.0
  0
LINE
  5
5B6
330
31F
100
AcDbEntity
  8
Layer 1
100
AcDbLine
 10
106.8186966570568
 20
419.745266875
 30
0.0
 11
106.7903957351818
 21
419.7184176015625
 31
0.0
  0
LINE
  5
5B7
330
31F
100
AcDbEntity
  8
Layer 1
100
AcDbLine
 10
106.7903957351818
 20
419.7184176015625
 30
0.0
 11
106.7521212429943
 21
419.6882403437499
 31
0.0
  0
LINE
  5
5B8
330
31F
100
AcDbEntity
  8
Layer 1
100
AcDbLine
 10
106.7521212429943
 20
419.6882403437499
 30
0.0
 11
106.6657344148693
 21
419.6326122578124
 31
0.0
  0
LINE
  5
5B9
330
31F
100
AcDbEntity
  8
Layer 1
100
AcDbLine
 10
106.6657344148693
 20
419.6326122578124
 30
0.0
 11
106.5947788133068
 21
419.58999934375
 31
0.0
  0
LINE
  5
5BA
330
31F
100
AcDbEntity
  8
Layer 1
100
AcDbLine
 10
106.5947788133068
 20
419.58999934375
 30
0.0
 11
106.5731998367443
 21
419.5739482890624
 31
0.0
  0
LINE
  5
5BB
330
31F
100
AcDbEntity
  8
Layer 1
100
AcDbLine
 10
106.5731998367443
 20
419.5739482890624
 30
0.0
 11
106.5652754304942
 21
419.5643993593749
 31
0.0
  0
LINE
  5
5BC
330
31F
100
AcDbEntity
  8
Layer 1
100
AcDbLine
 10
106.5652754304942
 20
419.5643993593749
 30
0.0
 11
106.5781772586193
 21
419.5561704531248
 31
0.0
  0
LINE
  5
5BD
330
31F
100
AcDbEntity
  8
Layer 1
100
AcDbLine
 10
106.5781772586193
 20
419.5561704531248
 30
0.0
 11
106.6133056648693
 21
419.543714453125
 31
0.0
  0
LINE
  5
5BE
330
31F
100
AcDbEntity
  8
Layer 1
100
AcDbLine
 10
106.6133056648693
 20
419.543714453125
 30
0.0
 11
106.7287796726818
 21
419.512929625
 31
0.0
  0
LINE
  5
5BF
330
31F
100
AcDbEntity
  8
Layer 1
100
AcDbLine
 10
106.7287796726818
 20
419.512929625
 30
0.0
 11
106.8161627586193
 21
419.4898950390625
 31
0.0
  0
LINE
  5
5C0
330
31F
100
AcDbEntity
  8
Layer 1
100
AcDbLine
 10
106.8161627586193
 20
419.4898950390625
 30
0.0
 11
106.9205206414318
 21
419.4581764375
 31
0.0
  0
LINE
  5
5C1
330
31F
100
AcDbEntity
  8
Layer 1
100
AcDbLine
 10
106.9205206414318
 20
419.4581764375
 30
0.0
 11
107.1448686101818
 21
419.3815297890625
 31
0.0
  0
LINE
  5
5C2
330
31F
100
AcDbEntity
  8
Layer 1
100
AcDbLine
 10
107.1448686101818
 20
419.3815297890625
 30
0.0
 11
107.3312392508068
 21
419.3086746953125
 31
0.0
  0
LINE
  5
5C3
330
31F
100
AcDbEntity
  8
Layer 1
100
AcDbLine
 10
107.3312392508068
 20
419.3086746953125
 30
0.0
 11
107.3881254617442
 21
419.2816955546875
 31
0.0
  0
LINE
  5
5C4
330
31F
100
AcDbEntity
  8
Layer 1
100
AcDbLine
 10
107.3881254617442
 20
419.2816955546875
 30
0.0
 11
107.4036337273693
 21
419.2719727187499
 31
0.0
  0
LINE
  5
5C5
330
31F
100
AcDbEntity
  8
Layer 1
100
AcDbLine
 10
107.4036337273693
 20
419.2719727187499
 30
0.0
 11
107.4090482351818
 21
419.2652961718749
 31
0.0
  0
LINE
  5
5C6
330
31F
100
AcDbEntity
  8
Layer 1
100
AcDbLine
 10
107.4090482351818
 20
419.2652961718749
 30
0.0
 11
107.4019472351818
 21
419.2545713828124
 31
0.0
  0
LINE
  5
5C7
330
31F
100
AcDbEntity
  8
Layer 1
100
AcDbLine
 10
107.4019472351818
 20
419.2545713828124
 30
0.0
 11
107.3826019461193
 21
419.2399585703125
 31
0.0
  0
LINE
  5
5C8
330
31F
100
AcDbEntity
  8
Layer 1
100
AcDbLine
 10
107.3826019461193
 20
419.2399585703125
 30
0.0
 11
107.3189245320568
 21
419.2067984453125
 31
0.0
  0
LINE
  5
5C9
330
31F
100
AcDbEntity
  8
Layer 1
100
AcDbLine
 10
107.3189245320568
 20
419.2067984453125
 30
0.0
 11
107.2561929148693
 21
419.1825456953124
 31
0.0
  0
LINE
  5
5CA
330
31F
100
AcDbEntity
  8
Layer 1
100
AcDbLine
 10
107.2561929148693
 20
419.1825456953124
 30
0.0
 11
107.1880901492443
 21
419.1611533984375
 31
0.0
  0
LINE
  5
5CB
330
31F
100
AcDbEntity
  8
Layer 1
100
AcDbLine
 10
107.1880901492443
 20
419.1611533984375
 30
0.0
 11
107.1152748054943
 21
419.1427366093749
 31
0.0
  0
LINE
  5
5CC
330
31F
100
AcDbEntity
  8
Layer 1
100
AcDbLine
 10
107.1152748054943
 20
419.1427366093749
 30
0.0
 11
107.0384055242443
 21
419.1274103359375
 31
0.0
  0
LINE
  5
5CD
330
31F
100
AcDbEntity
  8
Layer 1
100
AcDbLine
 10
107.0384055242443
 20
419.1274103359375
 30
0.0
 11
106.9581409461193
 21
419.1152896562499
 31
0.0
  0
LINE
  5
5CE
330
31F
100
AcDbEntity
  8
Layer 1
100
AcDbLine
 10
106.9581409461193
 20
419.1152896562499
 30
0.0
 11
106.8751396648693
 21
419.1064895781249
 31
0.0
  0
LINE
  5
5CF
330
31F
100
AcDbEntity
  8
Layer 1
100
AcDbLine
 10
106.8751396648693
 20
419.1064895781249
 30
0.0
 11
106.7900603445568
 21
419.1011251796874
 31
0.0
  0
LINE
  5
5D0
330
31F
100
AcDbEntity
  8
Layer 1
100
AcDbLine
 10
106.7900603445568
 20
419.1011251796874
 30
0.0
 11
106.7035615789318
 21
419.0993114687499
 31
0.0
  0
LINE
  5
5D1
330
31F
100
AcDbEntity
  8
Layer 1
100
AcDbLine
 10
106.7035615789318
 20
419.0993114687499
 30
0.0
 11
106.5463339226818
 21
419.0965200390625
 31
0.0
  0
LINE
  5
5D2
330
31F
100
AcDbEntity
  8
Layer 1
100
AcDbLine
 10
106.5463339226818
 20
419.0965200390625
 30
0.0
 11
106.4985054383068
 21
419.0934968359374
 31
0.0
  0
LINE
  5
5D3
330
31F
100
AcDbEntity
  8
Layer 1
100
AcDbLine
 10
106.4985054383068
 20
419.0934968359374
 30
0.0
 11
106.4809395008068
 21
419.0898030156249
 31
0.0
  0
LINE
  5
5D4
330
31F
100
AcDbEntity
  8
Layer 1
100
AcDbLine
 10
106.4809395008068
 20
419.0898030156249
 30
0.0
 11
106.5027756570568
 21
419.0409427656249
 31
0.0
  0
LINE
  5
5D5
330
31F
100
AcDbEntity
  8
Layer 1
100
AcDbLine
 10
106.5027756570568
 20
419.0409427656249
 30
0.0
 11
106.5553535633068
 21
418.9368407734375
 31
0.0
  0
LINE
  5
5D6
330
31F
100
AcDbEntity
  8
Layer 1
100
AcDbLine
 10
106.5553535633068
 20
418.9368407734375
 30
0.0
 11
106.5841812429943
 21
418.8764634765624
 31
0.0
  0
LINE
  5
5D7
330
31F
100
AcDbEntity
  8
Layer 1
100
AcDbLine
 10
106.5841812429943
 20
418.8764634765624
 30
0.0
 11
106.6076109617443
 21
418.8170005234374
 31
0.0
  0
LINE
  5
5D8
330
31F
100
AcDbEntity
  8
Layer 1
100
AcDbLine
 10
106.6076109617443
 20
418.8170005234374
 30
0.0
 11
106.6255190164318
 21
418.75916021875
 31
0.0
  0
LINE
  5
5D9
330
31F
100
AcDbEntity
  8
Layer 1
100
AcDbLine
 10
106.6255190164318
 20
418.75916021875
 30
0.0
 11
106.6377818211193
 21
418.70365084375
 31
0.0
  0
LINE
  5
5DA
330
31F
100
AcDbEntity
  8
Layer 1
100
AcDbLine
 10
106.6377818211193
 20
418.70365084375
 30
0.0
 11
106.6442756961193
 21
418.651180703125
 31
0.0
  0
LINE
  5
5DB
330
31F
100
AcDbEntity
  8
Layer 1
100
AcDbLine
 10
106.6442756961193
 20
418.651180703125
 30
0.0
 11
106.6448769851818
 21
418.6024580546875
 31
0.0
  0
LINE
  5
5DC
330
31F
100
AcDbEntity
  8
Layer 1
100
AcDbLine
 10
106.6448769851818
 20
418.6024580546875
 30
0.0
 11
106.6394620789318
 21
418.5581912265623
 31
0.0
  0
LINE
  5
5DD
330
31F
100
AcDbEntity
  8
Layer 1
100
AcDbLine
 10
106.6394620789318
 20
418.5581912265623
 30
0.0
 11
106.6279072742443
 21
418.5190884999999
 31
0.0
  0
LINE
  5
5DE
330
31F
100
AcDbEntity
  8
Layer 1
100
AcDbLine
 10
106.6279072742443
 20
418.5190884999999
 30
0.0
 11
106.6022757664318
 21
418.455836546875
 31
0.0
  0
LINE
  5
5DF
330
31F
100
AcDbEntity
  8
Layer 1
100
AcDbLine
 10
106.6022757664318
 20
418.455836546875
 30
0.0
 11
106.5547334539318
 21
418.60817865625
 31
0.0
  0
LINE
  5
5E0
330
31F
100
AcDbEntity
  8
Layer 1
100
AcDbLine
 10
106.5547334539318
 20
418.60817865625
 30
0.0
 11
106.5309630242443
 21
418.67560215625
 31
0.0
  0
LINE
  5
5E1
330
31F
100
AcDbEntity
  8
Layer 1
100
AcDbLine
 10
106.5309630242443
 20
418.67560215625
 30
0.0
 11
106.5013484304943
 21
418.74666615625
 31
0.0
  0
LINE
  5
5E2
330
31F
100
AcDbEntity
  8
Layer 1
100
AcDbLine
 10
106.5013484304943
 20
418.74666615625
 30
0.0
 11
106.4696425789318
 21
418.8129269453124
 31
0.0
  0
LINE
  5
5E3
330
31F
100
AcDbEntity
  8
Layer 1
100
AcDbLine
 10
106.4696425789318
 20
418.8129269453124
 30
0.0
 11
106.4395983523693
 21
418.8659406953124
 31
0.0
  0
LINE
  5
5E4
330
31F
100
AcDbEntity
  8
Layer 1
100
AcDbLine
 10
106.4395983523693
 20
418.8659406953124
 30
0.0
 11
106.3806453992443
 21
418.9492574687499
 31
0.0
  0
LINE
  5
5E5
330
31F
100
AcDbEntity
  8
Layer 1
100
AcDbLine
 10
106.3806453992443
 20
418.9492574687499
 30
0.0
 11
106.3167577508068
 21
419.0198219453124
 31
0.0
  0
LINE
  5
5E6
330
31F
100
AcDbEntity
  8
Layer 1
100
AcDbLine
 10
106.3167577508068
 20
419.0198219453124
 30
0.0
 11
106.2814755008068
 21
419.0510774453125
 31
0.0
  0
LINE
  5
5E7
330
31F
100
AcDbEntity
  8
Layer 1
100
AcDbLine
 10
106.2814755008068
 20
419.0510774453125
 30
0.0
 11
106.2431740789318
 21
419.0800513046874
 31
0.0
  0
LINE
  5
5E8
330
31F
100
AcDbEntity
  8
Layer 1
100
AcDbLine
 10
106.2431740789318
 20
419.0800513046874
 30
0.0
 11
106.2012582664318
 21
419.1070456796874
 31
0.0
  0
LINE
  5
5E9
330
31F
100
AcDbEntity
  8
Layer 1
100
AcDbLine
 10
106.2012582664318
 20
419.1070456796874
 30
0.0
 11
106.1551329148693
 21
419.1323626796874
 31
0.0
  0
LINE
  5
5EA
330
31F
100
AcDbEntity
  8
Layer 1
100
AcDbLine
 10
106.1551329148693
 20
419.1323626796874
 30
0.0
 11
106.0478729539318
 21
419.17917325
 31
0.0
  0
LINE
  5
5EB
330
31F
100
AcDbEntity
  8
Layer 1
100
AcDbLine
 10
106.0478729539318
 20
419.17917325
 30
0.0
 11
105.9166327273693
 21
419.2229001249999
 31
0.0
  0
LINE
  5
5EC
330
31F
100
AcDbEntity
  8
Layer 1
100
AcDbLine
 10
105.9166327273693
 20
419.2229001249999
 30
0.0
 11
105.7566509070568
 21
419.2659604609374
 31
0.0
  0
LINE
  5
5ED
330
31F
100
AcDbEntity
  8
Layer 1
100
AcDbLine
 10
105.7566509070568
 20
419.2659604609374
 30
0.0
 11
105.5631660711193
 21
419.3107714375
 31
0.0
  0
LINE
  5
5EE
330
31F
100
AcDbEntity
  8
Layer 1
100
AcDbLine
 10
105.5631660711193
 20
419.3107714375
 30
0.0
 11
105.4094209929943
 21
419.3479193593749
 31
0.0
  0
LINE
  5
5EF
330
31F
100
AcDbEntity
  8
Layer 1
100
AcDbLine
 10
105.4094209929943
 20
419.3479193593749
 30
0.0
 11
105.3589454773693
 21
419.3626665859374
 31
0.0
  0
LINE
  5
5F0
330
31F
100
AcDbEntity
  8
Layer 1
100
AcDbLine
 10
105.3589454773693
 20
419.3626665859374
 30
0.0
 11
105.3359964617443
 21
419.3721630390625
 31
0.0
  0
LINE
  5
5F1
330
31F
100
AcDbEntity
  8
Layer 1
100
AcDbLine
 10
105.3359964617443
 20
419.3721630390625
 30
0.0
 11
105.3386540398693
 21
419.3759054687499
 31
0.0
  0
LINE
  5
5F2
330
31F
100
AcDbEntity
  8
Layer 1
100
AcDbLine
 10
105.3386540398693
 20
419.3759054687499
 30
0.0
 11
105.3525832508068
 21
419.38079940625
 31
0.0
  0
LINE
  5
5F3
330
31F
100
AcDbEntity
  8
Layer 1
100
AcDbLine
 10
105.3525832508068
 20
419.38079940625
 30
0.0
 11
105.4097727195568
 21
419.3932176015624
 31
0.0
  0
LINE
  5
5F4
330
31F
100
AcDbEntity
  8
Layer 1
100
AcDbLine
 10
105.4097727195568
 20
419.3932176015624
 30
0.0
 11
105.6100882742443
 21
419.4228059453124
 31
0.0
  0
LINE
  5
5F5
330
31F
100
AcDbEntity
  8
Layer 1
100
AcDbLine
 10
105.6100882742443
 20
419.4228059453124
 30
0.0
 11
105.8242337351817
 21
419.4515608046875
 31
0.0
  0
LINE
  5
5F6
330
31F
100
AcDbEntity
  8
Layer 1
100
AcDbLine
 10
105.8242337351817
 20
419.4515608046875
 30
0.0
 11
106.0142708211193
 21
419.48249771875
 31
0.0
  0
LINE
  5
5F7
330
31F
100
AcDbEntity
  8
Layer 1
100
AcDbLine
 10
106.0142708211193
 20
419.48249771875
 30
0.0
 11
106.1828635789318
 21
419.516364296875
 31
0.0
  0
LINE
  5
5F8
330
31F
100
AcDbEntity
  8
Layer 1
100
AcDbLine
 10
106.1828635789318
 20
419.516364296875
 30
0.0
 11
106.3326761258068
 21
419.553908171875
 31
0.0
  0
LINE
  5
5F9
330
31F
100
AcDbEntity
  8
Layer 1
100
AcDbLine
 10
106.3326761258068
 20
419.553908171875
 30
0.0
 11
106.4663725554943
 21
419.5958769296874
 31
0.0
  0
LINE
  5
5FA
330
31F
100
AcDbEntity
  8
Layer 1
100
AcDbLine
 10
106.4663725554943
 20
419.5958769296874
 30
0.0
 11
106.5866169383068
 21
419.6430182265625
 31
0.0
  0
LINE
  5
5FB
330
31F
100
AcDbEntity
  8
Layer 1
100
AcDbLine
 10
106.5866169383068
 20
419.6430182265625
 30
0.0
 11
106.6960733914318
 21
419.696079671875
 31
0.0
  0
LINE
  5
5FC
330
31F
100
AcDbEntity
  8
Layer 1
100
AcDbLine
 10
106.6960733914318
 20
419.696079671875
 30
0.0
 11
106.7974059851818
 21
419.755808875
 31
0.0
  0
LINE
  5
5FD
330
31F
100
AcDbEntity
  8
Layer 1
100
AcDbLine
 10
106.7974059851818
 20
419.755808875
 30
0.0
 11
106.8711999148693
 21
419.8033511874999
 31
0.0
  0
LINE
  5
5FE
330
31F
100
AcDbEntity
  8
Layer 1
100
AcDbLine
 10
106.8711999148693
 20
419.8033511874999
 30
0.0
 11
106.8711999148693
 21
419.8033511874999
 31
0.0
  0
LINE
  5
5FF
330
31F
100
AcDbEntity
  8
Layer 1
100
AcDbLine
 10
103.9537552508068
 20
414.9191015078124
 30
0.0
 11
103.9671911258068
 21
414.9191015078124
 31
0.0
  0
LINE
  5
600
330
31F
100
AcDbEntity
  8
Layer 1
100
AcDbLine
 10
103.9671911258068
 20
414.9191015078124
 30
0.0
 11
103.9727872508068
 21
414.9134955859374
 31
0.0
  0
LINE
  5
601
330
31F
100
AcDbEntity
  8
Layer 1
100
AcDbLine
 10
103.9727872508068
 20
414.9134955859374
 30
0.0
 11
103.9781465398693
 21
414.9011181015624
 31
0.0
  0
LINE
  5
602
330
31F
100
AcDbEntity
  8
Layer 1
100
AcDbLine
 10
103.9781465398693
 20
414.9011181015624
 30
0.0
 11
104.0019074539318
 21
414.7827178984375
 31
0.0
  0
LINE
  5
603
330
31F
100
AcDbEntity
  8
Layer 1
100
AcDbLine
 10
104.0019074539318
 20
414.7827178984375
 30
0.0
 11
104.0440856726818
 21
414.5424836640625
 31
0.0
  0
LINE
  5
604
330
31F
100
AcDbEntity
  8
Layer 1
100
AcDbLine
 10
104.0440856726818
 20
414.5424836640625
 30
0.0
 11
104.0875628445568
 21
414.3060051953124
 31
0.0
  0
LINE
  5
605
330
31F
100
AcDbEntity
  8
Layer 1
100
AcDbLine
 10
104.0875628445568
 20
414.3060051953124
 30
0.0
 11
104.1364247586193
 21
414.079407109375
 31
0.0
  0
LINE
  5
606
330
31F
100
AcDbEntity
  8
Layer 1
100
AcDbLine
 10
104.1364247586193
 20
414.079407109375
 30
0.0
 11
104.1908704461193
 21
413.862050453125
 31
0.0
  0
LINE
  5
607
330
31F
100
AcDbEntity
  8
Layer 1
100
AcDbLine
 10
104.1908704461193
 20
413.862050453125
 30
0.0
 11
104.2510989617443
 21
413.6532962499999
 31
0.0
  0
LINE
  5
608
330
31F
100
AcDbEntity
  8
Layer 1
100
AcDbLine
 10
104.2510989617443
 20
413.6532962499999
 30
0.0
 11
104.3173093367443
 21
413.4525055468749
 31
0.0
  0
LINE
  5
609
330
31F
100
AcDbEntity
  8
Layer 1
100
AcDbLine
 10
104.3173093367443
 20
413.4525055468749
 30
0.0
 11
104.3897006023693
 21
413.2590393437499
 31
0.0
  0
LINE
  5
60A
330
31F
100
AcDbEntity
  8
Layer 1
100
AcDbLine
 10
104.3897006023693
 20
413.2590393437499
 30
0.0
 11
104.4684717898693
 21
413.0722586874999
 31
0.0
  0
LINE
  5
60B
330
31F
100
AcDbEntity
  8
Layer 1
100
AcDbLine
 10
104.4684717898693
 20
413.0722586874999
 30
0.0
 11
104.5538220008068
 21
412.891524625
 31
0.0
  0
LINE
  5
60C
330
31F
100
AcDbEntity
  8
Layer 1
100
AcDbLine
 10
104.5538220008068
 20
412.891524625
 30
0.0
 11
104.6458060320568
 21
412.7069367343749
 31
0.0
  0
LINE
  5
60D
330
31F
100
AcDbEntity
  8
Layer 1
100
AcDbLine
 10
104.6458060320568
 20
412.7069367343749
 30
0.0
 11
104.5666377429943
 21
412.7071431015624
 31
0.0
  0
LINE
  5
60E
330
31F
100
AcDbEntity
  8
Layer 1
100
AcDbLine
 10
104.5666377429943
 20
412.7071431015624
 30
0.0
 11
104.4843930242443
 21
412.7134005156249
 31
0.0
  0
LINE
  5
60F
330
31F
100
AcDbEntity
  8
Layer 1
100
AcDbLine
 10
104.4843930242443
 20
412.7134005156249
 30
0.0
 11
104.4043500945568
 21
412.731630203125
 31
0.0
  0
LINE
  5
610
330
31F
100
AcDbEntity
  8
Layer 1
100
AcDbLine
 10
104.4043500945568
 20
412.731630203125
 30
0.0
 11
104.3279880242443
 21
412.7613875078124
 31
0.0
  0
LINE
  5
611
330
31F
100
AcDbEntity
  8
Layer 1
100
AcDbLine
 10
104.3279880242443
 20
412.7613875078124
 30
0.0
 11
104.2567858601818
 21
412.8022277499999
 31
0.0
  0
LINE
  5
612
330
31F
100
AcDbEntity
  8
Layer 1
100
AcDbLine
 10
104.2567858601818
 20
412.8022277499999
 30
0.0
 11
104.1794779226818
 21
412.8547310078125
 31
0.0
  0
LINE
  5
613
330
31F
100
AcDbEntity
  8
Layer 1
100
AcDbLine
 10
104.1794779226818
 20
412.8547310078125
 30
0.0
 11
104.1962210867443
 21
412.7755630234374
 31
0.0
  0
LINE
  5
614
330
31F
100
AcDbEntity
  8
Layer 1
100
AcDbLine
 10
104.1962210867443
 20
412.7755630234374
 30
0.0
 11
104.2027309695568
 21
412.7223537343749
 31
0.0
  0
LINE
  5
615
330
31F
100
AcDbEntity
  8
Layer 1
100
AcDbLine
 10
104.2027309695568
 20
412.7223537343749
 30
0.0
 11
104.2080537898693
 21
412.635978953125
 31
0.0
  0
LINE
  5
616
330
31F
100
AcDbEntity
  8
Layer 1
100
AcDbLine
 10
104.2080537898693
 20
412.635978953125
 30
0.0
 11
104.2129642508068
 21
412.411553921875
 31
0.0
  0
LINE
  5
617
330
31F
100
AcDbEntity
  8
Layer 1
100
AcDbLine
 10
104.2129642508068
 20
412.411553921875
 30
0.0
 11
104.2112412429943
 21
412.2578803984374
 31
0.0
  0
LINE
  5
618
330
31F
100
AcDbEntity
  8
Layer 1
100
AcDbLine
 10
104.2112412429943
 20
412.2578803984374
 30
0.0
 11
104.2041665633068
 21
412.152431921875
 31
0.0
  0
LINE
  5
619
330
31F
100
AcDbEntity
  8
Layer 1
100
AcDbLine
 10
104.2041665633068
 20
412.152431921875
 30
0.0
 11
104.1888816804943
 21
412.0710727421874
 31
0.0
  0
LINE
  5
61A
330
31F
100
AcDbEntity
  8
Layer 1
100
AcDbLine
 10
104.1888816804943
 20
412.0710727421874
 30
0.0
 11
104.1625280398693
 21
411.9896671796874
 31
0.0
  0
LINE
  5
61B
330
31F
100
AcDbEntity
  8
Layer 1
100
AcDbLine
 10
104.1625280398693
 20
411.9896671796874
 30
0.0
 11
104.1163780086193
 21
411.8830869296874
 31
0.0
  0
LINE
  5
61C
330
31F
100
AcDbEntity
  8
Layer 1
100
AcDbLine
 10
104.1163780086193
 20
411.8830869296874
 30
0.0
 11
104.0609631336193
 21
411.78064975
 31
0.0
  0
LINE
  5
61D
330
31F
100
AcDbEntity
  8
Layer 1
100
AcDbLine
 10
104.0609631336193
 20
411.78064975
 30
0.0
 11
104.0089950945568
 21
411.7036047343749
 31
0.0
  0
LINE
  5
61E
330
31F
100
AcDbEntity
  8
Layer 1
100
AcDbLine
 10
104.0089950945568
 20
411.7036047343749
 30
0.0
 11
103.9882760633068
 21
411.68124465625
 31
0.0
  0
LINE
  5
61F
330
31F
100
AcDbEntity
  8
Layer 1
100
AcDbLine
 10
103.9882760633068
 20
411.68124465625
 30
0.0
 11
103.9731855945568
 21
411.673201046875
 31
0.0
  0
LINE
  5
620
330
31F
100
AcDbEntity
  8
Layer 1
100
AcDbLine
 10
103.9731855945568
 20
411.673201046875
 30
0.0
 11
103.9477607820568
 21
411.673201046875
 31
0.0
  0
LINE
  5
621
330
31F
100
AcDbEntity
  8
Layer 1
100
AcDbLine
 10
103.9477607820568
 20
411.673201046875
 30
0.0
 11
103.9326703133068
 21
411.68124465625
 31
0.0
  0
LINE
  5
622
330
31F
100
AcDbEntity
  8
Layer 1
100
AcDbLine
 10
103.9326703133068
 20
411.68124465625
 30
0.0
 11
103.9119512586193
 21
411.7036047343749
 31
0.0
  0
LINE
  5
623
330
31F
100
AcDbEntity
  8
Layer 1
100
AcDbLine
 10
103.9119512586193
 20
411.7036047343749
 30
0.0
 11
103.8599832429943
 21
411.78064975
 31
0.0
  0
LINE
  5
624
330
31F
100
AcDbEntity
  8
Layer 1
100
AcDbLine
 10
103.8599832429943
 20
411.78064975
 30
0.0
 11
103.8045683679943
 21
411.8830869296874
 31
0.0
  0
LINE
  5
625
330
31F
100
AcDbEntity
  8
Layer 1
100
AcDbLine
 10
103.8045683679943
 20
411.8830869296874
 30
0.0
 11
103.7584183367443
 21
411.9896671796874
 31
0.0
  0
LINE
  5
626
330
31F
100
AcDbEntity
  8
Layer 1
100
AcDbLine
 10
103.7584183367443
 20
411.9896671796874
 30
0.0
 11
103.7320646726818
 21
412.0710727421874
 31
0.0
  0
LINE
  5
627
330
31F
100
AcDbEntity
  8
Layer 1
100
AcDbLine
 10
103.7320646726818
 20
412.0710727421874
 30
0.0
 11
103.7167797898693
 21
412.152431921875
 31
0.0
  0
LINE
  5
628
330
31F
100
AcDbEntity
  8
Layer 1
100
AcDbLine
 10
103.7167797898693
 20
412.152431921875
 30
0.0
 11
103.7097051336193
 21
412.2578803984374
 31
0.0
  0
LINE
  5
629
330
31F
100
AcDbEntity
  8
Layer 1
100
AcDbLine
 10
103.7097051336193
 20
412.2578803984374
 30
0.0
 11
103.7079821492443
 21
412.411553921875
 31
0.0
  0
LINE
  5
62A
330
31F
100
AcDbEntity
  8
Layer 1
100
AcDbLine
 10
103.7079821492443
 20
412.411553921875
 30
0.0
 11
103.7128925867443
 21
412.635978953125
 31
0.0
  0
LINE
  5
62B
330
31F
100
AcDbEntity
  8
Layer 1
100
AcDbLine
 10
103.7128925867443
 20
412.635978953125
 30
0.0
 11
103.7182154070568
 21
412.7223537343749
 31
0.0
  0
LINE
  5
62C
330
31F
100
AcDbEntity
  8
Layer 1
100
AcDbLine
 10
103.7182154070568
 20
412.7223537343749
 30
0.0
 11
103.7247253133068
 21
412.7755630234374
 31
0.0
  0
LINE
  5
62D
330
31F
100
AcDbEntity
  8
Layer 1
100
AcDbLine
 10
103.7247253133068
 20
412.7755630234374
 30
0.0
 11
103.7414684773693
 21
412.8547310078125
 31
0.0
  0
LINE
  5
62E
330
31F
100
AcDbEntity
  8
Layer 1
100
AcDbLine
 10
103.7414684773693
 20
412.8547310078125
 30
0.0
 11
103.6641605398693
 21
412.8022277499999
 31
0.0
  0
LINE
  5
62F
330
31F
100
AcDbEntity
  8
Layer 1
100
AcDbLine
 10
103.6641605398693
 20
412.8022277499999
 30
0.0
 11
103.5929583289318
 21
412.7613875078124
 31
0.0
  0
LINE
  5
630
330
31F
100
AcDbEntity
  8
Layer 1
100
AcDbLine
 10
103.5929583289318
 20
412.7613875078124
 30
0.0
 11
103.5165962820568
 21
412.731630203125
 31
0.0
  0
LINE
  5
631
330
31F
100
AcDbEntity
  8
Layer 1
100
AcDbLine
 10
103.5165962820568
 20
412.731630203125
 30
0.0
 11
103.4365533523693
 21
412.7134005156249
 31
0.0
  0
LINE
  5
632
330
31F
100
AcDbEntity
  8
Layer 1
100
AcDbLine
 10
103.4365533523693
 20
412.7134005156249
 30
0.0
 11
103.3543086336192
 21
412.7071431015624
 31
0.0
  0
LINE
  5
633
330
31F
100
AcDbEntity
  8
Layer 1
100
AcDbLine
 10
103.3543086336192
 20
412.7071431015624
 30
0.0
 11
103.2751403445568
 21
412.7069367343749
 31
0.0
  0
LINE
  5
634
330
31F
100
AcDbEntity
  8
Layer 1
100
AcDbLine
 10
103.2751403445568
 20
412.7069367343749
 30
0.0
 11
103.3671243992443
 21
412.891524625
 31
0.0
  0
LINE
  5
635
330
31F
100
AcDbEntity
  8
Layer 1
100
AcDbLine
 10
103.3671243992443
 20
412.891524625
 30
0.0
 11
103.4524745633068
 21
413.0722586874999
 31
0.0
  0
LINE
  5
636
330
31F
100
AcDbEntity
  8
Layer 1
100
AcDbLine
 10
103.4524745633068
 20
413.0722586874999
 30
0.0
 11
103.5312457742443
 21
413.2590393437499
 31
0.0
  0
LINE
  5
637
330
31F
100
AcDbEntity
  8
Layer 1
100
AcDbLine
 10
103.5312457742443
 20
413.2590393437499
 30
0.0
 11
103.6036370398693
 21
413.4525055468749
 31
0.0
  0
LINE
  5
638
330
31F
100
AcDbEntity
  8
Layer 1
100
AcDbLine
 10
103.6036370398693
 20
413.4525055468749
 30
0.0
 11
103.6698473914318
 21
413.6532962499999
 31
0.0
  0
LINE
  5
639
330
31F
100
AcDbEntity
  8
Layer 1
100
AcDbLine
 10
103.6698473914318
 20
413.6532962499999
 30
0.0
 11
103.7300759304943
 21
413.862050453125
 31
0.0
  0
LINE
  5
63A
330
31F
100
AcDbEntity
  8
Layer 1
100
AcDbLine
 10
103.7300759304943
 20
413.862050453125
 30
0.0
 11
103.7845216179943
 21
414.079407109375
 31
0.0
  0
LINE
  5
63B
330
31F
100
AcDbEntity
  8
Layer 1
100
AcDbLine
 10
103.7845216179943
 20
414.079407109375
 30
0.0
 11
103.8333835320568
 21
414.3060051953124
 31
0.0
  0
LINE
  5
63C
330
31F
100
AcDbEntity
  8
Layer 1
100
AcDbLine
 10
103.8333835320568
 20
414.3060051953124
 30
0.0
 11
103.8768607273693
 21
414.5424836640625
 31
0.0
  0
LINE
  5
63D
330
31F
100
AcDbEntity
  8
Layer 1
100
AcDbLine
 10
103.8768607273693
 20
414.5424836640625
 30
0.0
 11
103.9190388992442
 21
414.7827178984375
 31
0.0
  0
LINE
  5
63E
330
31F
100
AcDbEntity
  8
Layer 1
100
AcDbLine
 10
103.9190388992442
 20
414.7827178984375
 30
0.0
 11
103.9427998601818
 21
414.9011181015624
 31
0.0
  0
LINE
  5
63F
330
31F
100
AcDbEntity
  8
Layer 1
100
AcDbLine
 10
103.9427998601818
 20
414.9011181015624
 30
0.0
 11
103.9481591492443
 21
414.9134955859374
 31
0.0
  0
LINE
  5
640
330
31F
100
AcDbEntity
  8
Layer 1
100
AcDbLine
 10
103.9481591492443
 20
414.9134955859374
 30
0.0
 11
103.9537552508068
 21
414.9191015078124
 31
0.0
  0
LINE
  5
641
330
31F
100
AcDbEntity
  8
Layer 1
100
AcDbLine
 10
103.9537552508068
 20
414.9191015078124
 30
0.0
 11
103.9537552508068
 21
414.9191015078124
 31
0.0
  0
ENDBLK
  5
643
330
31F
100
AcDbEntity
  8
0
100
AcDbBlockEnd
  0
BLOCK
  5
651
330
646
100
AcDbEntity
  8
0
100
AcDbBlockBegin
  2
*D3
 70
     1
 10
0.0
 20
0.0
 30
0.0
  3
*D3
  1

  0
LINE
  5
697
330
646
100
AcDbEntity
  8
CLOUDS
 62
     0
370
    -2
100
AcDbLine
 10
32.10005935913641
 20
-5.910041554138501
 30
0.0
 11
37.80694562401025
 21
-5.910041554138502
 31
0.0
  0
LINE
  5
698
330
646
100
AcDbEntity
  8
CLOUDS
 62
     0
370
    -2
100
AcDbLine
 10
32.13711061327702
 20
-16.37187774437286
 30
0.0
 11
37.80694562401024
 21
-16.37187774437286
 31
0.0
  0
LINE
  5
699
330
646
100
AcDbEntity
  8
CLOUDS
 62
     0
370
    -2
100
AcDbLine
 10
37.62694562401025
 20
-6.090041554138502
 30
0.0
 11
37.62694562401025
 21
-10.96095964925568
 31
0.0
  0
LINE
  5
69A
330
646
100
AcDbEntity
  8
CLOUDS
 62
     0
370
    -2
100
AcDbLine
 10
37.62694562401024
 20
-16.19187774437286
 30
0.0
 11
37.62694562401025
 21
-11.32095964925568
 31
0.0
  0
SOLID
  5
69B
330
646
100
AcDbEntity
  8
CLOUDS
 62
     0
100
AcDbTrace
 10
37.59694562401025
 20
-6.090041554138502
 30
0.0
 11
37.65694562401025
 21
-6.090041554138502
 31
0.0
 12
37.62694562401025
 22
-5.910041554138502
 32
0.0
 13
37.62694562401025
 23
-5.910041554138502
 33
0.0
  0
SOLID
  5
69C
330
646
100
AcDbEntity
  8
CLOUDS
 62
     0
100
AcDbTrace
 10
37.59694562401024
 20
-16.19187774437286
 30
0.0
 11
37.65694562401024
 21
-16.19187774437286
 31
0.0
 12
37.62694562401024
 22
-16.37187774437286
 32
0.0
 13
37.62694562401024
 23
-16.37187774437286
 33
0.0
  0
MTEXT
  5
69D
330
646
100
AcDbEntity
  8
CLOUDS
 62
     0
100
AcDbMText
 10
37.62694562401025
 20
-11.14095964925567
 30
0.0
 40
0.18
 41
0.0
 71
     5
 72
     1
  1
\A1;10.4618
 73
     1
 44
1.0
  0
POINT
  5
69E
330
646
100
AcDbEntity
  8
Defpoints
 62
     0
100
AcDbPoint
 10
32.03755935913641
 20
-5.910041554138501
 30
0.0
  0
POINT
  5
69F
330
646
100
AcDbEntity
  8
Defpoints
 62
     0
100
AcDbPoint
 10
32.07461061327702
 20
-16.37187774437286
 30
0.0
  0
POINT
  5
6A0
330
646
100
AcDbEntity
  8
Defpoints
 62
     0
100
AcDbPoint
 10
37.62694562401024
 20
-16.37187774437286
 30
0.0
  0
ENDBLK
  5
652
330
646
100
AcDbEntity
  8
0
100
AcDbBlockEnd
  0
BLOCK
  5
66B
330
660
100
AcDbEntity
  8
0
100
AcDbBlockBegin
  2
*D4
 70
     1
 10
0.0
 20
0.0
 30
0.0
  3
*D4
  1

  0
LINE
  5
6A2
330
660
100
AcDbEntity
  8
CLOUDS
 62
     0
370
    -2
100
AcDbLine
 10
0.3125
 20
5.994789404140899
 30
0.0
 11
15.10550647913868
 21
5.994789404140894
 31
0.0
  0
LINE
  5
6A3
330
660
100
AcDbEntity
  8
CLOUDS
 62
     0
370
    -2
100
AcDbLine
 10
0.3125
 20
-5.994789404140899
 30
0.0
 11
15.10550647913867
 21
-5.994789404140903
 31
0.0
  0
LINE
  5
6A4
330
660
100
AcDbEntity
  8
CLOUDS
 62
     0
370
    -2
100
AcDbLine
 10
14.92550647913868
 20
5.814789404140895
 30
0.0
 11
14.92550647913868
 21
0.1799999999999958
 31
0.0
  0
LINE
  5
6A5
330
660
100
AcDbEntity
  8
CLOUDS
 62
     0
370
    -2
100
AcDbLine
 10
14.92550647913867
 20
-5.814789404140904
 30
0.0
 11
14.92550647913868
 21
-0.1800000000000042
 31
0.0
  0
SOLID
  5
6A6
330
660
100
AcDbEntity
  8
CLOUDS
 62
     0
100
AcDbTrace
 10
14.89550647913868
 20
5.814789404140895
 30
0.0
 11
14.95550647913868
 21
5.814789404140895
 31
0.0
 12
14.92550647913868
 22
5.994789404140894
 32
0.0
 13
14.92550647913868
 23
5.994789404140894
 33
0.0
  0
SOLID
  5
6A7
330
660
100
AcDbEntity
  8
CLOUDS
 62
     0
100
AcDbTrace
 10
14.89550647913867
 20
-5.814789404140904
 30
0.0
 11
14.95550647913867
 21
-5.814789404140904
 31
0.0
 12
14.92550647913867
 22
-5.994789404140903
 32
0.0
 13
14.92550647913867
 23
-5.994789404140903
 33
0.0
  0
MTEXT
  5
6A8
330
660
100
AcDbEntity
  8
CLOUDS
 62
     0
100
AcDbMText
 10
14.92550647913868
 20
-0.0000000000000018
 30
0.0
 40
0.18
 41
0.0
 71
     5
 72
     1
  1
\A1;11.9896
 73
     1
 44
1.0
  0
POINT
  5
6A9
330
660
100
AcDbEntity
  8
Defpoints
 62
     0
100
AcDbPoint
 10
0.25
 20
5.994789404140899
 30
0.0
  0
POINT
  5
6AA
330
660
100
AcDbEntity
  8
Defpoints
 62
     0
100
AcDbPoint
 10
0.25
 20
-5.994789404140899
 30
0.0
  0
POINT
  5
6AB
330
660
100
AcDbEntity
  8
Defpoints
 62
     0
100
AcDbPoint
 10
14.92550647913867
 20
-5.994789404140903
 30
0.0
  0
ENDBLK
  5
66C
330
660
100
AcDbEntity
  8
0
100
AcDbBlockEnd
  0
ENDSEC
  0
SECTION
  2
ENTITIES
  0
CIRCLE
  5
9A
330
1F
100
AcDbEntity
  8
0
100
AcDbCircle
 10
0.0
 20
0.0
 30
0.0
 40
6.0
  0
ARC
  5
A0
330
1F
100
AcDbEntity
  8
0
100
AcDbCircle
 10
0.0
 20
0.0
 30
0.0
 40
7.0
100
AcDbArc
 50
89.82004667192958
 51
95.13497303118382
  0
ARC
  5
BC
330
1F
100
AcDbEntity
  8
0
100
AcDbCircle
 10
-0.1364949385166805
 20
7.441760224049527
 30
0.0
 40
0.4693598000153782
100
AcDbArc
 50
289.7338951876858
 51
73.0934912835376
  0
ARC
  5
BF
330
1F
100
AcDbEntity
  8
0
100
AcDbCircle
 10
-0.03854952494708
 20
6.956565589434962
 30
0.0
 40
1.044146270895436
100
AcDbArc
 50
8.273983746589379
 51
87.88417846945781
  0
LINE
  5
C1
330
1F
100
AcDbEntity
  8
0
100
AcDbLine
 10
0.0
 20
7.890834553787716
 30
0.0
 11
0.0
 21
8.0
 31
0.0
  0
ARC
  5
14E
330
1F
100
AcDbEntity
  8
0
100
AcDbCircle
 10
1.242126281245787
 20
7.142802132317435
 30
0.0
 40
0.25
100
AcDbArc
 50
188.2739837465893
 51
260.1349730311837
  0
LINE
  5
150
330
1F
100
AcDbEntity
  8
0
100
AcDbLine
 10
-2.042298264273311
 20
7.62196088647773
 30
0.0
 11
-2.070552360820165
 21
7.727406610312546
 31
0.0
  0
ARC
  5
151
330
1F
100
AcDbEntity
  8
0
100
AcDbCircle
 10
-2.057913261341419
 20
7.152860903811948
 30
0.0
 40
0.4693598000153782
100
AcDbArc
 50
304.7338951876854
 51
88.0934912835376
  0
ARC
  5
152
330
1F
100
AcDbEntity
  8
0
100
AcDbCircle
 10
-1.83772764478817
 20
6.709549013873107
 30
0.0
 40
1.044146270895436
100
AcDbArc
 50
23.27398374658938
 51
102.8841784694578
  0
ARC
  5
153
330
1F
100
AcDbEntity
  8
0
100
AcDbCircle
 10
-0.6488913726749428
 20
7.220902989686818
 30
0.0
 40
0.25
100
AcDbArc
 50
203.2739837465893
 51
275.1349730311837
  0
LINE
  5
154
330
1F
100
AcDbEntity
  8
0
100
AcDbLine
 10
-3.945417276893857
 20
6.833663180640208
 30
0.0
 11
-3.999999999999999
 21
6.928203230275509
 31
0.0
  0
ARC
  5
155
330
1F
100
AcDbEntity
  8
0
100
AcDbCircle
 10
-3.839088196268203
 20
6.376505933641126
 30
0.0
 40
0.4693598000153782
100
AcDbArc
 50
319.7338951876858
 51
103.0934912835376
  0
ARC
  5
156
330
1F
100
AcDbEntity
  8
0
100
AcDbCircle
 10
-3.511667662625474
 20
6.005287761069805
 30
0.0
 40
1.044146270895436
100
AcDbArc
 50
38.27398374658938
 51
117.8841784694578
  0
ARC
  5
157
330
1F
100
AcDbEntity
  8
0
100
AcDbCircle
 10
-2.495688151891571
 20
6.80691124141545
 30
0.0
 40
0.25
100
AcDbArc
 50
218.2739837465893
 51
290.1349730311836
  0
LINE
  5
158
330
1F
100
AcDbEntity
  8
0
100
AcDbLine
 10
-5.579662622204418
 20
5.579662622204419
 30
0.0
 11
-5.656854249492379
 21
5.65685424949238
 31
0.0
  0
ARC
  5
159
330
1F
100
AcDbEntity
  8
0
100
AcDbCircle
 10
-5.358635615012527
 20
5.165602621766956
 30
0.0
 40
0.4693598000153782
100
AcDbArc
 50
334.7338951876858
 51
118.0934912835376
  0
ARC
  5
15A
330
1F
100
AcDbEntity
  8
0
100
AcDbCircle
 10
-4.946293332560053
 20
4.891776071556853
 30
0.0
 40
1.044146270895436
100
AcDbArc
 50
53.27398374658938
 51
132.8841784694578
  0
ARC
  5
15B
330
1F
100
AcDbEntity
  8
0
100
AcDbCircle
 10
-4.172407907876464
 20
5.929039740994316
 30
0.0
 40
0.25
100
AcDbArc
 50
233.2739837465892
 51
305.1349730311837
  0
LINE
  5
15C
330
1F
100
AcDbEntity
  8
0
100
AcDbLine
 10
-6.833663180640207
 20
3.945417276893858
 30
0.0
 11
-6.928203230275508
 21
4.0
 31
0.0
  0
ARC
  5
15D
330
1F
100
AcDbEntity
  8
0
100
AcDbCircle
 10
-6.513000872157806
 20
3.602672027781324
 30
0.0
 40
0.4693598000153782
100
AcDbArc
 50
349.7338951876858
 51
133.0934912835376
  0
ARC
  5
15E
330
1F
100
AcDbEntity
  8
0
100
AcDbCircle
 10
-6.043837286016883
 20
3.444897926809488
 30
0.0
 40
1.044146270895436
100
AcDbArc
 50
68.27398374658938
 51
147.8841784694578
  0
ARC
  5
15F
330
1F
100
AcDbEntity
  8
0
100
AcDbCircle
 10
-5.564784960169662
 20
4.647113980425864
 30
0.0
 40
0.25
100
AcDbArc
 50
248.2739837465893
 51
320.1349730311837
  0
LINE
  5
160
330
1F
100
AcDbEntity
  8
0
100
AcDbLine
 10
-7.621960886477729
 20
2.042298264273313
 30
0.0
 11
-7.727406610312545
 21
2.070552360820167
 31
0.0
  0
ARC
  5
161
330
1F
100
AcDbEntity
  8
0
100
AcDbCircle
 10
-7.223515883108376
 20
1.79422528879942
 30
0.0
 40
0.4693598000153782
100
AcDbArc
 50
4.733895187685704
 51
148.0934912835376
  0
ARC
  5
162
330
1F
100
AcDbEntity
  8
0
100
AcDbCircle
 10
-6.729503716345023
 20
1.763255681313053
 30
0.0
 40
1.044146270895436
100
AcDbArc
 50
83.27398374658937
 51
162.8841784694578
  0
ARC
  5
163
330
1F
100
AcDbEntity
  8
0
100
AcDbCircle
 10
-6.577931113669257
 20
3.048495081810354
 30
0.0
 40
0.25
100
AcDbArc
 50
263.2739837465893
 51
335.1349730311836
  0
LINE
  5
164
330
1F
100
AcDbEntity
  8
0
100
AcDbLine
 10
-7.890834553787716
 20
0.0000000000000022
 30
0.0
 11
-8.0
 21
0.0000000000000023
 31
0.0
  0
ARC
  5
165
330
1F
100
AcDbEntity
  8
0
100
AcDbCircle
 10
-7.441760224049527
 20
-0.1364949385166784
 30
0.0
 40
0.4693598000153782
100
AcDbArc
 50
19.73389518768577
 51
163.0934912835376
  0
ARC
  5
166
330
1F
100
AcDbEntity
  8
0
100
AcDbCircle
 10
-6.956565589434962
 20
-0.0385495249470781
 30
0.0
 40
1.044146270895436
100
AcDbArc
 50
98.27398374658935
 51
177.8841784694578
  0
ARC
  5
167
330
1F
100
AcDbEntity
  8
0
100
AcDbCircle
 10
-7.142802132317435
 20
1.242126281245789
 30
0.0
 40
0.25
100
AcDbArc
 50
278.2739837465893
 51
350.1349730311836
  0
LINE
  5
168
330
1F
100
AcDbEntity
  8
0
100
AcDbLine
 10
-7.621960886477731
 20
-2.042298264273309
 30
0.0
 11
-7.727406610312547
 21
-2.070552360820163
 31
0.0
  0
ARC
  5
169
330
1F
100
AcDbEntity
  8
0
100
AcDbCircle
 10
-7.152860903811949
 20
-2.057913261341417
 30
0.0
 40
0.4693598000153782
100
AcDbArc
 50
34.73389518768533
 51
178.0934912835375
  0
ARC
  5
16A
330
1F
100
AcDbEntity
  8
0
100
AcDbCircle
 10
-6.709549013873107
 20
-1.837727644788168
 30
0.0
 40
1.044146270895436
100
AcDbArc
 50
113.2739837465893
 51
192.8841784694578
  0
ARC
  5
16B
330
1F
100
AcDbEntity
  8
0
100
AcDbCircle
 10
-7.220902989686818
 20
-0.6488913726749404
 30
0.0
 40
0.25
100
AcDbArc
 50
293.2739837465893
 51
5.13497303118365
  0
LINE
  5
16C
330
1F
100
AcDbEntity
  8
0
100
AcDbLine
 10
-6.833663180640208
 20
-3.945417276893856
 30
0.0
 11
-6.928203230275509
 21
-3.999999999999998
 31
0.0
  0
ARC
  5
16D
330
1F
100
AcDbEntity
  8
0
100
AcDbCircle
 10
-6.376505933641126
 20
-3.839088196268202
 30
0.0
 40
0.4693598000153781
100
AcDbArc
 50
49.73389518768591
 51
193.0934912835376
  0
ARC
  5
16E
330
1F
100
AcDbEntity
  8
0
100
AcDbCircle
 10
-6.005287761069805
 20
-3.511667662625473
 30
0.0
 40
1.044146270895436
100
AcDbArc
 50
128.2739837465894
 51
207.8841784694578
  0
ARC
  5
16F
330
1F
100
AcDbEntity
  8
0
100
AcDbCircle
 10
-6.80691124141545
 20
-2.495688151891569
 30
0.0
 40
0.25
100
AcDbArc
 50
308.2739837465893
 51
20.13497303118366
  0
LINE
  5
170
330
1F
100
AcDbEntity
  8
0
100
AcDbLine
 10
-5.579662622204419
 20
-5.579662622204418
 30
0.0
 11
-5.65685424949238
 21
-5.656854249492379
 31
0.0
  0
ARC
  5
171
330
1F
100
AcDbEntity
  8
0
100
AcDbCircle
 10
-5.165602621766956
 20
-5.358635615012527
 30
0.0
 40
0.4693598000153782
100
AcDbArc
 50
64.73389518768583
 51
208.0934912835376
  0
ARC
  5
172
330
1F
100
AcDbEntity
  8
0
100
AcDbCircle
 10
-4.891776071556853
 20
-4.946293332560053
 30
0.0
 40
1.044146270895436
100
AcDbArc
 50
143.2739837465893
 51
222.8841784694578
  0
ARC
  5
173
330
1F
100
AcDbEntity
  8
0
100
AcDbCircle
 10
-5.929039740994316
 20
-4.172407907876464
 30
0.0
 40
0.25
100
AcDbArc
 50
323.2739837465893
 51
35.13497303118367
  0
LINE
  5
174
330
1F
100
AcDbEntity
  8
0
100
AcDbLine
 10
-3.945417276893857
 20
-6.833663180640208
 30
0.0
 11
-3.999999999999999
 21
-6.928203230275509
 31
0.0
  0
ARC
  5
175
330
1F
100
AcDbEntity
  8
0
100
AcDbCircle
 10
-3.602672027781323
 20
-6.513000872157807
 30
0.0
 40
0.4693598000153782
100
AcDbArc
 50
79.73389518768591
 51
223.0934912835376
  0
ARC
  5
176
330
1F
100
AcDbEntity
  8
0
100
AcDbCircle
 10
-3.444897926809487
 20
-6.043837286016884
 30
0.0
 40
1.044146270895436
100
AcDbArc
 50
158.2739837465894
 51
237.8841784694579
  0
ARC
  5
177
330
1F
100
AcDbEntity
  8
0
100
AcDbCircle
 10
-4.647113980425864
 20
-5.564784960169664
 30
0.0
 40
0.25
100
AcDbArc
 50
338.2739837465893
 51
50.13497303118367
  0
LINE
  5
178
330
1F
100
AcDbEntity
  8
0
100
AcDbLine
 10
-2.04229826427331
 20
-7.62196088647773
 30
0.0
 11
-2.070552360820164
 21
-7.727406610312546
 31
0.0
  0
ARC
  5
179
330
1F
100
AcDbEntity
  8
0
100
AcDbCircle
 10
-1.794225288799418
 20
-7.223515883108376
 30
0.0
 40
0.4693598000153782
100
AcDbArc
 50
94.73389518768597
 51
238.0934912835376
  0
ARC
  5
17A
330
1F
100
AcDbEntity
  8
0
100
AcDbCircle
 10
-1.76325568131305
 20
-6.729503716345024
 30
0.0
 40
1.044146270895436
100
AcDbArc
 50
173.2739837465894
 51
252.8841784694578
  0
ARC
  5
17B
330
1F
100
AcDbEntity
  8
0
100
AcDbCircle
 10
-3.048495081810351
 20
-6.577931113669258
 30
0.0
 40
0.25
100
AcDbArc
 50
353.2739837465893
 51
65.13497303118369
  0
ARC
  5
17D
330
1F
100
AcDbEntity
  8
0
100
AcDbCircle
 10
0.1364949385166829
 20
-7.441760224049527
 30
0.0
 40
0.4693598000153782
100
AcDbArc
 50
109.7338951876857
 51
253.0934912835376
  0
ARC
  5
17E
330
1F
100
AcDbEntity
  8
0
100
AcDbCircle
 10
0.0385495249470823
 20
-6.956565589434962
 30
0.0
 40
1.044146270895436
100
AcDbArc
 50
188.2739837465894
 51
267.8841784694578
  0
ARC
  5
17F
330
1F
100
AcDbEntity
  8
0
100
AcDbCircle
 10
-1.242126281245785
 20
-7.142802132317435
 30
0.0
 40
0.25
100
AcDbArc
 50
8.273983746589314
 51
80.13497303118368
  0
LINE
  5
180
330
1F
100
AcDbEntity
  8
0
100
AcDbLine
 10
2.042298264273315
 20
-7.621960886477729
 30
0.0
 11
2.070552360820169
 21
-7.727406610312545
 31
0.0
  0
ARC
  5
181
330
1F
100
AcDbEntity
  8
0
100
AcDbCircle
 10
2.057913261341423
 20
-7.152860903811946
 30
0.0
 40
0.4693598000153782
100
AcDbArc
 50
124.7338951876858
 51
268.0934912835376
  0
ARC
  5
182
330
1F
100
AcDbEntity
  8
0
100
AcDbCircle
 10
1.837727644788173
 20
-6.709549013873106
 30
0.0
 40
1.044146270895436
100
AcDbArc
 50
203.2739837465894
 51
282.8841784694579
  0
ARC
  5
183
330
1F
100
AcDbEntity
  8
0
100
AcDbCircle
 10
0.6488913726749461
 20
-7.220902989686817
 30
0.0
 40
0.25
100
AcDbArc
 50
23.27398374658932
 51
95.13497303118368
  0
LINE
  5
184
330
1F
100
AcDbEntity
  8
0
100
AcDbLine
 10
3.945417276893862
 20
-6.833663180640205
 30
0.0
 11
4.000000000000004
 21
-6.928203230275506
 31
0.0
  0
ARC
  5
185
330
1F
100
AcDbEntity
  8
0
100
AcDbCircle
 10
3.839088196268208
 20
-6.376505933641124
 30
0.0
 40
0.4693598000153782
100
AcDbArc
 50
139.7338951876857
 51
283.0934912835376
  0
ARC
  5
186
330
1F
100
AcDbEntity
  8
0
100
AcDbCircle
 10
3.511667662625478
 20
-6.005287761069803
 30
0.0
 40
1.044146270895436
100
AcDbArc
 50
218.2739837465894
 51
297.8841784694578
  0
ARC
  5
187
330
1F
100
AcDbEntity
  8
0
100
AcDbCircle
 10
2.495688151891576
 20
-6.806911241415448
 30
0.0
 40
0.25
100
AcDbArc
 50
38.27398374658932
 51
110.1349730311837
  0
LINE
  5
188
330
1F
100
AcDbEntity
  8
0
100
AcDbLine
 10
5.579662622204422
 20
-5.579662622204415
 30
0.0
 11
5.656854249492384
 21
-5.656854249492376
 31
0.0
  0
ARC
  5
189
330
1F
100
AcDbEntity
  8
0
100
AcDbCircle
 10
5.358635615012532
 20
-5.165602621766952
 30
0.0
 40
0.4693598000153782
100
AcDbArc
 50
154.7338951876858
 51
298.0934912835376
  0
ARC
  5
18A
330
1F
100
AcDbEntity
  8
0
100
AcDbCircle
 10
4.946293332560057
 20
-4.89177607155685
 30
0.0
 40
1.044146270895436
100
AcDbArc
 50
233.2739837465894
 51
312.8841784694579
  0
ARC
  5
18B
330
1F
100
AcDbEntity
  8
0
100
AcDbCircle
 10
4.172407907876468
 20
-5.929039740994311
 30
0.0
 40
0.25
100
AcDbArc
 50
53.27398374658933
 51
125.1349730311837
  0
LINE
  5
18C
330
1F
100
AcDbEntity
  8
0
100
AcDbLine
 10
6.833663180640209
 20
-3.945417276893854
 30
0.0
 11
6.92820323027551
 21
-3.999999999999996
 31
0.0
  0
ARC
  5
18D
330
1F
100
AcDbEntity
  8
0
100
AcDbCircle
 10
6.513000872157808
 20
-3.60267202778132
 30
0.0
 40
0.4693598000153782
100
AcDbArc
 50
169.733895187686
 51
313.0934912835376
  0
ARC
  5
18E
330
1F
100
AcDbEntity
  8
0
100
AcDbCircle
 10
6.043837286016885
 20
-3.444897926809485
 30
0.0
 40
1.044146270895436
100
AcDbArc
 50
248.2739837465894
 51
327.8841784694579
  0
ARC
  5
18F
330
1F
100
AcDbEntity
  8
0
100
AcDbCircle
 10
5.564784960169665
 20
-4.647113980425861
 30
0.0
 40
0.25
100
AcDbArc
 50
68.27398374658932
 51
140.1349730311836
  0
LINE
  5
190
330
1F
100
AcDbEntity
  8
0
100
AcDbLine
 10
7.62196088647773
 20
-2.04229826427331
 30
0.0
 11
7.727406610312546
 21
-2.070552360820165
 31
0.0
  0
ARC
  5
191
330
1F
100
AcDbEntity
  8
0
100
AcDbCircle
 10
7.223515883108376
 20
-1.794225288799418
 30
0.0
 40
0.4693598000153782
100
AcDbArc
 50
184.7338951876859
 51
328.0934912835376
  0
ARC
  5
192
330
1F
100
AcDbEntity
  8
0
100
AcDbCircle
 10
6.729503716345024
 20
-1.763255681313051
 30
0.0
 40
1.044146270895436
100
AcDbArc
 50
263.2739837465893
 51
342.8841784694578
  0
ARC
  5
193
330
1F
100
AcDbEntity
  8
0
100
AcDbCircle
 10
6.577931113669258
 20
-3.048495081810351
 30
0.0
 40
0.25
100
AcDbArc
 50
83.27398374658931
 51
155.1349730311837
  0
LINE
  5
194
330
1F
100
AcDbEntity
  8
0
100
AcDbLine
 10
7.890834553787716
 20
-0.0000000000000014
 30
0.0
 11
8.0
 21
-0.0000000000000015
 31
0.0
  0
ARC
  5
195
330
1F
100
AcDbEntity
  8
0
100
AcDbCircle
 10
7.441760224049527
 20
0.1364949385166791
 30
0.0
 40
0.4693598000153782
100
AcDbArc
 50
199.7338951876858
 51
343.0934912835376
  0
ARC
  5
196
330
1F
100
AcDbEntity
  8
0
100
AcDbCircle
 10
6.956565589434962
 20
0.0385495249470788
 30
0.0
 40
1.044146270895436
100
AcDbArc
 50
278.2739837465893
 51
357.8841784694578
  0
ARC
  5
197
330
1F
100
AcDbEntity
  8
0
100
AcDbCircle
 10
7.142802132317435
 20
-1.242126281245788
 30
0.0
 40
0.25
100
AcDbArc
 50
98.27398374658926
 51
170.1349730311836
  0
LINE
  5
198
330
1F
100
AcDbEntity
  8
0
100
AcDbLine
 10
7.621960886477731
 20
2.042298264273308
 30
0.0
 11
7.727406610312547
 21
2.070552360820162
 31
0.0
  0
ARC
  5
199
330
1F
100
AcDbEntity
  8
0
100
AcDbCircle
 10
7.152860903811949
 20
2.057913261341416
 30
0.0
 40
0.4693598000153782
100
AcDbArc
 50
214.7338951876854
 51
358.0934912835376
  0
ARC
  5
19A
330
1F
100
AcDbEntity
  8
0
100
AcDbCircle
 10
6.709549013873107
 20
1.837727644788167
 30
0.0
 40
1.044146270895436
100
AcDbArc
 50
293.2739837465894
 51
12.88417846945779
  0
ARC
  5
19B
330
1F
100
AcDbEntity
  8
0
100
AcDbCircle
 10
7.220902989686818
 20
0.6488913726749397
 30
0.0
 40
0.25
100
AcDbArc
 50
113.2739837465893
 51
185.1349730311836
  0
LINE
  5
19C
330
1F
100
AcDbEntity
  8
0
100
AcDbLine
 10
6.83366318064021
 20
3.945417276893852
 30
0.0
 11
6.928203230275512
 21
3.999999999999994
 31
0.0
  0
ARC
  5
19D
330
1F
100
AcDbEntity
  8
0
100
AcDbCircle
 10
6.376505933641129
 20
3.839088196268199
 30
0.0
 40
0.4693598000153782
100
AcDbArc
 50
229.7338951876858
 51
13.09349128353756
  0
ARC
  5
19E
330
1F
100
AcDbEntity
  8
0
100
AcDbCircle
 10
6.005287761069808
 20
3.51166766262547
 30
0.0
 40
1.044146270895436
100
AcDbArc
 50
308.2739837465893
 51
27.88417846945778
  0
ARC
  5
19F
330
1F
100
AcDbEntity
  8
0
100
AcDbCircle
 10
6.806911241415452
 20
2.495688151891566
 30
0.0
 40
0.25
100
AcDbArc
 50
128.2739837465892
 51
200.1349730311836
  0
LINE
  5
1A0
330
1F
100
AcDbEntity
  8
0
100
AcDbLine
 10
5.579662622204425
 20
5.579662622204413
 30
0.0
 11
5.656854249492386
 21
5.656854249492374
 31
0.0
  0
ARC
  5
1A1
330
1F
100
AcDbEntity
  8
0
100
AcDbCircle
 10
5.165602621766963
 20
5.358635615012522
 30
0.0
 40
0.4693598000153782
100
AcDbArc
 50
244.7338951876856
 51
28.09349128353754
  0
ARC
  5
1A2
330
1F
100
AcDbEntity
  8
0
100
AcDbCircle
 10
4.89177607155686
 20
4.946293332560048
 30
0.0
 40
1.044146270895436
100
AcDbArc
 50
323.2739837465893
 51
42.88417846945775
  0
ARC
  5
1A3
330
1F
100
AcDbEntity
  8
0
100
AcDbCircle
 10
5.929039740994319
 20
4.172407907876459
 30
0.0
 40
0.25
100
AcDbArc
 50
143.2739837465892
 51
215.1349730311836
  0
LINE
  5
1A4
330
1F
100
AcDbEntity
  8
0
100
AcDbLine
 10
3.945417276893867
 20
6.833663180640201
 30
0.0
 11
4.000000000000009
 21
6.928203230275503
 31
0.0
  0
ARC
  5
1A5
330
1F
100
AcDbEntity
  8
0
100
AcDbCircle
 10
3.602672027781332
 20
6.513000872157801
 30
0.0
 40
0.4693598000153782
100
AcDbArc
 50
259.7338951876857
 51
43.09349128353752
  0
ARC
  5
1A6
330
1F
100
AcDbEntity
  8
0
100
AcDbCircle
 10
3.444897926809496
 20
6.043837286016879
 30
0.0
 40
1.044146270895436
100
AcDbArc
 50
338.2739837465893
 51
57.88417846945773
  0
ARC
  5
1A7
330
1F
100
AcDbEntity
  8
0
100
AcDbCircle
 10
4.647113980425872
 20
5.564784960169656
 30
0.0
 40
0.25
100
AcDbArc
 50
158.2739837465892
 51
230.1349730311835
  0
LINE
  5
1A8
330
1F
100
AcDbEntity
  8
0
100
AcDbLine
 10
2.042298264273325
 20
7.621960886477728
 30
0.0
 11
2.070552360820179
 21
7.727406610312542
 31
0.0
  0
ARC
  5
1A9
330
1F
100
AcDbEntity
  8
0
100
AcDbCircle
 10
1.794225288799431
 20
7.223515883108373
 30
0.0
 40
0.4693598000153782
100
AcDbArc
 50
272.0157964572881
 51
58.0934912835375
  0
ARC
  5
1AA
330
1F
100
AcDbEntity
  8
0
100
AcDbCircle
 10
1.763255681313063
 20
6.729503716345021
 30
0.0
 40
1.044146270895436
100
AcDbArc
 50
353.2739837465893
 51
72.88417846945772
  0
ARC
  5
1AB
330
1F
100
AcDbEntity
  8
0
100
AcDbCircle
 10
3.048495081810363
 20
6.577931113669253
 30
0.0
 40
0.25
100
AcDbArc
 50
173.2739837465891
 51
245.1349730311835
  0
ARC
  5
1AC
330
1F
100
AcDbEntity
  8
0
100
AcDbCircle
 10
0.0
 20
0.0
 30
0.0
 40
7.0
100
AcDbArc
 50
74.8200466719295
 51
80.13497303118382
  0
ARC
  5
1AD
330
1F
100
AcDbEntity
  8
0
100
AcDbCircle
 10
0.0
 20
0.0
 30
0.0
 40
7.0
100
AcDbArc
 50
104.8200466719296
 51
110.1349730311838
  0
ARC
  5
1AE
330
1F
100
AcDbEntity
  8
0
100
AcDbCircle
 10
0.0
 20
0.0
 30
0.0
 40
7.0
100
AcDbArc
 50
119.8200466719296
 51
125.1349730311838
  0
ARC
  5
1AF
330
1F
100
AcDbEntity
  8
0
100
AcDbCircle
 10
0.0
 20
0.0
 30
0.0
 40
7.0
100
AcDbArc
 50
59.82004667192951
 51
65.13497303118374
  0
ARC
  5
1B0
330
1F
100
AcDbEntity
  8
0
100
AcDbCircle
 10
0.0
 20
0.0
 30
0.0
 40
7.0
100
AcDbArc
 50
44.82004667192954
 51
50.13497303118374
  0
ARC
  5
1B1
330
1F
100
AcDbEntity
  8
0
100
AcDbCircle
 10
0.0
 20
0.0
 30
0.0
 40
7.0
100
AcDbArc
 50
29.82004667192955
 51
35.13497303118377
  0
ARC
  5
1B2
330
1F
100
AcDbEntity
  8
0
100
AcDbCircle
 10
0.0
 20
0.0
 30
0.0
 40
7.0
100
AcDbArc
 50
14.82004667192959
 51
20.13497303118378
  0
ARC
  5
1B3
330
1F
100
AcDbEntity
  8
0
100
AcDbCircle
 10
0.0
 20
0.0
 30
0.0
 40
7.0
100
AcDbArc
 50
359.8200466719295
 51
5.1349730311838
  0
ARC
  5
1B4
330
1F
100
AcDbEntity
  8
0
100
AcDbCircle
 10
0.0
 20
0.0
 30
0.0
 40
7.0
100
AcDbArc
 50
314.8200466719296
 51
320.1349730311839
  0
ARC
  5
1B5
330
1F
100
AcDbEntity
  8
0
100
AcDbCircle
 10
0.0
 20
0.0
 30
0.0
 40
7.0
100
AcDbArc
 50
329.8200466719296
 51
335.1349730311838
  0
ARC
  5
1B6
330
1F
100
AcDbEntity
  8
0
100
AcDbCircle
 10
0.0
 20
0.0
 30
0.0
 40
7.0
100
AcDbArc
 50
344.8200466719296
 51
350.1349730311838
  0
ARC
  5
1B7
330
1F
100
AcDbEntity
  8
0
100
AcDbCircle
 10
0.0
 20
0.0
 30
0.0
 40
7.0
100
AcDbArc
 50
299.8200466719296
 51
305.1349730311839
  0
ARC
  5
1B8
330
1F
100
AcDbEntity
  8
0
100
AcDbCircle
 10
0.0
 20
0.0
 30
0.0
 40
7.0
100
AcDbArc
 50
284.8200466719296
 51
290.1349730311839
  0
ARC
  5
1B9
330
1F
100
AcDbEntity
  8
0
100
AcDbCircle
 10
0.0
 20
0.0
 30
0.0
 40
7.0
100
AcDbArc
 50
269.8200466719296
 51
275.1349730311838
  0
ARC
  5
1BA
330
1F
100
AcDbEntity
  8
0
100
AcDbCircle
 10
0.0
 20
0.0
 30
0.0
 40
7.0
100
AcDbArc
 50
254.8200466719296
 51
260.1349730311838
  0
ARC
  5
1BB
330
1F
100
AcDbEntity
  8
0
100
AcDbCircle
 10
0.0
 20
0.0
 30
0.0
 40
7.0
100
AcDbArc
 50
239.8200466719296
 51
245.1349730311839
  0
ARC
  5
1BC
330
1F
100
AcDbEntity
  8
0
100
AcDbCircle
 10
0.0
 20
0.0
 30
0.0
 40
7.0
100
AcDbArc
 50
224.8200466719296
 51
230.1349730311838
  0
ARC
  5
1BD
330
1F
100
AcDbEntity
  8
0
100
AcDbCircle
 10
0.0
 20
0.0
 30
0.0
 40
7.0
100
AcDbArc
 50
209.8200466719295
 51
215.1349730311838
  0
ARC
  5
1BE
330
1F
100
AcDbEntity
  8
0
100
AcDbCircle
 10
0.0
 20
0.0
 30
0.0
 40
7.0
100
AcDbArc
 50
164.8200466719296
 51
170.1349730311838
  0
ARC
  5
1BF
330
1F
100
AcDbEntity
  8
0
100
AcDbCircle
 10
0.0
 20
0.0
 30
0.0
 40
7.0
100
AcDbArc
 50
179.8200466719295
 51
185.1349730311838
  0
ARC
  5
1C0
330
1F
100
AcDbEntity
  8
0
100
AcDbCircle
 10
0.0
 20
0.0
 30
0.0
 40
7.0
100
AcDbArc
 50
194.8200466719296
 51
200.1349730311838
  0
ARC
  5
1C1
330
1F
100
AcDbEntity
  8
0
100
AcDbCircle
 10
0.0
 20
0.0
 30
0.0
 40
7.0
100
AcDbArc
 50
134.8200466719296
 51
140.1349730311838
  0
ARC
  5
1C2
330
1F
100
AcDbEntity
  8
0
100
AcDbCircle
 10
0.0
 20
0.0
 30
0.0
 40
7.0
100
AcDbArc
 50
149.8200466719296
 51
155.1349730311838
  0
MTEXT
  5
1ED
330
1F
100
AcDbEntity
  8
letters
100
AcDbMText
 10
-3.884714411442445
 20
-0.0422874032873035
 30
0.0
 40
6.0
 41
46.70678755340634
 71
     1
 72
     5
  1
{\fTimes New Roman CE|b0|i0|c238|p18;\H0.4167x;R}
 73
     1
 44
1.0
1001
ACAD
1000
ACAD_MTEXT_DEFINED_HEIGHT_BEGIN
1070
    46
1040
0.0
1000
ACAD_MTEXT_DEFINED_HEIGHT_END
  0
MTEXT
  5
1EE
330
1F
100
AcDbEntity
  8
letters
100
AcDbMText
 10
1.775856763543799
 20
-0.0910903172621303
 30
0.0
 40
6.0
 41
17.63583878335549
 71
     1
 72
     5
  1
{\fTimes New Roman CE|b0|i0|c238|p18;\H0.4167x;H}
 73
     1
 44
1.0
1001
ACAD
1000
ACAD_MTEXT_DEFINED_HEIGHT_BEGIN
1070
    46
1040
0.0
1000
ACAD_MTEXT_DEFINED_HEIGHT_END
  0
LINE
  5
231
330
1F
100
AcDbEntity
  8
0
100
AcDbLine
 10
0.0000000000000011
 20
-7.999999999999997
 30
0.0
 11
0.0000000000000011
 21
-7.890834553787716
 31
0.0
  0
LINE
  5
6B3
330
1F
100
AcDbEntity
  8
CLOUDS
100
AcDbLine
 10
0.0
 20
9.050257138463734
 30
0.0
 11
0.0
 21
-11.96762495563553
 31
0.0
  0
INSERT
  5
6B6
330
1F
100
AcDbEntity
  8
CLOUDS
100
AcDbBlockReference
  2
CERLTIC CROSS
 10
-84.20806700362225
 20
-338.2555544415625
 30
0.0
 41
0.8099999999999987
 42
0.8100000000000004
 43
0.8100000000000001
  0
CIRCLE
  5
6BB
330
1F
100
AcDbEntity
  8
0
100
AcDbCircle
 10
0.0
 20
0.0
 30
0.0
 40
5.75
  0
ENDSEC
  0
SECTION
  2
OBJECTS
  0
DICTIONARY
  5
C
330
0
100
AcDbDictionary
281
     1
  3
ACAD_COLOR
350
73
  3
ACAD_GROUP
350
D
  3
ACAD_LAYOUT
350
1A
  3
ACAD_MATERIAL
350
72
  3
ACAD_MLINESTYLE
350
17
  3
ACAD_PLOTSETTINGS
350
19
  3
ACAD_PLOTSTYLENAME
350
E
  3
ACAD_TABLESTYLE
350
86
  3
AcDbVariableDictionary
350
66
  0
DICTIONARY
  5
1E4
330
2
100
AcDbDictionary
280
     1
281
     1
  3
ACAD_LAYERFILTERS
360
237
  3
ACLYDICTIONARY
360
236
  0
DICTIONARY
  5
A1
330
1F
100
AcDbDictionary
280
     1
281
     1
  3
ACAD_SORTENTS
360
A2
  0
DICTIONARY
  5
73
102
{ACAD_REACTORS
330
C
102
}
330
C
100
AcDbDictionary
281
     1
  0
DICTIONARY
  5
D
102
{ACAD_REACTORS
330
C
102
}
330
C
100
AcDbDictionary
281
     1
  0
DICTIONARY
  5
1A
102
{ACAD_REACTORS
330
C
102
}
330
C
100
AcDbDictionary
281
     1
  3
Layout1
350
59
  3
Layout2
350
5E
  3
Model
350
22
  0
DICTIONARY
  5
72
102
{ACAD_REACTORS
330
C
102
}
330
C
100
AcDbDictionary
281
     1
  0
DICTIONARY
  5
17
102
{ACAD_REACTORS
330
C
102
}
330
C
100
AcDbDictionary
281
     1
  3
Standard
350
18
  0
DICTIONARY
  5
19
102
{ACAD_REACTORS
330
C
102
}
330
C
100
AcDbDictionary
281
     1
  0
ACDBDICTIONARYWDFLT
  5
E
102
{ACAD_REACTORS
330
C
102
}
330
C
100
AcDbDictionary
281
     1
  3
Normal
350
F
100
AcDbDictionaryWithDefault
340
F
  0
DICTIONARY
  5
86
102
{ACAD_REACTORS
330
C
102
}
330
C
100
AcDbDictionary
281
     1
  3
Standard
350
87
  0
DICTIONARY
  5
66
102
{ACAD_REACTORS
330
C
102
}
330
C
100
AcDbDictionary
281
     1
  3
CTABLESTYLE
350
9E
  3
DIMASSOC
350
67
  3
HIDETEXT
350
6B
  0
DICTIONARY
  5
237
102
{ACAD_REACTORS
330
1E4
102
}
330
1E4
100
AcDbDictionary
281
     1
  0
DICTIONARY
  5
236
102
{ACAD_REACTORS
330
1E4
102
}
330
1E4
100
AcDbDictionary
281
     1
1001
ACAD
1000
<All
  0
SORTENTSTABLE
  5
A2
102
{ACAD_REACTORS
330
A1
102
}
330
A1
100
AcDbSortentsTable
330
1F
331
6B3
  5
6B6
331
1A9
  5
1C1
331
18D
  5
1A5
331
1BA
  5
158
331
19E
  5
1B6
331
171
  5
189
331
182
  5
19A
331
155
  5
16D
331
166
  5
17E
331
1B4
  5
15C
331
198
  5
1B0
331
16B
  5
183
331
160
  5
178
331
1C2
  5
151
331
1AE
  5
14E
331
192
  5
1AA
331
1BF
  5
153
331
1A3
  5
1BB
331
176
  5
18E
331
187
  5
19F
331
15A
  5
172
331
1A8
  5
1C0
331
18C
  5
1A4
331
1B9
  5
159
331
19D
  5
1B5
331
170
  5
188
331
181
  5
199
331
154
  5
16C
331
165
  5
17D
331
1B3
  5
15F
331
197
  5
1AF
331
16A
  5
182
331
17B
  5
194
331
14E
  5
167
331
15F
  5
177
331
1EE
  5
231
331
1C1
  5
150
331
1AD
  5
C1
331
191
  5
1A9
331
BC
  5
165
331
1BE
  5
152
331
1A2
  5
1BA
331
175
  5
18D
331
186
  5
19E
331
159
  5
171
331
231
  5
6B3
331
18B
  5
1A3
331
1B8
  5
15A
331
19C
  5
1B4
331
16F
  5
187
331
180
  5
198
331
153
  5
16B
331
164
  5
17C
331
1B2
  5
160
331
A0
  5
BF
331
196
  5
1AE
331
169
  5
181
331
C1
  5
A3
331
1A7
  5
1BF
331
17A
  5
192
331
15E
  5
176
331
6B6
  5
6BB
331
1C0
  5
154
331
1ED
  5
1EE
331
1AC
  5
164
331
190
  5
1A8
331
1BD
  5
155
331
1A1
  5
1B9
331
174
  5
18C
331
185
  5
19D
331
158
  5
170
331
18A
  5
1A2
331
1B7
  5
15B
331
19B
  5
1B3
331
16E
  5
186
331
17F
  5
197
331
152
  5
16A
331
9A
  5
9A
331
163
  5
17B
331
6BB
  5
9C
331
1B1
  5
161
331
195
  5
1AD
331
168
  5
180
331
1A6
  5
1BE
331
179
  5
191
331
15D
  5
175
331
1AB
  5
1ED
331
18F
  5
1A7
331
1BC
  5
156
331
1A0
  5
1B8
331
173
  5
18B
331
184
  5
19C
331
157
  5
16F
331
189
  5
1A1
331
1B6
  5
15E
331
19A
  5
1B2
331
16D
  5
185
331
17E
  5
196
331
151
  5
169
331
162
  5
17A
331
1B0
  5
162
331
194
  5
1AC
331
BF
  5
166
331
1A5
  5
1BD
331
178
  5
190
331
15C
  5
174
331
1AA
  5
1C2
331
18E
  5
1A6
331
1BB
  5
157
331
19F
  5
1B7
331
172
  5
18A
331
183
  5
19B
331
156
  5
16E
331
167
  5
17F
331
188
  5
1A0
331
1B5
  5
15D
331
199
  5
1B1
331
16C
  5
184
331
17D
  5
195
331
150
  5
168
331
161
  5
179
331
1AF
  5
163
331
193
  5
1AB
331
1A4
  5
1BC
331
177
  5
18F
331
15B
  5
173
  0
LAYOUT
  5
59
102
{ACAD_REACTORS
330
1A
102
}
330
1A
100
AcDbPlotSettings
  1

  2
None
  4

  6

 40
0.0
 41
0.0
 42
0.0
 43
0.0
 44
0.0
 45
0.0
 46
0.0
 47
0.0
 48
0.0
 49
0.0
140
0.0
141
0.0
142
1.0
143
1.0
 70
   688
 72
     0
 73
     0
 74
     5
  7

 75
    16
147
1.0
 76
     0
 77
     2
 78
   300
148
0.0
149
0.0
100
AcDbLayout
  1
Layout1
 70
     1
 71
     1
 10
0.0
 20
0.0
 11
12.0
 21
9.0
 12
0.0
 22
0.0
 32
0.0
 14
0.0
 24
0.0
 34
0.0
 15
0.0
 25
0.0
 35
0.0
146
0.0
 13
0.0
 23
0.0
 33
0.0
 16
1.0
 26
0.0
 36
0.0
 17
0.0
 27
1.0
 37
0.0
 76
     0
330
58
  0
LAYOUT
  5
5E
102
{ACAD_REACTORS
330
1A
102
}
330
1A
100
AcDbPlotSettings
  1

  2
None
  4

  6

 40
0.0
 41
0.0
 42
0.0
 43
0.0
 44
0.0
 45
0.0
 46
0.0
 47
0.0
 48
0.0
 49
0.0
140
0.0
141
0.0
142
1.0
143
1.0
 70
   688
 72
     0
 73
     0
 74
     5
  7

 75
    16
147
1.0
 76
     0
 77
     2
 78
   300
148
0.0
149
0.0
100
AcDbLayout
  1
Layout2
 70
     1
 71
     2
 10
0.0
 20
0.0
 11
12.0
 21
9.0
 12
0.0
 22
0.0
 32
0.0
 14
0.0
 24
0.0
 34
0.0
 15
0.0
 25
0.0
 35
0.0
146
0.0
 13
0.0
 23
0.0
 33
0.0
 16
1.0
 26
0.0
 36
0.0
 17
0.0
 27
1.0
 37
0.0
 76
     0
330
5D
  0
LAYOUT
  5
22
102
{ACAD_REACTORS
330
1A
102
}
330
1A
100
AcDbPlotSettings
  1

  2
none_device
  4
ANSI_A_(8.50_x_11.00_Inches)
  6

 40
6.349999904632568
 41
19.04999923706055
 42
6.350006103515625
 43
19.04998779296875
 44
215.8999938964844
 45
279.3999938964844
 46
0.0
 47
0.0
 48
0.0
 49
0.0
140
0.0
141
0.0
142
1.0
143
2.584895464708373
 70
 11952
 72
     0
 73
     1
 74
     0
  7

 75
     0
147
0.3868628397755418
 76
     0
 77
     2
 78
   300
148
0.0
149
0.0
100
AcDbLayout
  1
Model
 70
     1
 71
     0
 10
0.0
 20
0.0
 11
12.0
 21
9.0
 12
0.0
 22
0.0
 32
0.0
 14
0.0
 24
0.0
 34
0.0
 15
0.0
 25
0.0
 35
0.0
146
0.0
 13
0.0
 23
0.0
 33
0.0
 16
1.0
 26
0.0
 36
0.0
 17
0.0
 27
1.0
 37
0.0
 76
     0
330
1F
  0
MLINESTYLE
  5
18
102
{ACAD_REACTORS
330
17
102
}
330
17
100
AcDbMlineStyle
  2
STANDARD
 70
     0
  3

 62
   256
 51
90.0
 52
90.0
 71
     2
 49
0.5
 62
   256
  6
BYLAYER
 49
-0.5
 62
   256
  6
BYLAYER
  0
ACDBPLACEHOLDER
  5
F
102
{ACAD_REACTORS
330
E
102
}
330
E
  0
TABLESTYLE
  5
87
102
{ACAD_REACTORS
330
86
102
}
330
86
100
AcDbTableStyle
  3
Standard
 70
     0
 71
     0
 40
0.06
 41
0.06
280
     0
281
     0
  7
Standard
140
0.18
170
     2
 62
     0
 63
     7
283
     0
274
    -2
284
     1
 64
     0
275
    -2
285
     1
 65
     0
276
    -2
286
     1
 66
     0
277
    -2
287
     1
 67
     0
278
    -2
288
     1
 68
     0
279
    -2
289
     1
 69
     0
  7
Standard
140
0.25
170
     5
 62
     0
 63
     7
283
     0
274
    -2
284
     1
 64
     0
275
    -2
285
     1
 65
     0
276
    -2
286
     1
 66
     0
277
    -2
287
     1
 67
     0
278
    -2
288
     1
 68
     0
279
    -2
289
     1
 69
     0
  7
Standard
140
0.18
170
     5
 62
     0
 63
     7
283
     0
274
    -2
284
     1
 64
     0
275
    -2
285
     1
 65
     0
276
    -2
286
     1
 66
     0
277
    -2
287
     1
 67
     0
278
    -2
288
     1
 68
     0
279
    -2
289
     1
 69
     0
  0
DICTIONARYVAR
  5
9E
102
{ACAD_REACTORS
330
66
102
}
330
66
100
DictionaryVariables
280
     0
  1
STANDARD
  0
DICTIONARYVAR
  5
67
102
{ACAD_REACTORS
330
66
102
}
330
66
100
DictionaryVariables
280
     0
  1
2
  0
DICTIONARYVAR
  5
6B
102
{ACAD_REACTORS
330
66
102
}
330
66
100
DictionaryVariables
280
     0
  1
1
  0
ENDSEC
  0
EOF
