  0
SECTION
  2
HEADER
  9
$ACADVER
  1
AC1009
  9
$LIMMIN
 10
0.000000
 20
0.000000
  9
$LIMMAX
 10
7.762205
 20
9.285827
  0
ENDSEC
  0
SECTION
  2
TABLES
  0
TABLE
  2
LTYPE
 70
     4
  0
LTYPE
  2
CONTINUOUS
 70
     0
  3
Solid line
 72
     65
 73
     0
 40
0.000000
  0
LTYPE
  2
HIDDEN
 70
     0
  3
 _ _ _ _ _ _ _ _ _ _ _
 72
     65
 73
     2
 40
0.375000
 49
0.250000
 49
-0.125000
  0
LTYPE
  2
DASHED
 70
     0
  3
 ___ ___ ___ ___ ___ ___ ___ 
 72
     65
 73
     2
 40
0.750000
 49
0.500000
 49
-0.250000
  0
LTYPE
  2
CENTER
 70
     0
  3
___ _ ___ _ ___ _ ___
 72
     65
 73
     4
 40
2.000000
 49
1.250000
 49
-0.250000
 49
0.250000
 49
-0.250000
  0
LTYPE
  2
BORDER
 70
     0
  3
___ ___ . ___ ___ . ___ ___
 72
     65
 73
     6
 40
1.750000
 49
0.500000
 49
-0.250000
 49
0.500000
 49
-0.250000
 49
0.000000
 49
-0.250000
  0
LTYPE
  2
DOT
 70
     0
  3
.................
 72
     65
 73
     2
 40
0.250000
 49
0.000000
 49
-0.250000
  0
LTYPE
  2
DASHDOT
 70
     0
  3
__ . __ . __ . __
 72
     65
 73
     4
 40
1.000000
 49
0.500000
 49
-0.250000
 49
0.000000
 49
-0.250000
  0
LTYPE
  2
DIVIDE
 70
     0
  3
___ .. ___ .. ___ .. ___
 72
     65
 73
     6
 40
1.250000
 49
0.500000
 49
-0.250000
 49
0.000000
 49
-0.250000
 49
0.000000
 49
-0.250000
  0
ENDTAB
  0
TABLE
  2
LAYER
 70
     8
  0
LAYER
  2
BLACK
 70
     0
 62
     1
  6
CONTINUOUS
  0
LAYER
  2
WHITE
 70
     0
 62
     7
  6
CONTINUOUS
  0
LAYER
  2
RED
 70
     0
 62
     1
  6
CONTINUOUS
  0
LAYER
  2
YELLOW
 70
     0
 62
     2
  6
CONTINUOUS
  0
LAYER
  2
GREEN
 70
     0
 62
     3
  6
CONTINUOUS
  0
LAYER
  2
CYAN
 70
     0
 62
     4
  6
CONTINUOUS
  0
LAYER
  2
BLUE
 70
     0
 62
     5
  6
CONTINUOUS
  0
LAYER
  2
MAGENTA
 70
     0
 62
     6
  6
CONTINUOUS
  0
ENDTAB
  0
TABLE
  2
APPID
 70
     1
  0
APPID
  2
TC_BEND_DATA
 70
     0
  0
ENDTAB
  0
ENDSEC
  0
SECTION
  2
BLOCKS
  0
ENDSEC
  0
SECTION
  2
ENTITIES
  0
LINE
  8
WHITE
 10
0.004724
 20
9.285827
 30
0.000000
 11
7.757480
 21
9.285827
 31
0.000000
  6
CONTINUOUS
  0
LINE
  8
WHITE
 10
7.757480
 20
9.285827
 30
0.000000
 11
7.443305
 21
8.444882
 31
0.000000
  6
CONTINUOUS
  0
LINE
  8
WHITE
 10
7.443305
 20
8.444882
 30
0.000000
 11
7.443305
 21
1.521257
 31
0.000000
  6
CONTINUOUS
  0
LINE
  8
WHITE
 10
7.443305
 20
1.521257
 30
0.000000
 11
7.762205
 21
1.292124
 31
0.000000
  6
CONTINUOUS
  0
LINE
  8
WHITE
 10
7.762205
 20
1.292124
 30
0.000000
 11
3.881100
 21
0.000000
 31
0.000000
  6
CONTINUOUS
  0
LINE
  8
WHITE
 10
3.881100
 20
0.000000
 30
0.000000
 11
0.000000
 21
1.292124
 31
0.000000
  6
CONTINUOUS
  0
LINE
  8
WHITE
 10
0.000000
 20
1.292124
 30
0.000000
 11
0.318898
 21
1.521257
 31
0.000000
  6
CONTINUOUS
  0
LINE
  8
WHITE
 10
0.318898
 20
1.521257
 30
0.000000
 11
0.318898
 21
8.444882
 31
0.000000
  6
CONTINUOUS
  0
LINE
  8
WHITE
 10
0.318898
 20
8.444882
 30
0.000000
 11
0.004724
 21
9.285827
 31
0.000000
  6
CONTINUOUS
  0
LINE
  8
WHITE
 10
3.021260
 20
5.374013
 30
0.000000
 11
3.021260
 21
4.573228
 31
0.000000
  6
CONTINUOUS
  0
LINE
  8
WHITE
 10
3.021260
 20
4.573228
 30
0.000000
 11
2.950394
 21
4.573228
 31
0.000000
  6
CONTINUOUS
  0
LINE
  8
WHITE
 10
2.950394
 20
4.573228
 30
0.000000
 11
2.988187
 21
3.623620
 31
0.000000
  6
CONTINUOUS
  0
LINE
  8
WHITE
 10
2.988187
 20
3.623620
 30
0.000000
 11
3.205509
 21
3.840943
 31
0.000000
  6
CONTINUOUS
  0
LINE
  8
WHITE
 10
3.205509
 20
3.840943
 30
0.000000
 11
3.325982
 21
3.911809
 31
0.000000
  6
CONTINUOUS
  0
LINE
  8
WHITE
 10
3.325982
 20
3.911809
 30
0.000000
 11
3.385037
 21
4.062990
 31
0.000000
  6
CONTINUOUS
  0
LINE
  8
WHITE
 10
3.385037
 20
4.062990
 30
0.000000
 11
3.420472
 21
4.240157
 31
0.000000
  6
CONTINUOUS
  0
LINE
  8
WHITE
 10
3.420472
 20
4.240157
 30
0.000000
 11
3.446454
 21
4.582675
 31
0.000000
  6
CONTINUOUS
  0
LINE
  8
WHITE
 10
3.446454
 20
4.582675
 30
0.000000
 11
3.420472
 21
4.965354
 31
0.000000
  6
CONTINUOUS
  0
LINE
  8
WHITE
 10
3.420472
 20
4.965354
 30
0.000000
 11
3.427557
 21
5.440157
 31
0.000000
  6
CONTINUOUS
  0
LINE
  8
WHITE
 10
3.427557
 20
5.440157
 30
0.000000
 11
3.465352
 21
5.683462
 31
0.000000
  6
CONTINUOUS
  0
LINE
  8
WHITE
 10
3.465352
 20
5.683462
 30
0.000000
 11
3.571651
 21
5.919685
 31
0.000000
  6
CONTINUOUS
  0
LINE
  8
WHITE
 10
3.571651
 20
5.919685
 30
0.000000
 11
3.692124
 21
6.120470
 31
0.000000
  6
CONTINUOUS
  0
LINE
  8
WHITE
 10
3.692124
 20
6.120470
 30
0.000000
 11
3.855116
 21
6.255118
 31
0.000000
  6
CONTINUOUS
  0
LINE
  8
WHITE
 10
3.855116
 20
6.255118
 30
0.000000
 11
4.053541
 21
6.375588
 31
0.000000
  6
CONTINUOUS
  0
LINE
  8
WHITE
 10
4.053541
 20
6.375588
 30
0.000000
 11
4.275591
 21
6.429919
 31
0.000000
  6
CONTINUOUS
  0
LINE
  8
WHITE
 10
4.275591
 20
6.429919
 30
0.000000
 11
4.707874
 21
6.375588
 31
0.000000
  6
CONTINUOUS
  0
LINE
  8
WHITE
 10
4.707874
 20
6.375588
 30
0.000000
 11
5.092913
 21
6.259840
 31
0.000000
  6
CONTINUOUS
  0
LINE
  8
WHITE
 10
5.092913
 20
6.259840
 30
0.000000
 11
5.362205
 21
6.162992
 31
0.000000
  6
CONTINUOUS
  0
LINE
  8
WHITE
 10
5.362205
 20
6.162992
 30
0.000000
 11
5.674016
 21
5.969291
 31
0.000000
  6
CONTINUOUS
  0
LINE
  8
WHITE
 10
5.674016
 20
5.969291
 30
0.000000
 11
5.811021
 21
5.827559
 31
0.000000
  6
CONTINUOUS
  0
LINE
  8
WHITE
 10
5.811021
 20
5.827559
 30
0.000000
 11
5.844094
 21
5.718898
 31
0.000000
  6
CONTINUOUS
  0
LINE
  8
WHITE
 10
5.844094
 20
5.718898
 30
0.000000
 11
5.780313
 21
5.513383
 31
0.000000
  6
CONTINUOUS
  0
LINE
  8
WHITE
 10
5.780313
 20
5.513383
 30
0.000000
 11
5.704724
 21
5.454331
 31
0.000000
  6
CONTINUOUS
  0
LINE
  8
WHITE
 10
5.704724
 20
5.454331
 30
0.000000
 11
5.645667
 21
5.303147
 31
0.000000
  6
CONTINUOUS
  0
LINE
  8
WHITE
 10
5.645667
 20
5.303147
 30
0.000000
 11
5.624407
 21
5.192126
 31
0.000000
  6
CONTINUOUS
  0
ARC
  8
WHITE
 10
5.702360
 20
5.177950
 30
0.000000
 40
0.079231
 50
169.693475
 51
190.304900
  6
CONTINUOUS
  0
LINE
  8
WHITE
 10
5.624407
 20
5.163777
 30
0.000000
 11
5.652754
 21
5.005512
 31
0.000000
  6
CONTINUOUS
  0
ARC
  8
WHITE
 10
5.537309
 20
4.984827
 30
0.000000
 40
0.117283
 50
-27.915509
 51
10.158232
  6
CONTINUOUS
  0
LINE
  8
WHITE
 10
5.640945
 20
4.929919
 30
0.000000
 11
5.541732
 21
4.740945
 31
0.000000
  6
CONTINUOUS
  0
ARC
  8
WHITE
 10
5.614830
 20
4.702899
 30
0.000000
 40
0.082406
 50
152.504012
 51
210.861889
  6
CONTINUOUS
  0
LINE
  8
WHITE
 10
5.544092
 20
4.660628
 30
0.000000
 11
5.624407
 21
4.381887
 31
0.000000
  6
CONTINUOUS
  0
ARC
  8
WHITE
 10
5.521273
 20
4.327619
 30
0.000000
 40
0.116540
 50
-18.955261
 51
27.752899
  6
CONTINUOUS
  0
LINE
  8
WHITE
 10
5.631494
 20
4.289764
 30
0.000000
 11
5.622045
 21
4.261415
 31
0.000000
  6
CONTINUOUS
  0
ARC
  8
WHITE
 10
5.556651
 20
4.280696
 30
0.000000
 40
0.068177
 50
-102.639653
 51
-16.427782
  6
CONTINUOUS
  0
LINE
  8
WHITE
 10
5.541732
 20
4.214171
 30
0.000000
 11
5.402362
 21
4.249604
 31
0.000000
  6
CONTINUOUS
  0
LINE
  8
WHITE
 10
5.402362
 20
4.249604
 30
0.000000
 11
5.409449
 21
4.169291
 31
0.000000
  6
CONTINUOUS
  0
ARC
  8
WHITE
 10
5.292503
 20
4.160443
 30
0.000000
 40
0.117281
 50
-63.042493
 51
4.326988
  6
CONTINUOUS
  0
LINE
  8
WHITE
 10
5.345669
 20
4.055906
 30
0.000000
 11
5.265352
 21
3.987402
 31
0.000000
  6
CONTINUOUS
  0
ARC
  8
WHITE
 10
5.169261
 20
3.917399
 30
0.000000
 40
0.118885
 50
-41.526129
 51
36.073507
  6
CONTINUOUS
  0
LINE
  8
WHITE
 10
5.258265
 20
3.838583
 30
0.000000
 11
5.211021
 21
3.800787
 31
0.000000
  6
CONTINUOUS
  0
LINE
  8
WHITE
 10
5.211021
 20
3.800787
 30
0.000000
 11
5.175591
 21
3.552756
 31
0.000000
  6
CONTINUOUS
  0
ARC
  8
WHITE
 10
5.057480
 20
3.569289
 30
0.000000
 40
0.119262
 50
-57.875000
 51
-7.968486
  6
CONTINUOUS
  0
LINE
  8
WHITE
 10
5.120899
 20
3.468288
 30
0.000000
 11
4.981890
 21
3.411024
 31
0.000000
  6
CONTINUOUS
  0
ARC
  8
WHITE
 10
4.937008
 20
3.522047
 30
0.000000
 40
0.119752
 50
-94.573899
 51
-67.988717
  6
CONTINUOUS
  0
LINE
  8
WHITE
 10
4.927458
 20
3.402677
 30
0.000000
 11
4.537793
 21
3.429919
 31
0.000000
  6
CONTINUOUS
  0
ARC
  8
WHITE
 10
4.533071
 20
3.349604
 30
0.000000
 40
0.080454
 50
86.635218
 51
149.620799
  6
CONTINUOUS
  0
LINE
  8
WHITE
 10
4.463665
 20
3.390290
 30
0.000000
 11
4.436220
 21
3.226769
 31
0.000000
  6
CONTINUOUS
  0
ARC
  8
WHITE
 10
4.504724
 20
3.184250
 30
0.000000
 40
0.080627
 50
148.172553
 51
222.613999
  6
CONTINUOUS
  0
LINE
  8
WHITE
 10
4.445389
 20
3.129661
 30
0.000000
 11
4.566139
 21
2.957480
 31
0.000000
  6
CONTINUOUS
  0
LINE
  8
WHITE
 10
4.566139
 20
2.957480
 30
0.000000
 11
4.861415
 21
2.829921
 31
0.000000
  6
CONTINUOUS
  0
LINE
  8
WHITE
 10
4.861415
 20
2.829921
 30
0.000000
 11
5.137795
 21
2.785037
 31
0.000000
  6
CONTINUOUS
  0
LINE
  8
WHITE
 10
5.137795
 20
2.785037
 30
0.000000
 11
5.220470
 21
2.751969
 31
0.000000
  6
CONTINUOUS
  0
ARC
  8
WHITE
 10
3.881100
 20
4.681887
 30
0.000000
 40
2.349149
 50
-55.239224
 51
212.139700
  6
CONTINUOUS
  0
LINE
  8
WHITE
 10
1.891950
 20
3.432174
 30
0.000000
 11
1.939370
 21
4.573228
 31
0.000000
  6
CONTINUOUS
  0
LINE
  8
WHITE
 10
1.939370
 20
4.573228
 30
0.000000
 11
1.866142
 21
4.573228
 31
0.000000
  6
CONTINUOUS
  0
LINE
  8
WHITE
 10
1.866142
 20
4.573228
 30
0.000000
 11
1.866142
 21
5.374013
 31
0.000000
  6
CONTINUOUS
  0
LINE
  8
WHITE
 10
1.866142
 20
5.374013
 30
0.000000
 11
2.444195
 21
5.616175
 31
0.000000
  6
CONTINUOUS
  0
LINE
  8
WHITE
 10
2.444195
 20
5.616175
 30
0.000000
 11
3.021260
 21
5.374013
 31
0.000000
  6
CONTINUOUS
  0
LINE
  8
WHITE
 10
5.593698
 20
6.581102
 30
0.000000
 11
5.749606
 21
6.444092
 31
0.000000
  6
CONTINUOUS
  0
LINE
  8
WHITE
 10
5.749606
 20
6.444092
 30
0.000000
 11
5.794486
 21
6.760630
 31
0.000000
  6
CONTINUOUS
  0
LINE
  8
WHITE
 10
5.794486
 20
6.760630
 30
0.000000
 11
6.033071
 21
6.758268
 31
0.000000
  6
CONTINUOUS
  0
LINE
  8
WHITE
 10
6.033071
 20
6.758268
 30
0.000000
 11
6.118110
 21
5.922047
 31
0.000000
  6
CONTINUOUS
  0
LINE
  8
WHITE
 10
6.118110
 20
5.922047
 30
0.000000
 11
6.316533
 21
5.461417
 31
0.000000
  6
CONTINUOUS
  0
LINE
  8
WHITE
 10
6.316533
 20
5.461417
 30
0.000000
 11
6.047244
 21
8.562992
 31
0.000000
  6
CONTINUOUS
  0
LINE
  8
WHITE
 10
6.047244
 20
8.562992
 30
0.000000
 11
5.959843
 21
8.562992
 31
0.000000
  6
CONTINUOUS
  0
LINE
  8
WHITE
 10
5.959843
 20
8.562992
 30
0.000000
 11
5.593698
 21
6.581102
 31
0.000000
  6
CONTINUOUS
  0
LINE
  8
WHITE
 10
5.832281
 20
6.944882
 30
0.000000
 11
6.030709
 21
6.944882
 31
0.000000
  6
CONTINUOUS
  0
LINE
  8
WHITE
 10
6.030709
 20
6.944882
 30
0.000000
 11
5.969291
 21
7.816535
 31
0.000000
  6
CONTINUOUS
  0
LINE
  8
WHITE
 10
5.969291
 20
7.816535
 30
0.000000
 11
5.832281
 21
6.944882
 31
0.000000
  6
CONTINUOUS
  0
LINE
  8
WHITE
 10
2.074016
 20
8.562992
 30
0.000000
 11
2.074016
 21
6.484250
 31
0.000000
  6
CONTINUOUS
  0
LINE
  8
WHITE
 10
2.074016
 20
6.484250
 30
0.000000
 11
2.499210
 21
6.836220
 31
0.000000
  6
CONTINUOUS
  0
LINE
  8
WHITE
 10
2.499210
 20
6.836220
 30
0.000000
 11
2.499210
 21
8.562992
 31
0.000000
  6
CONTINUOUS
  0
LINE
  8
WHITE
 10
2.499210
 20
8.562992
 30
0.000000
 11
2.074016
 21
8.562992
 31
0.000000
  6
CONTINUOUS
  0
LINE
  8
WHITE
 10
2.215748
 20
8.421260
 30
0.000000
 11
2.215748
 21
6.793698
 31
0.000000
  6
CONTINUOUS
  0
LINE
  8
WHITE
 10
2.215748
 20
6.793698
 30
0.000000
 11
2.357480
 21
6.874013
 31
0.000000
  6
CONTINUOUS
  0
LINE
  8
WHITE
 10
2.357480
 20
6.874013
 30
0.000000
 11
2.357480
 21
8.421260
 31
0.000000
  6
CONTINUOUS
  0
LINE
  8
WHITE
 10
2.357480
 20
8.421260
 30
0.000000
 11
2.215748
 21
8.421260
 31
0.000000
  6
CONTINUOUS
  0
LINE
  8
WHITE
 10
4.176376
 20
1.932283
 30
0.000000
 11
4.247242
 21
2.010236
 31
0.000000
  6
CONTINUOUS
  0
LINE
  8
WHITE
 10
4.247242
 20
2.010236
 30
0.000000
 11
3.921257
 21
1.986614
 31
0.000000
  6
CONTINUOUS
  0
LINE
  8
WHITE
 10
3.921257
 20
1.986614
 30
0.000000
 11
4.003937
 21
1.918110
 31
0.000000
  6
CONTINUOUS
  0
LINE
  8
WHITE
 10
4.003937
 20
1.918110
 30
0.000000
 11
3.722832
 21
1.920472
 31
0.000000
  6
CONTINUOUS
  0
LINE
  8
WHITE
 10
3.722832
 20
1.920472
 30
0.000000
 11
3.805512
 21
1.986614
 31
0.000000
  6
CONTINUOUS
  0
LINE
  8
WHITE
 10
3.805512
 20
1.986614
 30
0.000000
 11
3.585824
 21
2.003147
 31
0.000000
  6
CONTINUOUS
  0
LINE
  8
WHITE
 10
3.585824
 20
2.003147
 30
0.000000
 11
3.503150
 21
1.941732
 31
0.000000
  6
CONTINUOUS
  0
LINE
  8
WHITE
 10
3.503150
 20
1.941732
 30
0.000000
 11
3.311811
 21
1.974803
 31
0.000000
  6
CONTINUOUS
  0
LINE
  8
WHITE
 10
3.311811
 20
1.974803
 30
0.000000
 11
3.406299
 21
2.029134
 31
0.000000
  6
CONTINUOUS
  0
LINE
  8
WHITE
 10
3.406299
 20
2.029134
 30
0.000000
 11
3.191339
 21
2.076378
 31
0.000000
  6
CONTINUOUS
  0
LINE
  8
WHITE
 10
3.191339
 20
2.076378
 30
0.000000
 11
3.099213
 21
2.029134
 31
0.000000
  6
CONTINUOUS
  0
LINE
  8
WHITE
 10
3.099213
 20
2.029134
 30
0.000000
 11
2.914958
 21
2.090549
 31
0.000000
  6
CONTINUOUS
  0
LINE
  8
WHITE
 10
2.914958
 20
2.090549
 30
0.000000
 11
3.014173
 21
2.128346
 31
0.000000
  6
CONTINUOUS
  0
LINE
  8
WHITE
 10
3.014173
 20
2.128346
 30
0.000000
 11
2.808659
 21
2.208659
 31
0.000000
  6
CONTINUOUS
  0
LINE
  8
WHITE
 10
2.808659
 20
2.208659
 30
0.000000
 11
2.711809
 21
2.175588
 31
0.000000
  6
CONTINUOUS
  0
LINE
  8
WHITE
 10
2.711809
 20
2.175588
 30
0.000000
 11
2.539370
 21
2.262990
 31
0.000000
  6
CONTINUOUS
  0
LINE
  8
WHITE
 10
2.539370
 20
2.262990
 30
0.000000
 11
2.643305
 21
2.286612
 31
0.000000
  6
CONTINUOUS
  0
LINE
  8
WHITE
 10
2.643305
 20
2.286612
 30
0.000000
 11
2.451966
 21
2.395273
 31
0.000000
  6
CONTINUOUS
  0
LINE
  8
WHITE
 10
2.451966
 20
2.395273
 30
0.000000
 11
2.352754
 21
2.376376
 31
0.000000
  6
CONTINUOUS
  0
LINE
  8
WHITE
 10
2.352754
 20
2.376376
 30
0.000000
 11
2.194488
 21
2.489761
 31
0.000000
  6
CONTINUOUS
  0
LINE
  8
WHITE
 10
2.194488
 20
2.489761
 30
0.000000
 11
2.300787
 21
2.496848
 31
0.000000
  6
CONTINUOUS
  0
LINE
  8
WHITE
 10
2.300787
 20
2.496848
 30
0.000000
 11
2.128346
 21
2.633856
 31
0.000000
  6
CONTINUOUS
  0
LINE
  8
WHITE
 10
2.128346
 20
2.633856
 30
0.000000
 11
2.024407
 21
2.631496
 31
0.000000
  6
CONTINUOUS
  0
LINE
  8
WHITE
 10
2.024407
 20
2.631496
 30
0.000000
 11
1.885039
 21
2.766142
 31
0.000000
  6
CONTINUOUS
  0
LINE
  8
WHITE
 10
1.885039
 20
2.766142
 30
0.000000
 11
1.991336
 21
2.759055
 31
0.000000
  6
CONTINUOUS
  0
LINE
  8
WHITE
 10
1.991336
 20
2.759055
 30
0.000000
 11
1.842520
 21
2.917320
 31
0.000000
  6
CONTINUOUS
  0
LINE
  8
WHITE
 10
1.842520
 20
2.917320
 30
0.000000
 11
1.740943
 21
2.931494
 31
0.000000
  6
CONTINUOUS
  0
LINE
  8
WHITE
 10
1.740943
 20
2.931494
 30
0.000000
 11
1.622835
 21
3.085039
 31
0.000000
  6
CONTINUOUS
  0
LINE
  8
WHITE
 10
1.622835
 20
3.085039
 30
0.000000
 11
1.726769
 21
3.061417
 31
0.000000
  6
CONTINUOUS
  0
LINE
  8
WHITE
 10
1.726769
 20
3.061417
 30
0.000000
 11
1.601575
 21
3.240945
 31
0.000000
  6
CONTINUOUS
  0
LINE
  8
WHITE
 10
1.601575
 20
3.240945
 30
0.000000
 11
1.469291
 21
3.278738
 31
0.000000
  6
CONTINUOUS
  0
LINE
  8
WHITE
 10
1.469291
 20
3.278738
 30
0.000000
 11
1.448031
 21
3.139370
 31
0.000000
  6
CONTINUOUS
  0
LINE
  8
WHITE
 10
1.448031
 20
3.139370
 30
0.000000
 11
1.573226
 21
2.959840
 31
0.000000
  6
CONTINUOUS
  0
LINE
  8
WHITE
 10
1.573226
 20
2.959840
 30
0.000000
 11
1.582677
 21
3.059055
 31
0.000000
  6
CONTINUOUS
  0
LINE
  8
WHITE
 10
1.582677
 20
3.059055
 30
0.000000
 11
1.705509
 21
2.898425
 31
0.000000
  6
CONTINUOUS
  0
LINE
  8
WHITE
 10
1.705509
 20
2.898425
 30
0.000000
 11
1.705509
 21
2.794488
 31
0.000000
  6
CONTINUOUS
  0
LINE
  8
WHITE
 10
1.705509
 20
2.794488
 30
0.000000
 11
1.856691
 21
2.633856
 31
0.000000
  6
CONTINUOUS
  0
LINE
  8
WHITE
 10
1.856691
 20
2.633856
 30
0.000000
 11
1.851969
 21
2.735433
 31
0.000000
  6
CONTINUOUS
  0
LINE
  8
WHITE
 10
1.851969
 20
2.735433
 30
0.000000
 11
1.996063
 21
2.593698
 31
0.000000
  6
CONTINUOUS
  0
LINE
  8
WHITE
 10
1.996063
 20
2.593698
 30
0.000000
 11
2.012596
 21
2.492124
 31
0.000000
  6
CONTINUOUS
  0
LINE
  8
WHITE
 10
2.012596
 20
2.492124
 30
0.000000
 11
2.185037
 21
2.355116
 31
0.000000
  6
CONTINUOUS
  0
LINE
  8
WHITE
 10
2.185037
 20
2.355116
 30
0.000000
 11
2.163777
 21
2.454328
 31
0.000000
  6
CONTINUOUS
  0
LINE
  8
WHITE
 10
2.163777
 20
2.454328
 30
0.000000
 11
2.326769
 21
2.336220
 31
0.000000
  6
CONTINUOUS
  0
LINE
  8
WHITE
 10
2.326769
 20
2.336220
 30
0.000000
 11
2.359840
 21
2.237008
 31
0.000000
  6
CONTINUOUS
  0
LINE
  8
WHITE
 10
2.359840
 20
2.237008
 30
0.000000
 11
2.551181
 21
2.128346
 31
0.000000
  6
CONTINUOUS
  0
LINE
  8
WHITE
 10
2.551181
 20
2.128346
 30
0.000000
 11
2.515748
 21
2.222832
 31
0.000000
  6
CONTINUOUS
  0
LINE
  8
WHITE
 10
2.515748
 20
2.222832
 30
0.000000
 11
2.695276
 21
2.130709
 31
0.000000
  6
CONTINUOUS
  0
LINE
  8
WHITE
 10
2.695276
 20
2.130709
 30
0.000000
 11
2.740155
 21
2.038583
 31
0.000000
  6
CONTINUOUS
  0
LINE
  8
WHITE
 10
2.740155
 20
2.038583
 30
0.000000
 11
2.945667
 21
1.958265
 31
0.000000
  6
CONTINUOUS
  0
LINE
  8
WHITE
 10
2.945667
 20
1.958265
 30
0.000000
 11
2.898423
 21
2.045667
 31
0.000000
  6
CONTINUOUS
  0
LINE
  8
WHITE
 10
2.898423
 20
2.045667
 30
0.000000
 11
3.087402
 21
1.981887
 31
0.000000
  6
CONTINUOUS
  0
LINE
  8
WHITE
 10
3.087402
 20
1.981887
 30
0.000000
 11
3.148819
 21
1.896850
 31
0.000000
  6
CONTINUOUS
  0
LINE
  8
WHITE
 10
3.148819
 20
1.896850
 30
0.000000
 11
3.363780
 21
1.849604
 31
0.000000
  6
CONTINUOUS
  0
LINE
  8
WHITE
 10
3.363780
 20
1.849604
 30
0.000000
 11
3.302360
 21
1.929921
 31
0.000000
  6
CONTINUOUS
  0
LINE
  8
WHITE
 10
3.302360
 20
1.929921
 30
0.000000
 11
3.500785
 21
1.894486
 31
0.000000
  6
CONTINUOUS
  0
LINE
  8
WHITE
 10
3.500785
 20
1.894486
 30
0.000000
 11
3.571651
 21
1.818895
 31
0.000000
  6
CONTINUOUS
  0
LINE
  8
WHITE
 10
3.571651
 20
1.818895
 30
0.000000
 11
3.791339
 21
1.804722
 31
0.000000
  6
CONTINUOUS
  0
LINE
  8
WHITE
 10
3.791339
 20
1.804722
 30
0.000000
 11
3.718108
 21
1.873226
 31
0.000000
  6
CONTINUOUS
  0
LINE
  8
WHITE
 10
3.718108
 20
1.873226
 30
0.000000
 11
4.006297
 21
1.870864
 31
0.000000
  6
CONTINUOUS
  0
LINE
  8
WHITE
 10
4.006297
 20
1.870864
 30
0.000000
 11
3.933069
 21
1.802362
 31
0.000000
  6
CONTINUOUS
  0
LINE
  8
WHITE
 10
3.933069
 20
1.802362
 30
0.000000
 11
4.263780
 21
1.828344
 31
0.000000
  6
CONTINUOUS
  0
LINE
  8
WHITE
 10
4.263780
 20
1.828344
 30
0.000000
 11
4.181100
 21
1.885039
 31
0.000000
  6
CONTINUOUS
  0
LINE
  8
WHITE
 10
4.181100
 20
1.885039
 30
0.000000
 11
4.478740
 21
1.932283
 31
0.000000
  6
CONTINUOUS
  0
LINE
  8
WHITE
 10
4.478740
 20
1.932283
 30
0.000000
 11
4.417320
 21
1.854331
 31
0.000000
  6
CONTINUOUS
  0
LINE
  8
WHITE
 10
4.417320
 20
1.854331
 30
0.000000
 11
4.632281
 21
1.901572
 31
0.000000
  6
CONTINUOUS
  0
LINE
  8
WHITE
 10
4.632281
 20
1.901572
 30
0.000000
 11
4.691339
 21
1.988974
 31
0.000000
  6
CONTINUOUS
  0
LINE
  8
WHITE
 10
4.691339
 20
1.988974
 30
0.000000
 11
4.882677
 21
2.052756
 31
0.000000
  6
CONTINUOUS
  0
LINE
  8
WHITE
 10
4.882677
 20
2.052756
 30
0.000000
 11
4.833071
 21
1.965354
 31
0.000000
  6
CONTINUOUS
  0
LINE
  8
WHITE
 10
4.833071
 20
1.965354
 30
0.000000
 11
5.038583
 21
2.045667
 31
0.000000
  6
CONTINUOUS
  0
LINE
  8
WHITE
 10
5.038583
 20
2.045667
 30
0.000000
 11
5.083465
 21
2.137795
 31
0.000000
  6
CONTINUOUS
  0
LINE
  8
WHITE
 10
5.083465
 20
2.137795
 30
0.000000
 11
5.262992
 21
2.232281
 31
0.000000
  6
CONTINUOUS
  0
LINE
  8
WHITE
 10
5.262992
 20
2.232281
 30
0.000000
 11
5.227557
 21
2.137795
 31
0.000000
  6
CONTINUOUS
  0
LINE
  8
WHITE
 10
5.227557
 20
2.137795
 30
0.000000
 11
5.418898
 21
2.246457
 31
0.000000
  6
CONTINUOUS
  0
LINE
  8
WHITE
 10
5.418898
 20
2.246457
 30
0.000000
 11
5.449606
 21
2.345669
 31
0.000000
  6
CONTINUOUS
  0
LINE
  8
WHITE
 10
5.449606
 20
2.345669
 30
0.000000
 11
5.612598
 21
2.463780
 31
0.000000
  6
CONTINUOUS
  0
LINE
  8
WHITE
 10
5.612598
 20
2.463780
 30
0.000000
 11
5.591336
 21
2.366929
 31
0.000000
  6
CONTINUOUS
  0
LINE
  8
WHITE
 10
5.591336
 20
2.366929
 30
0.000000
 11
5.763777
 21
2.503935
 31
0.000000
  6
CONTINUOUS
  0
LINE
  8
WHITE
 10
5.763777
 20
2.503935
 30
0.000000
 11
5.780313
 21
2.605509
 31
0.000000
  6
CONTINUOUS
  0
LINE
  8
WHITE
 10
5.780313
 20
2.605509
 30
0.000000
 11
5.924409
 21
2.747244
 31
0.000000
  6
CONTINUOUS
  0
LINE
  8
WHITE
 10
5.924409
 20
2.747244
 30
0.000000
 11
5.919683
 21
2.648029
 31
0.000000
  6
CONTINUOUS
  0
LINE
  8
WHITE
 10
5.919683
 20
2.648029
 30
0.000000
 11
6.068504
 21
2.808659
 31
0.000000
  6
CONTINUOUS
  0
LINE
  8
WHITE
 10
6.068504
 20
2.808659
 30
0.000000
 11
6.068504
 21
2.912596
 31
0.000000
  6
CONTINUOUS
  0
LINE
  8
WHITE
 10
6.068504
 20
2.912596
 30
0.000000
 11
6.188974
 21
3.073228
 31
0.000000
  6
CONTINUOUS
  0
LINE
  8
WHITE
 10
6.188974
 20
3.073228
 30
0.000000
 11
6.198423
 21
2.974013
 31
0.000000
  6
CONTINUOUS
  0
LINE
  8
WHITE
 10
6.198423
 20
2.974013
 30
0.000000
 11
6.323620
 21
3.155906
 31
0.000000
  6
CONTINUOUS
  0
LINE
  8
WHITE
 10
6.323620
 20
3.155906
 30
0.000000
 11
6.302362
 21
3.295276
 31
0.000000
  6
CONTINUOUS
  0
LINE
  8
WHITE
 10
6.302362
 20
3.295276
 30
0.000000
 11
6.170079
 21
3.257480
 31
0.000000
  6
CONTINUOUS
  0
LINE
  8
WHITE
 10
6.170079
 20
3.257480
 30
0.000000
 11
6.044882
 21
3.075588
 31
0.000000
  6
CONTINUOUS
  0
LINE
  8
WHITE
 10
6.044882
 20
3.075588
 30
0.000000
 11
6.148819
 21
3.099210
 31
0.000000
  6
CONTINUOUS
  0
LINE
  8
WHITE
 10
6.148819
 20
3.099210
 30
0.000000
 11
6.033071
 21
2.943305
 31
0.000000
  6
CONTINUOUS
  0
LINE
  8
WHITE
 10
6.033071
 20
2.943305
 30
0.000000
 11
5.931496
 21
2.931494
 31
0.000000
  6
CONTINUOUS
  0
LINE
  8
WHITE
 10
5.931496
 20
2.931494
 30
0.000000
 11
5.782677
 21
2.770866
 31
0.000000
  6
CONTINUOUS
  0
LINE
  8
WHITE
 10
5.782677
 20
2.770866
 30
0.000000
 11
5.888974
 21
2.777953
 31
0.000000
  6
CONTINUOUS
  0
LINE
  8
WHITE
 10
5.888974
 20
2.777953
 30
0.000000
 11
5.749606
 21
2.643307
 31
0.000000
  6
CONTINUOUS
  0
LINE
  8
WHITE
 10
5.749606
 20
2.643307
 30
0.000000
 11
5.648029
 21
2.645669
 31
0.000000
  6
CONTINUOUS
  0
LINE
  8
WHITE
 10
5.648029
 20
2.645669
 30
0.000000
 11
5.475588
 21
2.508659
 31
0.000000
  6
CONTINUOUS
  0
LINE
  8
WHITE
 10
5.475588
 20
2.508659
 30
0.000000
 11
5.581890
 21
2.501572
 31
0.000000
  6
CONTINUOUS
  0
LINE
  8
WHITE
 10
5.581890
 20
2.501572
 30
0.000000
 11
5.425984
 21
2.388187
 31
0.000000
  6
CONTINUOUS
  0
LINE
  8
WHITE
 10
5.425984
 20
2.388187
 30
0.000000
 11
5.324409
 21
2.404724
 31
0.000000
  6
CONTINUOUS
  0
LINE
  8
WHITE
 10
5.324409
 20
2.404724
 30
0.000000
 11
5.133069
 21
2.293701
 31
0.000000
  6
CONTINUOUS
  0
LINE
  8
WHITE
 10
5.133069
 20
2.293701
 30
0.000000
 11
5.237008
 21
2.272441
 31
0.000000
  6
CONTINUOUS
  0
LINE
  8
WHITE
 10
5.237008
 20
2.272441
 30
0.000000
 11
5.064565
 21
2.182677
 31
0.000000
  6
CONTINUOUS
  0
LINE
  8
WHITE
 10
5.064565
 20
2.182677
 30
0.000000
 11
4.967717
 21
2.215748
 31
0.000000
  6
CONTINUOUS
  0
LINE
  8
WHITE
 10
4.967717
 20
2.215748
 30
0.000000
 11
4.764567
 21
2.135431
 31
0.000000
  6
CONTINUOUS
  0
LINE
  8
WHITE
 10
4.764567
 20
2.135431
 30
0.000000
 11
4.863780
 21
2.097638
 31
0.000000
  6
CONTINUOUS
  0
LINE
  8
WHITE
 10
4.863780
 20
2.097638
 30
0.000000
 11
4.679528
 21
2.033856
 31
0.000000
  6
CONTINUOUS
  0
LINE
  8
WHITE
 10
4.679528
 20
2.033856
 30
0.000000
 11
4.587402
 21
2.081100
 31
0.000000
  6
CONTINUOUS
  0
LINE
  8
WHITE
 10
4.587402
 20
2.081100
 30
0.000000
 11
4.374801
 21
2.031496
 31
0.000000
  6
CONTINUOUS
  0
LINE
  8
WHITE
 10
4.374801
 20
2.031496
 30
0.000000
 11
4.466929
 21
1.979525
 31
0.000000
  6
CONTINUOUS
  0
LINE
  8
WHITE
 10
4.466929
 20
1.979525
 30
0.000000
 11
4.176376
 21
1.932283
 31
0.000000
  6
CONTINUOUS
  0
LINE
  8
WHITE
 10
1.514173
 20
5.648031
 30
0.000000
 11
1.655906
 21
5.940943
 31
0.000000
  6
CONTINUOUS
  0
LINE
  8
WHITE
 10
1.655906
 20
5.940943
 30
0.000000
 11
1.655906
 21
7.660630
 31
0.000000
  6
CONTINUOUS
  0
LINE
  8
WHITE
 10
1.655906
 20
7.660630
 30
0.000000
 11
1.939370
 21
7.660630
 31
0.000000
  6
CONTINUOUS
  0
LINE
  8
WHITE
 10
1.939370
 20
7.660630
 30
0.000000
 11
1.939370
 21
8.562992
 31
0.000000
  6
CONTINUOUS
  0
LINE
  8
WHITE
 10
1.939370
 20
8.562992
 30
0.000000
 11
1.514173
 21
8.562992
 31
0.000000
  6
CONTINUOUS
  0
LINE
  8
WHITE
 10
1.514173
 20
8.562992
 30
0.000000
 11
1.514173
 21
5.648031
 31
0.000000
  6
CONTINUOUS
  0
LINE
  8
WHITE
 10
1.797638
 20
7.802362
 30
0.000000
 11
1.797638
 21
8.421260
 31
0.000000
  6
CONTINUOUS
  0
LINE
  8
WHITE
 10
1.797638
 20
8.421260
 30
0.000000
 11
1.655906
 21
8.421260
 31
0.000000
  6
CONTINUOUS
  0
LINE
  8
WHITE
 10
1.655906
 20
8.421260
 30
0.000000
 11
1.655906
 21
7.802362
 31
0.000000
  6
CONTINUOUS
  0
LINE
  8
WHITE
 10
1.655906
 20
7.802362
 30
0.000000
 11
1.797638
 21
7.802362
 31
0.000000
  6
CONTINUOUS
  0
LINE
  8
WHITE
 10
4.809449
 20
7.065352
 30
0.000000
 11
4.958268
 21
7.003935
 31
0.000000
  6
CONTINUOUS
  0
LINE
  8
WHITE
 10
4.958268
 20
7.003935
 30
0.000000
 11
4.830706
 21
8.562992
 31
0.000000
  6
CONTINUOUS
  0
LINE
  8
WHITE
 10
4.830706
 20
8.562992
 30
0.000000
 11
4.703150
 21
8.562992
 31
0.000000
  6
CONTINUOUS
  0
LINE
  8
WHITE
 10
4.703150
 20
8.562992
 30
0.000000
 11
4.587402
 21
7.939370
 31
0.000000
  6
CONTINUOUS
  0
LINE
  8
WHITE
 10
4.587402
 20
7.939370
 30
0.000000
 11
4.497638
 21
8.562992
 31
0.000000
  6
CONTINUOUS
  0
LINE
  8
WHITE
 10
4.497638
 20
8.562992
 30
0.000000
 11
4.377165
 21
8.562992
 31
0.000000
  6
CONTINUOUS
  0
LINE
  8
WHITE
 10
4.377165
 20
8.562992
 30
0.000000
 11
4.244882
 21
7.214171
 31
0.000000
  6
CONTINUOUS
  0
LINE
  8
WHITE
 10
4.244882
 20
7.214171
 30
0.000000
 11
4.384252
 21
7.190549
 31
0.000000
  6
CONTINUOUS
  0
LINE
  8
WHITE
 10
4.384252
 20
7.190549
 30
0.000000
 11
4.481102
 21
8.187399
 31
0.000000
  6
CONTINUOUS
  0
LINE
  8
WHITE
 10
4.481102
 20
8.187399
 30
0.000000
 11
4.589761
 21
7.391339
 31
0.000000
  6
CONTINUOUS
  0
LINE
  8
WHITE
 10
4.589761
 20
7.391339
 30
0.000000
 11
4.719685
 21
8.147242
 31
0.000000
  6
CONTINUOUS
  0
LINE
  8
WHITE
 10
4.719685
 20
8.147242
 30
0.000000
 11
4.809449
 21
7.065352
 31
0.000000
  6
CONTINUOUS
  0
LINE
  8
WHITE
 10
2.834646
 20
8.562992
 30
0.000000
 11
2.692911
 21
8.562992
 31
0.000000
  6
CONTINUOUS
  0
LINE
  8
WHITE
 10
2.692911
 20
8.562992
 30
0.000000
 11
2.837006
 21
7.018110
 31
0.000000
  6
CONTINUOUS
  0
LINE
  8
WHITE
 10
2.837006
 20
7.018110
 30
0.000000
 11
2.966929
 21
7.072441
 31
0.000000
  6
CONTINUOUS
  0
LINE
  8
WHITE
 10
2.966929
 20
7.072441
 30
0.000000
 11
3.049604
 21
7.740945
 31
0.000000
  6
CONTINUOUS
  0
LINE
  8
WHITE
 10
3.049604
 20
7.740945
 30
0.000000
 11
3.134646
 21
7.129131
 31
0.000000
  6
CONTINUOUS
  0
LINE
  8
WHITE
 10
3.134646
 20
7.129131
 30
0.000000
 11
3.266929
 21
7.166927
 31
0.000000
  6
CONTINUOUS
  0
LINE
  8
WHITE
 10
3.266929
 20
7.166927
 30
0.000000
 11
3.401575
 21
8.562992
 31
0.000000
  6
CONTINUOUS
  0
LINE
  8
WHITE
 10
3.401575
 20
8.562992
 30
0.000000
 11
3.259840
 21
8.562992
 31
0.000000
  6
CONTINUOUS
  0
LINE
  8
WHITE
 10
3.259840
 20
8.562992
 30
0.000000
 11
3.155903
 21
7.492911
 31
0.000000
  6
CONTINUOUS
  0
LINE
  8
WHITE
 10
3.155903
 20
7.492911
 30
0.000000
 11
3.047242
 21
8.288976
 31
0.000000
  6
CONTINUOUS
  0
LINE
  8
WHITE
 10
3.047242
 20
8.288976
 30
0.000000
 11
2.940943
 21
7.433856
 31
0.000000
  6
CONTINUOUS
  0
LINE
  8
WHITE
 10
2.940943
 20
7.433856
 30
0.000000
 11
2.834646
 21
8.562992
 31
0.000000
  6
CONTINUOUS
  0
LINE
  8
WHITE
 10
5.225194
 20
8.562992
 30
0.000000
 11
5.225194
 21
6.862205
 31
0.000000
  6
CONTINUOUS
  0
LINE
  8
WHITE
 10
5.225194
 20
6.862205
 30
0.000000
 11
5.364567
 21
6.770076
 31
0.000000
  6
CONTINUOUS
  0
LINE
  8
WHITE
 10
5.364567
 20
6.770076
 30
0.000000
 11
5.364567
 21
8.562992
 31
0.000000
  6
CONTINUOUS
  0
LINE
  8
WHITE
 10
5.364567
 20
8.562992
 30
0.000000
 11
5.225194
 21
8.562992
 31
0.000000
  6
CONTINUOUS
  0
LINE
  8
WHITE
 10
3.824407
 20
8.314961
 30
0.000000
 11
3.732283
 21
8.031494
 31
0.000000
  6
CONTINUOUS
  0
LINE
  8
WHITE
 10
3.732283
 20
8.031494
 30
0.000000
 11
3.434643
 21
8.031494
 31
0.000000
  6
CONTINUOUS
  0
LINE
  8
WHITE
 10
3.434643
 20
8.031494
 30
0.000000
 11
3.675588
 21
7.856693
 31
0.000000
  6
CONTINUOUS
  0
LINE
  8
WHITE
 10
3.675588
 20
7.856693
 30
0.000000
 11
3.583462
 21
7.573226
 31
0.000000
  6
CONTINUOUS
  0
LINE
  8
WHITE
 10
3.583462
 20
7.573226
 30
0.000000
 11
3.824407
 21
7.748031
 31
0.000000
  6
CONTINUOUS
  0
LINE
  8
WHITE
 10
3.824407
 20
7.748031
 30
0.000000
 11
4.065354
 21
7.573226
 31
0.000000
  6
CONTINUOUS
  0
LINE
  8
WHITE
 10
4.065354
 20
7.573226
 30
0.000000
 11
3.973228
 21
7.856693
 31
0.000000
  6
CONTINUOUS
  0
LINE
  8
WHITE
 10
3.973228
 20
7.856693
 30
0.000000
 11
4.214173
 21
8.031494
 31
0.000000
  6
CONTINUOUS
  0
LINE
  8
WHITE
 10
4.214173
 20
8.031494
 30
0.000000
 11
3.916533
 21
8.031494
 31
0.000000
  6
CONTINUOUS
  0
LINE
  8
WHITE
 10
3.916533
 20
8.031494
 30
0.000000
 11
3.824407
 21
8.314961
 31
0.000000
  6
CONTINUOUS
  0
LINE
  8
WHITE
 10
2.366929
 20
5.003150
 30
0.000000
 11
2.366929
 21
5.414173
 31
0.000000
  6
CONTINUOUS
  0
LINE
  8
WHITE
 10
2.366929
 20
5.414173
 30
0.000000
 11
2.022045
 21
5.267717
 31
0.000000
  6
CONTINUOUS
  0
LINE
  8
WHITE
 10
2.022045
 20
5.267717
 30
0.000000
 11
2.022045
 21
5.003150
 31
0.000000
  6
CONTINUOUS
  0
LINE
  8
WHITE
 10
2.022045
 20
5.003150
 30
0.000000
 11
2.366929
 21
5.003150
 31
0.000000
  6
CONTINUOUS
  0
LINE
  8
WHITE
 10
2.522832
 20
5.003150
 30
0.000000
 11
2.865354
 21
5.003150
 31
0.000000
  6
CONTINUOUS
  0
LINE
  8
WHITE
 10
2.865354
 20
5.003150
 30
0.000000
 11
2.865354
 21
5.267717
 31
0.000000
  6
CONTINUOUS
  0
LINE
  8
WHITE
 10
2.865354
 20
5.267717
 30
0.000000
 11
2.522832
 21
5.414173
 31
0.000000
  6
CONTINUOUS
  0
LINE
  8
WHITE
 10
2.522832
 20
5.414173
 30
0.000000
 11
2.522832
 21
5.003150
 31
0.000000
  6
CONTINUOUS
  0
LINE
  8
WHITE
 10
2.166139
 20
3.387399
 30
0.000000
 11
2.440155
 21
3.198425
 31
0.000000
  6
CONTINUOUS
  0
LINE
  8
WHITE
 10
2.440155
 20
3.198425
 30
0.000000
 11
2.733071
 21
3.403937
 31
0.000000
  6
CONTINUOUS
  0
LINE
  8
WHITE
 10
2.733071
 20
3.403937
 30
0.000000
 11
2.459053
 21
3.595276
 31
0.000000
  6
CONTINUOUS
  0
LINE
  8
WHITE
 10
2.459053
 20
3.595276
 30
0.000000
 11
2.166139
 21
3.387399
 31
0.000000
  6
CONTINUOUS
  0
LINE
  8
WHITE
 10
2.584250
 20
4.062990
 30
0.000000
 11
2.449606
 21
4.155116
 31
0.000000
  6
CONTINUOUS
  0
LINE
  8
WHITE
 10
2.449606
 20
4.155116
 30
0.000000
 11
2.189764
 21
3.970866
 31
0.000000
  6
CONTINUOUS
  0
LINE
  8
WHITE
 10
2.189764
 20
3.970866
 30
0.000000
 11
2.456691
 21
3.786612
 31
0.000000
  6
CONTINUOUS
  0
LINE
  8
WHITE
 10
2.456691
 20
3.786612
 30
0.000000
 11
2.718898
 21
3.968502
 31
0.000000
  6
CONTINUOUS
  0
LINE
  8
WHITE
 10
2.718898
 20
3.968502
 30
0.000000
 11
2.584250
 21
4.062990
 31
0.000000
  6
CONTINUOUS
  0
LINE
  8
WHITE
 10
5.626772
 20
1.601575
 30
0.000000
 11
5.785037
 21
1.582677
 31
0.000000
  6
CONTINUOUS
  0
LINE
  8
WHITE
 10
5.785037
 20
1.582677
 30
0.000000
 11
5.872439
 21
1.655906
 31
0.000000
  6
CONTINUOUS
  0
LINE
  8
WHITE
 10
5.872439
 20
1.655906
 30
0.000000
 11
5.879525
 21
1.811811
 31
0.000000
  6
CONTINUOUS
  0
LINE
  8
WHITE
 10
5.879525
 20
1.811811
 30
0.000000
 11
5.759055
 21
1.922835
 31
0.000000
  6
CONTINUOUS
  0
LINE
  8
WHITE
 10
5.759055
 20
1.922835
 30
0.000000
 11
5.652754
 21
1.918110
 31
0.000000
  6
CONTINUOUS
  0
LINE
  8
WHITE
 10
5.652754
 20
1.918110
 30
0.000000
 11
5.562990
 21
1.844882
 31
0.000000
  6
CONTINUOUS
  0
LINE
  8
WHITE
 10
5.562990
 20
1.844882
 30
0.000000
 11
5.551181
 21
1.691339
 31
0.000000
  6
CONTINUOUS
  0
LINE
  8
WHITE
 10
5.551181
 20
1.691339
 30
0.000000
 11
5.626772
 21
1.601575
 31
0.000000
  6
CONTINUOUS
  0
LINE
  8
WHITE
 10
5.690551
 20
1.896850
 30
0.000000
 11
5.588976
 21
1.842520
 31
0.000000
  6
CONTINUOUS
  0
LINE
  8
WHITE
 10
5.588976
 20
1.842520
 30
0.000000
 11
5.600785
 21
1.719683
 31
0.000000
  6
CONTINUOUS
  0
LINE
  8
WHITE
 10
5.600785
 20
1.719683
 30
0.000000
 11
5.742520
 21
1.603937
 31
0.000000
  6
CONTINUOUS
  0
LINE
  8
WHITE
 10
5.742520
 20
1.603937
 30
0.000000
 11
5.846457
 21
1.655906
 31
0.000000
  6
CONTINUOUS
  0
LINE
  8
WHITE
 10
5.846457
 20
1.655906
 30
0.000000
 11
5.832281
 21
1.778740
 31
0.000000
  6
CONTINUOUS
  0
LINE
  8
WHITE
 10
5.832281
 20
1.778740
 30
0.000000
 11
5.690551
 21
1.896850
 31
0.000000
  6
CONTINUOUS
  0
LINE
  8
WHITE
 10
1.027557
 20
2.591339
 30
0.000000
 11
1.025194
 21
2.430706
 31
0.000000
  6
CONTINUOUS
  0
LINE
  8
WHITE
 10
1.025194
 20
2.430706
 30
0.000000
 11
1.105512
 21
2.352754
 31
0.000000
  6
CONTINUOUS
  0
LINE
  8
WHITE
 10
1.105512
 20
2.352754
 30
0.000000
 11
1.259053
 21
2.357480
 31
0.000000
  6
CONTINUOUS
  0
LINE
  8
WHITE
 10
1.259053
 20
2.357480
 30
0.000000
 11
1.360630
 21
2.487402
 31
0.000000
  6
CONTINUOUS
  0
LINE
  8
WHITE
 10
1.360630
 20
2.487402
 30
0.000000
 11
1.346454
 21
2.593698
 31
0.000000
  6
CONTINUOUS
  0
LINE
  8
WHITE
 10
1.346454
 20
2.593698
 30
0.000000
 11
1.263780
 21
2.676376
 31
0.000000
  6
CONTINUOUS
  0
LINE
  8
WHITE
 10
1.263780
 20
2.676376
 30
0.000000
 11
1.110236
 21
2.674016
 31
0.000000
  6
CONTINUOUS
  0
LINE
  8
WHITE
 10
1.110236
 20
2.674016
 30
0.000000
 11
1.027557
 21
2.591339
 31
0.000000
  6
CONTINUOUS
  0
LINE
  8
WHITE
 10
1.329921
 20
2.553543
 30
0.000000
 11
1.263780
 21
2.652754
 31
0.000000
  6
CONTINUOUS
  0
LINE
  8
WHITE
 10
1.263780
 20
2.652754
 30
0.000000
 11
1.143307
 21
2.626772
 31
0.000000
  6
CONTINUOUS
  0
LINE
  8
WHITE
 10
1.143307
 20
2.626772
 30
0.000000
 11
1.041730
 21
2.475591
 31
0.000000
  6
CONTINUOUS
  0
LINE
  8
WHITE
 10
1.041730
 20
2.475591
 30
0.000000
 11
1.103147
 21
2.378740
 31
0.000000
  6
CONTINUOUS
  0
LINE
  8
WHITE
 10
1.103147
 20
2.378740
 30
0.000000
 11
1.223620
 21
2.402362
 31
0.000000
  6
CONTINUOUS
  0
LINE
  8
WHITE
 10
1.223620
 20
2.402362
 30
0.000000
 11
1.329921
 21
2.553543
 31
0.000000
  6
CONTINUOUS
  0
LINE
  8
WHITE
 10
3.160630
 20
1.235431
 30
0.000000
 11
3.255118
 21
1.103147
 31
0.000000
  6
CONTINUOUS
  0
LINE
  8
WHITE
 10
3.255118
 20
1.103147
 30
0.000000
 11
3.366142
 21
1.088974
 31
0.000000
  6
CONTINUOUS
  0
LINE
  8
WHITE
 10
3.366142
 20
1.088974
 30
0.000000
 11
3.486614
 21
1.185824
 31
0.000000
  6
CONTINUOUS
  0
LINE
  8
WHITE
 10
3.486614
 20
1.185824
 30
0.000000
 11
3.488974
 21
1.351181
 31
0.000000
  6
CONTINUOUS
  0
LINE
  8
WHITE
 10
3.488974
 20
1.351181
 30
0.000000
 11
3.413386
 21
1.426772
 31
0.000000
  6
CONTINUOUS
  0
LINE
  8
WHITE
 10
3.413386
 20
1.426772
 30
0.000000
 11
3.300000
 21
1.443305
 31
0.000000
  6
CONTINUOUS
  0
LINE
  8
WHITE
 10
3.300000
 20
1.443305
 30
0.000000
 11
3.177165
 21
1.348817
 31
0.000000
  6
CONTINUOUS
  0
LINE
  8
WHITE
 10
3.177165
 20
1.348817
 30
0.000000
 11
3.160630
 21
1.235431
 31
0.000000
  6
CONTINUOUS
  0
LINE
  8
WHITE
 10
3.425197
 20
1.384252
 30
0.000000
 11
3.314171
 21
1.424407
 31
0.000000
  6
CONTINUOUS
  0
LINE
  8
WHITE
 10
3.314171
 20
1.424407
 30
0.000000
 11
3.231496
 21
1.332283
 31
0.000000
  6
CONTINUOUS
  0
LINE
  8
WHITE
 10
3.231496
 20
1.332283
 30
0.000000
 11
3.240943
 21
1.150394
 31
0.000000
  6
CONTINUOUS
  0
LINE
  8
WHITE
 10
3.240943
 20
1.150394
 30
0.000000
 11
3.347244
 21
1.107874
 31
0.000000
  6
CONTINUOUS
  0
LINE
  8
WHITE
 10
3.347244
 20
1.107874
 30
0.000000
 11
3.429921
 21
1.200000
 31
0.000000
  6
CONTINUOUS
  0
LINE
  8
WHITE
 10
3.429921
 20
1.200000
 30
0.000000
 11
3.425197
 21
1.384252
 31
0.000000
  6
CONTINUOUS
  0
LINE
  8
WHITE
 10
4.478740
 20
1.214171
 30
0.000000
 11
4.613386
 21
1.124409
 31
0.000000
  6
CONTINUOUS
  0
LINE
  8
WHITE
 10
4.613386
 20
1.124409
 30
0.000000
 11
4.722047
 21
1.152754
 31
0.000000
  6
CONTINUOUS
  0
LINE
  8
WHITE
 10
4.722047
 20
1.152754
 30
0.000000
 11
4.799998
 21
1.285039
 31
0.000000
  6
CONTINUOUS
  0
LINE
  8
WHITE
 10
4.799998
 20
1.285039
 30
0.000000
 11
4.743307
 21
1.440945
 31
0.000000
  6
CONTINUOUS
  0
LINE
  8
WHITE
 10
4.743307
 20
1.440945
 30
0.000000
 11
4.646454
 21
1.483465
 31
0.000000
  6
CONTINUOUS
  0
LINE
  8
WHITE
 10
4.646454
 20
1.483465
 30
0.000000
 11
4.533071
 21
1.457478
 31
0.000000
  6
CONTINUOUS
  0
LINE
  8
WHITE
 10
4.533071
 20
1.457478
 30
0.000000
 11
4.455118
 21
1.327559
 31
0.000000
  6
CONTINUOUS
  0
LINE
  8
WHITE
 10
4.455118
 20
1.327559
 30
0.000000
 11
4.478740
 21
1.214171
 31
0.000000
  6
CONTINUOUS
  0
LINE
  8
WHITE
 10
4.670076
 20
1.448031
 30
0.000000
 11
4.554328
 21
1.445667
 31
0.000000
  6
CONTINUOUS
  0
LINE
  8
WHITE
 10
4.554328
 20
1.445667
 30
0.000000
 11
4.509449
 21
1.329921
 31
0.000000
  6
CONTINUOUS
  0
LINE
  8
WHITE
 10
4.509449
 20
1.329921
 30
0.000000
 11
4.585037
 21
1.162205
 31
0.000000
  6
CONTINUOUS
  0
LINE
  8
WHITE
 10
4.585037
 20
1.162205
 30
0.000000
 11
4.698423
 21
1.162205
 31
0.000000
  6
CONTINUOUS
  0
LINE
  8
WHITE
 10
4.698423
 20
1.162205
 30
0.000000
 11
4.743307
 21
1.277953
 31
0.000000
  6
CONTINUOUS
  0
LINE
  8
WHITE
 10
4.743307
 20
1.277953
 30
0.000000
 11
4.670076
 21
1.448031
 31
0.000000
  6
CONTINUOUS
  0
LINE
  8
WHITE
 10
2.768504
 20
4.573228
 30
0.000000
 11
2.123620
 21
4.573228
 31
0.000000
  6
CONTINUOUS
  0
LINE
  8
WHITE
 10
2.123620
 20
4.573228
 30
0.000000
 11
2.449606
 21
4.346454
 31
0.000000
  6
CONTINUOUS
  0
LINE
  8
WHITE
 10
2.449606
 20
4.346454
 30
0.000000
 11
2.768504
 21
4.573228
 31
0.000000
  6
CONTINUOUS
  0
LINE
  8
WHITE
 10
4.903937
 20
1.211811
 30
0.000000
 11
5.012598
 21
1.256691
 31
0.000000
  6
CONTINUOUS
  0
LINE
  8
WHITE
 10
5.012598
 20
1.256691
 30
0.000000
 11
4.946454
 21
1.388974
 31
0.000000
  6
CONTINUOUS
  0
LINE
  8
WHITE
 10
4.946454
 20
1.388974
 30
0.000000
 11
4.977163
 21
1.400785
 31
0.000000
  6
CONTINUOUS
  0
LINE
  8
WHITE
 10
4.977163
 20
1.400785
 30
0.000000
 11
5.144882
 21
1.287402
 31
0.000000
  6
CONTINUOUS
  0
LINE
  8
WHITE
 10
5.144882
 20
1.287402
 30
0.000000
 11
5.222835
 21
1.325194
 31
0.000000
  6
CONTINUOUS
  0
LINE
  8
WHITE
 10
5.222835
 20
1.325194
 30
0.000000
 11
5.031494
 21
1.424407
 31
0.000000
  6
CONTINUOUS
  0
LINE
  8
WHITE
 10
5.031494
 20
1.424407
 30
0.000000
 11
5.092913
 21
1.507087
 31
0.000000
  6
CONTINUOUS
  0
LINE
  8
WHITE
 10
5.092913
 20
1.507087
 30
0.000000
 11
5.007872
 21
1.594488
 31
0.000000
  6
CONTINUOUS
  0
LINE
  8
WHITE
 10
5.007872
 20
1.594488
 30
0.000000
 11
4.792911
 21
1.530706
 31
0.000000
  6
CONTINUOUS
  0
LINE
  8
WHITE
 10
4.792911
 20
1.530706
 30
0.000000
 11
4.842520
 21
1.518895
 31
0.000000
  6
CONTINUOUS
  0
LINE
  8
WHITE
 10
4.842520
 20
1.518895
 30
0.000000
 11
4.937008
 21
1.259053
 31
0.000000
  6
CONTINUOUS
  0
LINE
  8
WHITE
 10
4.937008
 20
1.259053
 30
0.000000
 11
4.903937
 21
1.211811
 31
0.000000
  6
CONTINUOUS
  0
LINE
  8
WHITE
 10
5.036220
 20
1.466927
 30
0.000000
 11
4.953541
 21
1.561417
 31
0.000000
  6
CONTINUOUS
  0
LINE
  8
WHITE
 10
4.953541
 20
1.561417
 30
0.000000
 11
4.901572
 21
1.521257
 31
0.000000
  6
CONTINUOUS
  0
LINE
  8
WHITE
 10
4.901572
 20
1.521257
 30
0.000000
 11
4.941732
 21
1.407874
 31
0.000000
  6
CONTINUOUS
  0
LINE
  8
WHITE
 10
4.941732
 20
1.407874
 30
0.000000
 11
5.036220
 21
1.466927
 31
0.000000
  6
CONTINUOUS
  0
LINE
  8
WHITE
 10
1.913383
 20
1.629919
 30
0.000000
 11
2.022045
 21
1.585037
 31
0.000000
  6
CONTINUOUS
  0
LINE
  8
WHITE
 10
2.022045
 20
1.585037
 30
0.000000
 11
2.078738
 21
1.722047
 31
0.000000
  6
CONTINUOUS
  0
LINE
  8
WHITE
 10
2.078738
 20
1.722047
 30
0.000000
 11
2.107087
 21
1.705509
 31
0.000000
  6
CONTINUOUS
  0
LINE
  8
WHITE
 10
2.107087
 20
1.705509
 30
0.000000
 11
2.133069
 21
1.504724
 31
0.000000
  6
CONTINUOUS
  0
LINE
  8
WHITE
 10
2.133069
 20
1.504724
 30
0.000000
 11
2.206297
 21
1.462205
 31
0.000000
  6
CONTINUOUS
  0
LINE
  8
WHITE
 10
2.206297
 20
1.462205
 30
0.000000
 11
2.161417
 21
1.679528
 31
0.000000
  6
CONTINUOUS
  0
LINE
  8
WHITE
 10
2.161417
 20
1.679528
 30
0.000000
 11
2.265352
 21
1.688976
 31
0.000000
  6
CONTINUOUS
  0
LINE
  8
WHITE
 10
2.265352
 20
1.688976
 30
0.000000
 11
2.272439
 21
1.811811
 31
0.000000
  6
CONTINUOUS
  0
LINE
  8
WHITE
 10
2.272439
 20
1.811811
 30
0.000000
 11
2.107087
 21
1.894486
 31
0.000000
  6
CONTINUOUS
  0
LINE
  8
WHITE
 10
2.107087
 20
1.894486
 30
0.000000
 11
1.970076
 21
1.637008
 31
0.000000
  6
CONTINUOUS
  0
LINE
  8
WHITE
 10
1.970076
 20
1.637008
 30
0.000000
 11
1.913383
 21
1.629919
 31
0.000000
  6
CONTINUOUS
  0
LINE
  8
WHITE
 10
2.196848
 20
1.705509
 30
0.000000
 11
2.213386
 21
1.830709
 31
0.000000
  6
CONTINUOUS
  0
LINE
  8
WHITE
 10
2.213386
 20
1.830709
 30
0.000000
 11
2.149606
 21
1.844882
 31
0.000000
  6
CONTINUOUS
  0
LINE
  8
WHITE
 10
2.149606
 20
1.844882
 30
0.000000
 11
2.088187
 21
1.738580
 31
0.000000
  6
CONTINUOUS
  0
LINE
  8
WHITE
 10
2.088187
 20
1.738580
 30
0.000000
 11
2.196848
 21
1.705509
 31
0.000000
  6
CONTINUOUS
  0
LINE
  8
WHITE
 10
2.059843
 20
3.677950
 30
0.000000
 11
2.050394
 21
3.496061
 31
0.000000
  6
CONTINUOUS
  0
LINE
  8
WHITE
 10
2.050394
 20
3.496061
 30
0.000000
 11
2.322047
 21
3.689761
 31
0.000000
  6
CONTINUOUS
  0
LINE
  8
WHITE
 10
2.322047
 20
3.689761
 30
0.000000
 11
2.066927
 21
3.862205
 31
0.000000
  6
CONTINUOUS
  0
LINE
  8
WHITE
 10
2.066927
 20
3.862205
 30
0.000000
 11
2.059843
 21
3.677950
 31
0.000000
  6
CONTINUOUS
  0
LINE
  8
WHITE
 10
2.402360
 20
1.580315
 30
0.000000
 11
2.451966
 21
1.681890
 31
0.000000
  6
CONTINUOUS
  0
LINE
  8
WHITE
 10
2.451966
 20
1.681890
 30
0.000000
 11
2.629134
 21
1.641730
 31
0.000000
  6
CONTINUOUS
  0
LINE
  8
WHITE
 10
2.629134
 20
1.641730
 30
0.000000
 11
2.369291
 21
1.752754
 31
0.000000
  6
CONTINUOUS
  0
LINE
  8
WHITE
 10
2.369291
 20
1.752754
 30
0.000000
 11
2.404722
 21
1.719683
 31
0.000000
  6
CONTINUOUS
  0
LINE
  8
WHITE
 10
2.404722
 20
1.719683
 30
0.000000
 11
2.284250
 21
1.457478
 31
0.000000
  6
CONTINUOUS
  0
LINE
  8
WHITE
 10
2.284250
 20
1.457478
 30
0.000000
 11
2.227559
 21
1.450394
 31
0.000000
  6
CONTINUOUS
  0
LINE
  8
WHITE
 10
2.227559
 20
1.450394
 30
0.000000
 11
2.480315
 21
1.329921
 31
0.000000
  6
CONTINUOUS
  0
LINE
  8
WHITE
 10
2.480315
 20
1.329921
 30
0.000000
 11
2.529919
 21
1.403147
 31
0.000000
  6
CONTINUOUS
  0
LINE
  8
WHITE
 10
2.529919
 20
1.403147
 30
0.000000
 11
2.345669
 21
1.414961
 31
0.000000
  6
CONTINUOUS
  0
LINE
  8
WHITE
 10
2.345669
 20
1.414961
 30
0.000000
 11
2.392911
 21
1.559055
 31
0.000000
  6
CONTINUOUS
  0
LINE
  8
WHITE
 10
2.392911
 20
1.559055
 30
0.000000
 11
2.485039
 21
1.514173
 31
0.000000
  6
CONTINUOUS
  0
LINE
  8
WHITE
 10
2.485039
 20
1.514173
 30
0.000000
 11
2.548817
 21
1.566139
 31
0.000000
  6
CONTINUOUS
  0
LINE
  8
WHITE
 10
2.548817
 20
1.566139
 30
0.000000
 11
2.402360
 21
1.580315
 31
0.000000
  6
CONTINUOUS
  0
LINE
  8
WHITE
 10
2.709449
 20
3.772441
 30
0.000000
 11
2.593701
 21
3.689761
 31
0.000000
  6
CONTINUOUS
  0
LINE
  8
WHITE
 10
2.593701
 20
3.689761
 30
0.000000
 11
2.829921
 21
3.526769
 31
0.000000
  6
CONTINUOUS
  0
LINE
  8
WHITE
 10
2.829921
 20
3.526769
 30
0.000000
 11
2.822835
 21
3.852754
 31
0.000000
  6
CONTINUOUS
  0
LINE
  8
WHITE
 10
2.822835
 20
3.852754
 30
0.000000
 11
2.709449
 21
3.772441
 31
0.000000
  6
CONTINUOUS
  0
LINE
  8
WHITE
 10
6.493698
 20
2.454328
 30
0.000000
 11
6.401572
 21
2.539368
 31
0.000000
  6
CONTINUOUS
  0
LINE
  8
WHITE
 10
6.401572
 20
2.539368
 30
0.000000
 11
6.493698
 21
2.688187
 31
0.000000
  6
CONTINUOUS
  0
LINE
  8
WHITE
 10
6.493698
 20
2.688187
 30
0.000000
 11
6.309449
 21
2.475591
 31
0.000000
  6
CONTINUOUS
  0
LINE
  8
WHITE
 10
6.309449
 20
2.475591
 30
0.000000
 11
6.347242
 21
2.492124
 31
0.000000
  6
CONTINUOUS
  0
LINE
  8
WHITE
 10
6.347242
 20
2.492124
 30
0.000000
 11
6.574016
 21
2.317320
 31
0.000000
  6
CONTINUOUS
  0
LINE
  8
WHITE
 10
6.574016
 20
2.317320
 30
0.000000
 11
6.583465
 21
2.288974
 31
0.000000
  6
CONTINUOUS
  0
LINE
  8
WHITE
 10
6.583465
 20
2.288974
 30
0.000000
 11
6.755903
 21
2.463780
 31
0.000000
  6
CONTINUOUS
  0
LINE
  8
WHITE
 10
6.755903
 20
2.463780
 30
0.000000
 11
6.696848
 21
2.529921
 31
0.000000
  6
CONTINUOUS
  0
LINE
  8
WHITE
 10
6.696848
 20
2.529921
 30
0.000000
 11
6.625982
 21
2.352754
 31
0.000000
  6
CONTINUOUS
  0
LINE
  8
WHITE
 10
6.625982
 20
2.352754
 30
0.000000
 11
6.510234
 21
2.440157
 31
0.000000
  6
CONTINUOUS
  0
LINE
  8
WHITE
 10
6.510234
 20
2.440157
 30
0.000000
 11
6.578738
 21
2.515746
 31
0.000000
  6
CONTINUOUS
  0
LINE
  8
WHITE
 10
6.578738
 20
2.515746
 30
0.000000
 11
6.545669
 21
2.591339
 31
0.000000
  6
CONTINUOUS
  0
LINE
  8
WHITE
 10
6.545669
 20
2.591339
 30
0.000000
 11
6.493698
 21
2.454328
 31
0.000000
  6
CONTINUOUS
  0
LINE
  8
WHITE
 10
2.194488
 20
4.166927
 30
0.000000
 11
2.312598
 21
4.251969
 31
0.000000
  6
CONTINUOUS
  0
LINE
  8
WHITE
 10
2.312598
 20
4.251969
 30
0.000000
 11
2.088187
 21
4.407872
 31
0.000000
  6
CONTINUOUS
  0
LINE
  8
WHITE
 10
2.088187
 20
4.407872
 30
0.000000
 11
2.074016
 21
4.081887
 31
0.000000
  6
CONTINUOUS
  0
LINE
  8
WHITE
 10
2.074016
 20
4.081887
 30
0.000000
 11
2.194488
 21
4.166927
 31
0.000000
  6
CONTINUOUS
  0
LINE
  8
WHITE
 10
1.835431
 20
1.818895
 30
0.000000
 11
1.816533
 21
1.738580
 31
0.000000
  6
CONTINUOUS
  0
LINE
  8
WHITE
 10
1.816533
 20
1.738580
 30
0.000000
 11
1.866142
 21
1.679528
 31
0.000000
  6
CONTINUOUS
  0
LINE
  8
WHITE
 10
1.866142
 20
1.679528
 30
0.000000
 11
1.929921
 21
2.048029
 31
0.000000
  6
CONTINUOUS
  0
LINE
  8
WHITE
 10
1.929921
 20
2.048029
 30
0.000000
 11
1.620470
 21
1.870864
 31
0.000000
  6
CONTINUOUS
  0
LINE
  8
WHITE
 10
1.620470
 20
1.870864
 30
0.000000
 11
1.665354
 21
1.807084
 31
0.000000
  6
CONTINUOUS
  0
LINE
  8
WHITE
 10
1.665354
 20
1.807084
 30
0.000000
 11
1.726769
 21
1.901572
 31
0.000000
  6
CONTINUOUS
  0
LINE
  8
WHITE
 10
1.726769
 20
1.901572
 30
0.000000
 11
1.835431
 21
1.818895
 31
0.000000
  6
CONTINUOUS
  0
LINE
  8
WHITE
 10
1.842520
 20
1.844882
 30
0.000000
 11
1.877953
 21
1.991336
 31
0.000000
  6
CONTINUOUS
  0
LINE
  8
WHITE
 10
1.877953
 20
1.991336
 30
0.000000
 11
1.748029
 21
1.913383
 31
0.000000
  6
CONTINUOUS
  0
LINE
  8
WHITE
 10
1.748029
 20
1.913383
 30
0.000000
 11
1.842520
 21
1.844882
 31
0.000000
  6
CONTINUOUS
  0
LINE
  8
WHITE
 10
5.525197
 20
1.655906
 30
0.000000
 11
5.407084
 21
1.594488
 31
0.000000
  6
CONTINUOUS
  0
LINE
  8
WHITE
 10
5.407084
 20
1.594488
 30
0.000000
 11
5.515746
 21
1.490549
 31
0.000000
  6
CONTINUOUS
  0
LINE
  8
WHITE
 10
5.515746
 20
1.490549
 30
0.000000
 11
5.409449
 21
1.412596
 31
0.000000
  6
CONTINUOUS
  0
LINE
  8
WHITE
 10
5.409449
 20
1.412596
 30
0.000000
 11
5.298423
 21
1.466927
 31
0.000000
  6
CONTINUOUS
  0
LINE
  8
WHITE
 10
5.298423
 20
1.466927
 30
0.000000
 11
5.248817
 21
1.644092
 31
0.000000
  6
CONTINUOUS
  0
LINE
  8
WHITE
 10
5.248817
 20
1.644092
 30
0.000000
 11
5.392913
 21
1.757480
 31
0.000000
  6
CONTINUOUS
  0
LINE
  8
WHITE
 10
5.392913
 20
1.757480
 30
0.000000
 11
5.211021
 21
1.641730
 31
0.000000
  6
CONTINUOUS
  0
LINE
  8
WHITE
 10
5.211021
 20
1.641730
 30
0.000000
 11
5.218108
 21
1.481102
 31
0.000000
  6
CONTINUOUS
  0
LINE
  8
WHITE
 10
5.218108
 20
1.481102
 30
0.000000
 11
5.345669
 21
1.381887
 31
0.000000
  6
CONTINUOUS
  0
LINE
  8
WHITE
 10
5.345669
 20
1.381887
 30
0.000000
 11
5.461415
 21
1.403147
 31
0.000000
  6
CONTINUOUS
  0
LINE
  8
WHITE
 10
5.461415
 20
1.403147
 30
0.000000
 11
5.565354
 21
1.504724
 31
0.000000
  6
CONTINUOUS
  0
LINE
  8
WHITE
 10
5.565354
 20
1.504724
 30
0.000000
 11
5.508659
 21
1.622835
 31
0.000000
  6
CONTINUOUS
  0
LINE
  8
WHITE
 10
5.508659
 20
1.622835
 30
0.000000
 11
5.525197
 21
1.655906
 31
0.000000
  6
CONTINUOUS
  0
LINE
  8
WHITE
 10
2.697635
 20
4.171651
 30
0.000000
 11
2.813383
 21
4.093698
 31
0.000000
  6
CONTINUOUS
  0
LINE
  8
WHITE
 10
2.813383
 20
4.093698
 30
0.000000
 11
2.799213
 21
4.403150
 31
0.000000
  6
CONTINUOUS
  0
LINE
  8
WHITE
 10
2.799213
 20
4.403150
 30
0.000000
 11
2.584250
 21
4.251969
 31
0.000000
  6
CONTINUOUS
  0
LINE
  8
WHITE
 10
2.584250
 20
4.251969
 30
0.000000
 11
2.697635
 21
4.171651
 31
0.000000
  6
CONTINUOUS
  0
LINE
  8
WHITE
 10
6.727557
 20
2.981102
 30
0.000000
 11
6.713386
 21
2.959840
 31
0.000000
  6
CONTINUOUS
  0
LINE
  8
WHITE
 10
6.713386
 20
2.959840
 30
0.000000
 11
6.895276
 21
2.841732
 31
0.000000
  6
CONTINUOUS
  0
LINE
  8
WHITE
 10
6.895276
 20
2.841732
 30
0.000000
 11
6.576378
 21
2.808659
 31
0.000000
  6
CONTINUOUS
  0
LINE
  8
WHITE
 10
6.576378
 20
2.808659
 30
0.000000
 11
6.581102
 21
2.756691
 31
0.000000
  6
CONTINUOUS
  0
LINE
  8
WHITE
 10
6.581102
 20
2.756691
 30
0.000000
 11
6.819683
 21
2.593698
 31
0.000000
  6
CONTINUOUS
  0
LINE
  8
WHITE
 10
6.819683
 20
2.593698
 30
0.000000
 11
6.817323
 21
2.631496
 31
0.000000
  6
CONTINUOUS
  0
LINE
  8
WHITE
 10
6.817323
 20
2.631496
 30
0.000000
 11
6.621260
 21
2.761415
 31
0.000000
  6
CONTINUOUS
  0
LINE
  8
WHITE
 10
6.621260
 20
2.761415
 30
0.000000
 11
6.989761
 21
2.799210
 31
0.000000
  6
CONTINUOUS
  0
LINE
  8
WHITE
 10
6.989761
 20
2.799210
 30
0.000000
 11
6.727557
 21
2.981102
 31
0.000000
  6
CONTINUOUS
  0
LINE
  8
WHITE
 10
3.127557
 20
1.452756
 30
0.000000
 11
3.101572
 21
1.448031
 31
0.000000
  6
CONTINUOUS
  0
LINE
  8
WHITE
 10
3.101572
 20
1.448031
 30
0.000000
 11
3.047242
 21
1.249604
 31
0.000000
  6
CONTINUOUS
  0
LINE
  8
WHITE
 10
3.047242
 20
1.249604
 30
0.000000
 11
2.917320
 21
1.542517
 31
0.000000
  6
CONTINUOUS
  0
LINE
  8
WHITE
 10
2.917320
 20
1.542517
 30
0.000000
 11
2.870079
 21
1.509446
 31
0.000000
  6
CONTINUOUS
  0
LINE
  8
WHITE
 10
2.870079
 20
1.509446
 30
0.000000
 11
2.796848
 21
1.251969
 31
0.000000
  6
CONTINUOUS
  0
LINE
  8
WHITE
 10
2.796848
 20
1.251969
 30
0.000000
 11
2.822835
 21
1.259053
 31
0.000000
  6
CONTINUOUS
  0
LINE
  8
WHITE
 10
2.822835
 20
1.259053
 30
0.000000
 11
2.886612
 21
1.485827
 31
0.000000
  6
CONTINUOUS
  0
LINE
  8
WHITE
 10
2.886612
 20
1.485827
 30
0.000000
 11
3.035431
 21
1.145669
 31
0.000000
  6
CONTINUOUS
  0
LINE
  8
WHITE
 10
3.035431
 20
1.145669
 30
0.000000
 11
3.127557
 21
1.452756
 31
0.000000
  6
CONTINUOUS
  0
LINE
  8
WHITE
 10
0.985039
 20
2.780313
 30
0.000000
 11
1.143307
 21
2.777953
 31
0.000000
  6
CONTINUOUS
  0
LINE
  8
WHITE
 10
1.143307
 20
2.777953
 30
0.000000
 11
1.159843
 21
2.825197
 31
0.000000
  6
CONTINUOUS
  0
LINE
  8
WHITE
 10
1.159843
 20
2.825197
 30
0.000000
 11
0.994486
 21
2.799210
 31
0.000000
  6
CONTINUOUS
  0
LINE
  8
WHITE
 10
0.994486
 20
2.799210
 30
0.000000
 11
1.051181
 21
2.933858
 31
0.000000
  6
CONTINUOUS
  0
LINE
  8
WHITE
 10
1.051181
 20
2.933858
 30
0.000000
 11
1.015746
 21
3.049604
 31
0.000000
  6
CONTINUOUS
  0
LINE
  8
WHITE
 10
1.015746
 20
3.049604
 30
0.000000
 11
0.944880
 21
2.815746
 31
0.000000
  6
CONTINUOUS
  0
LINE
  8
WHITE
 10
0.944880
 20
2.815746
 30
0.000000
 11
0.848031
 21
2.754328
 31
0.000000
  6
CONTINUOUS
  0
LINE
  8
WHITE
 10
0.848031
 20
2.754328
 30
0.000000
 11
0.876378
 21
2.648029
 31
0.000000
  6
CONTINUOUS
  0
LINE
  8
WHITE
 10
0.876378
 20
2.648029
 30
0.000000
 11
0.985039
 21
2.780313
 31
0.000000
  6
CONTINUOUS
  0
LINE
  8
WHITE
 10
4.230706
 20
1.400785
 30
0.000000
 11
4.381890
 21
1.440945
 31
0.000000
  6
CONTINUOUS
  0
LINE
  8
WHITE
 10
4.381890
 20
1.440945
 30
0.000000
 11
4.103147
 21
1.407874
 31
0.000000
  6
CONTINUOUS
  0
LINE
  8
WHITE
 10
4.103147
 20
1.407874
 30
0.000000
 11
4.157478
 21
1.379525
 31
0.000000
  6
CONTINUOUS
  0
LINE
  8
WHITE
 10
4.157478
 20
1.379525
 30
0.000000
 11
4.190551
 21
1.105509
 31
0.000000
  6
CONTINUOUS
  0
LINE
  8
WHITE
 10
4.190551
 20
1.105509
 30
0.000000
 11
4.266139
 21
1.093698
 31
0.000000
  6
CONTINUOUS
  0
LINE
  8
WHITE
 10
4.266139
 20
1.093698
 30
0.000000
 11
4.228344
 21
1.244882
 31
0.000000
  6
CONTINUOUS
  0
LINE
  8
WHITE
 10
4.228344
 20
1.244882
 30
0.000000
 11
4.313383
 21
1.254331
 31
0.000000
  6
CONTINUOUS
  0
LINE
  8
WHITE
 10
4.313383
 20
1.254331
 30
0.000000
 11
4.362990
 21
1.334643
 31
0.000000
  6
CONTINUOUS
  0
LINE
  8
WHITE
 10
4.362990
 20
1.334643
 30
0.000000
 11
4.225984
 21
1.268502
 31
0.000000
  6
CONTINUOUS
  0
LINE
  8
WHITE
 10
4.225984
 20
1.268502
 30
0.000000
 11
4.230706
 21
1.400785
 31
0.000000
  6
CONTINUOUS
  0
LINE
  8
WHITE
 10
3.564567
 20
1.412596
 30
0.000000
 11
3.685039
 21
1.386614
 31
0.000000
  6
CONTINUOUS
  0
LINE
  8
WHITE
 10
3.685039
 20
1.386614
 30
0.000000
 11
3.663777
 21
1.098423
 31
0.000000
  6
CONTINUOUS
  0
LINE
  8
WHITE
 10
3.663777
 20
1.098423
 30
0.000000
 11
3.720472
 21
1.096063
 31
0.000000
  6
CONTINUOUS
  0
LINE
  8
WHITE
 10
3.720472
 20
1.096063
 30
0.000000
 11
3.737008
 21
1.381887
 31
0.000000
  6
CONTINUOUS
  0
LINE
  8
WHITE
 10
3.737008
 20
1.381887
 30
0.000000
 11
3.845669
 21
1.306299
 31
0.000000
  6
CONTINUOUS
  0
LINE
  8
WHITE
 10
3.845669
 20
1.306299
 30
0.000000
 11
3.859843
 21
1.396063
 31
0.000000
  6
CONTINUOUS
  0
LINE
  8
WHITE
 10
3.859843
 20
1.396063
 30
0.000000
 11
3.564567
 21
1.412596
 31
0.000000
  6
CONTINUOUS
  0
LINE
  8
WHITE
 10
6.073226
 20
2.234643
 30
0.000000
 11
6.172441
 21
2.305512
 31
0.000000
  6
CONTINUOUS
  0
LINE
  8
WHITE
 10
6.172441
 20
2.305512
 30
0.000000
 11
6.373228
 21
2.097638
 31
0.000000
  6
CONTINUOUS
  0
LINE
  8
WHITE
 10
6.373228
 20
2.097638
 30
0.000000
 11
6.411024
 21
2.137795
 31
0.000000
  6
CONTINUOUS
  0
LINE
  8
WHITE
 10
6.411024
 20
2.137795
 30
0.000000
 11
6.210236
 21
2.340943
 31
0.000000
  6
CONTINUOUS
  0
LINE
  8
WHITE
 10
6.210236
 20
2.340943
 30
0.000000
 11
6.340157
 21
2.371654
 31
0.000000
  6
CONTINUOUS
  0
LINE
  8
WHITE
 10
6.340157
 20
2.371654
 30
0.000000
 11
6.283462
 21
2.442517
 31
0.000000
  6
CONTINUOUS
  0
LINE
  8
WHITE
 10
6.283462
 20
2.442517
 30
0.000000
 11
6.073226
 21
2.234643
 31
0.000000
  6
CONTINUOUS
  0
LINE
  8
WHITE
 10
5.792126
 20
2.010236
 30
0.000000
 11
5.898425
 21
2.074016
 31
0.000000
  6
CONTINUOUS
  0
LINE
  8
WHITE
 10
5.898425
 20
2.074016
 30
0.000000
 11
6.082675
 21
1.851966
 31
0.000000
  6
CONTINUOUS
  0
LINE
  8
WHITE
 10
6.082675
 20
1.851966
 30
0.000000
 11
6.122835
 21
1.887402
 31
0.000000
  6
CONTINUOUS
  0
LINE
  8
WHITE
 10
6.122835
 20
1.887402
 30
0.000000
 11
5.938583
 21
2.107087
 31
0.000000
  6
CONTINUOUS
  0
LINE
  8
WHITE
 10
5.938583
 20
2.107087
 30
0.000000
 11
6.068504
 21
2.125984
 31
0.000000
  6
CONTINUOUS
  0
LINE
  8
WHITE
 10
6.068504
 20
2.125984
 30
0.000000
 11
6.018895
 21
2.201572
 31
0.000000
  6
CONTINUOUS
  0
LINE
  8
WHITE
 10
6.018895
 20
2.201572
 30
0.000000
 11
5.792126
 21
2.010236
 31
0.000000
  6
CONTINUOUS
  0
LINE
  8
WHITE
 10
1.459843
 20
2.397638
 30
0.000000
 11
1.301572
 21
2.225197
 31
0.000000
  6
CONTINUOUS
  0
LINE
  8
WHITE
 10
1.301572
 20
2.225197
 30
0.000000
 11
1.313383
 21
2.114171
 31
0.000000
  6
CONTINUOUS
  0
LINE
  8
WHITE
 10
1.313383
 20
2.114171
 30
0.000000
 11
1.476376
 21
2.050394
 31
0.000000
  6
CONTINUOUS
  0
LINE
  8
WHITE
 10
1.476376
 20
2.050394
 30
0.000000
 11
1.651179
 21
2.213386
 31
0.000000
  6
CONTINUOUS
  0
LINE
  8
WHITE
 10
1.651179
 20
2.213386
 30
0.000000
 11
1.634646
 21
2.229919
 31
0.000000
  6
CONTINUOUS
  0
LINE
  8
WHITE
 10
1.634646
 20
2.229919
 30
0.000000
 11
1.504724
 21
2.097638
 31
0.000000
  6
CONTINUOUS
  0
LINE
  8
WHITE
 10
1.504724
 20
2.097638
 30
0.000000
 11
1.388974
 21
2.074016
 31
0.000000
  6
CONTINUOUS
  0
LINE
  8
WHITE
 10
1.388974
 20
2.074016
 30
0.000000
 11
1.334643
 21
2.180315
 31
0.000000
  6
CONTINUOUS
  0
LINE
  8
WHITE
 10
1.334643
 20
2.180315
 30
0.000000
 11
1.499998
 21
2.362202
 31
0.000000
  6
CONTINUOUS
  0
LINE
  8
WHITE
 10
1.499998
 20
2.362202
 30
0.000000
 11
1.459843
 21
2.397638
 31
0.000000
  6
CONTINUOUS
  0
LINE
  8
WHITE
 10
2.173228
 20
3.188974
 30
0.000000
 11
2.043305
 21
3.278738
 31
0.000000
  6
CONTINUOUS
  0
LINE
  8
WHITE
 10
2.043305
 20
3.278738
 30
0.000000
 11
2.040945
 21
3.222047
 31
0.000000
  6
CONTINUOUS
  0
ARC
  8
WHITE
 10
3.881100
 20
4.681887
 30
0.000000
 40
2.348894
 50
-141.574170
 51
-135.407500
  6
CONTINUOUS
  0
LINE
  8
WHITE
 10
2.208409
 20
3.032822
 30
0.000000
 11
2.303150
 21
3.101575
 31
0.000000
  6
CONTINUOUS
  0
LINE
  8
WHITE
 10
2.303150
 20
3.101575
 30
0.000000
 11
2.173228
 21
3.188974
 31
0.000000
  6
CONTINUOUS
  0
ENDSEC
  0
EOF
