999
"DXF R12 Output" (www.mydxf.blogspot.com)
 0 
SECTION
 2 
HEADER
 9 
$ACADVER
 1 
AC1009
 9 
$EXTMIN
 10 
 0 
 20 
 0 
 9 
$EXTMAX
 10 
 8.5 
 20 
 11 
 0 
ENDSEC
 0 
SECTION
 2 
ENTITIES
0
LINE
8
Calque 1
10
41.406033
20
105.631752
11
41.406033
21
121.718418
0
LINE
8
Calque 1
10
41.406033
20
121.718418
11
54.670477
21
121.718418
0
LINE
8
Calque 1
10
54.670477
20
121.718418
11
67.934922
21
121.718418
0
LINE
8
Calque 1
10
67.934922
20
121.718418
11
67.934922
21
105.631752
0
LINE
8
Calque 1
10
67.934922
20
105.631752
11
67.934922
21
89.545085
0
LINE
8
Calque 1
10
67.934922
20
89.545085
11
54.670477
21
89.545085
0
LINE
8
Calque 1
10
54.670477
20
89.545085
11
41.406033
21
89.545085
0
LINE
8
Calque 1
10
41.406033
20
89.545085
11
41.406033
21
105.631752
0
LINE
8
Calque 1
10
41.406033
20
105.631752
11
41.406033
21
105.631752
0
LINE
8
Calque 1
10
51.908219
20
104.008974
11
51.989366
21
106.619530
0
LINE
8
Calque 1
10
51.989366
20
106.619530
11
54.741033
21
106.700304
0
LINE
8
Calque 1
10
54.741033
20
106.700304
11
57.492700
21
106.781079
0
LINE
8
Calque 1
10
57.492700
20
106.781079
11
57.492700
21
104.089749
0
LINE
8
Calque 1
10
57.492700
20
104.089749
11
57.492700
21
101.398418
0
LINE
8
Calque 1
10
57.492700
20
101.398418
11
61.302700
21
101.398418
0
LINE
8
Calque 1
10
61.302700
20
101.398418
11
65.112700
21
101.398418
0
LINE
8
Calque 1
10
65.112700
20
101.398418
11
65.112700
21
110.147307
0
LINE
8
Calque 1
10
65.112700
20
110.147307
11
65.112700
21
118.896196
0
LINE
8
Calque 1
10
65.112700
20
118.896196
11
61.302700
21
118.896196
0
LINE
8
Calque 1
10
61.302700
20
118.896196
11
57.492700
21
118.896196
0
LINE
8
Calque 1
10
57.492700
20
118.896196
11
57.492700
21
115.791752
0
LINE
8
Calque 1
10
57.492700
20
115.791752
11
57.492700
21
112.687307
0
LINE
8
Calque 1
10
57.492700
20
112.687307
11
54.670477
21
112.687307
0
LINE
8
Calque 1
10
54.670477
20
112.687307
11
51.848255
21
112.687307
0
LINE
8
Calque 1
10
51.848255
20
112.687307
11
51.848255
21
115.791752
0
LINE
8
Calque 1
10
51.848255
20
115.791752
11
51.848255
21
118.896196
0
LINE
8
Calque 1
10
51.848255
20
118.896196
11
48.038255
21
118.896196
0
LINE
8
Calque 1
10
48.038255
20
118.896196
11
44.228255
21
118.896196
0
LINE
8
Calque 1
10
44.228255
20
118.896196
11
44.228255
21
110.147307
0
LINE
8
Calque 1
10
44.228255
20
110.147307
11
44.228255
21
101.398418
0
LINE
8
Calque 1
10
44.228255
20
101.398418
11
48.027663
21
101.398418
0
LINE
8
Calque 1
10
48.027663
20
101.398418
11
51.827074
21
101.398418
0
LINE
8
Calque 1
10
51.827074
20
101.398418
11
51.908219
21
104.008974
0
LINE
8
Calque 1
10
51.908219
20
104.008974
11
51.908219
21
104.008974
0
LINE
8
Calque 1
10
73.014922
20
105.631752
11
73.014922
21
121.718418
0
LINE
8
Calque 1
10
73.014922
20
121.718418
11
86.279366
21
121.718418
0
LINE
8
Calque 1
10
86.279366
20
121.718418
11
99.543811
21
121.718418
0
LINE
8
Calque 1
10
99.543811
20
121.718418
11
99.543811
21
105.631752
0
LINE
8
Calque 1
10
99.543811
20
105.631752
11
99.543811
21
89.545085
0
LINE
8
Calque 1
10
99.543811
20
89.545085
11
86.279366
21
89.545085
0
LINE
8
Calque 1
10
86.279366
20
89.545085
11
73.014922
21
89.545085
0
LINE
8
Calque 1
10
73.014922
20
89.545085
11
73.014922
21
105.631752
0
LINE
8
Calque 1
10
73.014922
20
105.631752
11
73.014922
21
105.631752
0
LINE
8
Calque 1
10
82.328255
20
103.481176
11
82.328255
21
105.563937
0
LINE
8
Calque 1
10
82.328255
20
105.563937
11
83.924069
21
106.768788
0
LINE
8
Calque 1
10
83.924069
20
106.768788
11
85.350382
21
107.728112
0
LINE
8
Calque 1
10
85.350382
20
107.728112
11
85.658697
21
107.711790
0
LINE
8
Calque 1
10
85.658697
20
107.711790
11
85.913928
21
107.437695
0
LINE
8
Calque 1
10
85.913928
20
107.437695
11
88.318205
21
104.150085
0
LINE
8
Calque 1
10
88.318205
20
104.150085
11
90.328437
21
101.398418
0
LINE
8
Calque 1
10
90.328437
20
101.398418
11
94.112882
21
101.398418
0
LINE
8
Calque 1
10
94.112882
20
101.398418
11
97.897329
21
101.398418
0
LINE
8
Calque 1
10
97.897329
20
101.398418
11
95.976855
21
103.867863
0
LINE
8
Calque 1
10
95.976855
20
103.867863
11
91.971043
21
109.014970
0
LINE
8
Calque 1
10
91.971043
20
109.014970
11
89.885706
21
111.692632
0
LINE
8
Calque 1
10
89.885706
20
111.692632
11
93.588942
21
115.294414
0
LINE
8
Calque 1
10
93.588942
20
115.294414
11
97.292180
21
118.896196
0
LINE
8
Calque 1
10
97.292180
20
118.896196
11
93.224700
21
118.896196
0
LINE
8
Calque 1
10
93.224700
20
118.896196
11
89.157220
21
118.896196
0
LINE
8
Calque 1
10
89.157220
20
118.896196
11
85.954404
21
116.220159
0
LINE
8
Calque 1
10
85.954404
20
116.220159
11
82.539922
21
113.539048
0
LINE
8
Calque 1
10
82.539922
20
113.539048
11
82.390432
21
114.323041
0
LINE
8
Calque 1
10
82.390432
20
114.323041
11
82.328255
21
116.215085
0
LINE
8
Calque 1
10
82.328255
20
116.215085
11
82.328255
21
118.896196
0
LINE
8
Calque 1
10
82.328255
20
118.896196
11
78.518255
21
118.896196
0
LINE
8
Calque 1
10
78.518255
20
118.896196
11
74.708255
21
118.896196
0
LINE
8
Calque 1
10
74.708255
20
118.896196
11
74.708255
21
110.147307
0
LINE
8
Calque 1
10
74.708255
20
110.147307
11
74.708255
21
101.398418
0
LINE
8
Calque 1
10
74.708255
20
101.398418
11
78.518255
21
101.398418
0
LINE
8
Calque 1
10
78.518255
20
101.398418
11
82.328255
21
101.398418
0
LINE
8
Calque 1
10
82.328255
20
101.398418
11
82.328255
21
103.481176
0
LINE
8
Calque 1
10
82.328255
20
103.481176
11
82.328255
21
103.481176
0
LINE
8
Calque 1
10
104.623811
20
105.349530
11
104.553255
21
121.365641
0
LINE
8
Calque 1
10
104.553255
20
121.365641
11
108.420582
21
121.536668
0
LINE
8
Calque 1
10
108.420582
20
121.536668
11
117.817700
21
121.650626
0
LINE
8
Calque 1
10
117.817700
20
121.650626
11
131.152700
21
121.723944
0
LINE
8
Calque 1
10
131.152700
20
121.723944
11
131.152700
21
105.634515
0
LINE
8
Calque 1
10
131.152700
20
105.634515
11
131.152700
21
89.545085
0
LINE
8
Calque 1
10
131.152700
20
89.545085
11
117.888255
21
89.545085
0
LINE
8
Calque 1
10
117.888255
20
89.545085
11
104.623811
21
89.545085
0
LINE
8
Calque 1
10
104.623811
20
89.545085
11
104.623811
21
105.349530
0
LINE
8
Calque 1
10
104.623811
20
105.349530
11
104.623811
21
105.349530
0
LINE
8
Calque 1
10
127.008475
20
101.722889
11
127.832268
21
102.357889
0
LINE
8
Calque 1
10
127.832268
20
102.357889
11
127.979975
21
103.867074
0
LINE
8
Calque 1
10
127.979975
20
103.867074
11
128.043934
21
107.059477
0
LINE
8
Calque 1
10
128.043934
20
107.059477
11
127.961728
21
110.628297
0
LINE
8
Calque 1
10
127.961728
20
110.628297
11
127.839208
21
111.521398
0
LINE
8
Calque 1
10
127.839208
20
111.521398
11
127.648140
21
111.998366
0
LINE
8
Calque 1
10
127.648140
20
111.998366
11
127.274761
21
112.300146
0
LINE
8
Calque 1
10
127.274761
20
112.300146
11
126.402866
21
112.475624
0
LINE
8
Calque 1
10
126.402866
20
112.475624
11
121.319702
21
112.632412
0
LINE
8
Calque 1
10
121.319702
20
112.632412
11
117.605988
21
112.722437
0
LINE
8
Calque 1
10
117.605988
20
112.722437
11
115.608775
21
112.924793
0
LINE
8
Calque 1
10
115.608775
20
112.924793
11
115.109854
21
113.100781
0
LINE
8
Calque 1
10
115.109854
20
113.100781
11
114.867256
21
113.344075
0
LINE
8
Calque 1
10
114.867256
20
113.344075
11
114.823379
21
113.667748
0
LINE
8
Calque 1
10
114.823379
20
113.667748
11
114.920624
21
114.084875
0
LINE
8
Calque 1
10
114.920624
20
114.084875
11
115.153193
21
114.411590
0
LINE
8
Calque 1
10
115.153193
20
114.411590
11
115.962046
21
114.584006
0
LINE
8
Calque 1
10
115.962046
20
114.584006
11
121.576163
21
114.662863
0
LINE
8
Calque 1
10
121.576163
20
114.662863
11
128.048255
21
114.662863
0
LINE
8
Calque 1
10
128.048255
20
114.662863
11
128.048255
21
116.263419
0
LINE
8
Calque 1
10
128.048255
20
116.263419
11
127.961528
21
117.841639
0
LINE
8
Calque 1
10
127.961528
20
117.841639
11
127.646964
21
118.311914
0
LINE
8
Calque 1
10
127.646964
20
118.311914
11
126.968351
21
118.617007
0
LINE
8
Calque 1
10
126.968351
20
118.617007
11
125.788251
21
118.792450
0
LINE
8
Calque 1
10
125.788251
20
118.792450
11
123.969230
21
118.873775
0
LINE
8
Calque 1
10
123.969230
20
118.873775
11
117.864673
21
118.896196
0
LINE
8
Calque 1
10
117.864673
20
118.896196
11
110.150530
21
118.818874
0
LINE
8
Calque 1
10
110.150530
20
118.818874
11
108.719205
21
118.684477
0
LINE
8
Calque 1
10
108.719205
20
118.684477
11
108.171748
21
118.452704
0
LINE
8
Calque 1
10
108.171748
20
118.452704
11
107.949198
21
118.058434
0
LINE
8
Calque 1
10
107.949198
20
118.058434
11
107.813776
21
117.288318
0
LINE
8
Calque 1
10
107.813776
20
117.288318
11
107.728255
21
113.827305
0
LINE
8
Calque 1
10
107.728255
20
113.827305
11
107.765727
21
110.482638
0
LINE
8
Calque 1
10
107.765727
20
110.482638
11
107.964854
21
109.495256
0
LINE
8
Calque 1
10
107.964854
20
109.495256
11
108.419609
21
108.856639
0
LINE
8
Calque 1
10
108.419609
20
108.856639
11
109.231515
21
108.485883
0
LINE
8
Calque 1
10
109.231515
20
108.485883
11
110.502099
21
108.302085
0
LINE
8
Calque 1
10
110.502099
20
108.302085
11
114.825399
21
108.171752
0
LINE
8
Calque 1
10
114.825399
20
108.171752
11
119.915092
21
107.973135
0
LINE
8
Calque 1
10
119.915092
20
107.973135
11
120.723020
21
107.802205
0
LINE
8
Calque 1
10
120.723020
20
107.802205
11
120.942001
21
107.523194
0
LINE
8
Calque 1
10
120.942001
20
107.523194
11
120.987604
21
107.110511
0
LINE
8
Calque 1
10
120.987604
20
107.110511
11
120.903032
21
106.793242
0
LINE
8
Calque 1
10
120.903032
20
106.793242
11
120.623453
21
106.558940
0
LINE
8
Calque 1
10
120.623453
20
106.558940
11
120.084035
21
106.395154
0
LINE
8
Calque 1
10
120.084035
20
106.395154
11
117.966355
21
106.229337
0
LINE
8
Calque 1
10
117.966355
20
106.229337
11
114.031336
21
106.196196
0
LINE
8
Calque 1
10
114.031336
20
106.196196
11
107.703527
21
106.196196
0
LINE
8
Calque 1
10
107.703527
20
106.196196
11
107.786447
21
104.157366
0
LINE
8
Calque 1
10
107.786447
20
104.157366
11
107.968614
21
102.386796
0
LINE
8
Calque 1
10
107.968614
20
102.386796
11
108.191962
21
102.012778
0
LINE
8
Calque 1
10
108.191962
20
102.012778
11
108.574922
21
101.762640
0
LINE
8
Calque 1
10
108.574922
20
101.762640
11
111.731233
21
101.485232
0
LINE
8
Calque 1
10
111.731233
20
101.485232
11
117.809536
21
101.381924
0
LINE
8
Calque 1
10
117.809536
20
101.381924
11
123.878920
21
101.459037
0
LINE
8
Calque 1
10
123.878920
20
101.459037
11
125.994358
21
101.567225
0
LINE
8
Calque 1
10
125.994358
20
101.567225
11
127.008475
21
101.722889
0
LINE
8
Calque 1
10
127.008475
20
101.722889
11
127.008475
21
101.722889
 0 
ENDSEC
 0 
EOF
