  0
SECTION
  2
HEADER
  9
$ACADVER
  1
AC1009
  9
$DWGCODEPAGE
  3
ansi_1252
  9
$INSBASE
 10
0.0
 20
0.0
 30
0.0
  9
$EXTMIN
 10
126.576667
 20
88.452327
 30
0.0
  9
$EXTMAX
 10
162.701111
 20
152.618455
 30
0.0
  9
$LIMMIN
 10
0.0
 20
0.0
  9
$LIMMAX
 10
12.0
 20
9.0
  9
$ORTHOMODE
 70
     0
  9
$REGENMODE
 70
     1
  9
$FILLMODE
 70
     1
  9
$QTEXTMODE
 70
     0
  9
$MIRRTEXT
 70
     1
  9
$DRAGMODE
 70
     2
  9
$LTSCALE
 40
1.0
  9
$OSMODE
 70
    37
  9
$ATTMODE
 70
     1
  9
$TEXTSIZE
 40
0.2
  9
$TRACEWID
 40
0.05
  9
$TEXTSTYLE
  7
STANDARD
  9
$CLAYER
  8
0
  9
$CELTYPE
  6
BYBLOCK
  9
$CECOLOR
 62
   256
  9
$DIMSCALE
 40
1.0
  9
$DIMASZ
 40
0.18
  9
$DIMEXO
 40
0.0625
  9
$DIMDLI
 40
0.38
  9
$DIMRND
 40
0.0
  9
$DIMDLE
 40
0.0
  9
$DIMEXE
 40
0.18
  9
$DIMTP
 40
0.0
  9
$DIMTM
 40
0.0
  9
$DIMTXT
 40
0.18
  9
$DIMCEN
 40
0.09
  9
$DIMTSZ
 40
0.0
  9
$DIMTOL
 70
     0
  9
$DIMLIM
 70
     0
  9
$DIMTIH
 70
     1
  9
$DIMTOH
 70
     1
  9
$DIMSE1
 70
     0
  9
$DIMSE2
 70
     0
  9
$DIMTAD
 70
     0
  9
$DIMZIN
 70
     0
  9
$DIMBLK
  1

  9
$DIMASO
 70
     1
  9
$DIMSHO
 70
     1
  9
$DIMPOST
  1

  9
$DIMAPOST
  1

  9
$DIMALT
 70
     0
  9
$DIMALTD
 70
     2
  9
$DIMALTF
 40
25.4
  9
$DIMLFAC
 40
1.0
  9
$DIMTOFL
 70
     0
  9
$DIMTVP
 40
0.0
  9
$DIMTIX
 70
     0
  9
$DIMSOXD
 70
     0
  9
$DIMSAH
 70
     0
  9
$DIMBLK1
  1

  9
$DIMBLK2
  1

  9
$DIMSTYLE
  2
STANDARD
  9
$DIMCLRD
 70
     0
  9
$DIMCLRE
 70
     0
  9
$DIMCLRT
 70
     0
  9
$DIMTFAC
 40
1.0
  9
$DIMGAP
 40
0.09
  9
$LUNITS
 70
     2
  9
$LUPREC
 70
     4
  9
$SKETCHINC
 40
0.1
  9
$FILLETRAD
 40
0.5
  9
$AUNITS
 70
     0
  9
$AUPREC
 70
     0
  9
$MENU
  1
.
  9
$ELEVATION
 40
0.0
  9
$PELEVATION
 40
0.0
  9
$THICKNESS
 40
0.0
  9
$LIMCHECK
 70
     0
  9
$CHAMFERA
 40
0.5
  9
$CHAMFERB
 40
0.5
  9
$SKPOLY
 70
     0
  9
$TDCREATE
 40
2453353.550459155
  9
$TDUPDATE
 40
4910249.905127407
  9
$TDINDWG
 40
4895786.051922963
  9
$TDUSRTIMER
 40
4895786.051922963
  9
$USRTIMER
 70
     1
  9
$ANGBASE
 50
0.0
  9
$ANGDIR
 70
     0
  9
$PDMODE
 70
     0
  9
$PDSIZE
 40
0.0
  9
$PLINEWID
 40
0.0
  9
$COORDS
 70
     1
  9
$SPLFRAME
 70
     0
  9
$SPLINETYPE
 70
     6
  9
$SPLINESEGS
 70
     8
  9
$ATTDIA
 70
     0
  9
$ATTREQ
 70
     1
  9
$HANDLING
 70
     1
  9
$HANDSEED
  5
565
  9
$SURFTAB1
 70
     6
  9
$SURFTAB2
 70
     6
  9
$SURFTYPE
 70
     6
  9
$SURFU
 70
     6
  9
$SURFV
 70
     6
  9
$UCSNAME
  2

  9
$UCSORG
 10
0.0
 20
0.0
 30
0.0
  9
$UCSXDIR
 10
1.0
 20
0.0
 30
0.0
  9
$UCSYDIR
 10
0.0
 20
1.0
 30
0.0
  9
$PUCSNAME
  2

  9
$PUCSORG
 10
0.0
 20
0.0
 30
0.0
  9
$PUCSXDIR
 10
1.0
 20
0.0
 30
0.0
  9
$PUCSYDIR
 10
0.0
 20
1.0
 30
0.0
  9
$USERI1
 70
     0
  9
$USERI2
 70
     0
  9
$USERI3
 70
     0
  9
$USERI4
 70
     0
  9
$USERI5
 70
     0
  9
$USERR1
 40
0.0
  9
$USERR2
 40
0.0
  9
$USERR3
 40
0.0
  9
$USERR4
 40
0.0
  9
$USERR5
 40
0.0
  9
$WORLDVIEW
 70
     1
  9
$SHADEDGE
 70
     3
  9
$SHADEDIF
 70
    70
  9
$TILEMODE
 70
     1
  9
$MAXACTVP
 70
    64
  9
$PLIMCHECK
 70
     0
  9
$PEXTMIN
 10
0.0
 20
0.0
 30
0.0
  9
$PEXTMAX
 10
0.0
 20
0.0
 30
0.0
  9
$PLIMMIN
 10
0.0
 20
0.0
  9
$PLIMMAX
 10
0.0
 20
0.0
  9
$UNITMODE
 70
     0
  9
$VISRETAIN
 70
     1
  9
$PLINEGEN
 70
     0
  9
$PSLTSCALE
 70
     1
  0
ENDSEC
  0
SECTION
  2
TABLES
  0
TABLE
  2
VPORT
 70
     1
  0
VPORT
  2
*ACTIVE
 70
     0
 10
0.0
 20
0.0
 11
1.0
 21
1.0
 12
141.6019713589334
 22
121.1349545407801
 13
0.0
 23
0.0
 14
0.5
 24
0.5
 15
0.5
 25
0.5
 16
0.0
 26
0.0
 36
1.0
 17
0.0
 27
0.0
 37
0.0
 40
73.69976837649291
 41
1.972972972850329
 42
50.0
 43
0.0
 44
0.0
 50
0.0
 51
0.0
 71
    16
 72
   100
 73
     1
 74
     3
 75
     0
 76
     0
 77
     0
 78
     0
  0
ENDTAB
  0
TABLE
  2
LTYPE
 70
     1
  0
LTYPE
  2
CONTINUOUS
 70
     0
  3
Solid line
 72
    65
 73
     0
 40
0.0
  0
ENDTAB
  0
TABLE
  2
LAYER
 70
     2
  0
LAYER
  2
0
 70
     0
 62
     7
  6
CONTINUOUS
  0
LAYER
  2
LAYER_1
 70
     0
 62
     7
  6
CONTINUOUS
  0
ENDTAB
  0
TABLE
  2
STYLE
 70
     1
  0
STYLE
  2
STANDARD
 70
     0
 40
0.0
 41
1.0
 50
0.0
 71
     0
 42
0.2
  3
txt
  4

  0
ENDTAB
  0
TABLE
  2
VIEW
 70
     0
  0
ENDTAB
  0
TABLE
  2
UCS
 70
     0
  0
ENDTAB
  0
TABLE
  2
APPID
 70
     1
  0
APPID
  2
ACAD
 70
     0
  0
ENDTAB
  0
TABLE
  2
DIMSTYLE
 70
     1
  0
DIMSTYLE
  2
STANDARD
 70
     0
  3

  4

  5

  6

  7

 40
1.0
 41
0.18
 42
0.0625
 43
0.38
 44
0.18
 45
0.0
 46
0.0
 47
0.0
 48
0.0
140
0.18
141
0.09
142
0.0
143
25.4
144
1.0
145
0.0
146
1.0
147
0.09
 71
     0
 72
     0
 73
     1
 74
     1
 75
     0
 76
     0
 77
     0
 78
     0
170
     0
171
     2
172
     0
173
     0
174
     0
175
     0
176
     0
177
     0
178
     0
  0
ENDTAB
  0
ENDSEC
  0
SECTION
  2
BLOCKS
  0
BLOCK
  8
0
  2
$MODEL_SPACE
 70
     0
 10
0.0
 20
0.0
 30
0.0
  3
$MODEL_SPACE
  1

  0
ENDBLK
  5
21
  8
0
  0
BLOCK
 67
     1
  8
0
  2
$PAPER_SPACE
 70
     0
 10
0.0
 20
0.0
 30
0.0
  3
$PAPER_SPACE
  1

  0
ENDBLK
  5
76
 67
     1
  8
0
  0
ENDSEC
  0
SECTION
  2
ENTITIES
  0
LINE
  5
54E
  8
LAYER_1
 10
142.718745
 20
89.146997
 30
0.0
 11
141.799328
 21
89.699523
 31
0.0
  0
LINE
  5
54F
  8
LAYER_1
 10
141.799328
 20
89.699523
 30
0.0
 11
141.322409
 21
90.225415
 31
0.0
  0
LINE
  5
23
  8
LAYER_1
 10
141.322409
 20
90.225415
 30
0.0
 11
141.282861
 21
90.734954
 31
0.0
  0
LINE
  5
24
  8
LAYER_1
 10
141.282861
 20
90.734954
 30
0.0
 11
141.675556
 21
91.238418
 31
0.0
  0
LINE
  5
25
  8
LAYER_1
 10
141.675556
 20
91.238418
 30
0.0
 11
142.003149
 21
91.58722299999999
 31
0.0
  0
LINE
  5
26
  8
LAYER_1
 10
142.003149
 20
91.58722299999999
 30
0.0
 11
142.086214
 21
91.83507299999999
 31
0.0
  0
LINE
  5
550
  8
LAYER_1
 10
142.086214
 20
91.83507299999999
 30
0.0
 11
141.938019
 21
91.91516900000001
 31
0.0
  0
LINE
  5
28
  8
LAYER_1
 10
141.938019
 20
91.91516900000001
 30
0.0
 11
141.57183
 21
91.760713
 31
0.0
  0
LINE
  5
29
  8
LAYER_1
 10
141.57183
 20
91.760713
 30
0.0
 11
141.061016
 21
91.567139
 31
0.0
  0
LINE
  5
2A
  8
LAYER_1
 10
141.061016
 20
91.567139
 30
0.0
 11
140.605915
 21
91.622338
 31
0.0
  0
LINE
  5
2B
  8
LAYER_1
 10
140.605915
 20
91.622338
 30
0.0
 11
140.25948
 21
91.90405199999999
 31
0.0
  0
LINE
  5
2C
  8
LAYER_1
 10
140.25948
 20
91.90405199999999
 30
0.0
 11
140.074667
 21
92.390023
 31
0.0
  0
LINE
  5
2D
  8
LAYER_1
 10
140.074667
 20
92.390023
 30
0.0
 11
139.965276
 21
92.675336
 31
0.0
  0
LINE
  5
2E
  8
LAYER_1
 10
139.965276
 20
92.675336
 30
0.0
 11
139.664864
 21
92.634548
 31
0.0
  0
LINE
  5
2F
  8
LAYER_1
 10
139.664864
 20
92.634548
 30
0.0
 11
137.902527
 21
91.271709
 31
0.0
  0
LINE
  5
30
  8
LAYER_1
 10
137.902527
 20
91.271709
 30
0.0
 11
136.165828
 21
89.95052800000001
 31
0.0
  0
LINE
  5
31
  8
LAYER_1
 10
136.165828
 20
89.95052800000001
 30
0.0
 11
135.717518
 21
89.77461
 31
0.0
  0
LINE
  5
32
  8
LAYER_1
 10
135.717518
 20
89.77461
 30
0.0
 11
135.433082
 21
89.85518
 31
0.0
  0
LINE
  5
33
  8
LAYER_1
 10
135.433082
 20
89.85518
 30
0.0
 11
135.043333
 21
90.540999
 31
0.0
  0
LINE
  5
34
  8
LAYER_1
 10
135.043333
 20
90.540999
 30
0.0
 11
134.900163
 21
90.763181
 31
0.0
  0
LINE
  5
35
  8
LAYER_1
 10
134.900163
 20
90.763181
 30
0.0
 11
134.538347
 21
90.77129600000001
 31
0.0
  0
LINE
  5
36
  8
LAYER_1
 10
134.538347
 20
90.77129600000001
 30
0.0
 11
134.027421
 21
90.844381
 31
0.0
  0
LINE
  5
37
  8
LAYER_1
 10
134.027421
 20
90.844381
 30
0.0
 11
133.507731
 21
91.22005400000001
 31
0.0
  0
LINE
  5
38
  8
LAYER_1
 10
133.507731
 20
91.22005400000001
 30
0.0
 11
133.018581
 21
91.603765
 31
0.0
  0
LINE
  5
39
  8
LAYER_1
 10
133.018581
 20
91.603765
 30
0.0
 11
132.619646
 21
91.500058
 31
0.0
  0
LINE
  5
3A
  8
LAYER_1
 10
132.619646
 20
91.500058
 30
0.0
 11
132.205704
 21
91.342587
 31
0.0
  0
LINE
  5
3B
  8
LAYER_1
 10
132.205704
 20
91.342587
 30
0.0
 11
131.674706
 21
91.510986
 31
0.0
  0
LINE
  5
3C
  8
LAYER_1
 10
131.674706
 20
91.510986
 30
0.0
 11
131.30121
 21
91.80929399999999
 31
0.0
  0
LINE
  5
3D
  8
LAYER_1
 10
131.30121
 20
91.80929399999999
 30
0.0
 11
131.116477
 21
92.165438
 31
0.0
  0
LINE
  5
3E
  8
LAYER_1
 10
131.116477
 20
92.165438
 30
0.0
 11
131.135793
 21
92.51427
 31
0.0
  0
LINE
  5
3F
  8
LAYER_1
 10
131.135793
 20
92.51427
 30
0.0
 11
131.374444
 21
92.79064099999999
 31
0.0
  0
LINE
  5
40
  8
LAYER_1
 10
131.374444
 20
92.79064099999999
 30
0.0
 11
131.656667
 21
93.230631
 31
0.0
  0
LINE
  5
41
  8
LAYER_1
 10
131.656667
 20
93.230631
 30
0.0
 11
131.534897
 21
93.421212
 31
0.0
  0
LINE
  5
42
  8
LAYER_1
 10
131.534897
 20
93.421212
 30
0.0
 11
131.257473
 21
93.490211
 31
0.0
  0
LINE
  5
43
  8
LAYER_1
 10
131.257473
 20
93.490211
 30
0.0
 11
130.95622
 21
93.43458200000001
 31
0.0
  0
LINE
  5
44
  8
LAYER_1
 10
130.95622
 20
93.43458200000001
 30
0.0
 11
130.762962
 21
93.251278
 31
0.0
  0
LINE
  5
45
  8
LAYER_1
 10
130.762962
 20
93.251278
 30
0.0
 11
130.480524
 21
92.9615
 31
0.0
  0
LINE
  5
46
  8
LAYER_1
 10
130.480524
 20
92.9615
 30
0.0
 11
129.997871
 21
92.820573
 31
0.0
  0
LINE
  5
47
  8
LAYER_1
 10
129.997871
 20
92.820573
 30
0.0
 11
129.448147
 21
92.84369100000001
 31
0.0
  0
LINE
  5
48
  8
LAYER_1
 10
129.448147
 20
92.84369100000001
 30
0.0
 11
128.964498
 21
93.046049
 31
0.0
  0
LINE
  5
49
  8
LAYER_1
 10
128.964498
 20
93.046049
 30
0.0
 11
128.561123
 21
93.470395
 31
0.0
  0
LINE
  5
4A
  8
LAYER_1
 10
128.561123
 20
93.470395
 30
0.0
 11
128.952487
 21
94.03515
 31
0.0
  0
LINE
  5
4B
  8
LAYER_1
 10
128.952487
 20
94.03515
 30
0.0
 11
129.243081
 21
94.375805
 31
0.0
  0
LINE
  5
4C
  8
LAYER_1
 10
129.243081
 20
94.375805
 30
0.0
 11
129.279114
 21
94.55098700000001
 31
0.0
  0
LINE
  5
4D
  8
LAYER_1
 10
129.279114
 20
94.55098700000001
 30
0.0
 11
128.370186
 21
94.625085
 31
0.0
  0
LINE
  5
4E
  8
LAYER_1
 10
128.370186
 20
94.625085
 30
0.0
 11
127.486276
 21
94.72068899999999
 31
0.0
  0
LINE
  5
4F
  8
LAYER_1
 10
127.486276
 20
94.72068899999999
 30
0.0
 11
126.928541
 21
94.95054399999999
 31
0.0
  0
LINE
  5
50
  8
LAYER_1
 10
126.928541
 20
94.95054399999999
 30
0.0
 11
126.74189
 21
95.38108800000001
 31
0.0
  0
LINE
  5
51
  8
LAYER_1
 10
126.74189
 20
95.38108800000001
 30
0.0
 11
126.899596
 21
95.827826
 31
0.0
  0
LINE
  5
52
  8
LAYER_1
 10
126.899596
 20
95.827826
 30
0.0
 11
127.321427
 21
96.18013500000001
 31
0.0
  0
LINE
  5
53
  8
LAYER_1
 10
127.321427
 20
96.18013500000001
 30
0.0
 11
127.927151
 21
96.327393
 31
0.0
  0
LINE
  5
54
  8
LAYER_1
 10
127.927151
 20
96.327393
 30
0.0
 11
128.512137
 21
96.392302
 31
0.0
  0
LINE
  5
55
  8
LAYER_1
 10
128.512137
 20
96.392302
 30
0.0
 11
128.128889
 21
96.756086
 31
0.0
  0
LINE
  5
56
  8
LAYER_1
 10
128.128889
 20
96.756086
 30
0.0
 11
126.877842
 21
97.81502
 31
0.0
  0
LINE
  5
57
  8
LAYER_1
 10
126.877842
 20
97.81502
 30
0.0
 11
126.641101
 21
98.193646
 31
0.0
  0
LINE
  5
58
  8
LAYER_1
 10
126.641101
 20
98.193646
 30
0.0
 11
126.576667
 21
98.57343299999999
 31
0.0
  0
LINE
  5
551
  8
LAYER_1
 10
126.576667
 20
98.57343299999999
 30
0.0
 11
126.712777
 21
98.972168
 31
0.0
  0
LINE
  5
552
  8
LAYER_1
 10
126.712777
 20
98.972168
 30
0.0
 11
127.119073
 21
99.129672
 31
0.0
  0
LINE
  5
5B
  8
LAYER_1
 10
127.119073
 20
99.129672
 30
0.0
 11
127.792507
 21
99.04574
 31
0.0
  0
LINE
  5
5C
  8
LAYER_1
 10
127.792507
 20
99.04574
 30
0.0
 11
128.730028
 21
98.720163
 31
0.0
  0
LINE
  5
5D
  8
LAYER_1
 10
128.730028
 20
98.720163
 30
0.0
 11
129.666483
 21
98.45068000000001
 31
0.0
  0
LINE
  5
553
  8
LAYER_1
 10
129.666483
 20
98.45068000000001
 30
0.0
 11
129.943468
 21
98.58896799999999
 31
0.0
  0
LINE
  5
5F
  8
LAYER_1
 10
129.943468
 20
98.58896799999999
 30
0.0
 11
130.255504
 21
98.93183000000001
 31
0.0
  0
LINE
  5
60
  8
LAYER_1
 10
130.255504
 20
98.93183000000001
 30
0.0
 11
130.773247
 21
99.383657
 31
0.0
  0
LINE
  5
61
  8
LAYER_1
 10
130.773247
 20
99.383657
 30
0.0
 11
131.286208
 21
99.215407
 31
0.0
  0
LINE
  5
62
  8
LAYER_1
 10
131.286208
 20
99.215407
 30
0.0
 11
132.819579
 21
98.414574
 31
0.0
  0
LINE
  5
63
  8
LAYER_1
 10
132.819579
 20
98.414574
 30
0.0
 11
133.85706
 21
98.14251400000001
 31
0.0
  0
LINE
  5
64
  8
LAYER_1
 10
133.85706
 20
98.14251400000001
 30
0.0
 11
133.815449
 21
98.293514
 31
0.0
  0
LINE
  5
65
  8
LAYER_1
 10
133.815449
 20
98.293514
 30
0.0
 11
133.521377
 21
98.462523
 31
0.0
  0
LINE
  5
66
  8
LAYER_1
 10
133.521377
 20
98.462523
 30
0.0
 11
133.192019
 21
98.720255
 31
0.0
  0
LINE
  5
67
  8
LAYER_1
 10
133.192019
 20
98.720255
 30
0.0
 11
133.477847
 21
99.301115
 31
0.0
  0
LINE
  5
68
  8
LAYER_1
 10
133.477847
 20
99.301115
 30
0.0
 11
133.717596
 21
99.82777900000001
 31
0.0
  0
LINE
  5
69
  8
LAYER_1
 10
133.717596
 20
99.82777900000001
 30
0.0
 11
133.629084
 21
100.130357
 31
0.0
  0
LINE
  5
6A
  8
LAYER_1
 10
133.629084
 20
100.130357
 30
0.0
 11
133.431981
 21
100.454539
 31
0.0
  0
LINE
  5
554
  8
LAYER_1
 10
133.431981
 20
100.454539
 30
0.0
 11
133.35
 21
100.991742
 31
0.0
  0
LINE
  5
555
  8
LAYER_1
 10
133.35
 20
100.991742
 30
0.0
 11
133.267733
 21
101.496435
 31
0.0
  0
LINE
  5
6D
  8
LAYER_1
 10
133.267733
 20
101.496435
 30
0.0
 11
133.069671
 21
101.660206
 31
0.0
  0
LINE
  5
6E
  8
LAYER_1
 10
133.069671
 20
101.660206
 30
0.0
 11
132.828927
 21
101.484966
 31
0.0
  0
LINE
  5
6F
  8
LAYER_1
 10
132.828927
 20
101.484966
 30
0.0
 11
132.61861
 21
100.972627
 31
0.0
  0
LINE
  5
70
  8
LAYER_1
 10
132.61861
 20
100.972627
 30
0.0
 11
132.298407
 21
100.428736
 31
0.0
  0
LINE
  5
71
  8
LAYER_1
 10
132.298407
 20
100.428736
 30
0.0
 11
131.769025
 21
100.093029
 31
0.0
  0
LINE
  5
72
  8
LAYER_1
 10
131.769025
 20
100.093029
 30
0.0
 11
131.205452
 21
100.029436
 31
0.0
  0
LINE
  5
556
  8
LAYER_1
 10
131.205452
 20
100.029436
 30
0.0
 11
130.782672
 21
100.301886
 31
0.0
  0
LINE
  5
557
  8
LAYER_1
 10
130.782672
 20
100.301886
 30
0.0
 11
130.646024
 21
100.684779
 31
0.0
  0
LINE
  5
558
  8
LAYER_1
 10
130.646024
 20
100.684779
 30
0.0
 11
130.667097
 21
101.056323
 31
0.0
  0
LINE
  5
559
  8
LAYER_1
 10
130.667097
 20
101.056323
 30
0.0
 11
130.638345
 21
101.360201
 31
0.0
  0
LINE
  5
77
  8
LAYER_1
 10
130.638345
 20
101.360201
 30
0.0
 11
130.381908
 21
101.580407
 31
0.0
  0
LINE
  5
78
  8
LAYER_1
 10
130.381908
 20
101.580407
 30
0.0
 11
130.086289
 21
101.836774
 31
0.0
  0
LINE
  5
79
  8
LAYER_1
 10
130.086289
 20
101.836774
 30
0.0
 11
129.963333
 21
102.22759
 31
0.0
  0
LINE
  5
7A
  8
LAYER_1
 10
129.963333
 20
102.22759
 30
0.0
 11
129.753011
 21
102.683785
 31
0.0
  0
LINE
  5
7B
  8
LAYER_1
 10
129.753011
 20
102.683785
 30
0.0
 11
129.247344
 21
103.097337
 31
0.0
  0
LINE
  5
7C
  8
LAYER_1
 10
129.247344
 20
103.097337
 30
0.0
 11
128.732198
 21
103.513203
 31
0.0
  0
LINE
  5
7D
  8
LAYER_1
 10
128.732198
 20
103.513203
 30
0.0
 11
128.63506
 21
103.927845
 31
0.0
  0
LINE
  5
7E
  8
LAYER_1
 10
128.63506
 20
103.927845
 30
0.0
 11
128.935445
 21
104.265445
 31
0.0
  0
LINE
  5
7F
  8
LAYER_1
 10
128.935445
 20
104.265445
 30
0.0
 11
129.612867
 21
104.450189
 31
0.0
  0
LINE
  5
80
  8
LAYER_1
 10
129.612867
 20
104.450189
 30
0.0
 11
130.286356
 21
104.624615
 31
0.0
  0
LINE
  5
81
  8
LAYER_1
 10
130.286356
 20
104.624615
 30
0.0
 11
130.527778
 21
104.952934
 31
0.0
  0
LINE
  5
82
  8
LAYER_1
 10
130.527778
 20
104.952934
 30
0.0
 11
130.661794
 21
105.340824
 31
0.0
  0
LINE
  5
83
  8
LAYER_1
 10
130.661794
 20
105.340824
 30
0.0
 11
131.014687
 21
105.525644
 31
0.0
  0
LINE
  5
84
  8
LAYER_1
 10
131.014687
 20
105.525644
 30
0.0
 11
131.512726
 21
105.494111
 31
0.0
  0
LINE
  5
85
  8
LAYER_1
 10
131.512726
 20
105.494111
 30
0.0
 11
132.082179
 21
105.232944
 31
0.0
  0
LINE
  5
86
  8
LAYER_1
 10
132.082179
 20
105.232944
 30
0.0
 11
132.692619
 21
104.924995
 31
0.0
  0
LINE
  5
87
  8
LAYER_1
 10
132.692619
 20
104.924995
 30
0.0
 11
132.818976
 21
105.41358
 31
0.0
  0
LINE
  5
88
  8
LAYER_1
 10
132.818976
 20
105.41358
 30
0.0
 11
132.807202
 21
106.302075
 31
0.0
  0
LINE
  5
89
  8
LAYER_1
 10
132.807202
 20
106.302075
 30
0.0
 11
132.921263
 21
106.681935
 31
0.0
  0
LINE
  5
8A
  8
LAYER_1
 10
132.921263
 20
106.681935
 30
0.0
 11
133.2861
 21
107.111062
 31
0.0
  0
LINE
  5
8B
  8
LAYER_1
 10
133.2861
 20
107.111062
 30
0.0
 11
133.764019
 21
107.462004
 31
0.0
  0
LINE
  5
8C
  8
LAYER_1
 10
133.764019
 20
107.462004
 30
0.0
 11
134.217325
 21
107.607307
 31
0.0
  0
LINE
  5
8D
  8
LAYER_1
 10
134.217325
 20
107.607307
 30
0.0
 11
135.191799
 21
107.81081
 31
0.0
  0
LINE
  5
8E
  8
LAYER_1
 10
135.191799
 20
107.81081
 30
0.0
 11
135.420199
 21
108.034083
 31
0.0
  0
LINE
  5
8F
  8
LAYER_1
 10
135.420199
 20
108.034083
 30
0.0
 11
135.428437
 21
108.310724
 31
0.0
  0
LINE
  5
90
  8
LAYER_1
 10
135.428437
 20
108.310724
 30
0.0
 11
135.480494
 21
108.623934
 31
0.0
  0
LINE
  5
91
  8
LAYER_1
 10
135.480494
 20
108.623934
 30
0.0
 11
135.80745
 21
108.851106
 31
0.0
  0
LINE
  5
55A
  8
LAYER_1
 10
135.80745
 20
108.851106
 30
0.0
 11
136.252308
 21
109.210133
 31
0.0
  0
LINE
  5
55B
  8
LAYER_1
 10
136.252308
 20
109.210133
 30
0.0
 11
136.62969
 21
109.836696
 31
0.0
  0
LINE
  5
94
  8
LAYER_1
 10
136.62969
 20
109.836696
 30
0.0
 11
136.823471
 21
110.473861
 31
0.0
  0
LINE
  5
95
  8
LAYER_1
 10
136.823471
 20
110.473861
 30
0.0
 11
136.717524
 21
110.864694
 31
0.0
  0
LINE
  5
96
  8
LAYER_1
 10
136.717524
 20
110.864694
 30
0.0
 11
136.37073
 21
110.883862
 31
0.0
  0
LINE
  5
55C
  8
LAYER_1
 10
136.37073
 20
110.883862
 30
0.0
 11
135.89
 21
110.711752
 31
0.0
  0
LINE
  5
55D
  8
LAYER_1
 10
135.89
 20
110.711752
 30
0.0
 11
135.401298
 21
110.544568
 31
0.0
  0
LINE
  5
99
  8
LAYER_1
 10
135.401298
 20
110.544568
 30
0.0
 11
135.035335
 21
110.575582
 31
0.0
  0
LINE
  5
9A
  8
LAYER_1
 10
135.035335
 20
110.575582
 30
0.0
 11
134.705266
 21
110.563827
 31
0.0
  0
LINE
  5
9B
  8
LAYER_1
 10
134.705266
 20
110.563827
 30
0.0
 11
134.302856
 21
110.293812
 31
0.0
  0
LINE
  5
9C
  8
LAYER_1
 10
134.302856
 20
110.293812
 30
0.0
 11
133.902741
 21
110.005623
 31
0.0
  0
LINE
  5
9D
  8
LAYER_1
 10
133.902741
 20
110.005623
 30
0.0
 11
133.5497
 21
109.963343
 31
0.0
  0
LINE
  5
9E
  8
LAYER_1
 10
133.5497
 20
109.963343
 30
0.0
 11
133.273874
 21
110.159592
 31
0.0
  0
LINE
  5
9F
  8
LAYER_1
 10
133.273874
 20
110.159592
 30
0.0
 11
133.105406
 21
110.58699
 31
0.0
  0
LINE
  5
A0
  8
LAYER_1
 10
133.105406
 20
110.58699
 30
0.0
 11
132.895151
 21
111.08096
 31
0.0
  0
LINE
  5
A1
  8
LAYER_1
 10
132.895151
 20
111.08096
 30
0.0
 11
132.539145
 21
111.456143
 31
0.0
  0
LINE
  5
A2
  8
LAYER_1
 10
132.539145
 20
111.456143
 30
0.0
 11
132.142889
 21
111.634856
 31
0.0
  0
LINE
  5
A3
  8
LAYER_1
 10
132.142889
 20
111.634856
 30
0.0
 11
131.811889
 21
111.539419
 31
0.0
  0
LINE
  5
A4
  8
LAYER_1
 10
131.811889
 20
111.539419
 30
0.0
 11
131.468247
 21
111.343465
 31
0.0
  0
LINE
  5
A5
  8
LAYER_1
 10
131.468247
 20
111.343465
 30
0.0
 11
131.054767
 21
111.285007
 31
0.0
  0
LINE
  5
A6
  8
LAYER_1
 10
131.054767
 20
111.285007
 30
0.0
 11
130.686092
 21
111.361412
 31
0.0
  0
LINE
  5
A7
  8
LAYER_1
 10
130.686092
 20
111.361412
 30
0.0
 11
130.476862
 21
111.570052
 31
0.0
  0
LINE
  5
A8
  8
LAYER_1
 10
130.476862
 20
111.570052
 30
0.0
 11
130.164402
 21
111.666335
 31
0.0
  0
LINE
  5
A9
  8
LAYER_1
 10
130.164402
 20
111.666335
 30
0.0
 11
129.469162
 21
111.410063
 31
0.0
  0
LINE
  5
AA
  8
LAYER_1
 10
129.469162
 20
111.410063
 30
0.0
 11
128.742692
 21
111.141425
 31
0.0
  0
LINE
  5
AB
  8
LAYER_1
 10
128.742692
 20
111.141425
 30
0.0
 11
128.273596
 21
111.132864
 31
0.0
  0
LINE
  5
AC
  8
LAYER_1
 10
128.273596
 20
111.132864
 30
0.0
 11
128.037913
 21
111.463018
 31
0.0
  0
LINE
  5
AD
  8
LAYER_1
 10
128.037913
 20
111.463018
 30
0.0
 11
128.011931
 21
111.976922
 31
0.0
  0
LINE
  5
AE
  8
LAYER_1
 10
128.011931
 20
111.976922
 30
0.0
 11
128.18559
 21
112.59733
 31
0.0
  0
LINE
  5
AF
  8
LAYER_1
 10
128.18559
 20
112.59733
 30
0.0
 11
128.548836
 21
113.246996
 31
0.0
  0
LINE
  5
B0
  8
LAYER_1
 10
128.548836
 20
113.246996
 30
0.0
 11
128.941918
 21
113.95969
 31
0.0
  0
LINE
  5
B1
  8
LAYER_1
 10
128.941918
 20
113.95969
 30
0.0
 11
128.689947
 21
114.383452
 31
0.0
  0
LINE
  5
B2
  8
LAYER_1
 10
128.689947
 20
114.383452
 30
0.0
 11
128.385021
 21
114.756125
 31
0.0
  0
LINE
  5
B3
  8
LAYER_1
 10
128.385021
 20
114.756125
 30
0.0
 11
128.289635
 21
115.180994
 31
0.0
  0
LINE
  5
B4
  8
LAYER_1
 10
128.289635
 20
115.180994
 30
0.0
 11
128.403386
 21
115.638711
 31
0.0
  0
LINE
  5
B5
  8
LAYER_1
 10
128.403386
 20
115.638711
 30
0.0
 11
128.725871
 21
116.109929
 31
0.0
  0
LINE
  5
B6
  8
LAYER_1
 10
128.725871
 20
116.109929
 30
0.0
 11
129.040632
 21
116.606253
 31
0.0
  0
LINE
  5
B7
  8
LAYER_1
 10
129.040632
 20
116.606253
 30
0.0
 11
128.725871
 21
117.069533
 31
0.0
  0
LINE
  5
B8
  8
LAYER_1
 10
128.725871
 20
117.069533
 30
0.0
 11
128.403912
 21
117.592826
 31
0.0
  0
LINE
  5
B9
  8
LAYER_1
 10
128.403912
 20
117.592826
 30
0.0
 11
128.27
 21
118.2108
 31
0.0
  0
LINE
  5
BA
  8
LAYER_1
 10
128.27
 20
118.2108
 30
0.0
 11
128.412311
 21
118.723892
 31
0.0
  0
LINE
  5
BB
  8
LAYER_1
 10
128.412311
 20
118.723892
 30
0.0
 11
128.790608
 21
118.890984
 31
0.0
  0
LINE
  5
BC
  8
LAYER_1
 10
128.790608
 20
118.890984
 30
0.0
 11
129.331934
 21
118.712944
 31
0.0
  0
LINE
  5
BD
  8
LAYER_1
 10
129.331934
 20
118.712944
 30
0.0
 11
129.963333
 21
118.190641
 31
0.0
  0
LINE
  5
BE
  8
LAYER_1
 10
129.963333
 20
118.190641
 30
0.0
 11
130.557779
 21
117.675626
 31
0.0
  0
LINE
  5
BF
  8
LAYER_1
 10
130.557779
 20
117.675626
 30
0.0
 11
131.020346
 21
117.490211
 31
0.0
  0
LINE
  5
C0
  8
LAYER_1
 10
131.020346
 20
117.490211
 30
0.0
 11
131.282491
 21
117.637958
 31
0.0
  0
LINE
  5
C1
  8
LAYER_1
 10
131.282491
 20
117.637958
 30
0.0
 11
131.275672
 21
118.12243
 31
0.0
  0
LINE
  5
C2
  8
LAYER_1
 10
131.275672
 20
118.12243
 30
0.0
 11
131.195451
 21
118.832511
 31
0.0
  0
LINE
  5
C3
  8
LAYER_1
 10
131.195451
 20
118.832511
 30
0.0
 11
131.411901
 21
119.195571
 31
0.0
  0
LINE
  5
C4
  8
LAYER_1
 10
131.411901
 20
119.195571
 30
0.0
 11
131.94304
 21
119.220971
 31
0.0
  0
LINE
  5
C5
  8
LAYER_1
 10
131.94304
 20
119.220971
 30
0.0
 11
132.806886
 21
118.918074
 31
0.0
  0
LINE
  5
C6
  8
LAYER_1
 10
132.806886
 20
118.918074
 30
0.0
 11
133.797432
 21
118.576738
 31
0.0
  0
LINE
  5
C7
  8
LAYER_1
 10
133.797432
 20
118.576738
 30
0.0
 11
134.323339
 21
118.627758
 31
0.0
  0
LINE
  5
C8
  8
LAYER_1
 10
134.323339
 20
118.627758
 30
0.0
 11
134.706202
 21
118.817343
 31
0.0
  0
LINE
  5
C9
  8
LAYER_1
 10
134.706202
 20
118.817343
 30
0.0
 11
135.249745
 21
118.896196
 31
0.0
  0
LINE
  5
CA
  8
LAYER_1
 10
135.249745
 20
118.896196
 30
0.0
 11
135.726171
 21
119.007602
 31
0.0
  0
LINE
  5
CB
  8
LAYER_1
 10
135.726171
 20
119.007602
 30
0.0
 11
136.036429
 21
119.293533
 31
0.0
  0
LINE
  5
CC
  8
LAYER_1
 10
136.036429
 20
119.293533
 30
0.0
 11
136.136426
 21
119.681554
 31
0.0
  0
LINE
  5
CD
  8
LAYER_1
 10
136.136426
 20
119.681554
 30
0.0
 11
135.982072
 21
120.099233
 31
0.0
  0
LINE
  5
CE
  8
LAYER_1
 10
135.982072
 20
120.099233
 30
0.0
 11
135.806134
 21
120.739472
 31
0.0
  0
LINE
  5
CF
  8
LAYER_1
 10
135.806134
 20
120.739472
 30
0.0
 11
135.73883
 21
121.788424
 31
0.0
  0
LINE
  5
D0
  8
LAYER_1
 10
135.73883
 20
121.788424
 30
0.0
 11
135.624086
 21
123.047214
 31
0.0
  0
LINE
  5
D1
  8
LAYER_1
 10
135.624086
 20
123.047214
 30
0.0
 11
135.426355
 21
123.000722
 31
0.0
  0
LINE
  5
D2
  8
LAYER_1
 10
135.426355
 20
123.000722
 30
0.0
 11
135.097924
 21
122.547621
 31
0.0
  0
LINE
  5
D3
  8
LAYER_1
 10
135.097924
 20
122.547621
 30
0.0
 11
134.648601
 21
122.170441
 31
0.0
  0
LINE
  5
D4
  8
LAYER_1
 10
134.648601
 20
122.170441
 30
0.0
 11
134.045355
 21
122.048597
 31
0.0
  0
LINE
  5
D5
  8
LAYER_1
 10
134.045355
 20
122.048597
 30
0.0
 11
133.458511
 21
122.180631
 31
0.0
  0
LINE
  5
D6
  8
LAYER_1
 10
133.458511
 20
122.180631
 30
0.0
 11
133.058394
 21
122.565085
 31
0.0
  0
LINE
  5
D7
  8
LAYER_1
 10
133.058394
 20
122.565085
 30
0.0
 11
132.503145
 21
123.803164
 31
0.0
  0
LINE
  5
D8
  8
LAYER_1
 10
132.503145
 20
123.803164
 30
0.0
 11
132.300158
 21
124.582822
 31
0.0
  0
LINE
  5
D9
  8
LAYER_1
 10
132.300158
 20
124.582822
 30
0.0
 11
132.445306
 21
124.988611
 31
0.0
  0
LINE
  5
DA
  8
LAYER_1
 10
132.445306
 20
124.988611
 30
0.0
 11
132.934464
 21
125.105085
 31
0.0
  0
LINE
  5
DB
  8
LAYER_1
 10
132.934464
 20
125.105085
 30
0.0
 11
133.172803
 21
125.216157
 31
0.0
  0
LINE
  5
DC
  8
LAYER_1
 10
133.172803
 20
125.216157
 30
0.0
 11
133.187189
 21
125.483204
 31
0.0
  0
LINE
  5
DD
  8
LAYER_1
 10
133.187189
 20
125.483204
 30
0.0
 11
133.200731
 21
125.914663
 31
0.0
  0
LINE
  5
DE
  8
LAYER_1
 10
133.200731
 20
125.914663
 30
0.0
 11
133.592809
 21
126.250199
 31
0.0
  0
LINE
  5
DF
  8
LAYER_1
 10
133.592809
 20
126.250199
 30
0.0
 11
134.342629
 21
126.479526
 31
0.0
  0
LINE
  5
E0
  8
LAYER_1
 10
134.342629
 20
126.479526
 30
0.0
 11
135.429399
 21
126.59236
 31
0.0
  0
LINE
  5
E1
  8
LAYER_1
 10
135.429399
 20
126.59236
 30
0.0
 11
136.549306
 21
126.704382
 31
0.0
  0
LINE
  5
E2
  8
LAYER_1
 10
136.549306
 20
126.704382
 30
0.0
 11
137.016501
 21
126.882512
 31
0.0
  0
LINE
  5
E3
  8
LAYER_1
 10
137.016501
 20
126.882512
 30
0.0
 11
136.25195
 21
127.767409
 31
0.0
  0
LINE
  5
E4
  8
LAYER_1
 10
136.25195
 20
127.767409
 30
0.0
 11
135.688907
 21
128.390035
 31
0.0
  0
LINE
  5
E5
  8
LAYER_1
 10
135.688907
 20
128.390035
 30
0.0
 11
135.693258
 21
128.621489
 31
0.0
  0
LINE
  5
E6
  8
LAYER_1
 10
135.693258
 20
128.621489
 30
0.0
 11
135.860189
 21
128.879167
 31
0.0
  0
LINE
  5
E7
  8
LAYER_1
 10
135.860189
 20
128.879167
 30
0.0
 11
136.076316
 21
129.325724
 31
0.0
  0
LINE
  5
E8
  8
LAYER_1
 10
136.076316
 20
129.325724
 30
0.0
 11
136.06909
 21
129.764549
 31
0.0
  0
LINE
  5
E9
  8
LAYER_1
 10
136.06909
 20
129.764549
 30
0.0
 11
135.82745
 21
130.049606
 31
0.0
  0
LINE
  5
EA
  8
LAYER_1
 10
135.82745
 20
130.049606
 30
0.0
 11
135.336523
 21
129.844217
 31
0.0
  0
LINE
  5
EB
  8
LAYER_1
 10
135.336523
 20
129.844217
 30
0.0
 11
134.783914
 21
129.648431
 31
0.0
  0
LINE
  5
EC
  8
LAYER_1
 10
134.783914
 20
129.648431
 30
0.0
 11
134.2773
 21
129.983497
 31
0.0
  0
LINE
  5
ED
  8
LAYER_1
 10
134.2773
 20
129.983497
 30
0.0
 11
133.942968
 21
130.489034
 31
0.0
  0
LINE
  5
EE
  8
LAYER_1
 10
133.942968
 20
130.489034
 30
0.0
 11
134.134019
 21
131.036315
 31
0.0
  0
LINE
  5
EF
  8
LAYER_1
 10
134.134019
 20
131.036315
 30
0.0
 11
134.328636
 21
131.497774
 31
0.0
  0
LINE
  5
F0
  8
LAYER_1
 10
134.328636
 20
131.497774
 30
0.0
 11
133.951393
 21
131.596196
 31
0.0
  0
LINE
  5
F1
  8
LAYER_1
 10
133.951393
 20
131.596196
 30
0.0
 11
133.445148
 21
131.717246
 31
0.0
  0
LINE
  5
F2
  8
LAYER_1
 10
133.445148
 20
131.717246
 30
0.0
 11
133.075575
 21
132.037608
 31
0.0
  0
LINE
  5
F3
  8
LAYER_1
 10
133.075575
 20
132.037608
 30
0.0
 11
132.888702
 21
132.493107
 31
0.0
  0
LINE
  5
F4
  8
LAYER_1
 10
132.888702
 20
132.493107
 30
0.0
 11
132.930556
 21
133.019564
 31
0.0
  0
LINE
  5
F5
  8
LAYER_1
 10
132.930556
 20
133.019564
 30
0.0
 11
133.202779
 21
133.442581
 31
0.0
  0
LINE
  5
F6
  8
LAYER_1
 10
133.202779
 20
133.442581
 30
0.0
 11
133.643799
 21
133.48695
 31
0.0
  0
LINE
  5
F7
  8
LAYER_1
 10
133.643799
 20
133.48695
 30
0.0
 11
134.064346
 21
133.522504
 31
0.0
  0
LINE
  5
F8
  8
LAYER_1
 10
134.064346
 20
133.522504
 30
0.0
 11
134.25159
 21
133.955038
 31
0.0
  0
LINE
  5
F9
  8
LAYER_1
 10
134.25159
 20
133.955038
 30
0.0
 11
134.337482
 21
134.266919
 31
0.0
  0
LINE
  5
FA
  8
LAYER_1
 10
134.337482
 20
134.266919
 30
0.0
 11
134.529964
 21
134.439948
 31
0.0
  0
LINE
  5
FB
  8
LAYER_1
 10
134.529964
 20
134.439948
 30
0.0
 11
135.512652
 21
134.486617
 31
0.0
  0
LINE
  5
FC
  8
LAYER_1
 10
135.512652
 20
134.486617
 30
0.0
 11
136.569151
 21
134.521331
 31
0.0
  0
LINE
  5
FD
  8
LAYER_1
 10
136.569151
 20
134.521331
 30
0.0
 11
137.459424
 21
134.70718
 31
0.0
  0
LINE
  5
FE
  8
LAYER_1
 10
137.459424
 20
134.70718
 30
0.0
 11
138.0397
 21
135.012629
 31
0.0
  0
LINE
  5
FF
  8
LAYER_1
 10
138.0397
 20
135.012629
 30
0.0
 11
137.720364
 21
135.374283
 31
0.0
  0
LINE
  5
100
  8
LAYER_1
 10
137.720364
 20
135.374283
 30
0.0
 11
137.383464
 21
135.795673
 31
0.0
  0
LINE
  5
101
  8
LAYER_1
 10
137.383464
 20
135.795673
 30
0.0
 11
137.41404
 21
136.232609
 31
0.0
  0
LINE
  5
102
  8
LAYER_1
 10
137.41404
 20
136.232609
 30
0.0
 11
137.776901
 21
136.612064
 31
0.0
  0
LINE
  5
103
  8
LAYER_1
 10
137.776901
 20
136.612064
 30
0.0
 11
138.436852
 21
136.861012
 31
0.0
  0
LINE
  5
104
  8
LAYER_1
 10
138.436852
 20
136.861012
 30
0.0
 11
139.303695
 21
137.034379
 31
0.0
  0
LINE
  5
105
  8
LAYER_1
 10
139.303695
 20
137.034379
 30
0.0
 11
138.725738
 21
137.649589
 31
0.0
  0
LINE
  5
106
  8
LAYER_1
 10
138.725738
 20
137.649589
 30
0.0
 11
138.147778
 21
138.572964
 31
0.0
  0
LINE
  5
107
  8
LAYER_1
 10
138.147778
 20
138.572964
 30
0.0
 11
137.982119
 21
138.747285
 31
0.0
  0
LINE
  5
108
  8
LAYER_1
 10
137.982119
 20
138.747285
 30
0.0
 11
137.583833
 21
138.733656
 31
0.0
  0
LINE
  5
109
  8
LAYER_1
 10
137.583833
 20
138.733656
 30
0.0
 11
136.957761
 21
138.759305
 31
0.0
  0
LINE
  5
10A
  8
LAYER_1
 10
136.957761
 20
138.759305
 30
0.0
 11
136.32601
 21
139.047901
 31
0.0
  0
LINE
  5
10B
  8
LAYER_1
 10
136.32601
 20
139.047901
 30
0.0
 11
135.874252
 21
139.476539
 31
0.0
  0
LINE
  5
10C
  8
LAYER_1
 10
135.874252
 20
139.476539
 30
0.0
 11
135.788157
 21
139.922313
 31
0.0
  0
LINE
  5
10D
  8
LAYER_1
 10
135.788157
 20
139.922313
 30
0.0
 11
136.016632
 21
140.220895
 31
0.0
  0
LINE
  5
10E
  8
LAYER_1
 10
136.016632
 20
140.220895
 30
0.0
 11
136.338129
 21
140.345085
 31
0.0
  0
LINE
  5
10F
  8
LAYER_1
 10
136.338129
 20
140.345085
 30
0.0
 11
136.514971
 21
140.40546
 31
0.0
  0
LINE
  5
110
  8
LAYER_1
 10
136.514971
 20
140.40546
 30
0.0
 11
136.606608
 21
140.608362
 31
0.0
  0
LINE
  5
111
  8
LAYER_1
 10
136.606608
 20
140.608362
 30
0.0
 11
136.557645
 21
141.572416
 31
0.0
  0
LINE
  5
112
  8
LAYER_1
 10
136.557645
 20
141.572416
 30
0.0
 11
136.518209
 21
142.609355
 31
0.0
  0
LINE
  5
113
  8
LAYER_1
 10
136.518209
 20
142.609355
 30
0.0
 11
136.653447
 21
142.851503
 31
0.0
  0
LINE
  5
114
  8
LAYER_1
 10
136.653447
 20
142.851503
 30
0.0
 11
136.914994
 21
143.001426
 31
0.0
  0
LINE
  5
115
  8
LAYER_1
 10
136.914994
 20
143.001426
 30
0.0
 11
137.463097
 21
142.987612
 31
0.0
  0
LINE
  5
116
  8
LAYER_1
 10
137.463097
 20
142.987612
 30
0.0
 11
138.062857
 21
142.47965
 31
0.0
  0
LINE
  5
117
  8
LAYER_1
 10
138.062857
 20
142.47965
 30
0.0
 11
138.581498
 21
141.968159
 31
0.0
  0
LINE
  5
118
  8
LAYER_1
 10
138.581498
 20
141.968159
 30
0.0
 11
139.023157
 21
141.799765
 31
0.0
  0
LINE
  5
119
  8
LAYER_1
 10
139.023157
 20
141.799765
 30
0.0
 11
139.478411
 21
141.975174
 31
0.0
  0
LINE
  5
11A
  8
LAYER_1
 10
139.478411
 20
141.975174
 30
0.0
 11
140.03784
 21
142.495096
 31
0.0
  0
LINE
  5
11B
  8
LAYER_1
 10
140.03784
 20
142.495096
 30
0.0
 11
140.722629
 21
143.233994
 31
0.0
  0
LINE
  5
11C
  8
LAYER_1
 10
140.722629
 20
143.233994
 30
0.0
 11
140.140761
 21
143.776089
 31
0.0
  0
LINE
  5
11D
  8
LAYER_1
 10
140.140761
 20
143.776089
 30
0.0
 11
139.701255
 21
144.250893
 31
0.0
  0
LINE
  5
11E
  8
LAYER_1
 10
139.701255
 20
144.250893
 30
0.0
 11
139.626078
 21
144.583317
 31
0.0
  0
LINE
  5
11F
  8
LAYER_1
 10
139.626078
 20
144.583317
 30
0.0
 11
139.944738
 21
144.845406
 31
0.0
  0
LINE
  5
120
  8
LAYER_1
 10
139.944738
 20
144.845406
 30
0.0
 11
140.686742
 21
145.109208
 31
0.0
  0
LINE
  5
121
  8
LAYER_1
 10
140.686742
 20
145.109208
 30
0.0
 11
141.306804
 21
145.319482
 31
0.0
  0
LINE
  5
122
  8
LAYER_1
 10
141.306804
 20
145.319482
 30
0.0
 11
141.636358
 21
145.542135
 31
0.0
  0
LINE
  5
123
  8
LAYER_1
 10
141.636358
 20
145.542135
 30
0.0
 11
141.755688
 21
145.876851
 31
0.0
  0
LINE
  5
124
  8
LAYER_1
 10
141.755688
 20
145.876851
 30
0.0
 11
141.745075
 21
146.423316
 31
0.0
  0
LINE
  5
125
  8
LAYER_1
 10
141.745075
 20
146.423316
 30
0.0
 11
141.594355
 21
147.119828
 31
0.0
  0
LINE
  5
126
  8
LAYER_1
 10
141.594355
 20
147.119828
 30
0.0
 11
141.322778
 21
147.400073
 31
0.0
  0
LINE
  5
127
  8
LAYER_1
 10
141.322778
 20
147.400073
 30
0.0
 11
141.073628
 21
147.607731
 31
0.0
  0
LINE
  5
128
  8
LAYER_1
 10
141.073628
 20
147.607731
 30
0.0
 11
140.97
 21
148.106196
 31
0.0
  0
LINE
  5
129
  8
LAYER_1
 10
140.97
 20
148.106196
 30
0.0
 11
141.037057
 21
148.604495
 31
0.0
  0
LINE
  5
12A
  8
LAYER_1
 10
141.037057
 20
148.604495
 30
0.0
 11
141.198281
 21
148.811752
 31
0.0
  0
LINE
  5
12B
  8
LAYER_1
 10
141.198281
 20
148.811752
 30
0.0
 11
141.958715
 21
149.200871
 31
0.0
  0
LINE
  5
12C
  8
LAYER_1
 10
141.958715
 20
149.200871
 30
0.0
 11
142.347562
 21
149.642479
 31
0.0
  0
LINE
  5
12D
  8
LAYER_1
 10
142.347562
 20
149.642479
 30
0.0
 11
141.987346
 21
150.358457
 31
0.0
  0
LINE
  5
12E
  8
LAYER_1
 10
141.987346
 20
150.358457
 30
0.0
 11
141.712643
 21
150.813281
 31
0.0
  0
LINE
  5
12F
  8
LAYER_1
 10
141.712643
 20
150.813281
 30
0.0
 11
141.652576
 21
151.135477
 31
0.0
  0
LINE
  5
130
  8
LAYER_1
 10
141.652576
 20
151.135477
 30
0.0
 11
142.283355
 21
151.961448
 31
0.0
  0
LINE
  5
131
  8
LAYER_1
 10
142.283355
 20
151.961448
 30
0.0
 11
143.041613
 21
152.618455
 31
0.0
  0
LINE
  5
132
  8
LAYER_1
 10
143.041613
 20
152.618455
 30
0.0
 11
143.268958
 21
152.53743
 31
0.0
  0
LINE
  5
133
  8
LAYER_1
 10
143.268958
 20
152.53743
 30
0.0
 11
143.553344
 21
152.214974
 31
0.0
  0
LINE
  5
134
  8
LAYER_1
 10
143.553344
 20
152.214974
 30
0.0
 11
144.31233
 21
151.633974
 31
0.0
  0
LINE
  5
135
  8
LAYER_1
 10
144.31233
 20
151.633974
 30
0.0
 11
144.571755
 21
151.467493
 31
0.0
  0
LINE
  5
136
  8
LAYER_1
 10
144.571755
 20
151.467493
 30
0.0
 11
144.771277
 21
151.072642
 31
0.0
  0
LINE
  5
137
  8
LAYER_1
 10
144.771277
 20
151.072642
 30
0.0
 11
144.858633
 21
150.606311
 31
0.0
  0
LINE
  5
138
  8
LAYER_1
 10
144.858633
 20
150.606311
 30
0.0
 11
144.781561
 21
150.225389
 31
0.0
  0
LINE
  5
139
  8
LAYER_1
 10
144.781561
 20
150.225389
 30
0.0
 11
144.198899
 21
149.940641
 31
0.0
  0
LINE
  5
13A
  8
LAYER_1
 10
144.198899
 20
149.940641
 30
0.0
 11
143.887475
 21
149.851741
 31
0.0
  0
LINE
  5
13B
  8
LAYER_1
 10
143.887475
 20
149.851741
 30
0.0
 11
143.804904
 21
149.641908
 31
0.0
  0
LINE
  5
13C
  8
LAYER_1
 10
143.804904
 20
149.641908
 30
0.0
 11
143.941134
 21
149.396441
 31
0.0
  0
LINE
  5
13D
  8
LAYER_1
 10
143.941134
 20
149.396441
 30
0.0
 11
144.286111
 21
149.200637
 31
0.0
  0
LINE
  5
13E
  8
LAYER_1
 10
144.286111
 20
149.200637
 30
0.0
 11
145.701925
 21
148.552303
 31
0.0
  0
LINE
  5
13F
  8
LAYER_1
 10
145.701925
 20
148.552303
 30
0.0
 11
145.932533
 21
148.189517
 31
0.0
  0
LINE
  5
140
  8
LAYER_1
 10
145.932533
 20
148.189517
 30
0.0
 11
145.913001
 21
147.739875
 31
0.0
  0
LINE
  5
141
  8
LAYER_1
 10
145.913001
 20
147.739875
 30
0.0
 11
145.868142
 21
147.250022
 31
0.0
  0
LINE
  5
142
  8
LAYER_1
 10
145.868142
 20
147.250022
 30
0.0
 11
146.108245
 21
147.186183
 31
0.0
  0
LINE
  5
143
  8
LAYER_1
 10
146.108245
 20
147.186183
 30
0.0
 11
146.517128
 21
147.025975
 31
0.0
  0
LINE
  5
144
  8
LAYER_1
 10
146.517128
 20
147.025975
 30
0.0
 11
146.987511
 21
146.468063
 31
0.0
  0
LINE
  5
145
  8
LAYER_1
 10
146.987511
 20
146.468063
 30
0.0
 11
147.304143
 21
145.712131
 31
0.0
  0
LINE
  5
146
  8
LAYER_1
 10
147.304143
 20
145.712131
 30
0.0
 11
147.150083
 21
145.239932
 31
0.0
  0
LINE
  5
147
  8
LAYER_1
 10
147.150083
 20
145.239932
 30
0.0
 11
146.519096
 21
145.046176
 31
0.0
  0
LINE
  5
148
  8
LAYER_1
 10
146.519096
 20
145.046176
 30
0.0
 11
145.404947
 21
145.125574
 31
0.0
  0
LINE
  5
149
  8
LAYER_1
 10
145.404947
 20
145.125574
 30
0.0
 11
144.456031
 21
145.211212
 31
0.0
  0
LINE
  5
14A
  8
LAYER_1
 10
144.456031
 20
145.211212
 30
0.0
 11
143.970673
 21
145.128901
 31
0.0
  0
LINE
  5
14B
  8
LAYER_1
 10
143.970673
 20
145.128901
 30
0.0
 11
144.010311
 21
144.918928
 31
0.0
  0
LINE
  5
14C
  8
LAYER_1
 10
144.010311
 20
144.918928
 30
0.0
 11
144.63638
 21
144.621582
 31
0.0
  0
LINE
  5
14D
  8
LAYER_1
 10
144.63638
 20
144.621582
 30
0.0
 11
145.4402
 21
144.205809
 31
0.0
  0
LINE
  5
14E
  8
LAYER_1
 10
145.4402
 20
144.205809
 30
0.0
 11
146.188317
 21
143.619092
 31
0.0
  0
LINE
  5
14F
  8
LAYER_1
 10
146.188317
 20
143.619092
 30
0.0
 11
146.973061
 21
143.065395
 31
0.0
  0
LINE
  5
150
  8
LAYER_1
 10
146.973061
 20
143.065395
 30
0.0
 11
147.864946
 21
142.729011
 31
0.0
  0
LINE
  5
151
  8
LAYER_1
 10
147.864946
 20
142.729011
 30
0.0
 11
148.582913
 21
142.505725
 31
0.0
  0
LINE
  5
152
  8
LAYER_1
 10
148.582913
 20
142.505725
 30
0.0
 11
148.937152
 21
142.166506
 31
0.0
  0
LINE
  5
153
  8
LAYER_1
 10
148.937152
 20
142.166506
 30
0.0
 11
148.932609
 21
141.69996
 31
0.0
  0
LINE
  5
154
  8
LAYER_1
 10
148.932609
 20
141.69996
 30
0.0
 11
148.574229
 21
141.094693
 31
0.0
  0
LINE
  5
155
  8
LAYER_1
 10
148.574229
 20
141.094693
 30
0.0
 11
148.059516
 21
140.250401
 31
0.0
  0
LINE
  5
156
  8
LAYER_1
 10
148.059516
 20
140.250401
 30
0.0
 11
148.191826
 21
140.100945
 31
0.0
  0
LINE
  5
157
  8
LAYER_1
 10
148.191826
 20
140.100945
 30
0.0
 11
148.584624
 21
140.062863
 31
0.0
  0
LINE
  5
158
  8
LAYER_1
 10
148.584624
 20
140.062863
 30
0.0
 11
149.044954
 21
139.881224
 31
0.0
  0
LINE
  5
159
  8
LAYER_1
 10
149.044954
 20
139.881224
 30
0.0
 11
149.320284
 21
139.359258
 31
0.0
  0
LINE
  5
15A
  8
LAYER_1
 10
149.320284
 20
139.359258
 30
0.0
 11
149.506849
 21
138.90056
 31
0.0
  0
LINE
  5
15B
  8
LAYER_1
 10
149.506849
 20
138.90056
 30
0.0
 11
149.707417
 21
138.785773
 31
0.0
  0
LINE
  5
15C
  8
LAYER_1
 10
149.707417
 20
138.785773
 30
0.0
 11
150.011516
 21
138.764034
 31
0.0
  0
LINE
  5
15D
  8
LAYER_1
 10
150.011516
 20
138.764034
 30
0.0
 11
150.447
 21
138.529047
 31
0.0
  0
LINE
  5
15E
  8
LAYER_1
 10
150.447
 20
138.529047
 30
0.0
 11
150.780293
 21
138.003348
 31
0.0
  0
LINE
  5
15F
  8
LAYER_1
 10
150.780293
 20
138.003348
 30
0.0
 11
150.7277
 21
137.349138
 31
0.0
  0
LINE
  5
160
  8
LAYER_1
 10
150.7277
 20
137.349138
 30
0.0
 11
150.352097
 21
136.750397
 31
0.0
  0
LINE
  5
161
  8
LAYER_1
 10
150.352097
 20
136.750397
 30
0.0
 11
149.716357
 21
136.391104
 31
0.0
  0
LINE
  5
162
  8
LAYER_1
 10
149.716357
 20
136.391104
 30
0.0
 11
149.160299
 21
136.021771
 31
0.0
  0
LINE
  5
163
  8
LAYER_1
 10
149.160299
 20
136.021771
 30
0.0
 11
148.970436
 21
135.400232
 31
0.0
  0
LINE
  5
164
  8
LAYER_1
 10
148.970436
 20
135.400232
 30
0.0
 11
149.148574
 21
134.725975
 31
0.0
  0
LINE
  5
165
  8
LAYER_1
 10
149.148574
 20
134.725975
 30
0.0
 11
149.696517
 21
134.198491
 31
0.0
  0
LINE
  5
166
  8
LAYER_1
 10
149.696517
 20
134.198491
 30
0.0
 11
150.284317
 21
133.9957
 31
0.0
  0
LINE
  5
167
  8
LAYER_1
 10
150.284317
 20
133.9957
 30
0.0
 11
150.670184
 21
134.127936
 31
0.0
  0
LINE
  5
168
  8
LAYER_1
 10
150.670184
 20
134.127936
 30
0.0
 11
151.075643
 21
134.338586
 31
0.0
  0
LINE
  5
169
  8
LAYER_1
 10
151.075643
 20
134.338586
 30
0.0
 11
151.604291
 21
134.410849
 31
0.0
  0
LINE
  5
16A
  8
LAYER_1
 10
151.604291
 20
134.410849
 30
0.0
 11
152.063062
 21
134.34372
 31
0.0
  0
LINE
  5
16B
  8
LAYER_1
 10
152.063062
 20
134.34372
 30
0.0
 11
152.258889
 21
134.136196
 31
0.0
  0
LINE
  5
16C
  8
LAYER_1
 10
152.258889
 20
134.136196
 30
0.0
 11
152.538898
 21
133.936877
 31
0.0
  0
LINE
  5
16D
  8
LAYER_1
 10
152.538898
 20
133.936877
 30
0.0
 11
153.212111
 21
133.853974
 31
0.0
  0
LINE
  5
16E
  8
LAYER_1
 10
153.212111
 20
133.853974
 30
0.0
 11
154.22533
 21
133.613041
 31
0.0
  0
LINE
  5
16F
  8
LAYER_1
 10
154.22533
 20
133.613041
 30
0.0
 11
154.534075
 21
133.349491
 31
0.0
  0
LINE
  5
170
  8
LAYER_1
 10
154.534075
 20
133.349491
 30
0.0
 11
154.701794
 21
133.023987
 31
0.0
  0
LINE
  5
171
  8
LAYER_1
 10
154.701794
 20
133.023987
 30
0.0
 11
154.721649
 21
132.661606
 31
0.0
  0
LINE
  5
172
  8
LAYER_1
 10
154.721649
 20
132.661606
 30
0.0
 11
154.5868
 21
132.287426
 31
0.0
  0
LINE
  5
173
  8
LAYER_1
 10
154.5868
 20
132.287426
 30
0.0
 11
153.825643
 21
131.603974
 31
0.0
  0
LINE
  5
174
  8
LAYER_1
 10
153.825643
 20
131.603974
 30
0.0
 11
153.143974
 21
131.239154
 31
0.0
  0
LINE
  5
175
  8
LAYER_1
 10
153.143974
 20
131.239154
 30
0.0
 11
153.701513
 21
130.485042
 31
0.0
  0
LINE
  5
176
  8
LAYER_1
 10
153.701513
 20
130.485042
 30
0.0
 11
154.099899
 21
129.584384
 31
0.0
  0
LINE
  5
177
  8
LAYER_1
 10
154.099899
 20
129.584384
 30
0.0
 11
154.069149
 21
129.236131
 31
0.0
  0
LINE
  5
178
  8
LAYER_1
 10
154.069149
 20
129.236131
 30
0.0
 11
153.909261
 21
128.978742
 31
0.0
  0
LINE
  5
179
  8
LAYER_1
 10
153.909261
 20
128.978742
 30
0.0
 11
153.274543
 21
128.804989
 31
0.0
  0
LINE
  5
17A
  8
LAYER_1
 10
153.274543
 20
128.804989
 30
0.0
 11
152.340691
 21
129.199997
 31
0.0
  0
LINE
  5
17B
  8
LAYER_1
 10
152.340691
 20
129.199997
 30
0.0
 11
151.807568
 21
129.451544
 31
0.0
  0
LINE
  5
17C
  8
LAYER_1
 10
151.807568
 20
129.451544
 30
0.0
 11
151.642894
 21
128.847222
 31
0.0
  0
LINE
  5
17D
  8
LAYER_1
 10
151.642894
 20
128.847222
 30
0.0
 11
151.409545
 21
128.237135
 31
0.0
  0
LINE
  5
17E
  8
LAYER_1
 10
151.409545
 20
128.237135
 30
0.0
 11
150.978191
 21
127.966791
 31
0.0
  0
LINE
  5
17F
  8
LAYER_1
 10
150.978191
 20
127.966791
 30
0.0
 11
150.485773
 21
128.062133
 31
0.0
  0
LINE
  5
180
  8
LAYER_1
 10
150.485773
 20
128.062133
 30
0.0
 11
150.069231
 21
128.549102
 31
0.0
  0
LINE
  5
181
  8
LAYER_1
 10
150.069231
 20
128.549102
 30
0.0
 11
149.795707
 21
129.004414
 31
0.0
  0
LINE
  5
182
  8
LAYER_1
 10
149.795707
 20
129.004414
 30
0.0
 11
149.73799
 21
128.381753
 31
0.0
  0
LINE
  5
183
  8
LAYER_1
 10
149.73799
 20
128.381753
 30
0.0
 11
149.848924
 21
127.720839
 31
0.0
  0
LINE
  5
184
  8
LAYER_1
 10
149.848924
 20
127.720839
 30
0.0
 11
150.205441
 21
127.228803
 31
0.0
  0
LINE
  5
185
  8
LAYER_1
 10
150.205441
 20
127.228803
 30
0.0
 11
150.791069
 21
126.919652
 31
0.0
  0
LINE
  5
186
  8
LAYER_1
 10
150.791069
 20
126.919652
 30
0.0
 11
151.589334
 21
126.807393
 31
0.0
  0
LINE
  5
187
  8
LAYER_1
 10
151.589334
 20
126.807393
 30
0.0
 11
152.366878
 21
126.687315
 31
0.0
  0
LINE
  5
188
  8
LAYER_1
 10
152.366878
 20
126.687315
 30
0.0
 11
152.837945
 21
126.371062
 31
0.0
  0
LINE
  5
189
  8
LAYER_1
 10
152.837945
 20
126.371062
 30
0.0
 11
152.973482
 21
125.89651
 31
0.0
  0
LINE
  5
18A
  8
LAYER_1
 10
152.973482
 20
125.89651
 30
0.0
 11
152.744435
 21
125.301534
 31
0.0
  0
LINE
  5
18B
  8
LAYER_1
 10
152.744435
 20
125.301534
 30
0.0
 11
152.491456
 21
124.640095
 31
0.0
  0
LINE
  5
18C
  8
LAYER_1
 10
152.491456
 20
124.640095
 30
0.0
 11
152.467124
 21
123.929253
 31
0.0
  0
LINE
  5
18D
  8
LAYER_1
 10
152.467124
 20
123.929253
 30
0.0
 11
152.647882
 21
123.361551
 31
0.0
  0
LINE
  5
18E
  8
LAYER_1
 10
152.647882
 20
123.361551
 30
0.0
 11
153.010173
 21
123.12953
 31
0.0
  0
LINE
  5
18F
  8
LAYER_1
 10
153.010173
 20
123.12953
 30
0.0
 11
153.506894
 21
123.341448
 31
0.0
  0
LINE
  5
190
  8
LAYER_1
 10
153.506894
 20
123.341448
 30
0.0
 11
154.13486
 21
123.850954
 31
0.0
  0
LINE
  5
191
  8
LAYER_1
 10
154.13486
 20
123.850954
 30
0.0
 11
154.799875
 21
124.333959
 31
0.0
  0
LINE
  5
192
  8
LAYER_1
 10
154.799875
 20
124.333959
 30
0.0
 11
155.424141
 21
124.480093
 31
0.0
  0
LINE
  5
193
  8
LAYER_1
 10
155.424141
 20
124.480093
 30
0.0
 11
155.909436
 21
124.292983
 31
0.0
  0
LINE
  5
194
  8
LAYER_1
 10
155.909436
 20
124.292983
 30
0.0
 11
156.157538
 21
123.776256
 31
0.0
  0
LINE
  5
195
  8
LAYER_1
 10
156.157538
 20
123.776256
 30
0.0
 11
156.46654
 21
123.221169
 31
0.0
  0
LINE
  5
196
  8
LAYER_1
 10
156.46654
 20
123.221169
 30
0.0
 11
157.215871
 21
122.802338
 31
0.0
  0
LINE
  5
197
  8
LAYER_1
 10
157.215871
 20
122.802338
 30
0.0
 11
157.900711
 21
122.432799
 31
0.0
  0
LINE
  5
198
  8
LAYER_1
 10
157.900711
 20
122.432799
 30
0.0
 11
158.185556
 21
122.036723
 31
0.0
  0
LINE
  5
199
  8
LAYER_1
 10
158.185556
 20
122.036723
 30
0.0
 11
158.314455
 21
121.601218
 31
0.0
  0
LINE
  5
19A
  8
LAYER_1
 10
158.314455
 20
121.601218
 30
0.0
 11
158.62436
 21
121.136877
 31
0.0
  0
LINE
  5
19B
  8
LAYER_1
 10
158.62436
 20
121.136877
 30
0.0
 11
158.841928
 21
120.852969
 31
0.0
  0
LINE
  5
19C
  8
LAYER_1
 10
158.841928
 20
120.852969
 30
0.0
 11
158.881381
 21
120.607097
 31
0.0
  0
LINE
  5
19D
  8
LAYER_1
 10
158.881381
 20
120.607097
 30
0.0
 11
158.350097
 21
119.882585
 31
0.0
  0
LINE
  5
19E
  8
LAYER_1
 10
158.350097
 20
119.882585
 30
0.0
 11
157.587583
 21
119.30047
 31
0.0
  0
LINE
  5
19F
  8
LAYER_1
 10
157.587583
 20
119.30047
 30
0.0
 11
156.732851
 21
119.067697
 31
0.0
  0
LINE
  5
1A0
  8
LAYER_1
 10
156.732851
 20
119.067697
 30
0.0
 11
156.087808
 21
118.946274
 31
0.0
  0
LINE
  5
1A1
  8
LAYER_1
 10
156.087808
 20
118.946274
 30
0.0
 11
155.750219
 21
118.677472
 31
0.0
  0
LINE
  5
1A2
  8
LAYER_1
 10
155.750219
 20
118.677472
 30
0.0
 11
155.732598
 21
118.284606
 31
0.0
  0
LINE
  5
1A3
  8
LAYER_1
 10
155.732598
 20
118.284606
 30
0.0
 11
156.04746
 21
117.790989
 31
0.0
  0
LINE
  5
1A4
  8
LAYER_1
 10
156.04746
 20
117.790989
 30
0.0
 11
156.355667
 21
117.178571
 31
0.0
  0
LINE
  5
1A5
  8
LAYER_1
 10
156.355667
 20
117.178571
 30
0.0
 11
156.440988
 21
116.41281
 31
0.0
  0
LINE
  5
1A6
  8
LAYER_1
 10
156.440988
 20
116.41281
 30
0.0
 11
156.537448
 21
115.616694
 31
0.0
  0
LINE
  5
1A7
  8
LAYER_1
 10
156.537448
 20
115.616694
 30
0.0
 11
156.913326
 21
114.947549
 31
0.0
  0
LINE
  5
1A8
  8
LAYER_1
 10
156.913326
 20
114.947549
 30
0.0
 11
157.298316
 21
114.301582
 31
0.0
  0
LINE
  5
1A9
  8
LAYER_1
 10
157.298316
 20
114.301582
 30
0.0
 11
157.118513
 21
113.468956
 31
0.0
  0
LINE
  5
1AA
  8
LAYER_1
 10
157.118513
 20
113.468956
 30
0.0
 11
156.956075
 21
112.579815
 31
0.0
  0
LINE
  5
1AB
  8
LAYER_1
 10
156.956075
 20
112.579815
 30
0.0
 11
157.485311
 21
111.66748
 31
0.0
  0
LINE
  5
1AC
  8
LAYER_1
 10
157.485311
 20
111.66748
 30
0.0
 11
157.979859
 21
110.891811
 31
0.0
  0
LINE
  5
1AD
  8
LAYER_1
 10
157.979859
 20
110.891811
 30
0.0
 11
158.185556
 21
110.316107
 31
0.0
  0
LINE
  5
1AE
  8
LAYER_1
 10
158.185556
 20
110.316107
 30
0.0
 11
158.29931
 21
110.073232
 31
0.0
  0
LINE
  5
1AF
  8
LAYER_1
 10
158.29931
 20
110.073232
 30
0.0
 11
158.606495
 21
110.040843
 31
0.0
  0
LINE
  5
1B0
  8
LAYER_1
 10
158.606495
 20
110.040843
 30
0.0
 11
159.596667
 21
110.570641
 31
0.0
  0
LINE
  5
1B1
  8
LAYER_1
 10
159.596667
 20
110.570641
 30
0.0
 11
160.160113
 21
110.937751
 31
0.0
  0
LINE
  5
1B2
  8
LAYER_1
 10
160.160113
 20
110.937751
 30
0.0
 11
160.66836
 21
111.083297
 31
0.0
  0
LINE
  5
1B3
  8
LAYER_1
 10
160.66836
 20
111.083297
 30
0.0
 11
161.14884
 21
111.009264
 31
0.0
  0
LINE
  5
1B4
  8
LAYER_1
 10
161.14884
 20
111.009264
 30
0.0
 11
161.628986
 21
110.717636
 31
0.0
  0
LINE
  5
1B5
  8
LAYER_1
 10
161.628986
 20
110.717636
 30
0.0
 11
162.0783
 21
110.221543
 31
0.0
  0
LINE
  5
1B6
  8
LAYER_1
 10
162.0783
 20
110.221543
 30
0.0
 11
161.925
 21
109.828673
 31
0.0
  0
LINE
  5
1B7
  8
LAYER_1
 10
161.925
 20
109.828673
 30
0.0
 11
161.662114
 21
109.453639
 31
0.0
  0
LINE
  5
1B8
  8
LAYER_1
 10
161.662114
 20
109.453639
 30
0.0
 11
161.585725
 21
109.100804
 31
0.0
  0
LINE
  5
1B9
  8
LAYER_1
 10
161.585725
 20
109.100804
 30
0.0
 11
161.692448
 21
108.838784
 31
0.0
  0
LINE
  5
1BA
  8
LAYER_1
 10
161.692448
 20
108.838784
 30
0.0
 11
161.978899
 21
108.736196
 31
0.0
  0
LINE
  5
1BB
  8
LAYER_1
 10
161.978899
 20
108.736196
 30
0.0
 11
162.382593
 21
108.645816
 31
0.0
  0
LINE
  5
1BC
  8
LAYER_1
 10
162.382593
 20
108.645816
 30
0.0
 11
162.547932
 21
108.401426
 31
0.0
  0
LINE
  5
1BD
  8
LAYER_1
 10
162.547932
 20
108.401426
 30
0.0
 11
162.469153
 21
108.043156
 31
0.0
  0
LINE
  5
1BE
  8
LAYER_1
 10
162.469153
 20
108.043156
 30
0.0
 11
162.140494
 21
107.611134
 31
0.0
  0
LINE
  5
1BF
  8
LAYER_1
 10
162.140494
 20
107.611134
 30
0.0
 11
161.733919
 21
107.030945
 31
0.0
  0
LINE
  5
1C0
  8
LAYER_1
 10
161.733919
 20
107.030945
 30
0.0
 11
161.867562
 21
106.45391
 31
0.0
  0
LINE
  5
1C1
  8
LAYER_1
 10
161.867562
 20
106.45391
 30
0.0
 11
162.012143
 21
106.030148
 31
0.0
  0
LINE
  5
1C2
  8
LAYER_1
 10
162.012143
 20
106.030148
 30
0.0
 11
161.985097
 21
105.66947
 31
0.0
  0
LINE
  5
1C3
  8
LAYER_1
 10
161.985097
 20
105.66947
 30
0.0
 11
161.544791
 21
105.194621
 31
0.0
  0
LINE
  5
1C4
  8
LAYER_1
 10
161.544791
 20
105.194621
 30
0.0
 11
160.80398
 21
105.143878
 31
0.0
  0
LINE
  5
1C5
  8
LAYER_1
 10
160.80398
 20
105.143878
 30
0.0
 11
160.02
 21
105.631752
 31
0.0
  0
LINE
  5
1C6
  8
LAYER_1
 10
160.02
 20
105.631752
 30
0.0
 11
159.539143
 21
106.030391
 31
0.0
  0
LINE
  5
1C7
  8
LAYER_1
 10
159.539143
 20
106.030391
 30
0.0
 11
159.100356
 21
106.196196
 31
0.0
  0
LINE
  5
1C8
  8
LAYER_1
 10
159.100356
 20
106.196196
 30
0.0
 11
158.978904
 21
106.132581
 31
0.0
  0
LINE
  5
1C9
  8
LAYER_1
 10
158.978904
 20
106.132581
 30
0.0
 11
159.017055
 21
105.943423
 31
0.0
  0
LINE
  5
1CA
  8
LAYER_1
 10
159.017055
 20
105.943423
 30
0.0
 11
159.567431
 21
105.198597
 31
0.0
  0
LINE
  5
1CB
  8
LAYER_1
 10
159.567431
 20
105.198597
 30
0.0
 11
160.186037
 21
104.389156
 31
0.0
  0
LINE
  5
1CC
  8
LAYER_1
 10
160.186037
 20
104.389156
 30
0.0
 11
160.443333
 21
103.84393
 31
0.0
  0
LINE
  5
1CD
  8
LAYER_1
 10
160.443333
 20
103.84393
 30
0.0
 11
160.340781
 21
103.463921
 31
0.0
  0
LINE
  5
1CE
  8
LAYER_1
 10
160.340781
 20
103.463921
 30
0.0
 11
160.070345
 21
103.132611
 31
0.0
  0
LINE
  5
1CF
  8
LAYER_1
 10
160.070345
 20
103.132611
 30
0.0
 11
159.687856
 21
102.89836
 31
0.0
  0
LINE
  5
1D0
  8
LAYER_1
 10
159.687856
 20
102.89836
 30
0.0
 11
159.249144
 21
102.80953
 31
0.0
  0
LINE
  5
1D1
  8
LAYER_1
 10
159.249144
 20
102.80953
 30
0.0
 11
158.838852
 21
102.691585
 31
0.0
  0
LINE
  5
1D2
  8
LAYER_1
 10
158.838852
 20
102.691585
 30
0.0
 11
158.578211
 21
102.408018
 31
0.0
  0
LINE
  5
1D3
  8
LAYER_1
 10
158.578211
 20
102.408018
 30
0.0
 11
158.357932
 21
102.079127
 31
0.0
  0
LINE
  5
1D4
  8
LAYER_1
 10
158.357932
 20
102.079127
 30
0.0
 11
158.021539
 21
101.865255
 31
0.0
  0
LINE
  5
1D5
  8
LAYER_1
 10
158.021539
 20
101.865255
 30
0.0
 11
157.618374
 21
101.785961
 31
0.0
  0
LINE
  5
1D6
  8
LAYER_1
 10
157.618374
 20
101.785961
 30
0.0
 11
157.197778
 21
101.860803
 31
0.0
  0
LINE
  5
1D7
  8
LAYER_1
 10
157.197778
 20
101.860803
 30
0.0
 11
156.878336
 21
102.28765
 31
0.0
  0
LINE
  5
1D8
  8
LAYER_1
 10
156.878336
 20
102.28765
 30
0.0
 11
156.774444
 21
103.263058
 31
0.0
  0
LINE
  5
1D9
  8
LAYER_1
 10
156.774444
 20
103.263058
 30
0.0
 11
156.734558
 21
104.02759
 31
0.0
  0
LINE
  5
1DA
  8
LAYER_1
 10
156.734558
 20
104.02759
 30
0.0
 11
156.60056
 21
104.414574
 31
0.0
  0
LINE
  5
1DB
  8
LAYER_1
 10
156.60056
 20
104.414574
 30
0.0
 11
156.35094
 21
104.447557
 31
0.0
  0
LINE
  5
1DC
  8
LAYER_1
 10
156.35094
 20
104.447557
 30
0.0
 11
155.96419
 21
104.150085
 31
0.0
  0
LINE
  5
1DD
  8
LAYER_1
 10
155.96419
 20
104.150085
 30
0.0
 11
155.570075
 21
103.998314
 31
0.0
  0
LINE
  5
1DE
  8
LAYER_1
 10
155.570075
 20
103.998314
 30
0.0
 11
155.068961
 21
104.453835
 31
0.0
  0
LINE
  5
1DF
  8
LAYER_1
 10
155.068961
 20
104.453835
 30
0.0
 11
154.608443
 21
104.86708
 31
0.0
  0
LINE
  5
1E0
  8
LAYER_1
 10
154.608443
 20
104.86708
 30
0.0
 11
154.254654
 21
104.938687
 31
0.0
  0
LINE
  5
1E1
  8
LAYER_1
 10
154.254654
 20
104.938687
 30
0.0
 11
154.077036
 21
104.684123
 31
0.0
  0
LINE
  5
1E2
  8
LAYER_1
 10
154.077036
 20
104.684123
 30
0.0
 11
154.15719
 21
104.353063
 31
0.0
  0
LINE
  5
1E3
  8
LAYER_1
 10
154.15719
 20
104.353063
 30
0.0
 11
154.461294
 21
104.005262
 31
0.0
  0
LINE
  5
1E4
  8
LAYER_1
 10
154.461294
 20
104.005262
 30
0.0
 11
154.955525
 21
103.700474
 31
0.0
  0
LINE
  5
1E5
  8
LAYER_1
 10
154.955525
 20
103.700474
 30
0.0
 11
155.37108
 21
103.405639
 31
0.0
  0
LINE
  5
1E6
  8
LAYER_1
 10
155.37108
 20
103.405639
 30
0.0
 11
155.597884
 21
102.991533
 31
0.0
  0
LINE
  5
1E7
  8
LAYER_1
 10
155.597884
 20
102.991533
 30
0.0
 11
155.63319
 21
102.467988
 31
0.0
  0
LINE
  5
1E8
  8
LAYER_1
 10
155.63319
 20
102.467988
 30
0.0
 11
155.474249
 21
101.844835
 31
0.0
  0
LINE
  5
1E9
  8
LAYER_1
 10
155.474249
 20
101.844835
 30
0.0
 11
155.098508
 21
101.514488
 31
0.0
  0
LINE
  5
1EA
  8
LAYER_1
 10
155.098508
 20
101.514488
 30
0.0
 11
154.345361
 21
101.398418
 31
0.0
  0
LINE
  5
1EB
  8
LAYER_1
 10
154.345361
 20
101.398418
 30
0.0
 11
153.669068
 21
101.319283
 31
0.0
  0
LINE
  5
1EC
  8
LAYER_1
 10
153.669068
 20
101.319283
 30
0.0
 11
153.387778
 21
101.129023
 31
0.0
  0
LINE
  5
1ED
  8
LAYER_1
 10
153.387778
 20
101.129023
 30
0.0
 11
152.669395
 21
100.141245
 31
0.0
  0
LINE
  5
1EE
  8
LAYER_1
 10
152.669395
 20
100.141245
 30
0.0
 11
152.12279
 21
99.693904
 31
0.0
  0
LINE
  5
1EF
  8
LAYER_1
 10
152.12279
 20
99.693904
 30
0.0
 11
151.627631
 21
99.456119
 31
0.0
  0
LINE
  5
1F0
  8
LAYER_1
 10
151.627631
 20
99.456119
 30
0.0
 11
151.268505
 21
99.451857
 31
0.0
  0
LINE
  5
1F1
  8
LAYER_1
 10
151.268505
 20
99.451857
 30
0.0
 11
151.13
 21
99.705085
 31
0.0
  0
LINE
  5
1F2
  8
LAYER_1
 10
151.13
 20
99.705085
 30
0.0
 11
151.047097
 21
99.904405
 31
0.0
  0
LINE
  5
1F3
  8
LAYER_1
 10
151.047097
 20
99.904405
 30
0.0
 11
150.847778
 21
99.987307
 31
0.0
  0
LINE
  5
1F4
  8
LAYER_1
 10
150.847778
 20
99.987307
 30
0.0
 11
150.648458
 21
99.869862
 31
0.0
  0
LINE
  5
1F5
  8
LAYER_1
 10
150.648458
 20
99.869862
 30
0.0
 11
150.565556
 21
99.587492
 31
0.0
  0
LINE
  5
1F6
  8
LAYER_1
 10
150.565556
 20
99.587492
 30
0.0
 11
150.472648
 21
99.274154
 31
0.0
  0
LINE
  5
1F7
  8
LAYER_1
 10
150.472648
 20
99.274154
 30
0.0
 11
150.249275
 21
99.082252
 31
0.0
  0
LINE
  5
1F8
  8
LAYER_1
 10
150.249275
 20
99.082252
 30
0.0
 11
150.91275
 21
99.00062
 31
0.0
  0
LINE
  5
1F9
  8
LAYER_1
 10
150.91275
 20
99.00062
 30
0.0
 11
152.952049
 21
98.952401
 31
0.0
  0
LINE
  5
1FA
  8
LAYER_1
 10
152.952049
 20
98.952401
 30
0.0
 11
155.194848
 21
98.84907699999999
 31
0.0
  0
LINE
  5
1FB
  8
LAYER_1
 10
155.194848
 20
98.84907699999999
 30
0.0
 11
156.271832
 21
98.627253
 31
0.0
  0
LINE
  5
1FC
  8
LAYER_1
 10
156.271832
 20
98.627253
 30
0.0
 11
156.720624
 21
98.56383099999999
 31
0.0
  0
LINE
  5
1FD
  8
LAYER_1
 10
156.720624
 20
98.56383099999999
 30
0.0
 11
157.504378
 21
99.03726
 31
0.0
  0
LINE
  5
1FE
  8
LAYER_1
 10
157.504378
 20
99.03726
 30
0.0
 11
158.4362
 21
99.747991
 31
0.0
  0
LINE
  5
1FF
  8
LAYER_1
 10
158.4362
 20
99.747991
 30
0.0
 11
158.802098
 21
99.16209499999999
 31
0.0
  0
LINE
  5
200
  8
LAYER_1
 10
158.802098
 20
99.16209499999999
 30
0.0
 11
159.158018
 21
98.74830400000001
 31
0.0
  0
LINE
  5
201
  8
LAYER_1
 10
159.158018
 20
98.74830400000001
 30
0.0
 11
159.499924
 21
98.576196
 31
0.0
  0
LINE
  5
202
  8
LAYER_1
 10
159.499924
 20
98.576196
 30
0.0
 11
159.836308
 21
98.45791199999999
 31
0.0
  0
LINE
  5
203
  8
LAYER_1
 10
159.836308
 20
98.45791199999999
 30
0.0
 11
159.950481
 21
98.14892999999999
 31
0.0
  0
LINE
  5
204
  8
LAYER_1
 10
159.950481
 20
98.14892999999999
 30
0.0
 11
159.841918
 21
97.718057
 31
0.0
  0
LINE
  5
205
  8
LAYER_1
 10
159.841918
 20
97.718057
 30
0.0
 11
159.510101
 21
97.23409700000001
 31
0.0
  0
LINE
  5
206
  8
LAYER_1
 10
159.510101
 20
97.23409700000001
 30
0.0
 11
158.930933
 21
96.597556
 31
0.0
  0
LINE
  5
207
  8
LAYER_1
 10
158.930933
 20
96.597556
 30
0.0
 11
160.209286
 21
96.772774
 31
0.0
  0
LINE
  5
208
  8
LAYER_1
 10
160.209286
 20
96.772774
 30
0.0
 11
161.23104
 21
96.812881
 31
0.0
  0
LINE
  5
209
  8
LAYER_1
 10
161.23104
 20
96.812881
 30
0.0
 11
162.017338
 21
96.637855
 31
0.0
  0
LINE
  5
20A
  8
LAYER_1
 10
162.017338
 20
96.637855
 30
0.0
 11
162.522566
 21
96.266978
 31
0.0
  0
LINE
  5
20B
  8
LAYER_1
 10
162.522566
 20
96.266978
 30
0.0
 11
162.701111
 21
95.71952899999999
 31
0.0
  0
LINE
  5
20C
  8
LAYER_1
 10
162.701111
 20
95.71952899999999
 30
0.0
 11
162.485891
 21
95.203851
 31
0.0
  0
LINE
  5
20D
  8
LAYER_1
 10
162.485891
 20
95.203851
 30
0.0
 11
161.839213
 21
94.81517
 31
0.0
  0
LINE
  5
20E
  8
LAYER_1
 10
161.839213
 20
94.81517
 30
0.0
 11
161.196223
 21
94.442488
 31
0.0
  0
LINE
  5
20F
  8
LAYER_1
 10
161.196223
 20
94.442488
 30
0.0
 11
161.119168
 21
93.947391
 31
0.0
  0
LINE
  5
210
  8
LAYER_1
 10
161.119168
 20
93.947391
 30
0.0
 11
161.142073
 21
93.40801399999999
 31
0.0
  0
LINE
  5
211
  8
LAYER_1
 10
161.142073
 20
93.40801399999999
 30
0.0
 11
160.974572
 21
92.89735899999999
 31
0.0
  0
LINE
  5
212
  8
LAYER_1
 10
160.974572
 20
92.89735899999999
 30
0.0
 11
160.670272
 21
92.516699
 31
0.0
  0
LINE
  5
213
  8
LAYER_1
 10
160.670272
 20
92.516699
 30
0.0
 11
160.28278
 21
92.367307
 31
0.0
  0
LINE
  5
214
  8
LAYER_1
 10
160.28278
 20
92.367307
 30
0.0
 11
159.740977
 21
92.118599
 31
0.0
  0
LINE
  5
215
  8
LAYER_1
 10
159.740977
 20
92.118599
 30
0.0
 11
159.032222
 21
91.520641
 31
0.0
  0
LINE
  5
216
  8
LAYER_1
 10
159.032222
 20
91.520641
 30
0.0
 11
157.946333
 21
90.673974
 31
0.0
  0
LINE
  5
217
  8
LAYER_1
 10
157.946333
 20
90.673974
 30
0.0
 11
156.846115
 21
91.535164
 31
0.0
  0
LINE
  5
218
  8
LAYER_1
 10
156.846115
 20
91.535164
 30
0.0
 11
156.004141
 21
92.396354
 31
0.0
  0
LINE
  5
219
  8
LAYER_1
 10
156.004141
 20
92.396354
 30
0.0
 11
155.831904
 21
91.535164
 31
0.0
  0
LINE
  5
21A
  8
LAYER_1
 10
155.831904
 20
91.535164
 30
0.0
 11
155.529881
 21
90.81216600000001
 31
0.0
  0
LINE
  5
21B
  8
LAYER_1
 10
155.529881
 20
90.81216600000001
 30
0.0
 11
155.080069
 21
90.651093
 31
0.0
  0
LINE
  5
21C
  8
LAYER_1
 10
155.080069
 20
90.651093
 30
0.0
 11
154.560882
 21
91.03399400000001
 31
0.0
  0
LINE
  5
21D
  8
LAYER_1
 10
154.560882
 20
91.03399400000001
 30
0.0
 11
154.050735
 21
91.942916
 31
0.0
  0
LINE
  5
21E
  8
LAYER_1
 10
154.050735
 20
91.942916
 30
0.0
 11
153.536089
 21
92.88531
 31
0.0
  0
LINE
  5
21F
  8
LAYER_1
 10
153.536089
 20
92.88531
 30
0.0
 11
153.035
 21
93.21291600000001
 31
0.0
  0
LINE
  5
220
  8
LAYER_1
 10
153.035
 20
93.21291600000001
 30
0.0
 11
152.686191
 21
93.296566
 31
0.0
  0
LINE
  5
221
  8
LAYER_1
 10
152.686191
 20
93.296566
 30
0.0
 11
152.541111
 21
93.496196
 31
0.0
  0
LINE
  5
222
  8
LAYER_1
 10
152.541111
 20
93.496196
 30
0.0
 11
152.46026
 21
93.695516
 31
0.0
  0
LINE
  5
223
  8
LAYER_1
 10
152.46026
 20
93.695516
 30
0.0
 11
152.265874
 21
93.778418
 31
0.0
  0
LINE
  5
224
  8
LAYER_1
 10
152.265874
 20
93.778418
 30
0.0
 11
152.134473
 21
93.587198
 31
0.0
  0
LINE
  5
225
  8
LAYER_1
 10
152.134473
 20
93.587198
 30
0.0
 11
152.271942
 21
93.038533
 31
0.0
  0
LINE
  5
226
  8
LAYER_1
 10
152.271942
 20
93.038533
 30
0.0
 11
152.379986
 21
92.563621
 31
0.0
  0
LINE
  5
227
  8
LAYER_1
 10
152.379986
 20
92.563621
 30
0.0
 11
152.34267
 21
92.156734
 31
0.0
  0
LINE
  5
228
  8
LAYER_1
 10
152.34267
 20
92.156734
 30
0.0
 11
151.957078
 21
91.62098
 31
0.0
  0
LINE
  5
229
  8
LAYER_1
 10
151.957078
 20
91.62098
 30
0.0
 11
151.365396
 21
91.57915800000001
 31
0.0
  0
LINE
  5
22A
  8
LAYER_1
 10
151.365396
 20
91.57915800000001
 30
0.0
 11
151.070469
 21
91.789687
 31
0.0
  0
LINE
  5
22B
  8
LAYER_1
 10
151.070469
 20
91.789687
 30
0.0
 11
150.817857
 21
92.179158
 31
0.0
  0
LINE
  5
22C
  8
LAYER_1
 10
150.817857
 20
92.179158
 30
0.0
 11
150.526971
 21
92.578744
 31
0.0
  0
LINE
  5
22D
  8
LAYER_1
 10
150.526971
 20
92.578744
 30
0.0
 11
150.162442
 21
92.81500800000001
 31
0.0
  0
LINE
  5
22E
  8
LAYER_1
 10
150.162442
 20
92.81500800000001
 30
0.0
 11
149.850879
 21
92.839181
 31
0.0
  0
LINE
  5
22F
  8
LAYER_1
 10
149.850879
 20
92.839181
 30
0.0
 11
149.718889
 21
92.602492
 31
0.0
  0
LINE
  5
230
  8
LAYER_1
 10
149.718889
 20
92.602492
 30
0.0
 11
149.52874
 21
92.184755
 31
0.0
  0
LINE
  5
231
  8
LAYER_1
 10
149.52874
 20
92.184755
 30
0.0
 11
149.062693
 21
91.73858799999999
 31
0.0
  0
LINE
  5
232
  8
LAYER_1
 10
149.062693
 20
91.73858799999999
 30
0.0
 11
148.477346
 21
91.383355
 31
0.0
  0
LINE
  5
233
  8
LAYER_1
 10
148.477346
 20
91.383355
 30
0.0
 11
147.929298
 21
91.238418
 31
0.0
  0
LINE
  5
234
  8
LAYER_1
 10
147.929298
 20
91.238418
 30
0.0
 11
147.576264
 21
91.30804500000001
 31
0.0
  0
LINE
  5
235
  8
LAYER_1
 10
147.576264
 20
91.30804500000001
 30
0.0
 11
147.245532
 21
91.541681
 31
0.0
  0
LINE
  5
236
  8
LAYER_1
 10
147.245532
 20
91.541681
 30
0.0
 11
146.500573
 21
92.64953
 31
0.0
  0
LINE
  5
237
  8
LAYER_1
 10
146.500573
 20
92.64953
 30
0.0
 11
145.609999
 21
94.060641
 31
0.0
  0
LINE
  5
238
  8
LAYER_1
 10
145.609999
 20
94.060641
 30
0.0
 11
145.576679
 21
91.73230700000001
 31
0.0
  0
LINE
  5
239
  8
LAYER_1
 10
145.576679
 20
91.73230700000001
 30
0.0
 11
145.55663
 21
89.643552
 31
0.0
  0
LINE
  5
23A
  8
LAYER_1
 10
145.55663
 20
89.643552
 30
0.0
 11
145.424169
 21
89.006073
 31
0.0
  0
LINE
  5
23B
  8
LAYER_1
 10
145.424169
 20
89.006073
 30
0.0
 11
145.182793
 21
88.61517000000001
 31
0.0
  0
LINE
  5
23C
  8
LAYER_1
 10
145.182793
 20
88.61517000000001
 30
0.0
 11
144.812031
 21
88.452327
 31
0.0
  0
LINE
  5
23D
  8
LAYER_1
 10
144.812031
 20
88.452327
 30
0.0
 11
144.291415
 21
88.49902899999999
 31
0.0
  0
LINE
  5
23E
  8
LAYER_1
 10
144.291415
 20
88.49902899999999
 30
0.0
 11
142.718745
 21
89.146997
 31
0.0
  0
LINE
  5
23F
  8
LAYER_1
 10
142.718745
 20
89.146997
 30
0.0
 11
142.718745
 21
89.146997
 31
0.0
  0
LINE
  5
240
  8
LAYER_1
 10
144.78
 20
89.196628
 30
0.0
 11
144.979319
 21
90.15136800000001
 31
0.0
  0
LINE
  5
241
  8
LAYER_1
 10
144.979319
 20
90.15136800000001
 30
0.0
 11
145.062222
 21
92.155641
 31
0.0
  0
LINE
  5
242
  8
LAYER_1
 10
145.062222
 20
92.155641
 30
0.0
 11
145.141823
 21
94.15109699999999
 31
0.0
  0
LINE
  5
243
  8
LAYER_1
 10
145.141823
 20
94.15109699999999
 30
0.0
 11
145.344444
 21
94.977863
 31
0.0
  0
LINE
  5
244
  8
LAYER_1
 10
145.344444
 20
94.977863
 30
0.0
 11
145.756683
 21
94.65467
 31
0.0
  0
LINE
  5
245
  8
LAYER_1
 10
145.756683
 20
94.65467
 30
0.0
 11
146.432206
 21
93.825998
 31
0.0
  0
LINE
  5
246
  8
LAYER_1
 10
146.432206
 20
93.825998
 30
0.0
 11
147.51181
 21
92.07409800000001
 31
0.0
  0
LINE
  5
247
  8
LAYER_1
 10
147.51181
 20
92.07409800000001
 30
0.0
 11
147.770233
 21
91.908484
 31
0.0
  0
LINE
  5
248
  8
LAYER_1
 10
147.770233
 20
91.908484
 30
0.0
 11
148.378813
 21
92.058443
 31
0.0
  0
LINE
  5
249
  8
LAYER_1
 10
148.378813
 20
92.058443
 30
0.0
 11
148.923294
 21
92.389033
 31
0.0
  0
LINE
  5
24A
  8
LAYER_1
 10
148.923294
 20
92.389033
 30
0.0
 11
148.966817
 21
92.81008900000001
 31
0.0
  0
LINE
  5
24B
  8
LAYER_1
 10
148.966817
 20
92.81008900000001
 30
0.0
 11
148.920405
 21
93.188587
 31
0.0
  0
LINE
  5
24C
  8
LAYER_1
 10
148.920405
 20
93.188587
 30
0.0
 11
149.081234
 21
93.449591
 31
0.0
  0
LINE
  5
24D
  8
LAYER_1
 10
149.081234
 20
93.449591
 30
0.0
 11
149.807546
 21
93.629581
 31
0.0
  0
LINE
  5
24E
  8
LAYER_1
 10
149.807546
 20
93.629581
 30
0.0
 11
150.711619
 21
93.370987
 31
0.0
  0
LINE
  5
24F
  8
LAYER_1
 10
150.711619
 20
93.370987
 30
0.0
 11
151.09465
 21
93.08376300000001
 31
0.0
  0
LINE
  5
250
  8
LAYER_1
 10
151.09465
 20
93.08376300000001
 30
0.0
 11
151.35932
 21
92.69474200000001
 31
0.0
  0
LINE
  5
251
  8
LAYER_1
 10
151.35932
 20
92.69474200000001
 30
0.0
 11
151.609971
 21
92.214623
 31
0.0
  0
LINE
  5
252
  8
LAYER_1
 10
151.609971
 20
92.214623
 30
0.0
 11
151.532045
 21
93.00851299999999
 31
0.0
  0
LINE
  5
253
  8
LAYER_1
 10
151.532045
 20
93.00851299999999
 30
0.0
 11
151.525644
 21
93.934375
 31
0.0
  0
LINE
  5
254
  8
LAYER_1
 10
151.525644
 20
93.934375
 30
0.0
 11
151.760863
 21
94.51316799999999
 31
0.0
  0
LINE
  5
255
  8
LAYER_1
 10
151.760863
 20
94.51316799999999
 30
0.0
 11
152.172019
 21
94.67012699999999
 31
0.0
  0
LINE
  5
256
  8
LAYER_1
 10
152.172019
 20
94.67012699999999
 30
0.0
 11
152.693426
 21
94.330485
 31
0.0
  0
LINE
  5
257
  8
LAYER_1
 10
152.693426
 20
94.330485
 30
0.0
 11
153.199233
 21
93.94058800000001
 31
0.0
  0
LINE
  5
258
  8
LAYER_1
 10
153.199233
 20
93.94058800000001
 30
0.0
 11
153.713742
 21
93.778418
 31
0.0
  0
LINE
  5
259
  8
LAYER_1
 10
153.713742
 20
93.778418
 30
0.0
 11
154.087648
 21
93.716241
 31
0.0
  0
LINE
  5
25A
  8
LAYER_1
 10
154.087648
 20
93.716241
 30
0.0
 11
154.255416
 21
93.56675199999999
 31
0.0
  0
LINE
  5
25B
  8
LAYER_1
 10
154.255416
 20
93.56675199999999
 30
0.0
 11
154.474733
 21
92.396298
 31
0.0
  0
LINE
  5
25C
  8
LAYER_1
 10
154.474733
 20
92.396298
 30
0.0
 11
154.802261
 21
91.686601
 31
0.0
  0
LINE
  5
25D
  8
LAYER_1
 10
154.802261
 20
91.686601
 30
0.0
 11
155.073176
 21
91.531451
 31
0.0
  0
LINE
  5
25E
  8
LAYER_1
 10
155.073176
 20
91.531451
 30
0.0
 11
155.2528
 21
91.612171
 31
0.0
  0
LINE
  5
25F
  8
LAYER_1
 10
155.2528
 20
91.612171
 30
0.0
 11
155.2886
 21
91.85086699999999
 31
0.0
  0
LINE
  5
260
  8
LAYER_1
 10
155.2886
 20
91.85086699999999
 30
0.0
 11
155.128042
 21
92.169647
 31
0.0
  0
LINE
  5
261
  8
LAYER_1
 10
155.128042
 20
92.169647
 30
0.0
 11
154.956399
 21
92.539288
 31
0.0
  0
LINE
  5
262
  8
LAYER_1
 10
154.956399
 20
92.539288
 30
0.0
 11
155.14427
 21
92.882021
 31
0.0
  0
LINE
  5
263
  8
LAYER_1
 10
155.14427
 20
92.882021
 30
0.0
 11
155.509186
 21
93.102604
 31
0.0
  0
LINE
  5
264
  8
LAYER_1
 10
155.509186
 20
93.102604
 30
0.0
 11
155.955094
 21
93.20486800000001
 31
0.0
  0
LINE
  5
265
  8
LAYER_1
 10
155.955094
 20
93.20486800000001
 30
0.0
 11
156.334925
 21
93.17578
 31
0.0
  0
LINE
  5
266
  8
LAYER_1
 10
156.334925
 20
93.17578
 30
0.0
 11
156.501612
 21
93.002307
 31
0.0
  0
LINE
  5
267
  8
LAYER_1
 10
156.501612
 20
93.002307
 30
0.0
 11
157.052958
 21
92.140553
 31
0.0
  0
LINE
  5
268
  8
LAYER_1
 10
157.052958
 20
92.140553
 30
0.0
 11
157.616348
 21
91.65087200000001
 31
0.0
  0
LINE
  5
269
  8
LAYER_1
 10
157.616348
 20
91.65087200000001
 30
0.0
 11
158.284088
 21
91.942027
 31
0.0
  0
LINE
  5
26A
  8
LAYER_1
 10
158.284088
 20
91.942027
 30
0.0
 11
158.81479
 21
92.429093
 31
0.0
  0
LINE
  5
26B
  8
LAYER_1
 10
158.81479
 20
92.429093
 30
0.0
 11
159.122954
 21
92.966011
 31
0.0
  0
LINE
  5
26C
  8
LAYER_1
 10
159.122954
 20
92.966011
 30
0.0
 11
159.351189
 21
93.373931
 31
0.0
  0
LINE
  5
26D
  8
LAYER_1
 10
159.351189
 20
93.373931
 30
0.0
 11
159.840862
 21
93.234325
 31
0.0
  0
LINE
  5
26E
  8
LAYER_1
 10
159.840862
 20
93.234325
 30
0.0
 11
160.324583
 21
93.09222800000001
 31
0.0
  0
LINE
  5
26F
  8
LAYER_1
 10
160.324583
 20
93.09222800000001
 30
0.0
 11
160.598579
 21
93.228351
 31
0.0
  0
LINE
  5
270
  8
LAYER_1
 10
160.598579
 20
93.228351
 30
0.0
 11
160.615968
 21
93.566402
 31
0.0
  0
LINE
  5
271
  8
LAYER_1
 10
160.615968
 20
93.566402
 30
0.0
 11
160.329869
 21
94.03009
 31
0.0
  0
LINE
  5
272
  8
LAYER_1
 10
160.329869
 20
94.03009
 30
0.0
 11
159.992933
 21
94.443403
 31
0.0
  0
LINE
  5
273
  8
LAYER_1
 10
159.992933
 20
94.443403
 30
0.0
 11
159.956531
 21
94.711006
 31
0.0
  0
LINE
  5
274
  8
LAYER_1
 10
159.956531
 20
94.711006
 30
0.0
 11
160.276276
 21
94.92801
 31
0.0
  0
LINE
  5
275
  8
LAYER_1
 10
160.276276
 20
94.92801
 30
0.0
 11
161.007778
 21
95.18953000000001
 31
0.0
  0
LINE
  5
276
  8
LAYER_1
 10
161.007778
 20
95.18953000000001
 30
0.0
 11
162.073011
 21
95.73660700000001
 31
0.0
  0
LINE
  5
277
  8
LAYER_1
 10
162.073011
 20
95.73660700000001
 30
0.0
 11
162.11324
 21
95.955664
 31
0.0
  0
LINE
  5
278
  8
LAYER_1
 10
162.11324
 20
95.955664
 30
0.0
 11
161.783889
 21
96.090434
 31
0.0
  0
LINE
  5
279
  8
LAYER_1
 10
161.783889
 20
96.090434
 30
0.0
 11
159.886306
 21
96.160989
 31
0.0
  0
LINE
  5
27A
  8
LAYER_1
 10
159.886306
 20
96.160989
 30
0.0
 11
158.827777
 21
96.278453
 31
0.0
  0
LINE
  5
27B
  8
LAYER_1
 10
158.827777
 20
96.278453
 30
0.0
 11
158.258771
 21
96.562236
 31
0.0
  0
LINE
  5
27C
  8
LAYER_1
 10
158.258771
 20
96.562236
 30
0.0
 11
158.234242
 21
96.95014500000001
 31
0.0
  0
LINE
  5
27D
  8
LAYER_1
 10
158.234242
 20
96.95014500000001
 30
0.0
 11
158.809148
 21
97.379989
 31
0.0
  0
LINE
  5
27E
  8
LAYER_1
 10
158.809148
 20
97.379989
 30
0.0
 11
159.221643
 21
97.63137999999999
 31
0.0
  0
LINE
  5
27F
  8
LAYER_1
 10
159.221643
 20
97.63137999999999
 30
0.0
 11
158.961667
 21
97.71042900000001
 31
0.0
  0
LINE
  5
280
  8
LAYER_1
 10
158.961667
 20
97.71042900000001
 30
0.0
 11
158.602457
 21
97.87824000000001
 31
0.0
  0
LINE
  5
281
  8
LAYER_1
 10
158.602457
 20
97.87824000000001
 30
0.0
 11
158.467778
 21
98.29397400000001
 31
0.0
  0
LINE
  5
282
  8
LAYER_1
 10
158.467778
 20
98.29397400000001
 30
0.0
 11
158.39315
 21
98.705186
 31
0.0
  0
LINE
  5
283
  8
LAYER_1
 10
158.39315
 20
98.705186
 30
0.0
 11
158.18908
 21
98.834637
 31
0.0
  0
LINE
  5
284
  8
LAYER_1
 10
158.18908
 20
98.834637
 30
0.0
 11
157.885292
 21
98.68359100000001
 31
0.0
  0
LINE
  5
285
  8
LAYER_1
 10
157.885292
 20
98.68359100000001
 30
0.0
 11
157.511507
 21
98.253311
 31
0.0
  0
LINE
  5
286
  8
LAYER_1
 10
157.511507
 20
98.253311
 30
0.0
 11
157.022782
 21
97.808308
 31
0.0
  0
LINE
  5
287
  8
LAYER_1
 10
157.022782
 20
97.808308
 30
0.0
 11
156.296061
 21
97.950479
 31
0.0
  0
LINE
  5
288
  8
LAYER_1
 10
156.296061
 20
97.950479
 30
0.0
 11
155.235379
 21
98.217741
 31
0.0
  0
LINE
  5
289
  8
LAYER_1
 10
155.235379
 20
98.217741
 30
0.0
 11
153.905705
 21
98.373508
 31
0.0
  0
LINE
  5
28A
  8
LAYER_1
 10
153.905705
 20
98.373508
 30
0.0
 11
152.60028
 21
98.39774800000001
 31
0.0
  0
LINE
  5
28B
  8
LAYER_1
 10
152.60028
 20
98.39774800000001
 30
0.0
 11
151.612343
 21
98.270428
 31
0.0
  0
LINE
  5
28C
  8
LAYER_1
 10
151.612343
 20
98.270428
 30
0.0
 11
150.743118
 21
98.231923
 31
0.0
  0
LINE
  5
28D
  8
LAYER_1
 10
150.743118
 20
98.231923
 30
0.0
 11
149.748297
 21
98.454105
 31
0.0
  0
LINE
  5
28E
  8
LAYER_1
 10
149.748297
 20
98.454105
 30
0.0
 11
148.929913
 21
98.83630100000001
 31
0.0
  0
LINE
  5
28F
  8
LAYER_1
 10
148.929913
 20
98.83630100000001
 30
0.0
 11
148.59
 21
99.27783700000001
 31
0.0
  0
LINE
  5
290
  8
LAYER_1
 10
148.59
 20
99.27783700000001
 30
0.0
 11
148.707723
 21
99.652968
 31
0.0
  0
LINE
  5
291
  8
LAYER_1
 10
148.707723
 20
99.652968
 30
0.0
 11
149.001571
 21
99.96254500000001
 31
0.0
  0
LINE
  5
292
  8
LAYER_1
 10
149.001571
 20
99.96254500000001
 30
0.0
 11
149.382565
 21
100.142079
 31
0.0
  0
LINE
  5
293
  8
LAYER_1
 10
149.382565
 20
100.142079
 30
0.0
 11
149.761725
 21
100.127078
 31
0.0
  0
LINE
  5
294
  8
LAYER_1
 10
149.761725
 20
100.127078
 30
0.0
 11
149.949914
 21
100.106543
 31
0.0
  0
LINE
  5
295
  8
LAYER_1
 10
149.949914
 20
100.106543
 30
0.0
 11
150.05383
 21
100.246697
 31
0.0
  0
LINE
  5
296
  8
LAYER_1
 10
150.05383
 20
100.246697
 30
0.0
 11
150.046783
 21
101.144483
 31
0.0
  0
LINE
  5
297
  8
LAYER_1
 10
150.046783
 20
101.144483
 30
0.0
 11
150.066256
 21
101.943284
 31
0.0
  0
LINE
  5
298
  8
LAYER_1
 10
150.066256
 20
101.943284
 30
0.0
 11
150.290171
 21
102.21633
 31
0.0
  0
LINE
  5
299
  8
LAYER_1
 10
150.290171
 20
102.21633
 30
0.0
 11
150.663196
 21
101.961897
 31
0.0
  0
LINE
  5
29A
  8
LAYER_1
 10
150.663196
 20
101.961897
 30
0.0
 11
151.13
 21
101.17826
 31
0.0
  0
LINE
  5
29B
  8
LAYER_1
 10
151.13
 20
101.17826
 30
0.0
 11
151.722492
 21
100.316068
 31
0.0
  0
LINE
  5
29C
  8
LAYER_1
 10
151.722492
 20
100.316068
 30
0.0
 11
151.90781
 21
100.340453
 31
0.0
  0
LINE
  5
29D
  8
LAYER_1
 10
151.90781
 20
100.340453
 30
0.0
 11
151.976667
 21
100.692863
 31
0.0
  0
LINE
  5
29E
  8
LAYER_1
 10
151.976667
 20
100.692863
 30
0.0
 11
152.071156
 21
100.991842
 31
0.0
  0
LINE
  5
29F
  8
LAYER_1
 10
152.071156
 20
100.991842
 30
0.0
 11
152.298332
 21
101.116196
 31
0.0
  0
LINE
  5
2A0
  8
LAYER_1
 10
152.298332
 20
101.116196
 30
0.0
 11
152.629118
 21
101.257893
 31
0.0
  0
LINE
  5
2A1
  8
LAYER_1
 10
152.629118
 20
101.257893
 30
0.0
 11
152.972716
 21
101.598568
 31
0.0
  0
LINE
  5
2A2
  8
LAYER_1
 10
152.972716
 20
101.598568
 30
0.0
 11
153.457439
 21
101.942625
 31
0.0
  0
LINE
  5
2A3
  8
LAYER_1
 10
153.457439
 20
101.942625
 30
0.0
 11
154.127533
 21
102.092457
 31
0.0
  0
LINE
  5
2A4
  8
LAYER_1
 10
154.127533
 20
102.092457
 30
0.0
 11
154.752687
 21
102.224929
 31
0.0
  0
LINE
  5
2A5
  8
LAYER_1
 10
154.752687
 20
102.224929
 30
0.0
 11
155.026066
 21
102.597863
 31
0.0
  0
LINE
  5
2A6
  8
LAYER_1
 10
155.026066
 20
102.597863
 30
0.0
 11
154.976926
 21
102.957102
 31
0.0
  0
LINE
  5
2A7
  8
LAYER_1
 10
154.976926
 20
102.957102
 30
0.0
 11
154.684978
 21
103.091752
 31
0.0
  0
LINE
  5
2A8
  8
LAYER_1
 10
154.684978
 20
103.091752
 30
0.0
 11
154.160504
 21
103.310301
 31
0.0
  0
LINE
  5
2A9
  8
LAYER_1
 10
154.160504
 20
103.310301
 30
0.0
 11
153.740838
 21
103.846528
 31
0.0
  0
LINE
  5
2AA
  8
LAYER_1
 10
153.740838
 20
103.846528
 30
0.0
 11
153.520632
 21
104.521302
 31
0.0
  0
LINE
  5
2AB
  8
LAYER_1
 10
153.520632
 20
104.521302
 30
0.0
 11
153.594534
 21
105.155493
 31
0.0
  0
LINE
  5
2AC
  8
LAYER_1
 10
153.594534
 20
105.155493
 30
0.0
 11
154.037004
 21
105.662459
 31
0.0
  0
LINE
  5
2AD
  8
LAYER_1
 10
154.037004
 20
105.662459
 30
0.0
 11
154.626574
 21
105.873276
 31
0.0
  0
LINE
  5
2AE
  8
LAYER_1
 10
154.626574
 20
105.873276
 30
0.0
 11
155.142324
 21
105.767041
 31
0.0
  0
LINE
  5
2AF
  8
LAYER_1
 10
155.142324
 20
105.767041
 30
0.0
 11
155.363333
 21
105.322851
 31
0.0
  0
LINE
  5
2B0
  8
LAYER_1
 10
155.363333
 20
105.322851
 30
0.0
 11
155.461655
 21
104.935217
 31
0.0
  0
LINE
  5
2B1
  8
LAYER_1
 10
155.461655
 20
104.935217
 30
0.0
 11
155.716111
 21
104.860687
 31
0.0
  0
LINE
  5
2B2
  8
LAYER_1
 10
155.716111
 20
104.860687
 30
0.0
 11
155.959033
 21
105.122133
 31
0.0
  0
LINE
  5
2B3
  8
LAYER_1
 10
155.959033
 20
105.122133
 30
0.0
 11
156.047688
 21
105.578505
 31
0.0
  0
LINE
  5
2B4
  8
LAYER_1
 10
156.047688
 20
105.578505
 30
0.0
 11
156.141309
 21
106.040522
 31
0.0
  0
LINE
  5
2B5
  8
LAYER_1
 10
156.141309
 20
106.040522
 30
0.0
 11
156.396162
 21
106.315542
 31
0.0
  0
LINE
  5
2B6
  8
LAYER_1
 10
156.396162
 20
106.315542
 30
0.0
 11
156.807999
 21
106.233724
 31
0.0
  0
LINE
  5
2B7
  8
LAYER_1
 10
156.807999
 20
106.233724
 30
0.0
 11
157.140144
 21
105.728244
 31
0.0
  0
LINE
  5
2B8
  8
LAYER_1
 10
157.140144
 20
105.728244
 30
0.0
 11
157.346806
 21
104.911476
 31
0.0
  0
LINE
  5
2B9
  8
LAYER_1
 10
157.346806
 20
104.911476
 30
0.0
 11
157.382193
 21
103.895794
 31
0.0
  0
LINE
  5
2BA
  8
LAYER_1
 10
157.382193
 20
103.895794
 30
0.0
 11
157.395958
 21
102.969202
 31
0.0
  0
LINE
  5
2BB
  8
LAYER_1
 10
157.395958
 20
102.969202
 30
0.0
 11
157.551343
 21
102.479232
 31
0.0
  0
LINE
  5
2BC
  8
LAYER_1
 10
157.551343
 20
102.479232
 30
0.0
 11
157.813248
 21
102.468041
 31
0.0
  0
LINE
  5
2BD
  8
LAYER_1
 10
157.813248
 20
102.468041
 30
0.0
 11
158.146572
 21
102.977785
 31
0.0
  0
LINE
  5
2BE
  8
LAYER_1
 10
158.146572
 20
102.977785
 30
0.0
 11
158.523988
 21
103.497604
 31
0.0
  0
LINE
  5
2BF
  8
LAYER_1
 10
158.523988
 20
103.497604
 30
0.0
 11
159.034505
 21
103.51436
 31
0.0
  0
LINE
  5
2C0
  8
LAYER_1
 10
159.034505
 20
103.51436
 30
0.0
 11
159.500165
 21
103.51793
 31
0.0
  0
LINE
  5
2C1
  8
LAYER_1
 10
159.500165
 20
103.51793
 30
0.0
 11
159.59012
 21
103.877085
 31
0.0
  0
LINE
  5
2C2
  8
LAYER_1
 10
159.59012
 20
103.877085
 30
0.0
 11
159.32364
 21
104.486131
 31
0.0
  0
LINE
  5
2C3
  8
LAYER_1
 10
159.32364
 20
104.486131
 30
0.0
 11
158.719997
 21
105.239373
 31
0.0
  0
LINE
  5
2C4
  8
LAYER_1
 10
158.719997
 20
105.239373
 30
0.0
 11
157.843327
 21
106.143867
 31
0.0
  0
LINE
  5
2C5
  8
LAYER_1
 10
157.843327
 20
106.143867
 30
0.0
 11
158.573961
 21
106.622597
 31
0.0
  0
LINE
  5
2C6
  8
LAYER_1
 10
158.573961
 20
106.622597
 30
0.0
 11
159.005008
 21
106.877757
 31
0.0
  0
LINE
  5
2C7
  8
LAYER_1
 10
159.005008
 20
106.877757
 30
0.0
 11
159.3293
 21
106.931112
 31
0.0
  0
LINE
  5
2C8
  8
LAYER_1
 10
159.3293
 20
106.931112
 30
0.0
 11
160.216032
 21
106.334403
 31
0.0
  0
LINE
  5
2C9
  8
LAYER_1
 10
160.216032
 20
106.334403
 30
0.0
 11
160.920709
 21
105.853882
 31
0.0
  0
LINE
  5
2CA
  8
LAYER_1
 10
160.920709
 20
105.853882
 30
0.0
 11
161.132151
 21
105.812124
 31
0.0
  0
LINE
  5
2CB
  8
LAYER_1
 10
161.132151
 20
105.812124
 30
0.0
 11
161.240484
 21
105.906535
 31
0.0
  0
LINE
  5
2CC
  8
LAYER_1
 10
161.240484
 20
105.906535
 30
0.0
 11
161.228073
 21
106.238218
 31
0.0
  0
LINE
  5
2CD
  8
LAYER_1
 10
161.228073
 20
106.238218
 30
0.0
 11
161.039528
 21
106.559557
 31
0.0
  0
LINE
  5
2CE
  8
LAYER_1
 10
161.039528
 20
106.559557
 30
0.0
 11
160.759441
 21
107.00072
 31
0.0
  0
LINE
  5
2CF
  8
LAYER_1
 10
160.759441
 20
107.00072
 30
0.0
 11
160.734114
 21
107.433682
 31
0.0
  0
LINE
  5
2D0
  8
LAYER_1
 10
160.734114
 20
107.433682
 30
0.0
 11
160.94175
 21
107.76685
 31
0.0
  0
LINE
  5
2D1
  8
LAYER_1
 10
160.94175
 20
107.76685
 30
0.0
 11
161.360556
 21
107.90863
 31
0.0
  0
LINE
  5
2D2
  8
LAYER_1
 10
161.360556
 20
107.90863
 30
0.0
 11
161.995556
 21
107.927731
 31
0.0
  0
LINE
  5
2D3
  8
LAYER_1
 10
161.995556
 20
107.927731
 30
0.0
 11
161.341178
 21
108.242626
 31
0.0
  0
LINE
  5
2D4
  8
LAYER_1
 10
161.341178
 20
108.242626
 30
0.0
 11
160.97604
 21
108.475689
 31
0.0
  0
LINE
  5
2D5
  8
LAYER_1
 10
160.97604
 20
108.475689
 30
0.0
 11
160.828871
 21
108.775397
 31
0.0
  0
LINE
  5
2D6
  8
LAYER_1
 10
160.828871
 20
108.775397
 30
0.0
 11
161.147066
 21
109.935641
 31
0.0
  0
LINE
  5
2D7
  8
LAYER_1
 10
161.147066
 20
109.935641
 30
0.0
 11
161.156608
 21
110.315652
 31
0.0
  0
LINE
  5
2D8
  8
LAYER_1
 10
161.156608
 20
110.315652
 30
0.0
 11
160.813195
 21
110.428292
 31
0.0
  0
LINE
  5
2D9
  8
LAYER_1
 10
160.813195
 20
110.428292
 30
0.0
 11
160.194495
 21
110.276703
 31
0.0
  0
LINE
  5
2DA
  8
LAYER_1
 10
160.194495
 20
110.276703
 30
0.0
 11
159.378179
 21
109.86403
 31
0.0
  0
LINE
  5
2DB
  8
LAYER_1
 10
159.378179
 20
109.86403
 30
0.0
 11
158.552784
 21
109.466136
 31
0.0
  0
LINE
  5
2DC
  8
LAYER_1
 10
158.552784
 20
109.466136
 30
0.0
 11
157.865916
 21
109.300641
 31
0.0
  0
LINE
  5
2DD
  8
LAYER_1
 10
157.865916
 20
109.300641
 30
0.0
 11
157.420957
 21
109.437793
 31
0.0
  0
LINE
  5
2DE
  8
LAYER_1
 10
157.420957
 20
109.437793
 30
0.0
 11
157.463741
 21
110.041892
 31
0.0
  0
LINE
  5
2DF
  8
LAYER_1
 10
157.463741
 20
110.041892
 30
0.0
 11
157.526491
 21
110.613022
 31
0.0
  0
LINE
  5
2E0
  8
LAYER_1
 10
157.526491
 20
110.613022
 30
0.0
 11
157.141559
 21
110.566421
 31
0.0
  0
LINE
  5
2E1
  8
LAYER_1
 10
157.141559
 20
110.566421
 30
0.0
 11
155.721298
 21
110.209714
 31
0.0
  0
LINE
  5
2E2
  8
LAYER_1
 10
155.721298
 20
110.209714
 30
0.0
 11
155.246092
 21
110.288771
 31
0.0
  0
LINE
  5
2E3
  8
LAYER_1
 10
155.246092
 20
110.288771
 30
0.0
 11
154.990729
 21
110.540206
 31
0.0
  0
LINE
  5
2E4
  8
LAYER_1
 10
154.990729
 20
110.540206
 30
0.0
 11
155.020731
 21
110.94066
 31
0.0
  0
LINE
  5
2E5
  8
LAYER_1
 10
155.020731
 20
110.94066
 30
0.0
 11
155.34813
 21
111.26052
 31
0.0
  0
LINE
  5
2E6
  8
LAYER_1
 10
155.34813
 20
111.26052
 30
0.0
 11
155.849453
 21
111.427282
 31
0.0
  0
LINE
  5
2E7
  8
LAYER_1
 10
155.849453
 20
111.427282
 30
0.0
 11
156.401222
 21
111.368441
 31
0.0
  0
LINE
  5
2E8
  8
LAYER_1
 10
156.401222
 20
111.368441
 30
0.0
 11
156.754019
 21
111.303913
 31
0.0
  0
LINE
  5
2E9
  8
LAYER_1
 10
156.754019
 20
111.303913
 30
0.0
 11
156.367573
 21
111.804223
 31
0.0
  0
LINE
  5
2EA
  8
LAYER_1
 10
156.367573
 20
111.804223
 30
0.0
 11
155.964211
 21
112.458921
 31
0.0
  0
LINE
  5
2EB
  8
LAYER_1
 10
155.964211
 20
112.458921
 30
0.0
 11
156.32071
 21
113.276283
 31
0.0
  0
LINE
  5
2EC
  8
LAYER_1
 10
156.32071
 20
113.276283
 30
0.0
 11
156.651377
 21
114.035879
 31
0.0
  0
LINE
  5
2ED
  8
LAYER_1
 10
156.651377
 20
114.035879
 30
0.0
 11
156.481357
 21
114.534844
 31
0.0
  0
LINE
  5
2EE
  8
LAYER_1
 10
156.481357
 20
114.534844
 30
0.0
 11
156.170621
 21
114.845208
 31
0.0
  0
LINE
  5
2EF
  8
LAYER_1
 10
156.170621
 20
114.845208
 30
0.0
 11
155.901464
 21
114.8799
 31
0.0
  0
LINE
  5
2F0
  8
LAYER_1
 10
155.901464
 20
114.8799
 30
0.0
 11
155.12693
 21
113.97237
 31
0.0
  0
LINE
  5
2F1
  8
LAYER_1
 10
155.12693
 20
113.97237
 30
0.0
 11
154.417944
 21
113.215197
 31
0.0
  0
LINE
  5
2F2
  8
LAYER_1
 10
154.417944
 20
113.215197
 30
0.0
 11
153.625082
 21
112.818552
 31
0.0
  0
LINE
  5
2F3
  8
LAYER_1
 10
153.625082
 20
112.818552
 30
0.0
 11
153.003461
 21
112.723553
 31
0.0
  0
LINE
  5
2F4
  8
LAYER_1
 10
153.003461
 20
112.723553
 30
0.0
 11
152.676521
 21
112.793479
 31
0.0
  0
LINE
  5
2F5
  8
LAYER_1
 10
152.676521
 20
112.793479
 30
0.0
 11
152.62019
 21
113.048754
 31
0.0
  0
LINE
  5
2F6
  8
LAYER_1
 10
152.62019
 20
113.048754
 30
0.0
 11
152.810396
 21
113.509802
 31
0.0
  0
LINE
  5
2F7
  8
LAYER_1
 10
152.810396
 20
113.509802
 30
0.0
 11
152.996807
 21
113.942612
 31
0.0
  0
LINE
  5
2F8
  8
LAYER_1
 10
152.996807
 20
113.942612
 30
0.0
 11
152.929189
 21
114.067501
 31
0.0
  0
LINE
  5
2F9
  8
LAYER_1
 10
152.929189
 20
114.067501
 30
0.0
 11
152.039766
 21
113.394695
 31
0.0
  0
LINE
  5
2FA
  8
LAYER_1
 10
152.039766
 20
113.394695
 30
0.0
 11
151.328978
 21
112.909814
 31
0.0
  0
LINE
  5
2FB
  8
LAYER_1
 10
151.328978
 20
112.909814
 30
0.0
 11
150.711527
 21
112.849173
 31
0.0
  0
LINE
  5
2FC
  8
LAYER_1
 10
150.711527
 20
112.849173
 30
0.0
 11
149.093645
 21
113.469488
 31
0.0
  0
LINE
  5
2FD
  8
LAYER_1
 10
149.093645
 20
113.469488
 30
0.0
 11
148.634227
 21
113.833628
 31
0.0
  0
LINE
  5
2FE
  8
LAYER_1
 10
148.634227
 20
113.833628
 30
0.0
 11
148.344388
 21
114.271884
 31
0.0
  0
LINE
  5
2FF
  8
LAYER_1
 10
148.344388
 20
114.271884
 30
0.0
 11
148.052843
 21
115.08644
 31
0.0
  0
LINE
  5
300
  8
LAYER_1
 10
148.052843
 20
115.08644
 30
0.0
 11
148.160898
 21
115.204339
 31
0.0
  0
LINE
  5
301
  8
LAYER_1
 10
148.160898
 20
115.204339
 30
0.0
 11
148.448889
 21
115.227307
 31
0.0
  0
LINE
  5
302
  8
LAYER_1
 10
148.448889
 20
115.227307
 30
0.0
 11
148.747868
 21
115.301341
 31
0.0
  0
LINE
  5
303
  8
LAYER_1
 10
148.747868
 20
115.301341
 30
0.0
 11
148.872222
 21
115.479335
 31
0.0
  0
LINE
  5
304
  8
LAYER_1
 10
148.872222
 20
115.479335
 30
0.0
 11
149.027742
 21
115.783405
 31
0.0
  0
LINE
  5
305
  8
LAYER_1
 10
149.027742
 20
115.783405
 30
0.0
 11
149.40925
 21
115.911734
 31
0.0
  0
LINE
  5
306
  8
LAYER_1
 10
149.40925
 20
115.911734
 30
0.0
 11
149.889173
 21
115.853884
 31
0.0
  0
LINE
  5
307
  8
LAYER_1
 10
149.889173
 20
115.853884
 30
0.0
 11
150.339936
 21
115.599417
 31
0.0
  0
LINE
  5
308
  8
LAYER_1
 10
150.339936
 20
115.599417
 30
0.0
 11
150.885187
 21
115.268411
 31
0.0
  0
LINE
  5
309
  8
LAYER_1
 10
150.885187
 20
115.268411
 30
0.0
 11
151.450125
 21
115.467704
 31
0.0
  0
LINE
  5
30A
  8
LAYER_1
 10
151.450125
 20
115.467704
 30
0.0
 11
151.978105
 21
115.674855
 31
0.0
  0
LINE
  5
30B
  8
LAYER_1
 10
151.978105
 20
115.674855
 30
0.0
 11
152.399455
 21
115.509981
 31
0.0
  0
LINE
  5
30C
  8
LAYER_1
 10
152.399455
 20
115.509981
 30
0.0
 11
152.683807
 21
115.365948
 31
0.0
  0
LINE
  5
30D
  8
LAYER_1
 10
152.683807
 20
115.365948
 30
0.0
 11
152.704216
 21
115.698607
 31
0.0
  0
LINE
  5
30E
  8
LAYER_1
 10
152.704216
 20
115.698607
 30
0.0
 11
152.822504
 21
116.165701
 31
0.0
  0
LINE
  5
30F
  8
LAYER_1
 10
152.822504
 20
116.165701
 30
0.0
 11
153.276362
 21
116.512256
 31
0.0
  0
LINE
  5
310
  8
LAYER_1
 10
153.276362
 20
116.512256
 30
0.0
 11
153.987385
 21
116.702164
 31
0.0
  0
LINE
  5
311
  8
LAYER_1
 10
153.987385
 20
116.702164
 30
0.0
 11
154.877166
 21
116.699316
 31
0.0
  0
LINE
  5
312
  8
LAYER_1
 10
154.877166
 20
116.699316
 30
0.0
 11
155.572759
 21
116.653468
 31
0.0
  0
LINE
  5
313
  8
LAYER_1
 10
155.572759
 20
116.653468
 30
0.0
 11
155.864
 21
116.773226
 31
0.0
  0
LINE
  5
314
  8
LAYER_1
 10
155.864
 20
116.773226
 30
0.0
 11
155.780802
 21
117.126627
 31
0.0
  0
LINE
  5
315
  8
LAYER_1
 10
155.780802
 20
117.126627
 30
0.0
 11
155.35308
 21
117.781706
 31
0.0
  0
LINE
  5
316
  8
LAYER_1
 10
155.35308
 20
117.781706
 30
0.0
 11
154.947799
 21
118.547113
 31
0.0
  0
LINE
  5
317
  8
LAYER_1
 10
154.947799
 20
118.547113
 30
0.0
 11
155.138747
 21
119.165829
 31
0.0
  0
LINE
  5
318
  8
LAYER_1
 10
155.138747
 20
119.165829
 30
0.0
 11
155.683415
 21
119.719849
 31
0.0
  0
LINE
  5
319
  8
LAYER_1
 10
155.683415
 20
119.719849
 30
0.0
 11
156.718833
 21
119.751948
 31
0.0
  0
LINE
  5
31A
  8
LAYER_1
 10
156.718833
 20
119.751948
 30
0.0
 11
157.229937
 21
119.802371
 31
0.0
  0
LINE
  5
31B
  8
LAYER_1
 10
157.229937
 20
119.802371
 30
0.0
 11
157.702798
 21
120.001094
 31
0.0
  0
LINE
  5
31C
  8
LAYER_1
 10
157.702798
 20
120.001094
 30
0.0
 11
158.050357
 21
120.295761
 31
0.0
  0
LINE
  5
31D
  8
LAYER_1
 10
158.050357
 20
120.295761
 30
0.0
 11
158.185556
 21
120.634016
 31
0.0
  0
LINE
  5
31E
  8
LAYER_1
 10
158.185556
 20
120.634016
 30
0.0
 11
158.028343
 21
120.73271
 31
0.0
  0
LINE
  5
31F
  8
LAYER_1
 10
158.028343
 20
120.73271
 30
0.0
 11
157.643878
 21
120.601713
 31
0.0
  0
LINE
  5
320
  8
LAYER_1
 10
157.643878
 20
120.601713
 30
0.0
 11
157.201404
 21
120.485674
 31
0.0
  0
LINE
  5
321
  8
LAYER_1
 10
157.201404
 20
120.485674
 30
0.0
 11
156.969978
 21
120.654814
 31
0.0
  0
LINE
  5
322
  8
LAYER_1
 10
156.969978
 20
120.654814
 30
0.0
 11
156.984119
 21
121.023664
 31
0.0
  0
LINE
  5
323
  8
LAYER_1
 10
156.984119
 20
121.023664
 30
0.0
 11
157.278347
 21
121.506752
 31
0.0
  0
LINE
  5
324
  8
LAYER_1
 10
157.278347
 20
121.506752
 30
0.0
 11
157.544722
 21
121.922703
 31
0.0
  0
LINE
  5
325
  8
LAYER_1
 10
157.544722
 20
121.922703
 30
0.0
 11
157.100408
 21
122.000641
 31
0.0
  0
LINE
  5
326
  8
LAYER_1
 10
157.100408
 20
122.000641
 30
0.0
 11
156.670876
 21
122.083543
 31
0.0
  0
LINE
  5
327
  8
LAYER_1
 10
156.670876
 20
122.083543
 30
0.0
 11
156.492222
 21
122.282863
 31
0.0
  0
LINE
  5
328
  8
LAYER_1
 10
156.492222
 20
122.282863
 30
0.0
 11
156.367868
 21
122.482182
 31
0.0
  0
LINE
  5
329
  8
LAYER_1
 10
156.367868
 20
122.482182
 30
0.0
 11
156.068889
 21
122.565085
 31
0.0
  0
LINE
  5
32A
  8
LAYER_1
 10
156.068889
 20
122.565085
 30
0.0
 11
155.76991
 21
122.725998
 31
0.0
  0
LINE
  5
32B
  8
LAYER_1
 10
155.76991
 20
122.725998
 30
0.0
 11
155.645556
 21
123.112873
 31
0.0
  0
LINE
  5
32C
  8
LAYER_1
 10
155.645556
 20
123.112873
 30
0.0
 11
155.560606
 21
123.611284
 31
0.0
  0
LINE
  5
32D
  8
LAYER_1
 10
155.560606
 20
123.611284
 30
0.0
 11
155.320492
 21
123.810607
 31
0.0
  0
LINE
  5
32E
  8
LAYER_1
 10
155.320492
 20
123.810607
 30
0.0
 11
154.947318
 21
123.70738
 31
0.0
  0
LINE
  5
32F
  8
LAYER_1
 10
154.947318
 20
123.70738
 30
0.0
 11
154.463188
 21
123.298138
 31
0.0
  0
LINE
  5
330
  8
LAYER_1
 10
154.463188
 20
123.298138
 30
0.0
 11
153.71886
 21
122.772294
 31
0.0
  0
LINE
  5
331
  8
LAYER_1
 10
153.71886
 20
122.772294
 30
0.0
 11
152.823333
 21
122.515925
 31
0.0
  0
LINE
  5
332
  8
LAYER_1
 10
152.823333
 20
122.515925
 30
0.0
 11
152.018089
 21
122.545271
 31
0.0
  0
LINE
  5
333
  8
LAYER_1
 10
152.018089
 20
122.545271
 30
0.0
 11
151.873138
 21
122.703565
 31
0.0
  0
LINE
  5
334
  8
LAYER_1
 10
151.873138
 20
122.703565
 30
0.0
 11
151.835556
 21
122.988418
 31
0.0
  0
LINE
  5
335
  8
LAYER_1
 10
151.835556
 20
122.988418
 30
0.0
 11
151.73537
 21
123.451427
 31
0.0
  0
LINE
  5
336
  8
LAYER_1
 10
151.73537
 20
123.451427
 30
0.0
 11
151.494498
 21
123.771994
 31
0.0
  0
LINE
  5
337
  8
LAYER_1
 10
151.494498
 20
123.771994
 30
0.0
 11
151.303318
 21
124.061598
 31
0.0
  0
LINE
  5
338
  8
LAYER_1
 10
151.303318
 20
124.061598
 30
0.0
 11
151.34722
 21
124.470531
 31
0.0
  0
LINE
  5
339
  8
LAYER_1
 10
151.34722
 20
124.470531
 30
0.0
 11
151.599476
 21
124.921212
 31
0.0
  0
LINE
  5
33A
  8
LAYER_1
 10
151.599476
 20
124.921212
 30
0.0
 11
152.033359
 21
125.336061
 31
0.0
  0
LINE
  5
33B
  8
LAYER_1
 10
152.033359
 20
125.336061
 30
0.0
 11
152.363738
 21
125.680441
 31
0.0
  0
LINE
  5
33C
  8
LAYER_1
 10
152.363738
 20
125.680441
 30
0.0
 11
152.360534
 21
125.966422
 31
0.0
  0
LINE
  5
33D
  8
LAYER_1
 10
152.360534
 20
125.966422
 30
0.0
 11
152.045135
 21
126.161702
 31
0.0
  0
LINE
  5
33E
  8
LAYER_1
 10
152.045135
 20
126.161702
 30
0.0
 11
151.438926
 21
126.233974
 31
0.0
  0
LINE
  5
33F
  8
LAYER_1
 10
151.438926
 20
126.233974
 30
0.0
 11
150.339478
 21
126.432326
 31
0.0
  0
LINE
  5
340
  8
LAYER_1
 10
150.339478
 20
126.432326
 30
0.0
 11
149.340474
 21
126.901685
 31
0.0
  0
LINE
  5
341
  8
LAYER_1
 10
149.340474
 20
126.901685
 30
0.0
 11
148.737665
 21
127.453504
 31
0.0
  0
LINE
  5
342
  8
LAYER_1
 10
148.737665
 20
127.453504
 30
0.0
 11
148.677257
 21
127.701415
 31
0.0
  0
LINE
  5
343
  8
LAYER_1
 10
148.677257
 20
127.701415
 30
0.0
 11
148.826804
 21
127.899238
 31
0.0
  0
LINE
  5
344
  8
LAYER_1
 10
148.826804
 20
127.899238
 30
0.0
 11
149.027115
 21
128.279577
 31
0.0
  0
LINE
  5
345
  8
LAYER_1
 10
149.027115
 20
128.279577
 30
0.0
 11
149.074629
 21
128.925731
 31
0.0
  0
LINE
  5
346
  8
LAYER_1
 10
149.074629
 20
128.925731
 30
0.0
 11
149.148722
 21
129.610459
 31
0.0
  0
LINE
  5
347
  8
LAYER_1
 10
149.148722
 20
129.610459
 30
0.0
 11
149.624093
 21
129.848473
 31
0.0
  0
LINE
  5
348
  8
LAYER_1
 10
149.624093
 20
129.848473
 30
0.0
 11
150.130317
 21
129.771952
 31
0.0
  0
LINE
  5
349
  8
LAYER_1
 10
150.130317
 20
129.771952
 30
0.0
 11
150.419223
 21
129.354872
 31
0.0
  0
LINE
  5
34A
  8
LAYER_1
 10
150.419223
 20
129.354872
 30
0.0
 11
150.626117
 21
128.944159
 31
0.0
  0
LINE
  5
34B
  8
LAYER_1
 10
150.626117
 20
128.944159
 30
0.0
 11
150.859798
 21
128.790361
 31
0.0
  0
LINE
  5
34C
  8
LAYER_1
 10
150.859798
 20
128.790361
 30
0.0
 11
151.050886
 21
128.900595
 31
0.0
  0
LINE
  5
34D
  8
LAYER_1
 10
151.050886
 20
128.900595
 30
0.0
 11
151.13
 21
129.281974
 31
0.0
  0
LINE
  5
34E
  8
LAYER_1
 10
151.13
 20
129.281974
 30
0.0
 11
151.233287
 21
129.870523
 31
0.0
  0
LINE
  5
34F
  8
LAYER_1
 10
151.233287
 20
129.870523
 30
0.0
 11
151.525845
 21
130.165181
 31
0.0
  0
LINE
  5
350
  8
LAYER_1
 10
151.525845
 20
130.165181
 30
0.0
 11
151.981717
 21
130.156048
 31
0.0
  0
LINE
  5
351
  8
LAYER_1
 10
151.981717
 20
130.156048
 30
0.0
 11
152.57495
 21
129.833219
 31
0.0
  0
LINE
  5
352
  8
LAYER_1
 10
152.57495
 20
129.833219
 30
0.0
 11
153.1896
 21
129.450726
 31
0.0
  0
LINE
  5
353
  8
LAYER_1
 10
153.1896
 20
129.450726
 30
0.0
 11
153.501629
 21
129.408183
 31
0.0
  0
LINE
  5
354
  8
LAYER_1
 10
153.501629
 20
129.408183
 30
0.0
 11
153.483958
 21
129.684122
 31
0.0
  0
LINE
  5
355
  8
LAYER_1
 10
153.483958
 20
129.684122
 30
0.0
 11
153.109507
 21
130.257072
 31
0.0
  0
LINE
  5
356
  8
LAYER_1
 10
153.109507
 20
130.257072
 30
0.0
 11
152.696704
 21
130.844573
 31
0.0
  0
LINE
  5
357
  8
LAYER_1
 10
152.696704
 20
130.844573
 30
0.0
 11
152.592808
 21
131.265563
 31
0.0
  0
LINE
  5
358
  8
LAYER_1
 10
152.592808
 20
131.265563
 30
0.0
 11
152.816829
 21
131.647043
 31
0.0
  0
LINE
  5
359
  8
LAYER_1
 10
152.816829
 20
131.647043
 30
0.0
 11
153.387778
 21
132.116016
 31
0.0
  0
LINE
  5
35A
  8
LAYER_1
 10
153.387778
 20
132.116016
 30
0.0
 11
153.985736
 21
132.638526
 31
0.0
  0
LINE
  5
35B
  8
LAYER_1
 10
153.985736
 20
132.638526
 30
0.0
 11
154.234444
 21
133.015757
 31
0.0
  0
LINE
  5
35C
  8
LAYER_1
 10
154.234444
 20
133.015757
 30
0.0
 11
153.985736
 21
133.209109
 31
0.0
  0
LINE
  5
35D
  8
LAYER_1
 10
153.985736
 20
133.209109
 30
0.0
 11
153.387778
 21
133.28953
 31
0.0
  0
LINE
  5
35E
  8
LAYER_1
 10
153.387778
 20
133.28953
 30
0.0
 11
152.789819
 21
133.209228
 31
0.0
  0
LINE
  5
35F
  8
LAYER_1
 10
152.789819
 20
133.209228
 30
0.0
 11
152.541111
 21
133.016163
 31
0.0
  0
LINE
  5
360
  8
LAYER_1
 10
152.541111
 20
133.016163
 30
0.0
 11
152.415093
 21
132.815982
 31
0.0
  0
LINE
  5
361
  8
LAYER_1
 10
152.415093
 20
132.815982
 30
0.0
 11
152.125067
 21
132.916073
 31
0.0
  0
LINE
  5
362
  8
LAYER_1
 10
152.125067
 20
132.916073
 30
0.0
 11
151.803072
 21
133.227626
 31
0.0
  0
LINE
  5
363
  8
LAYER_1
 10
151.803072
 20
133.227626
 30
0.0
 11
151.581152
 21
133.661831
 31
0.0
  0
LINE
  5
364
  8
LAYER_1
 10
151.581152
 20
133.661831
 30
0.0
 11
151.400409
 21
134.026297
 31
0.0
  0
LINE
  5
365
  8
LAYER_1
 10
151.400409
 20
134.026297
 30
0.0
 11
151.200564
 21
133.985357
 31
0.0
  0
LINE
  5
366
  8
LAYER_1
 10
151.200564
 20
133.985357
 30
0.0
 11
150.088939
 21
133.015619
 31
0.0
  0
LINE
  5
367
  8
LAYER_1
 10
150.088939
 20
133.015619
 30
0.0
 11
149.486554
 21
132.673855
 31
0.0
  0
LINE
  5
368
  8
LAYER_1
 10
149.486554
 20
132.673855
 30
0.0
 11
149.12051
 21
132.604946
 31
0.0
  0
LINE
  5
369
  8
LAYER_1
 10
149.12051
 20
132.604946
 30
0.0
 11
149.027445
 21
132.872823
 31
0.0
  0
LINE
  5
36A
  8
LAYER_1
 10
149.027445
 20
132.872823
 30
0.0
 11
149.163611
 21
133.306658
 31
0.0
  0
LINE
  5
36B
  8
LAYER_1
 10
149.163611
 20
133.306658
 30
0.0
 11
149.294252
 21
133.670167
 31
0.0
  0
LINE
  5
36C
  8
LAYER_1
 10
149.294252
 20
133.670167
 30
0.0
 11
149.224104
 21
133.836246
 31
0.0
  0
LINE
  5
36D
  8
LAYER_1
 10
149.224104
 20
133.836246
 30
0.0
 11
148.993635
 21
133.788909
 31
0.0
  0
LINE
  5
36E
  8
LAYER_1
 10
148.993635
 20
133.788909
 30
0.0
 11
148.643309
 21
133.512172
 31
0.0
  0
LINE
  5
36F
  8
LAYER_1
 10
148.643309
 20
133.512172
 30
0.0
 11
148.241631
 21
133.371373
 31
0.0
  0
LINE
  5
370
  8
LAYER_1
 10
148.241631
 20
133.371373
 30
0.0
 11
147.669642
 21
133.802319
 31
0.0
  0
LINE
  5
371
  8
LAYER_1
 10
147.669642
 20
133.802319
 30
0.0
 11
147.037778
 21
134.434268
 31
0.0
  0
LINE
  5
372
  8
LAYER_1
 10
147.037778
 20
134.434268
 30
0.0
 11
147.672778
 21
134.60037
 31
0.0
  0
LINE
  5
373
  8
LAYER_1
 10
147.672778
 20
134.60037
 30
0.0
 11
148.16289
 21
134.783039
 31
0.0
  0
LINE
  5
374
  8
LAYER_1
 10
148.16289
 20
134.783039
 30
0.0
 11
148.235138
 21
134.993702
 31
0.0
  0
LINE
  5
375
  8
LAYER_1
 10
148.235138
 20
134.993702
 30
0.0
 11
147.036719
 21
135.645817
 31
0.0
  0
LINE
  5
376
  8
LAYER_1
 10
147.036719
 20
135.645817
 30
0.0
 11
145.992661
 21
136.220274
 31
0.0
  0
LINE
  5
377
  8
LAYER_1
 10
145.992661
 20
136.220274
 30
0.0
 11
145.812455
 21
136.542782
 31
0.0
  0
LINE
  5
378
  8
LAYER_1
 10
145.812455
 20
136.542782
 30
0.0
 11
145.767778
 21
136.986373
 31
0.0
  0
LINE
  5
379
  8
LAYER_1
 10
145.767778
 20
136.986373
 30
0.0
 11
145.873203
 21
137.571394
 31
0.0
  0
LINE
  5
37A
  8
LAYER_1
 10
145.873203
 20
137.571394
 30
0.0
 11
146.152581
 21
137.788617
 31
0.0
  0
LINE
  5
37B
  8
LAYER_1
 10
146.152581
 20
137.788617
 30
0.0
 11
146.55057
 21
137.633007
 31
0.0
  0
LINE
  5
37C
  8
LAYER_1
 10
146.55057
 20
137.633007
 30
0.0
 11
147.011825
 21
137.09953
 31
0.0
  0
LINE
  5
37D
  8
LAYER_1
 10
147.011825
 20
137.09953
 30
0.0
 11
147.432481
 21
136.659519
 31
0.0
  0
LINE
  5
37E
  8
LAYER_1
 10
147.432481
 20
136.659519
 30
0.0
 11
147.926388
 21
136.425762
 31
0.0
  0
LINE
  5
37F
  8
LAYER_1
 10
147.926388
 20
136.425762
 30
0.0
 11
148.392835
 21
136.423055
 31
0.0
  0
LINE
  5
380
  8
LAYER_1
 10
148.392835
 20
136.423055
 30
0.0
 11
148.731111
 21
136.676196
 31
0.0
  0
LINE
  5
381
  8
LAYER_1
 10
148.731111
 20
136.676196
 30
0.0
 11
149.005541
 21
136.875516
 31
0.0
  0
LINE
  5
382
  8
LAYER_1
 10
149.005541
 20
136.875516
 30
0.0
 11
149.420408
 21
136.958418
 31
0.0
  0
LINE
  5
383
  8
LAYER_1
 10
149.420408
 20
136.958418
 30
0.0
 11
149.827395
 21
137.124224
 31
0.0
  0
LINE
  5
384
  8
LAYER_1
 10
149.827395
 20
137.124224
 30
0.0
 11
150.082885
 21
137.522863
 31
0.0
  0
LINE
  5
385
  8
LAYER_1
 10
150.082885
 20
137.522863
 30
0.0
 11
150.097449
 21
138.052876
 31
0.0
  0
LINE
  5
386
  8
LAYER_1
 10
150.097449
 20
138.052876
 30
0.0
 11
149.418113
 21
137.795157
 31
0.0
  0
LINE
  5
387
  8
LAYER_1
 10
149.418113
 20
137.795157
 30
0.0
 11
148.867776
 21
137.645416
 31
0.0
  0
LINE
  5
388
  8
LAYER_1
 10
148.867776
 20
137.645416
 30
0.0
 11
148.307778
 21
137.805085
 31
0.0
  0
LINE
  5
389
  8
LAYER_1
 10
148.307778
 20
137.805085
 30
0.0
 11
147.895754
 21
138.103092
 31
0.0
  0
LINE
  5
38A
  8
LAYER_1
 10
147.895754
 20
138.103092
 30
0.0
 11
147.770622
 21
138.395203
 31
0.0
  0
LINE
  5
38B
  8
LAYER_1
 10
147.770622
 20
138.395203
 30
0.0
 11
147.931707
 21
138.670758
 31
0.0
  0
LINE
  5
38C
  8
LAYER_1
 10
147.931707
 20
138.670758
 30
0.0
 11
148.378333
 21
138.919095
 31
0.0
  0
LINE
  5
38D
  8
LAYER_1
 10
148.378333
 20
138.919095
 30
0.0
 11
148.798229
 21
139.179979
 31
0.0
  0
LINE
  5
38E
  8
LAYER_1
 10
148.798229
 20
139.179979
 30
0.0
 11
148.096111
 21
139.502053
 31
0.0
  0
LINE
  5
38F
  8
LAYER_1
 10
148.096111
 20
139.502053
 30
0.0
 11
147.469925
 21
139.771026
 31
0.0
  0
LINE
  5
390
  8
LAYER_1
 10
147.469925
 20
139.771026
 30
0.0
 11
147.235533
 21
140.045208
 31
0.0
  0
LINE
  5
391
  8
LAYER_1
 10
147.235533
 20
140.045208
 30
0.0
 11
147.378513
 21
140.428293
 31
0.0
  0
LINE
  5
392
  8
LAYER_1
 10
147.378513
 20
140.428293
 30
0.0
 11
147.884444
 21
141.023971
 31
0.0
  0
LINE
  5
393
  8
LAYER_1
 10
147.884444
 20
141.023971
 30
0.0
 11
148.570619
 21
141.940662
 31
0.0
  0
LINE
  5
394
  8
LAYER_1
 10
148.570619
 20
141.940662
 30
0.0
 11
148.411864
 21
141.916794
 31
0.0
  0
LINE
  5
395
  8
LAYER_1
 10
148.411864
 20
141.916794
 30
0.0
 11
147.914219
 21
141.501945
 31
0.0
  0
LINE
  5
396
  8
LAYER_1
 10
147.914219
 20
141.501945
 30
0.0
 11
147.432351
 21
141.172647
 31
0.0
  0
LINE
  5
397
  8
LAYER_1
 10
147.432351
 20
141.172647
 30
0.0
 11
147.078313
 21
141.151388
 31
0.0
  0
LINE
  5
398
  8
LAYER_1
 10
147.078313
 20
141.151388
 30
0.0
 11
146.915277
 21
141.409259
 31
0.0
  0
LINE
  5
399
  8
LAYER_1
 10
146.915277
 20
141.409259
 30
0.0
 11
147.006417
 21
141.917354
 31
0.0
  0
LINE
  5
39A
  8
LAYER_1
 10
147.006417
 20
141.917354
 30
0.0
 11
147.024645
 21
142.192717
 31
0.0
  0
LINE
  5
39B
  8
LAYER_1
 10
147.024645
 20
142.192717
 30
0.0
 11
146.608092
 21
142.035018
 31
0.0
  0
LINE
  5
39C
  8
LAYER_1
 10
146.608092
 20
142.035018
 30
0.0
 11
146.267132
 21
141.902096
 31
0.0
  0
LINE
  5
39D
  8
LAYER_1
 10
146.267132
 20
141.902096
 30
0.0
 11
146.067179
 21
141.965083
 31
0.0
  0
LINE
  5
39E
  8
LAYER_1
 10
146.067179
 20
141.965083
 30
0.0
 11
146.018312
 21
142.768273
 31
0.0
  0
LINE
  5
39F
  8
LAYER_1
 10
146.018312
 20
142.768273
 30
0.0
 11
145.714547
 21
143.143423
 31
0.0
  0
LINE
  5
3A0
  8
LAYER_1
 10
145.714547
 20
143.143423
 30
0.0
 11
144.93481
 21
143.61494
 31
0.0
  0
LINE
  5
3A1
  8
LAYER_1
 10
144.93481
 20
143.61494
 30
0.0
 11
144.154289
 21
144.097712
 31
0.0
  0
LINE
  5
3A2
  8
LAYER_1
 10
144.154289
 20
144.097712
 30
0.0
 11
143.586363
 21
144.655353
 31
0.0
  0
LINE
  5
3A3
  8
LAYER_1
 10
143.586363
 20
144.655353
 30
0.0
 11
143.294837
 21
145.205615
 31
0.0
  0
LINE
  5
3A4
  8
LAYER_1
 10
143.294837
 20
145.205615
 30
0.0
 11
143.343514
 21
145.66625
 31
0.0
  0
LINE
  5
3A5
  8
LAYER_1
 10
143.343514
 20
145.66625
 30
0.0
 11
143.900153
 21
145.840774
 31
0.0
  0
LINE
  5
3A6
  8
LAYER_1
 10
143.900153
 20
145.840774
 30
0.0
 11
145.067189
 21
145.81887
 31
0.0
  0
LINE
  5
3A7
  8
LAYER_1
 10
145.067189
 20
145.81887
 30
0.0
 11
146.299826
 21
145.781432
 31
0.0
  0
LINE
  5
3A8
  8
LAYER_1
 10
146.299826
 20
145.781432
 30
0.0
 11
146.470795
 21
145.894213
 31
0.0
  0
LINE
  5
3A9
  8
LAYER_1
 10
146.470795
 20
145.894213
 30
0.0
 11
146.440192
 21
146.115237
 31
0.0
  0
LINE
  5
3AA
  8
LAYER_1
 10
146.440192
 20
146.115237
 30
0.0
 11
146.127795
 21
146.425095
 31
0.0
  0
LINE
  5
3AB
  8
LAYER_1
 10
146.127795
 20
146.425095
 30
0.0
 11
145.613128
 21
146.553974
 31
0.0
  0
LINE
  5
3AC
  8
LAYER_1
 10
145.613128
 20
146.553974
 30
0.0
 11
145.074164
 21
146.639374
 31
0.0
  0
LINE
  5
3AD
  8
LAYER_1
 10
145.074164
 20
146.639374
 30
0.0
 11
144.786469
 21
146.873293
 31
0.0
  0
LINE
  5
3AE
  8
LAYER_1
 10
144.786469
 20
146.873293
 30
0.0
 11
144.76762
 21
147.222306
 31
0.0
  0
LINE
  5
3AF
  8
LAYER_1
 10
144.76762
 20
147.222306
 30
0.0
 11
145.035191
 21
147.652993
 31
0.0
  0
LINE
  5
3B0
  8
LAYER_1
 10
145.035191
 20
147.652993
 30
0.0
 11
145.296552
 21
148.037035
 31
0.0
  0
LINE
  5
3B1
  8
LAYER_1
 10
145.296552
 20
148.037035
 30
0.0
 11
145.285422
 21
148.310891
 31
0.0
  0
LINE
  5
3B2
  8
LAYER_1
 10
145.285422
 20
148.310891
 30
0.0
 11
145.001551
 21
148.474932
 31
0.0
  0
LINE
  5
3B3
  8
LAYER_1
 10
145.001551
 20
148.474932
 30
0.0
 11
144.444689
 21
148.52953
 31
0.0
  0
LINE
  5
3B4
  8
LAYER_1
 10
144.444689
 20
148.52953
 30
0.0
 11
143.862487
 21
148.7139
 31
0.0
  0
LINE
  5
3B5
  8
LAYER_1
 10
143.862487
 20
148.7139
 30
0.0
 11
143.444561
 21
149.266003
 31
0.0
  0
LINE
  5
3B6
  8
LAYER_1
 10
143.444561
 20
149.266003
 30
0.0
 11
143.263263
 21
149.939219
 31
0.0
  0
LINE
  5
3B7
  8
LAYER_1
 10
143.263263
 20
149.939219
 30
0.0
 11
143.633749
 21
150.386176
 31
0.0
  0
LINE
  5
3B8
  8
LAYER_1
 10
143.633749
 20
150.386176
 30
0.0
 11
143.990578
 21
150.793062
 31
0.0
  0
LINE
  5
3B9
  8
LAYER_1
 10
143.990578
 20
150.793062
 30
0.0
 11
143.48147
 21
151.319488
 31
0.0
  0
LINE
  5
3BA
  8
LAYER_1
 10
143.48147
 20
151.319488
 30
0.0
 11
142.930587
 21
151.634248
 31
0.0
  0
LINE
  5
3BB
  8
LAYER_1
 10
142.930587
 20
151.634248
 30
0.0
 11
142.608614
 21
151.525007
 31
0.0
  0
LINE
  5
3BC
  8
LAYER_1
 10
142.608614
 20
151.525007
 30
0.0
 11
142.532532
 21
151.018053
 31
0.0
  0
LINE
  5
3BD
  8
LAYER_1
 10
142.532532
 20
151.018053
 30
0.0
 11
142.719323
 21
150.139675
 31
0.0
  0
LINE
  5
3BE
  8
LAYER_1
 10
142.719323
 20
150.139675
 30
0.0
 11
142.848364
 21
149.353915
 31
0.0
  0
LINE
  5
3BF
  8
LAYER_1
 10
142.848364
 20
149.353915
 30
0.0
 11
142.736612
 21
148.754779
 31
0.0
  0
LINE
  5
3C0
  8
LAYER_1
 10
142.736612
 20
148.754779
 30
0.0
 11
142.420671
 21
148.422019
 31
0.0
  0
LINE
  5
3C1
  8
LAYER_1
 10
142.420671
 20
148.422019
 30
0.0
 11
141.937145
 21
148.435389
 31
0.0
  0
LINE
  5
3C2
  8
LAYER_1
 10
141.937145
 20
148.435389
 30
0.0
 11
141.652738
 21
148.462422
 31
0.0
  0
LINE
  5
3C3
  8
LAYER_1
 10
141.652738
 20
148.462422
 30
0.0
 11
141.534444
 21
148.310418
 31
0.0
  0
LINE
  5
3C4
  8
LAYER_1
 10
141.534444
 20
148.310418
 30
0.0
 11
141.692126
 21
148.071786
 31
0.0
  0
LINE
  5
3C5
  8
LAYER_1
 10
141.692126
 20
148.071786
 30
0.0
 11
142.071231
 21
147.890545
 31
0.0
  0
LINE
  5
3C6
  8
LAYER_1
 10
142.071231
 20
147.890545
 30
0.0
 11
142.335872
 21
147.769855
 31
0.0
  0
LINE
  5
3C7
  8
LAYER_1
 10
142.335872
 20
147.769855
 30
0.0
 11
142.490595
 21
147.542362
 31
0.0
  0
LINE
  5
3C8
  8
LAYER_1
 10
142.490595
 20
147.542362
 30
0.0
 11
142.546815
 21
146.551493
 31
0.0
  0
LINE
  5
3C9
  8
LAYER_1
 10
142.546815
 20
146.551493
 30
0.0
 11
142.4019
 21
145.713421
 31
0.0
  0
LINE
  5
3CA
  8
LAYER_1
 10
142.4019
 20
145.713421
 30
0.0
 11
142.072564
 21
145.094041
 31
0.0
  0
LINE
  5
3CB
  8
LAYER_1
 10
142.072564
 20
145.094041
 30
0.0
 11
141.572665
 21
144.710118
 31
0.0
  0
LINE
  5
3CC
  8
LAYER_1
 10
141.572665
 20
144.710118
 30
0.0
 11
140.916059
 21
144.578418
 31
0.0
  0
LINE
  5
3CD
  8
LAYER_1
 10
140.916059
 20
144.578418
 30
0.0
 11
140.555516
 21
144.495516
 31
0.0
  0
LINE
  5
3CE
  8
LAYER_1
 10
140.555516
 20
144.495516
 30
0.0
 11
140.405556
 21
144.296196
 31
0.0
  0
LINE
  5
3CF
  8
LAYER_1
 10
140.405556
 20
144.296196
 30
0.0
 11
140.52991
 21
144.096877
 31
0.0
  0
LINE
  5
3D0
  8
LAYER_1
 10
140.52991
 20
144.096877
 30
0.0
 11
140.828889
 21
144.013974
 31
0.0
  0
LINE
  5
3D1
  8
LAYER_1
 10
140.828889
 20
144.013974
 30
0.0
 11
141.133161
 21
143.951797
 31
0.0
  0
LINE
  5
3D2
  8
LAYER_1
 10
141.133161
 20
143.951797
 30
0.0
 11
141.270239
 21
143.802307
 31
0.0
  0
LINE
  5
3D3
  8
LAYER_1
 10
141.270239
 20
143.802307
 30
0.0
 11
141.378536
 21
142.673418
 31
0.0
  0
LINE
  5
3D4
  8
LAYER_1
 10
141.378536
 20
142.673418
 30
0.0
 11
141.391051
 21
142.143013
 31
0.0
  0
LINE
  5
3D5
  8
LAYER_1
 10
141.391051
 20
142.143013
 30
0.0
 11
141.273915
 21
141.836364
 31
0.0
  0
LINE
  5
3D6
  8
LAYER_1
 10
141.273915
 20
141.836364
 30
0.0
 11
140.988804
 21
141.712448
 31
0.0
  0
LINE
  5
3D7
  8
LAYER_1
 10
140.988804
 20
141.712448
 30
0.0
 11
140.497393
 21
141.730243
 31
0.0
  0
LINE
  5
3D8
  8
LAYER_1
 10
140.497393
 20
141.730243
 30
0.0
 11
140.210678
 21
141.674043
 31
0.0
  0
LINE
  5
3D9
  8
LAYER_1
 10
140.210678
 20
141.674043
 30
0.0
 11
139.986848
 21
141.481459
 31
0.0
  0
LINE
  5
3DA
  8
LAYER_1
 10
139.986848
 20
141.481459
 30
0.0
 11
139.546171
 21
141.189862
 31
0.0
  0
LINE
  5
3DB
  8
LAYER_1
 10
139.546171
 20
141.189862
 30
0.0
 11
138.902136
 21
141.197514
 31
0.0
  0
LINE
  5
3DC
  8
LAYER_1
 10
138.902136
 20
141.197514
 30
0.0
 11
138.23073
 21
141.467298
 31
0.0
  0
LINE
  5
3DD
  8
LAYER_1
 10
138.23073
 20
141.467298
 30
0.0
 11
137.707943
 21
141.962097
 31
0.0
  0
LINE
  5
3DE
  8
LAYER_1
 10
137.707943
 20
141.962097
 30
0.0
 11
137.309748
 21
142.427938
 31
0.0
  0
LINE
  5
3DF
  8
LAYER_1
 10
137.309748
 20
142.427938
 30
0.0
 11
137.110663
 21
142.384038
 31
0.0
  0
LINE
  5
3E0
  8
LAYER_1
 10
137.110663
 20
142.384038
 30
0.0
 11
137.136496
 21
141.90787
 31
0.0
  0
LINE
  5
3E1
  8
LAYER_1
 10
137.136496
 20
141.90787
 30
0.0
 11
137.413057
 21
141.076907
 31
0.0
  0
LINE
  5
3E2
  8
LAYER_1
 10
137.413057
 20
141.076907
 30
0.0
 11
137.696457
 21
140.211509
 31
0.0
  0
LINE
  5
3E3
  8
LAYER_1
 10
137.696457
 20
140.211509
 30
0.0
 11
137.588727
 21
140.086916
 31
0.0
  0
LINE
  5
3E4
  8
LAYER_1
 10
137.588727
 20
140.086916
 30
0.0
 11
137.303366
 21
140.062863
 31
0.0
  0
LINE
  5
3E5
  8
LAYER_1
 10
137.303366
 20
140.062863
 30
0.0
 11
136.878965
 21
139.985688
 31
0.0
  0
LINE
  5
3E6
  8
LAYER_1
 10
136.878965
 20
139.985688
 30
0.0
 11
136.607609
 21
139.800142
 31
0.0
  0
LINE
  5
3E7
  8
LAYER_1
 10
136.607609
 20
139.800142
 30
0.0
 11
136.553133
 21
139.516899
 31
0.0
  0
LINE
  5
3E8
  8
LAYER_1
 10
136.553133
 20
139.516899
 30
0.0
 11
136.769128
 21
139.369858
 31
0.0
  0
LINE
  5
3E9
  8
LAYER_1
 10
136.769128
 20
139.369858
 30
0.0
 11
137.183338
 21
139.375259
 31
0.0
  0
LINE
  5
3EA
  8
LAYER_1
 10
137.183338
 20
139.375259
 30
0.0
 11
137.723507
 21
139.549343
 31
0.0
  0
LINE
  5
3EB
  8
LAYER_1
 10
137.723507
 20
139.549343
 30
0.0
 11
138.372053
 21
139.74624
 31
0.0
  0
LINE
  5
3EC
  8
LAYER_1
 10
138.372053
 20
139.74624
 30
0.0
 11
138.713811
 21
139.495847
 31
0.0
  0
LINE
  5
3ED
  8
LAYER_1
 10
138.713811
 20
139.495847
 30
0.0
 11
138.839155
 21
139.142397
 31
0.0
  0
LINE
  5
3EE
  8
LAYER_1
 10
138.839155
 20
139.142397
 30
0.0
 11
138.798732
 21
138.845627
 31
0.0
  0
LINE
  5
3EF
  8
LAYER_1
 10
138.798732
 20
138.845627
 30
0.0
 11
138.918596
 21
138.479724
 31
0.0
  0
LINE
  5
3F0
  8
LAYER_1
 10
138.918596
 20
138.479724
 30
0.0
 11
139.429309
 21
137.960059
 31
0.0
  0
LINE
  5
3F1
  8
LAYER_1
 10
139.429309
 20
137.960059
 30
0.0
 11
139.942526
 21
137.409459
 31
0.0
  0
LINE
  5
3F2
  8
LAYER_1
 10
139.942526
 20
137.409459
 30
0.0
 11
140.036859
 21
136.931115
 31
0.0
  0
LINE
  5
3F3
  8
LAYER_1
 10
140.036859
 20
136.931115
 30
0.0
 11
139.719094
 21
136.551106
 31
0.0
  0
LINE
  5
3F4
  8
LAYER_1
 10
139.719094
 20
136.551106
 30
0.0
 11
138.996022
 21
136.295512
 31
0.0
  0
LINE
  5
3F5
  8
LAYER_1
 10
138.996022
 20
136.295512
 30
0.0
 11
138.307899
 21
136.07322
 31
0.0
  0
LINE
  5
3F6
  8
LAYER_1
 10
138.307899
 20
136.07322
 30
0.0
 11
138.569711
 21
135.6495
 31
0.0
  0
LINE
  5
3F7
  8
LAYER_1
 10
138.569711
 20
135.6495
 30
0.0
 11
138.885135
 21
135.171455
 31
0.0
  0
LINE
  5
3F8
  8
LAYER_1
 10
138.885135
 20
135.171455
 30
0.0
 11
138.498476
 21
134.643683
 31
0.0
  0
LINE
  5
3F9
  8
LAYER_1
 10
138.498476
 20
134.643683
 30
0.0
 11
137.687067
 21
134.202722
 31
0.0
  0
LINE
  5
3FA
  8
LAYER_1
 10
137.687067
 20
134.202722
 30
0.0
 11
136.373252
 21
133.941395
 31
0.0
  0
LINE
  5
3FB
  8
LAYER_1
 10
136.373252
 20
133.941395
 30
0.0
 11
134.807254
 21
133.604137
 31
0.0
  0
LINE
  5
3FC
  8
LAYER_1
 10
134.807254
 20
133.604137
 30
0.0
 11
134.722532
 21
132.898398
 31
0.0
  0
LINE
  5
3FD
  8
LAYER_1
 10
134.722532
 20
132.898398
 30
0.0
 11
134.517179
 21
132.779035
 31
0.0
  0
LINE
  5
3FE
  8
LAYER_1
 10
134.517179
 20
132.779035
 30
0.0
 11
134.196667
 21
132.806859
 31
0.0
  0
LINE
  5
3FF
  8
LAYER_1
 10
134.196667
 20
132.806859
 30
0.0
 11
133.772517
 21
132.812956
 31
0.0
  0
LINE
  5
400
  8
LAYER_1
 10
133.772517
 20
132.812956
 30
0.0
 11
133.632222
 21
132.532745
 31
0.0
  0
LINE
  5
401
  8
LAYER_1
 10
133.632222
 20
132.532745
 30
0.0
 11
133.682263
 21
132.333706
 31
0.0
  0
LINE
  5
402
  8
LAYER_1
 10
133.682263
 20
132.333706
 30
0.0
 11
133.859738
 21
132.234458
 31
0.0
  0
LINE
  5
403
  8
LAYER_1
 10
133.859738
 20
132.234458
 30
0.0
 11
134.761111
 21
132.301752
 31
0.0
  0
LINE
  5
404
  8
LAYER_1
 10
134.761111
 20
132.301752
 30
0.0
 11
135.517357
 21
132.372285
 31
0.0
  0
LINE
  5
405
  8
LAYER_1
 10
135.517357
 20
132.372285
 30
0.0
 11
135.836763
 21
132.243142
 31
0.0
  0
LINE
  5
406
  8
LAYER_1
 10
135.836763
 20
132.243142
 30
0.0
 11
135.726351
 21
131.898402
 31
0.0
  0
LINE
  5
407
  8
LAYER_1
 10
135.726351
 20
131.898402
 30
0.0
 11
135.193143
 21
131.322144
 31
0.0
  0
LINE
  5
408
  8
LAYER_1
 10
135.193143
 20
131.322144
 30
0.0
 11
134.744473
 21
130.790185
 31
0.0
  0
LINE
  5
409
  8
LAYER_1
 10
134.744473
 20
130.790185
 30
0.0
 11
134.660872
 21
130.448768
 31
0.0
  0
LINE
  5
40A
  8
LAYER_1
 10
134.660872
 20
130.448768
 30
0.0
 11
134.912364
 21
130.372474
 31
0.0
  0
LINE
  5
40B
  8
LAYER_1
 10
134.912364
 20
130.372474
 30
0.0
 11
135.468972
 21
130.635882
 31
0.0
  0
LINE
  5
40C
  8
LAYER_1
 10
135.468972
 20
130.635882
 30
0.0
 11
135.979728
 21
130.888231
 31
0.0
  0
LINE
  5
40D
  8
LAYER_1
 10
135.979728
 20
130.888231
 30
0.0
 11
136.36756
 21
130.90498
 31
0.0
  0
LINE
  5
40E
  8
LAYER_1
 10
136.36756
 20
130.90498
 30
0.0
 11
136.617605
 21
130.69073
 31
0.0
  0
LINE
  5
40F
  8
LAYER_1
 10
136.617605
 20
130.69073
 30
0.0
 11
136.715
 21
130.250084
 31
0.0
  0
LINE
  5
410
  8
LAYER_1
 10
136.715
 20
130.250084
 30
0.0
 11
136.766574
 21
129.338418
 31
0.0
  0
LINE
  5
411
  8
LAYER_1
 10
136.766574
 20
129.338418
 30
0.0
 11
136.581569
 21
128.375832
 31
0.0
  0
LINE
  5
412
  8
LAYER_1
 10
136.581569
 20
128.375832
 30
0.0
 11
136.51294
 21
127.965428
 31
0.0
  0
LINE
  5
413
  8
LAYER_1
 10
136.51294
 20
127.965428
 30
0.0
 11
136.971004
 21
127.996559
 31
0.0
  0
LINE
  5
414
  8
LAYER_1
 10
136.971004
 20
127.996559
 30
0.0
 11
137.455966
 21
128.040555
 31
0.0
  0
LINE
  5
415
  8
LAYER_1
 10
137.455966
 20
128.040555
 30
0.0
 11
137.735958
 21
127.845634
 31
0.0
  0
LINE
  5
416
  8
LAYER_1
 10
137.735958
 20
127.845634
 30
0.0
 11
137.825498
 21
127.386083
 31
0.0
  0
LINE
  5
417
  8
LAYER_1
 10
137.825498
 20
127.386083
 30
0.0
 11
137.739103
 21
126.636191
 31
0.0
  0
LINE
  5
418
  8
LAYER_1
 10
137.739103
 20
126.636191
 30
0.0
 11
137.493214
 21
125.874206
 31
0.0
  0
LINE
  5
419
  8
LAYER_1
 10
137.493214
 20
125.874206
 30
0.0
 11
137.297374
 21
125.835392
 31
0.0
  0
LINE
  5
41A
  8
LAYER_1
 10
137.297374
 20
125.835392
 30
0.0
 11
136.989021
 21
125.967737
 31
0.0
  0
LINE
  5
41B
  8
LAYER_1
 10
136.989021
 20
125.967737
 30
0.0
 11
136.328525
 21
126.127457
 31
0.0
  0
LINE
  5
41C
  8
LAYER_1
 10
136.328525
 20
126.127457
 30
0.0
 11
135.52067
 21
126.058404
 31
0.0
  0
LINE
  5
41D
  8
LAYER_1
 10
135.52067
 20
126.058404
 30
0.0
 11
134.242474
 21
125.916559
 31
0.0
  0
LINE
  5
41E
  8
LAYER_1
 10
134.242474
 20
125.916559
 30
0.0
 11
134.000004
 21
125.830578
 31
0.0
  0
LINE
  5
41F
  8
LAYER_1
 10
134.000004
 20
125.830578
 30
0.0
 11
134.050411
 21
125.403521
 31
0.0
  0
LINE
  5
420
  8
LAYER_1
 10
134.050411
 20
125.403521
 30
0.0
 11
134.055604
 21
124.890471
 31
0.0
  0
LINE
  5
421
  8
LAYER_1
 10
134.055604
 20
124.890471
 30
0.0
 11
133.58127
 21
124.567065
 31
0.0
  0
LINE
  5
422
  8
LAYER_1
 10
133.58127
 20
124.567065
 30
0.0
 11
133.121152
 21
124.32385
 31
0.0
  0
LINE
  5
423
  8
LAYER_1
 10
133.121152
 20
124.32385
 30
0.0
 11
133.420556
 21
124.11538
 31
0.0
  0
LINE
  5
424
  8
LAYER_1
 10
133.420556
 20
124.11538
 30
0.0
 11
133.741648
 21
123.872118
 31
0.0
  0
LINE
  5
425
  8
LAYER_1
 10
133.741648
 20
123.872118
 30
0.0
 11
133.901901
 21
123.543145
 31
0.0
  0
LINE
  5
426
  8
LAYER_1
 10
133.901901
 20
123.543145
 30
0.0
 11
133.874398
 21
123.253828
 31
0.0
  0
LINE
  5
427
  8
LAYER_1
 10
133.874398
 20
123.253828
 30
0.0
 11
133.632222
 21
123.12953
 31
0.0
  0
LINE
  5
428
  8
LAYER_1
 10
133.632222
 20
123.12953
 30
0.0
 11
133.432903
 21
123.046627
 31
0.0
  0
LINE
  5
429
  8
LAYER_1
 10
133.432903
 20
123.046627
 30
0.0
 11
133.35
 21
122.847307
 31
0.0
  0
LINE
  5
42A
  8
LAYER_1
 10
133.35
 20
122.847307
 30
0.0
 11
133.513895
 21
122.647988
 31
0.0
  0
LINE
  5
42B
  8
LAYER_1
 10
133.513895
 20
122.647988
 30
0.0
 11
133.907939
 21
122.565085
 31
0.0
  0
LINE
  5
42C
  8
LAYER_1
 10
133.907939
 20
122.565085
 30
0.0
 11
134.248209
 21
122.652777
 31
0.0
  0
LINE
  5
42D
  8
LAYER_1
 10
134.248209
 20
122.652777
 30
0.0
 11
134.605748
 21
122.934715
 31
0.0
  0
LINE
  5
42E
  8
LAYER_1
 10
134.605748
 20
122.934715
 30
0.0
 11
135.481966
 21
124.194506
 31
0.0
  0
LINE
  5
42F
  8
LAYER_1
 10
135.481966
 20
124.194506
 30
0.0
 11
135.990717
 21
124.093756
 31
0.0
  0
LINE
  5
430
  8
LAYER_1
 10
135.990717
 20
124.093756
 30
0.0
 11
136.330993
 21
123.735323
 31
0.0
  0
LINE
  5
431
  8
LAYER_1
 10
136.330993
 20
123.735323
 30
0.0
 11
136.454444
 21
123.059891
 31
0.0
  0
LINE
  5
432
  8
LAYER_1
 10
136.454444
 20
123.059891
 30
0.0
 11
136.597358
 21
122.340565
 31
0.0
  0
LINE
  5
433
  8
LAYER_1
 10
136.597358
 20
122.340565
 30
0.0
 11
136.948333
 21
121.820086
 31
0.0
  0
LINE
  5
434
  8
LAYER_1
 10
136.948333
 20
121.820086
 30
0.0
 11
137.301112
 21
121.436196
 31
0.0
  0
LINE
  5
435
  8
LAYER_1
 10
137.301112
 20
121.436196
 30
0.0
 11
136.948333
 21
121.052306
 31
0.0
  0
LINE
  5
436
  8
LAYER_1
 10
136.948333
 20
121.052306
 30
0.0
 11
136.470812
 21
120.510813
 31
0.0
  0
LINE
  5
437
  8
LAYER_1
 10
136.470812
 20
120.510813
 30
0.0
 11
136.561773
 21
120.416719
 31
0.0
  0
LINE
  5
438
  8
LAYER_1
 10
136.561773
 20
120.416719
 30
0.0
 11
136.87841
 21
120.487712
 31
0.0
  0
LINE
  5
439
  8
LAYER_1
 10
136.87841
 20
120.487712
 30
0.0
 11
137.981185
 21
120.480033
 31
0.0
  0
LINE
  5
43A
  8
LAYER_1
 10
137.981185
 20
120.480033
 30
0.0
 11
138.479382
 21
120.223313
 31
0.0
  0
LINE
  5
43B
  8
LAYER_1
 10
138.479382
 20
120.223313
 30
0.0
 11
138.512082
 21
119.74404
 31
0.0
  0
LINE
  5
43C
  8
LAYER_1
 10
138.512082
 20
119.74404
 30
0.0
 11
138.292932
 21
119.34457
 31
0.0
  0
LINE
  5
43D
  8
LAYER_1
 10
138.292932
 20
119.34457
 30
0.0
 11
137.973751
 21
119.178418
 31
0.0
  0
LINE
  5
43E
  8
LAYER_1
 10
137.973751
 20
119.178418
 30
0.0
 11
137.698019
 21
119.086646
 31
0.0
  0
LINE
  5
43F
  8
LAYER_1
 10
137.698019
 20
119.086646
 30
0.0
 11
137.583333
 21
118.866001
 31
0.0
  0
LINE
  5
440
  8
LAYER_1
 10
137.583333
 20
118.866001
 30
0.0
 11
137.452819
 21
118.69544
 31
0.0
  0
LINE
  5
441
  8
LAYER_1
 10
137.452819
 20
118.69544
 30
0.0
 11
137.139031
 21
118.72408
 31
0.0
  0
LINE
  5
442
  8
LAYER_1
 10
137.139031
 20
118.72408
 30
0.0
 11
136.71261
 21
118.731861
 31
0.0
  0
LINE
  5
443
  8
LAYER_1
 10
136.71261
 20
118.731861
 30
0.0
 11
136.311304
 21
118.511152
 31
0.0
  0
LINE
  5
444
  8
LAYER_1
 10
136.311304
 20
118.511152
 30
0.0
 11
135.618585
 21
118.116177
 31
0.0
  0
LINE
  5
445
  8
LAYER_1
 10
135.618585
 20
118.116177
 30
0.0
 11
134.671049
 21
117.924139
 31
0.0
  0
LINE
  5
446
  8
LAYER_1
 10
134.671049
 20
117.924139
 30
0.0
 11
133.694308
 21
117.954049
 31
0.0
  0
LINE
  5
447
  8
LAYER_1
 10
133.694308
 20
117.954049
 30
0.0
 11
132.913969
 21
118.224914
 31
0.0
  0
LINE
  5
448
  8
LAYER_1
 10
132.913969
 20
118.224914
 30
0.0
 11
132.378378
 21
118.49058
 31
0.0
  0
LINE
  5
449
  8
LAYER_1
 10
132.378378
 20
118.49058
 30
0.0
 11
132.043091
 21
118.489481
 31
0.0
  0
LINE
  5
44A
  8
LAYER_1
 10
132.043091
 20
118.489481
 30
0.0
 11
131.950909
 21
118.246094
 31
0.0
  0
LINE
  5
44B
  8
LAYER_1
 10
131.950909
 20
118.246094
 30
0.0
 11
132.144629
 21
117.784898
 31
0.0
  0
LINE
  5
44C
  8
LAYER_1
 10
132.144629
 20
117.784898
 30
0.0
 11
132.333906
 21
117.370006
 31
0.0
  0
LINE
  5
44D
  8
LAYER_1
 10
132.333906
 20
117.370006
 30
0.0
 11
132.263203
 21
117.104012
 31
0.0
  0
LINE
  5
44E
  8
LAYER_1
 10
132.263203
 20
117.104012
 30
0.0
 11
131.90683
 21
116.962397
 31
0.0
  0
LINE
  5
44F
  8
LAYER_1
 10
131.90683
 20
116.962397
 30
0.0
 11
131.239096
 21
116.920641
 31
0.0
  0
LINE
  5
450
  8
LAYER_1
 10
131.239096
 20
116.920641
 30
0.0
 11
130.365482
 21
116.715688
 31
0.0
  0
LINE
  5
451
  8
LAYER_1
 10
130.365482
 20
116.715688
 30
0.0
 11
129.523586
 21
116.05684
 31
0.0
  0
LINE
  5
452
  8
LAYER_1
 10
129.523586
 20
116.05684
 30
0.0
 11
128.696014
 21
115.193043
 31
0.0
  0
LINE
  5
453
  8
LAYER_1
 10
128.696014
 20
115.193043
 30
0.0
 11
129.398889
 21
114.662863
 31
0.0
  0
LINE
  5
454
  8
LAYER_1
 10
129.398889
 20
114.662863
 30
0.0
 11
130.101763
 21
114.132683
 31
0.0
  0
LINE
  5
455
  8
LAYER_1
 10
130.101763
 20
114.132683
 30
0.0
 11
129.326993
 21
113.323998
 31
0.0
  0
LINE
  5
456
  8
LAYER_1
 10
129.326993
 20
113.323998
 30
0.0
 11
128.779811
 21
112.65377
 31
0.0
  0
LINE
  5
457
  8
LAYER_1
 10
128.779811
 20
112.65377
 30
0.0
 11
128.552222
 21
112.177975
 31
0.0
  0
LINE
  5
458
  8
LAYER_1
 10
128.552222
 20
112.177975
 30
0.0
 11
128.72353
 21
111.905783
 31
0.0
  0
LINE
  5
459
  8
LAYER_1
 10
128.72353
 20
111.905783
 30
0.0
 11
129.123538
 21
111.852659
 31
0.0
  0
LINE
  5
45A
  8
LAYER_1
 10
129.123538
 20
111.852659
 30
0.0
 11
129.581376
 21
111.999864
 31
0.0
  0
LINE
  5
45B
  8
LAYER_1
 10
129.581376
 20
111.999864
 30
0.0
 11
129.92617
 21
112.328657
 31
0.0
  0
LINE
  5
45C
  8
LAYER_1
 10
129.92617
 20
112.328657
 30
0.0
 11
130.236764
 21
112.674095
 31
0.0
  0
LINE
  5
45D
  8
LAYER_1
 10
130.236764
 20
112.674095
 30
0.0
 11
130.726033
 21
112.339962
 31
0.0
  0
LINE
  5
45E
  8
LAYER_1
 10
130.726033
 20
112.339962
 30
0.0
 11
131.22618
 21
112.014399
 31
0.0
  0
LINE
  5
45F
  8
LAYER_1
 10
131.22618
 20
112.014399
 30
0.0
 11
131.598233
 21
112.416391
 31
0.0
  0
LINE
  5
460
  8
LAYER_1
 10
131.598233
 20
112.416391
 30
0.0
 11
131.913458
 21
112.798622
 31
0.0
  0
LINE
  5
461
  8
LAYER_1
 10
131.913458
 20
112.798622
 30
0.0
 11
132.205275
 21
112.950986
 31
0.0
  0
LINE
  5
462
  8
LAYER_1
 10
132.205275
 20
112.950986
 30
0.0
 11
132.419846
 21
112.86629
 31
0.0
  0
LINE
  5
463
  8
LAYER_1
 10
132.419846
 20
112.86629
 30
0.0
 11
132.503333
 21
112.53734
 31
0.0
  0
LINE
  5
464
  8
LAYER_1
 10
132.503333
 20
112.53734
 30
0.0
 11
132.624532
 21
112.185595
 31
0.0
  0
LINE
  5
465
  8
LAYER_1
 10
132.624532
 20
112.185595
 30
0.0
 11
132.915922
 21
111.946821
 31
0.0
  0
LINE
  5
466
  8
LAYER_1
 10
132.915922
 20
111.946821
 30
0.0
 11
133.259431
 21
111.670804
 31
0.0
  0
LINE
  5
467
  8
LAYER_1
 10
133.259431
 20
111.670804
 30
0.0
 11
133.505928
 21
111.229514
 31
0.0
  0
LINE
  5
468
  8
LAYER_1
 10
133.505928
 20
111.229514
 30
0.0
 11
133.738178
 21
110.816709
 31
0.0
  0
LINE
  5
469
  8
LAYER_1
 10
133.738178
 20
110.816709
 30
0.0
 11
134.26346
 21
111.18503
 31
0.0
  0
LINE
  5
46A
  8
LAYER_1
 10
134.26346
 20
111.18503
 30
0.0
 11
134.732156
 21
111.494194
 31
0.0
  0
LINE
  5
46B
  8
LAYER_1
 10
134.732156
 20
111.494194
 30
0.0
 11
134.961689
 21
111.362607
 31
0.0
  0
LINE
  5
46C
  8
LAYER_1
 10
134.961689
 20
111.362607
 30
0.0
 11
135.172214
 21
111.169898
 31
0.0
  0
LINE
  5
46D
  8
LAYER_1
 10
135.172214
 20
111.169898
 30
0.0
 11
135.55373
 21
111.207311
 31
0.0
  0
LINE
  5
46E
  8
LAYER_1
 10
135.55373
 20
111.207311
 30
0.0
 11
136.645218
 21
111.912263
 31
0.0
  0
LINE
  5
46F
  8
LAYER_1
 10
136.645218
 20
111.912263
 30
0.0
 11
137.167787
 21
112.252167
 31
0.0
  0
LINE
  5
470
  8
LAYER_1
 10
137.167787
 20
112.252167
 30
0.0
 11
137.552688
 21
112.281322
 31
0.0
  0
LINE
  5
471
  8
LAYER_1
 10
137.552688
 20
112.281322
 30
0.0
 11
137.71609
 21
112.033204
 31
0.0
  0
LINE
  5
472
  8
LAYER_1
 10
137.71609
 20
112.033204
 30
0.0
 11
137.574167
 21
111.54129
 31
0.0
  0
LINE
  5
473
  8
LAYER_1
 10
137.574167
 20
111.54129
 30
0.0
 11
137.421237
 21
111.154627
 31
0.0
  0
LINE
  5
474
  8
LAYER_1
 10
137.421237
 20
111.154627
 30
0.0
 11
137.492972
 21
111.014902
 31
0.0
  0
LINE
  5
475
  8
LAYER_1
 10
137.492972
 20
111.014902
 30
0.0
 11
138.221601
 21
111.484115
 31
0.0
  0
LINE
  5
476
  8
LAYER_1
 10
138.221601
 20
111.484115
 30
0.0
 11
138.742625
 21
111.826227
 31
0.0
  0
LINE
  5
477
  8
LAYER_1
 10
138.742625
 20
111.826227
 30
0.0
 11
139.161046
 21
111.430177
 31
0.0
  0
LINE
  5
478
  8
LAYER_1
 10
139.161046
 20
111.430177
 30
0.0
 11
139.558889
 21
110.678481
 31
0.0
  0
LINE
  5
479
  8
LAYER_1
 10
139.558889
 20
110.678481
 30
0.0
 11
139.284517
 21
110.374347
 31
0.0
  0
LINE
  5
47A
  8
LAYER_1
 10
139.284517
 20
110.374347
 30
0.0
 11
138.658803
 21
110.028108
 31
0.0
  0
LINE
  5
47B
  8
LAYER_1
 10
138.658803
 20
110.028108
 30
0.0
 11
137.977845
 21
109.775474
 31
0.0
  0
LINE
  5
47C
  8
LAYER_1
 10
137.977845
 20
109.775474
 30
0.0
 11
137.537743
 21
109.752151
 31
0.0
  0
LINE
  5
47D
  8
LAYER_1
 10
137.537743
 20
109.752151
 30
0.0
 11
137.40454
 21
109.658883
 31
0.0
  0
LINE
  5
47E
  8
LAYER_1
 10
137.40454
 20
109.658883
 30
0.0
 11
137.461506
 21
109.183177
 31
0.0
  0
LINE
  5
47F
  8
LAYER_1
 10
137.461506
 20
109.183177
 30
0.0
 11
137.498274
 21
108.586539
 31
0.0
  0
LINE
  5
480
  8
LAYER_1
 10
137.498274
 20
108.586539
 30
0.0
 11
137.023063
 21
108.453974
 31
0.0
  0
LINE
  5
481
  8
LAYER_1
 10
137.023063
 20
108.453974
 30
0.0
 11
136.528161
 21
108.302136
 31
0.0
  0
LINE
  5
482
  8
LAYER_1
 10
136.528161
 20
108.302136
 30
0.0
 11
136.253189
 21
107.886442
 31
0.0
  0
LINE
  5
483
  8
LAYER_1
 10
136.253189
 20
107.886442
 30
0.0
 11
135.934194
 21
107.435954
 31
0.0
  0
LINE
  5
484
  8
LAYER_1
 10
135.934194
 20
107.435954
 30
0.0
 11
135.362388
 21
107.158932
 31
0.0
  0
LINE
  5
485
  8
LAYER_1
 10
135.362388
 20
107.158932
 30
0.0
 11
134.365074
 21
106.885876
 31
0.0
  0
LINE
  5
486
  8
LAYER_1
 10
134.365074
 20
106.885876
 30
0.0
 11
133.773605
 21
106.541703
 31
0.0
  0
LINE
  5
487
  8
LAYER_1
 10
133.773605
 20
106.541703
 30
0.0
 11
133.50471
 21
106.04503
 31
0.0
  0
LINE
  5
488
  8
LAYER_1
 10
133.50471
 20
106.04503
 30
0.0
 11
133.475115
 21
105.314472
 31
0.0
  0
LINE
  5
489
  8
LAYER_1
 10
133.475115
 20
105.314472
 30
0.0
 11
133.43401
 21
104.587088
 31
0.0
  0
LINE
  5
48A
  8
LAYER_1
 10
133.43401
 20
104.587088
 30
0.0
 11
133.182884
 21
104.230353
 31
0.0
  0
LINE
  5
48B
  8
LAYER_1
 10
133.182884
 20
104.230353
 30
0.0
 11
132.724941
 21
104.245809
 31
0.0
  0
LINE
  5
48C
  8
LAYER_1
 10
132.724941
 20
104.245809
 30
0.0
 11
132.063386
 21
104.634999
 31
0.0
  0
LINE
  5
48D
  8
LAYER_1
 10
132.063386
 20
104.634999
 30
0.0
 11
131.299203
 21
105.026703
 31
0.0
  0
LINE
  5
48E
  8
LAYER_1
 10
131.299203
 20
105.026703
 30
0.0
 11
131.166068
 21
104.858642
 31
0.0
  0
LINE
  5
48F
  8
LAYER_1
 10
131.166068
 20
104.858642
 30
0.0
 11
131.166105
 21
104.440878
 31
0.0
  0
LINE
  5
490
  8
LAYER_1
 10
131.166105
 20
104.440878
 30
0.0
 11
131.169592
 21
104.107994
 31
0.0
  0
LINE
  5
491
  8
LAYER_1
 10
131.169592
 20
104.107994
 30
0.0
 11
131.044842
 21
103.930545
 31
0.0
  0
LINE
  5
492
  8
LAYER_1
 10
131.044842
 20
103.930545
 30
0.0
 11
130.143292
 21
103.90079
 31
0.0
  0
LINE
  5
493
  8
LAYER_1
 10
130.143292
 20
103.90079
 30
0.0
 11
129.436888
 21
103.882093
 31
0.0
  0
LINE
  5
494
  8
LAYER_1
 10
129.436888
 20
103.882093
 30
0.0
 11
129.233346
 21
103.722053
 31
0.0
  0
LINE
  5
495
  8
LAYER_1
 10
129.233346
 20
103.722053
 30
0.0
 11
129.51754
 21
103.493544
 31
0.0
  0
LINE
  5
496
  8
LAYER_1
 10
129.51754
 20
103.493544
 30
0.0
 11
130.274342
 21
103.269439
 31
0.0
  0
LINE
  5
497
  8
LAYER_1
 10
130.274342
 20
103.269439
 30
0.0
 11
130.934774
 21
103.046958
 31
0.0
  0
LINE
  5
498
  8
LAYER_1
 10
130.934774
 20
103.046958
 30
0.0
 11
130.95713
 21
102.892322
 31
0.0
  0
LINE
  5
499
  8
LAYER_1
 10
130.95713
 20
102.892322
 30
0.0
 11
130.810102
 21
102.668543
 31
0.0
  0
LINE
  5
49A
  8
LAYER_1
 10
130.810102
 20
102.668543
 30
0.0
 11
130.614722
 21
102.326738
 31
0.0
  0
LINE
  5
49B
  8
LAYER_1
 10
130.614722
 20
102.326738
 30
0.0
 11
130.916556
 21
102.245085
 31
0.0
  0
LINE
  5
49C
  8
LAYER_1
 10
130.916556
 20
102.245085
 30
0.0
 11
131.266468
 21
102.041502
 31
0.0
  0
LINE
  5
49D
  8
LAYER_1
 10
131.266468
 20
102.041502
 30
0.0
 11
131.374444
 21
101.381762
 31
0.0
  0
LINE
  5
49E
  8
LAYER_1
 10
131.374444
 20
101.381762
 30
0.0
 11
131.45381
 21
100.81027
 31
0.0
  0
LINE
  5
49F
  8
LAYER_1
 10
131.45381
 20
100.81027
 30
0.0
 11
131.656667
 21
100.692863
 31
0.0
  0
LINE
  5
4A0
  8
LAYER_1
 10
131.656667
 20
100.692863
 30
0.0
 11
131.938889
 21
101.294123
 31
0.0
  0
LINE
  5
4A1
  8
LAYER_1
 10
131.938889
 20
101.294123
 30
0.0
 11
132.066384
 21
101.842707
 31
0.0
  0
LINE
  5
4A2
  8
LAYER_1
 10
132.066384
 20
101.842707
 30
0.0
 11
132.417834
 21
102.195594
 31
0.0
  0
LINE
  5
4A3
  8
LAYER_1
 10
132.417834
 20
102.195594
 30
0.0
 11
132.946686
 21
102.327166
 31
0.0
  0
LINE
  5
4A4
  8
LAYER_1
 10
132.946686
 20
102.327166
 30
0.0
 11
133.606388
 21
102.211803
 31
0.0
  0
LINE
  5
4A5
  8
LAYER_1
 10
133.606388
 20
102.211803
 30
0.0
 11
134.156833
 21
101.949236
 31
0.0
  0
LINE
  5
4A6
  8
LAYER_1
 10
134.156833
 20
101.949236
 30
0.0
 11
134.429114
 21
101.641911
 31
0.0
  0
LINE
  5
4A7
  8
LAYER_1
 10
134.429114
 20
101.641911
 30
0.0
 11
134.423491
 21
101.289187
 31
0.0
  0
LINE
  5
4A8
  8
LAYER_1
 10
134.423491
 20
101.289187
 30
0.0
 11
134.140222
 21
100.890418
 31
0.0
  0
LINE
  5
4A9
  8
LAYER_1
 10
134.140222
 20
100.890418
 30
0.0
 11
134.030861
 21
100.622308
 31
0.0
  0
LINE
  5
4AA
  8
LAYER_1
 10
134.030861
 20
100.622308
 30
0.0
 11
134.563556
 21
100.551752
 31
0.0
  0
LINE
  5
4AB
  8
LAYER_1
 10
134.563556
 20
100.551752
 30
0.0
 11
135.104875
 21
100.477944
 31
0.0
  0
LINE
  5
4AC
  8
LAYER_1
 10
135.104875
 20
100.477944
 30
0.0
 11
135.293883
 21
100.269973
 31
0.0
  0
LINE
  5
4AD
  8
LAYER_1
 10
135.293883
 20
100.269973
 30
0.0
 11
135.129637
 21
99.948016
 31
0.0
  0
LINE
  5
4AE
  8
LAYER_1
 10
135.129637
 20
99.948016
 30
0.0
 11
134.611192
 21
99.53224899999999
 31
0.0
  0
LINE
  5
4AF
  8
LAYER_1
 10
134.611192
 20
99.53224899999999
 30
0.0
 11
134.145939
 21
99.16241100000001
 31
0.0
  0
LINE
  5
4B0
  8
LAYER_1
 10
134.145939
 20
99.16241100000001
 30
0.0
 11
134.0305
 21
98.93051199999999
 31
0.0
  0
LINE
  5
4B1
  8
LAYER_1
 10
134.0305
 20
98.93051199999999
 30
0.0
 11
135.000094
 21
99.39207500000001
 31
0.0
  0
LINE
  5
4B2
  8
LAYER_1
 10
135.000094
 20
99.39207500000001
 30
0.0
 11
136.082804
 21
99.960245
 31
0.0
  0
LINE
  5
4B3
  8
LAYER_1
 10
136.082804
 20
99.960245
 30
0.0
 11
136.358241
 21
99.909837
 31
0.0
  0
LINE
  5
4B4
  8
LAYER_1
 10
136.358241
 20
99.909837
 30
0.0
 11
136.445055
 21
99.63453
 31
0.0
  0
LINE
  5
4B5
  8
LAYER_1
 10
136.445055
 20
99.63453
 30
0.0
 11
136.271928
 21
99.14933000000001
 31
0.0
  0
LINE
  5
4B6
  8
LAYER_1
 10
136.271928
 20
99.14933000000001
 30
0.0
 11
135.867884
 21
98.617238
 31
0.0
  0
LINE
  5
4B7
  8
LAYER_1
 10
135.867884
 20
98.617238
 30
0.0
 11
135.373047
 21
98.188097
 31
0.0
  0
LINE
  5
4B8
  8
LAYER_1
 10
135.373047
 20
98.188097
 30
0.0
 11
134.92754
 21
98.011752
 31
0.0
  0
LINE
  5
4B9
  8
LAYER_1
 10
134.92754
 20
98.011752
 30
0.0
 11
134.61068
 21
97.88739800000001
 31
0.0
  0
LINE
  5
4BA
  8
LAYER_1
 10
134.61068
 20
97.88739800000001
 30
0.0
 11
134.478889
 21
97.588418
 31
0.0
  0
LINE
  5
4BB
  8
LAYER_1
 10
134.478889
 20
97.588418
 30
0.0
 11
134.38779
 21
97.289439
 31
0.0
  0
LINE
  5
4BC
  8
LAYER_1
 10
134.38779
 20
97.289439
 30
0.0
 11
134.168763
 21
97.16508500000001
 31
0.0
  0
LINE
  5
4BD
  8
LAYER_1
 10
134.168763
 20
97.16508500000001
 30
0.0
 11
132.775695
 21
97.665761
 31
0.0
  0
LINE
  5
4BE
  8
LAYER_1
 10
132.775695
 20
97.665761
 30
0.0
 11
131.256035
 21
98.552955
 31
0.0
  0
LINE
  5
4BF
  8
LAYER_1
 10
131.256035
 20
98.552955
 30
0.0
 11
130.825463
 21
98.857387
 31
0.0
  0
LINE
  5
4C0
  8
LAYER_1
 10
130.825463
 20
98.857387
 30
0.0
 11
130.881202
 21
98.540032
 31
0.0
  0
LINE
  5
4C1
  8
LAYER_1
 10
130.881202
 20
98.540032
 30
0.0
 11
130.940715
 21
97.997291
 31
0.0
  0
LINE
  5
4C2
  8
LAYER_1
 10
130.940715
 20
97.997291
 30
0.0
 11
130.637334
 21
97.728116
 31
0.0
  0
LINE
  5
4C3
  8
LAYER_1
 10
130.637334
 20
97.728116
 30
0.0
 11
129.987096
 21
97.73688799999999
 31
0.0
  0
LINE
  5
4C4
  8
LAYER_1
 10
129.987096
 20
97.73688799999999
 30
0.0
 11
129.006041
 21
98.027985
 31
0.0
  0
LINE
  5
4C5
  8
LAYER_1
 10
129.006041
 20
98.027985
 30
0.0
 11
127.440611
 21
98.543195
 31
0.0
  0
LINE
  5
4C6
  8
LAYER_1
 10
127.440611
 20
98.543195
 30
0.0
 11
127.2496
 21
98.469341
 31
0.0
  0
LINE
  5
4C7
  8
LAYER_1
 10
127.2496
 20
98.469341
 30
0.0
 11
127.307704
 21
98.188228
 31
0.0
  0
LINE
  5
4C8
  8
LAYER_1
 10
127.307704
 20
98.188228
 30
0.0
 11
127.741933
 21
97.76583100000001
 31
0.0
  0
LINE
  5
4C9
  8
LAYER_1
 10
127.741933
 20
97.76583100000001
 30
0.0
 11
128.576872
 21
97.29508199999999
 31
0.0
  0
LINE
  5
4CA
  8
LAYER_1
 10
128.576872
 20
97.29508199999999
 30
0.0
 11
129.302277
 21
96.888784
 31
0.0
  0
LINE
  5
4CB
  8
LAYER_1
 10
129.302277
 20
96.888784
 30
0.0
 11
129.550189
 21
96.528972
 31
0.0
  0
LINE
  5
4CC
  8
LAYER_1
 10
129.550189
 20
96.528972
 30
0.0
 11
129.32104
 21
96.19975700000001
 31
0.0
  0
LINE
  5
4CD
  8
LAYER_1
 10
129.32104
 20
96.19975700000001
 30
0.0
 11
128.615265
 21
95.88525
 31
0.0
  0
LINE
  5
4CE
  8
LAYER_1
 10
128.615265
 20
95.88525
 30
0.0
 11
127.531091
 21
95.391361
 31
0.0
  0
LINE
  5
4CF
  8
LAYER_1
 10
127.531091
 20
95.391361
 30
0.0
 11
127.506373
 21
95.293035
 31
0.0
  0
LINE
  5
4D0
  8
LAYER_1
 10
127.506373
 20
95.293035
 30
0.0
 11
127.640753
 21
95.22876100000001
 31
0.0
  0
LINE
  5
4D1
  8
LAYER_1
 10
127.640753
 20
95.22876100000001
 30
0.0
 11
128.248358
 21
95.19694200000001
 31
0.0
  0
LINE
  5
4D2
  8
LAYER_1
 10
128.248358
 20
95.19694200000001
 30
0.0
 11
129.849807
 21
95.48223900000001
 31
0.0
  0
LINE
  5
4D3
  8
LAYER_1
 10
129.849807
 20
95.48223900000001
 30
0.0
 11
130.621562
 21
95.645999
 31
0.0
  0
LINE
  5
4D4
  8
LAYER_1
 10
130.621562
 20
95.645999
 30
0.0
 11
130.98017
 21
95.458752
 31
0.0
  0
LINE
  5
4D5
  8
LAYER_1
 10
130.98017
 20
95.458752
 30
0.0
 11
130.890174
 21
95.00510199999999
 31
0.0
  0
LINE
  5
4D6
  8
LAYER_1
 10
130.890174
 20
95.00510199999999
 30
0.0
 11
130.316111
 21
94.369654
 31
0.0
  0
LINE
  5
4D7
  8
LAYER_1
 10
130.316111
 20
94.369654
 30
0.0
 11
129.466831
 21
93.50988
 31
0.0
  0
LINE
  5
4D8
  8
LAYER_1
 10
129.466831
 20
93.50988
 30
0.0
 11
129.412906
 21
93.28885099999999
 31
0.0
  0
LINE
  5
4D9
  8
LAYER_1
 10
129.412906
 20
93.28885099999999
 30
0.0
 11
129.610556
 21
93.21431800000001
 31
0.0
  0
LINE
  5
4DA
  8
LAYER_1
 10
129.610556
 20
93.21431800000001
 30
0.0
 11
130.649681
 21
93.926278
 31
0.0
  0
LINE
  5
4DB
  8
LAYER_1
 10
130.649681
 20
93.926278
 30
0.0
 11
131.322619
 21
94.399839
 31
0.0
  0
LINE
  5
4DC
  8
LAYER_1
 10
131.322619
 20
94.399839
 30
0.0
 11
131.77857
 21
94.53911700000001
 31
0.0
  0
LINE
  5
4DD
  8
LAYER_1
 10
131.77857
 20
94.53911700000001
 30
0.0
 11
132.03542
 21
94.142471
 31
0.0
  0
LINE
  5
4DE
  8
LAYER_1
 10
132.03542
 20
94.142471
 30
0.0
 11
132.166023
 21
93.402278
 31
0.0
  0
LINE
  5
4DF
  8
LAYER_1
 10
132.166023
 20
93.402278
 30
0.0
 11
132.143074
 21
92.687552
 31
0.0
  0
LINE
  5
4E0
  8
LAYER_1
 10
132.143074
 20
92.687552
 30
0.0
 11
131.93927
 21
92.367307
 31
0.0
  0
LINE
  5
4E1
  8
LAYER_1
 10
131.93927
 20
92.367307
 30
0.0
 11
131.767392
 21
92.28440500000001
 31
0.0
  0
LINE
  5
4E2
  8
LAYER_1
 10
131.767392
 20
92.28440500000001
 30
0.0
 11
131.797778
 21
92.08508500000001
 31
0.0
  0
LINE
  5
4E3
  8
LAYER_1
 10
131.797778
 20
92.08508500000001
 30
0.0
 11
132.015605
 21
91.864221
 31
0.0
  0
LINE
  5
4E4
  8
LAYER_1
 10
132.015605
 20
91.864221
 30
0.0
 11
132.246185
 21
91.814457
 31
0.0
  0
LINE
  5
4E5
  8
LAYER_1
 10
132.246185
 20
91.814457
 30
0.0
 11
132.428952
 21
91.92664600000001
 31
0.0
  0
LINE
  5
4E6
  8
LAYER_1
 10
132.428952
 20
91.92664600000001
 30
0.0
 11
132.503333
 21
92.191641
 31
0.0
  0
LINE
  5
4E7
  8
LAYER_1
 10
132.503333
 20
92.191641
 30
0.0
 11
132.623712
 21
92.566118
 31
0.0
  0
LINE
  5
4E8
  8
LAYER_1
 10
132.623712
 20
92.566118
 30
0.0
 11
132.913134
 21
92.920519
 31
0.0
  0
LINE
  5
4E9
  8
LAYER_1
 10
132.913134
 20
92.920519
 30
0.0
 11
133.137353
 21
93.051097
 31
0.0
  0
LINE
  5
4EA
  8
LAYER_1
 10
133.137353
 20
93.051097
 30
0.0
 11
133.32695
 21
93.00018
 31
0.0
  0
LINE
  5
4EB
  8
LAYER_1
 10
133.32695
 20
93.00018
 30
0.0
 11
133.753885
 21
92.22921
 31
0.0
  0
LINE
  5
4EC
  8
LAYER_1
 10
133.753885
 20
92.22921
 30
0.0
 11
134.117216
 21
91.61074600000001
 31
0.0
  0
LINE
  5
4ED
  8
LAYER_1
 10
134.117216
 20
91.61074600000001
 30
0.0
 11
134.451444
 21
91.39572200000001
 31
0.0
  0
LINE
  5
4EE
  8
LAYER_1
 10
134.451444
 20
91.39572200000001
 30
0.0
 11
134.649146
 21
91.58861
 31
0.0
  0
LINE
  5
4EF
  8
LAYER_1
 10
134.649146
 20
91.58861
 30
0.0
 11
134.602895
 21
92.193879
 31
0.0
  0
LINE
  5
4F0
  8
LAYER_1
 10
134.602895
 20
92.193879
 30
0.0
 11
134.604068
 21
92.76246500000001
 31
0.0
  0
LINE
  5
4F1
  8
LAYER_1
 10
134.604068
 20
92.76246500000001
 30
0.0
 11
134.8929
 21
93.206238
 31
0.0
  0
LINE
  5
4F2
  8
LAYER_1
 10
134.8929
 20
93.206238
 30
0.0
 11
135.335014
 21
93.41367
 31
0.0
  0
LINE
  5
4F3
  8
LAYER_1
 10
135.335014
 20
93.41367
 30
0.0
 11
135.748734
 21
93.044183
 31
0.0
  0
LINE
  5
4F4
  8
LAYER_1
 10
135.748734
 20
93.044183
 30
0.0
 11
136.033237
 21
92.559201
 31
0.0
  0
LINE
  5
4F5
  8
LAYER_1
 10
136.033237
 20
92.559201
 30
0.0
 11
136.146199
 21
92.095333
 31
0.0
  0
LINE
  5
4F6
  8
LAYER_1
 10
136.146199
 20
92.095333
 30
0.0
 11
136.086377
 21
91.67330200000001
 31
0.0
  0
LINE
  5
4F7
  8
LAYER_1
 10
136.086377
 20
91.67330200000001
 30
0.0
 11
135.852527
 21
91.313834
 31
0.0
  0
LINE
  5
4F8
  8
LAYER_1
 10
135.852527
 20
91.313834
 30
0.0
 11
135.67502
 21
90.962232
 31
0.0
  0
LINE
  5
4F9
  8
LAYER_1
 10
135.67502
 20
90.962232
 30
0.0
 11
135.697186
 21
90.565826
 31
0.0
  0
LINE
  5
4FA
  8
LAYER_1
 10
135.697186
 20
90.565826
 30
0.0
 11
135.820489
 21
90.39528300000001
 31
0.0
  0
LINE
  5
4FB
  8
LAYER_1
 10
135.820489
 20
90.39528300000001
 30
0.0
 11
136.021357
 21
90.406125
 31
0.0
  0
LINE
  5
4FC
  8
LAYER_1
 10
136.021357
 20
90.406125
 30
0.0
 11
136.818124
 21
91.040747
 31
0.0
  0
LINE
  5
4FD
  8
LAYER_1
 10
136.818124
 20
91.040747
 30
0.0
 11
139.164305
 21
93.208001
 31
0.0
  0
LINE
  5
4FE
  8
LAYER_1
 10
139.164305
 20
93.208001
 30
0.0
 11
139.961843
 21
93.778418
 31
0.0
  0
LINE
  5
4FF
  8
LAYER_1
 10
139.961843
 20
93.778418
 30
0.0
 11
140.306076
 21
93.634388
 31
0.0
  0
LINE
  5
500
  8
LAYER_1
 10
140.306076
 20
93.634388
 30
0.0
 11
140.631915
 21
93.287899
 31
0.0
  0
LINE
  5
501
  8
LAYER_1
 10
140.631915
 20
93.287899
 30
0.0
 11
140.848546
 21
92.867357
 31
0.0
  0
LINE
  5
502
  8
LAYER_1
 10
140.848546
 20
92.867357
 30
0.0
 11
140.865157
 21
92.501165
 31
0.0
  0
LINE
  5
503
  8
LAYER_1
 10
140.865157
 20
92.501165
 30
0.0
 11
140.827502
 21
92.196997
 31
0.0
  0
LINE
  5
504
  8
LAYER_1
 10
140.827502
 20
92.196997
 30
0.0
 11
140.969431
 21
92.095016
 31
0.0
  0
LINE
  5
505
  8
LAYER_1
 10
140.969431
 20
92.095016
 30
0.0
 11
141.206874
 21
92.195545
 31
0.0
  0
LINE
  5
506
  8
LAYER_1
 10
141.206874
 20
92.195545
 30
0.0
 11
141.455761
 21
92.49890499999999
 31
0.0
  0
LINE
  5
507
  8
LAYER_1
 10
141.455761
 20
92.49890499999999
 30
0.0
 11
141.79609
 21
92.728477
 31
0.0
  0
LINE
  5
508
  8
LAYER_1
 10
141.79609
 20
92.728477
 30
0.0
 11
142.296257
 21
92.752628
 31
0.0
  0
LINE
  5
509
  8
LAYER_1
 10
142.296257
 20
92.752628
 30
0.0
 11
142.748625
 21
92.59947800000001
 31
0.0
  0
LINE
  5
50A
  8
LAYER_1
 10
142.748625
 20
92.59947800000001
 30
0.0
 11
142.945556
 21
92.297147
 31
0.0
  0
LINE
  5
50B
  8
LAYER_1
 10
142.945556
 20
92.297147
 30
0.0
 11
142.388773
 21
91.10970500000001
 31
0.0
  0
LINE
  5
50C
  8
LAYER_1
 10
142.388773
 20
91.10970500000001
 30
0.0
 11
141.831991
 21
90.20881300000001
 31
0.0
  0
LINE
  5
50D
  8
LAYER_1
 10
141.831991
 20
90.20881300000001
 30
0.0
 11
143.023773
 21
89.598642
 31
0.0
  0
LINE
  5
50E
  8
LAYER_1
 10
143.023773
 20
89.598642
 30
0.0
 11
144.255717
 21
89.03299300000001
 31
0.0
  0
LINE
  5
50F
  8
LAYER_1
 10
144.255717
 20
89.03299300000001
 30
0.0
 11
144.527889
 21
89.041602
 31
0.0
  0
LINE
  5
510
  8
LAYER_1
 10
144.527889
 20
89.041602
 30
0.0
 11
144.78
 21
89.196628
 31
0.0
  0
LINE
  5
511
  8
LAYER_1
 10
144.78
 20
89.196628
 30
0.0
 11
144.78
 21
89.196628
 31
0.0
  0
LINE
  5
512
  8
LAYER_1
 10
135.466667
 20
92.367307
 30
0.0
 11
135.167788
 21
92.64953
 31
0.0
  0
LINE
  5
513
  8
LAYER_1
 10
135.167788
 20
92.64953
 30
0.0
 11
135.043333
 21
92.367307
 31
0.0
  0
LINE
  5
514
  8
LAYER_1
 10
135.043333
 20
92.367307
 30
0.0
 11
135.131129
 21
92.16798799999999
 31
0.0
  0
LINE
  5
515
  8
LAYER_1
 10
135.131129
 20
92.16798799999999
 30
0.0
 11
135.342212
 21
92.08508500000001
 31
0.0
  0
LINE
  5
516
  8
LAYER_1
 10
135.342212
 20
92.08508500000001
 30
0.0
 11
135.502058
 21
92.16798799999999
 31
0.0
  0
LINE
  5
517
  8
LAYER_1
 10
135.502058
 20
92.16798799999999
 30
0.0
 11
135.466667
 21
92.367307
 31
0.0
  0
LINE
  5
518
  8
LAYER_1
 10
135.466667
 20
92.367307
 30
0.0
 11
135.466667
 21
92.367307
 31
0.0
  0
LINE
  5
519
  8
LAYER_1
 10
152.180188
 20
114.835639
 30
0.0
 11
151.936085
 21
114.87845
 31
0.0
  0
LINE
  5
51A
  8
LAYER_1
 10
151.936085
 20
114.87845
 30
0.0
 11
151.61584
 21
114.714738
 31
0.0
  0
LINE
  5
51B
  8
LAYER_1
 10
151.61584
 20
114.714738
 30
0.0
 11
151.164849
 21
114.557105
 31
0.0
  0
LINE
  5
51C
  8
LAYER_1
 10
151.164849
 20
114.557105
 30
0.0
 11
150.526214
 21
114.77499
 31
0.0
  0
LINE
  5
51D
  8
LAYER_1
 10
150.526214
 20
114.77499
 30
0.0
 11
149.848045
 21
115.004169
 31
0.0
  0
LINE
  5
51E
  8
LAYER_1
 10
149.848045
 20
115.004169
 30
0.0
 11
149.291686
 21
114.766247
 31
0.0
  0
LINE
  5
51F
  8
LAYER_1
 10
149.291686
 20
114.766247
 30
0.0
 11
148.9635
 21
114.493916
 31
0.0
  0
LINE
  5
520
  8
LAYER_1
 10
148.9635
 20
114.493916
 30
0.0
 11
148.932985
 21
114.288623
 31
0.0
  0
LINE
  5
521
  8
LAYER_1
 10
148.932985
 20
114.288623
 30
0.0
 11
150.001111
 21
113.73631
 31
0.0
  0
LINE
  5
522
  8
LAYER_1
 10
150.001111
 20
113.73631
 30
0.0
 11
150.946087
 21
113.475021
 31
0.0
  0
LINE
  5
523
  8
LAYER_1
 10
150.946087
 20
113.475021
 30
0.0
 11
151.679478
 21
113.98262
 31
0.0
  0
LINE
  5
524
  8
LAYER_1
 10
151.679478
 20
113.98262
 30
0.0
 11
152.11143
 21
114.50674
 31
0.0
  0
LINE
  5
525
  8
LAYER_1
 10
152.11143
 20
114.50674
 30
0.0
 11
152.180188
 21
114.835639
 31
0.0
  0
LINE
  5
526
  8
LAYER_1
 10
152.180188
 20
114.835639
 30
0.0
 11
152.180188
 21
114.835639
 31
0.0
  0
LINE
  5
527
  8
LAYER_1
 10
154.957687
 20
114.697063
 30
0.0
 11
155.340078
 21
115.270867
 31
0.0
  0
LINE
  5
528
  8
LAYER_1
 10
155.340078
 20
115.270867
 30
0.0
 11
155.66946
 21
115.50953
 31
0.0
  0
LINE
  5
529
  8
LAYER_1
 10
155.66946
 20
115.50953
 30
0.0
 11
155.824186
 21
115.592432
 31
0.0
  0
LINE
  5
52A
  8
LAYER_1
 10
155.824186
 20
115.592432
 30
0.0
 11
155.786667
 21
115.791752
 31
0.0
  0
LINE
  5
52B
  8
LAYER_1
 10
155.786667
 20
115.791752
 30
0.0
 11
155.295277
 21
116.028402
 31
0.0
  0
LINE
  5
52C
  8
LAYER_1
 10
155.295277
 20
116.028402
 30
0.0
 11
154.48361
 21
116.078703
 31
0.0
  0
LINE
  5
52D
  8
LAYER_1
 10
154.48361
 20
116.078703
 30
0.0
 11
153.72375
 21
115.95907
 31
0.0
  0
LINE
  5
52E
  8
LAYER_1
 10
153.72375
 20
115.95907
 30
0.0
 11
153.387778
 21
115.685918
 31
0.0
  0
LINE
  5
52F
  8
LAYER_1
 10
153.387778
 20
115.685918
 30
0.0
 11
153.520614
 21
114.448986
 31
0.0
  0
LINE
  5
530
  8
LAYER_1
 10
153.520614
 20
114.448986
 30
0.0
 11
153.872833
 21
113.842709
 31
0.0
  0
LINE
  5
531
  8
LAYER_1
 10
153.872833
 20
113.842709
 30
0.0
 11
154.109514
 21
113.789734
 31
0.0
  0
LINE
  5
532
  8
LAYER_1
 10
154.109514
 20
113.789734
 30
0.0
 11
154.375002
 21
113.910823
 31
0.0
  0
LINE
  5
533
  8
LAYER_1
 10
154.375002
 20
113.910823
 30
0.0
 11
154.957687
 21
114.697063
 31
0.0
  0
LINE
  5
534
  8
LAYER_1
 10
154.957687
 20
114.697063
 30
0.0
 11
154.957687
 21
114.697063
 31
0.0
  0
LINE
  5
535
  8
LAYER_1
 10
129.453764
 20
117.837863
 30
0.0
 11
129.01637
 21
118.179854
 31
0.0
  0
LINE
  5
536
  8
LAYER_1
 10
129.01637
 20
118.179854
 30
0.0
 11
128.834444
 21
118.132404
 31
0.0
  0
LINE
  5
537
  8
LAYER_1
 10
128.834444
 20
118.132404
 30
0.0
 11
128.972925
 21
117.756453
 31
0.0
  0
LINE
  5
538
  8
LAYER_1
 10
128.972925
 20
117.756453
 30
0.0
 11
129.293413
 21
117.356807
 31
0.0
  0
LINE
  5
539
  8
LAYER_1
 10
129.293413
 20
117.356807
 30
0.0
 11
129.65348
 21
117.075897
 31
0.0
  0
LINE
  5
53A
  8
LAYER_1
 10
129.65348
 20
117.075897
 30
0.0
 11
129.910696
 21
117.056153
 31
0.0
  0
LINE
  5
53B
  8
LAYER_1
 10
129.910696
 20
117.056153
 30
0.0
 11
129.843459
 21
117.352766
 31
0.0
  0
LINE
  5
53C
  8
LAYER_1
 10
129.843459
 20
117.352766
 30
0.0
 11
129.453764
 21
117.837863
 31
0.0
  0
LINE
  5
53D
  8
LAYER_1
 10
129.453764
 20
117.837863
 30
0.0
 11
129.453764
 21
117.837863
 31
0.0
  0
LINE
  5
53E
  8
LAYER_1
 10
137.731912
 20
119.97058
 30
0.0
 11
137.518087
 21
119.979145
 31
0.0
  0
LINE
  5
53F
  8
LAYER_1
 10
137.518087
 20
119.979145
 30
0.0
 11
137.225851
 21
119.777884
 31
0.0
  0
LINE
  5
540
  8
LAYER_1
 10
137.225851
 20
119.777884
 30
0.0
 11
137.050267
 21
119.536933
 31
0.0
  0
LINE
  5
541
  8
LAYER_1
 10
137.050267
 20
119.536933
 30
0.0
 11
137.383839
 21
119.619896
 31
0.0
  0
LINE
  5
542
  8
LAYER_1
 10
137.383839
 20
119.619896
 30
0.0
 11
137.694835
 21
119.802396
 31
0.0
  0
LINE
  5
543
  8
LAYER_1
 10
137.694835
 20
119.802396
 30
0.0
 11
137.731912
 21
119.97058
 31
0.0
  0
LINE
  5
544
  8
LAYER_1
 10
137.731912
 20
119.97058
 30
0.0
 11
137.731912
 21
119.97058
 31
0.0
  0
ENDSEC
  0
EOF
