  0
SECTION
  2
HEADER
  9
$ACADVER
  1
AC1009
  9
$DWGCODEPAGE
  3
ansi_1252
  9
$INSBASE
 10
0.0
 20
0.0
 30
0.0
  9
$EXTMIN
 10
20.727683
 20
2.35664
 30
0.0
  9
$EXTMAX
 10
88.258461
 20
130.963628
 30
0.0
  9
$LIMMIN
 10
0.0
 20
0.0
  9
$LIMMAX
 10
12.0
 20
9.0
  9
$ORTHOMODE
 70
     0
  9
$REGENMODE
 70
     1
  9
$FILLMODE
 70
     1
  9
$QTEXTMODE
 70
     0
  9
$MIRRTEXT
 70
     1
  9
$DRAGMODE
 70
     2
  9
$LTSCALE
 40
1.0
  9
$OSMODE
 70
    37
  9
$ATTMODE
 70
     1
  9
$TEXTSIZE
 40
0.2
  9
$TRACEWID
 40
0.05
  9
$TEXTSTYLE
  7
STANDARD
  9
$CLAYER
  8
0
  9
$CELTYPE
  6
BYBLOCK
  9
$CECOLOR
 62
   256
  9
$DIMSCALE
 40
1.0
  9
$DIMASZ
 40
0.18
  9
$DIMEXO
 40
0.0625
  9
$DIMDLI
 40
0.38
  9
$DIMRND
 40
0.0
  9
$DIMDLE
 40
0.0
  9
$DIMEXE
 40
0.18
  9
$DIMTP
 40
0.0
  9
$DIMTM
 40
0.0
  9
$DIMTXT
 40
0.18
  9
$DIMCEN
 40
0.09
  9
$DIMTSZ
 40
0.0
  9
$DIMTOL
 70
     0
  9
$DIMLIM
 70
     0
  9
$DIMTIH
 70
     1
  9
$DIMTOH
 70
     1
  9
$DIMSE1
 70
     0
  9
$DIMSE2
 70
     0
  9
$DIMTAD
 70
     0
  9
$DIMZIN
 70
     0
  9
$DIMBLK
  1

  9
$DIMASO
 70
     1
  9
$DIMSHO
 70
     1
  9
$DIMPOST
  1

  9
$DIMAPOST
  1

  9
$DIMALT
 70
     0
  9
$DIMALTD
 70
     2
  9
$DIMALTF
 40
25.4
  9
$DIMLFAC
 40
1.0
  9
$DIMTOFL
 70
     0
  9
$DIMTVP
 40
0.0
  9
$DIMTIX
 70
     0
  9
$DIMSOXD
 70
     0
  9
$DIMSAH
 70
     0
  9
$DIMBLK1
  1

  9
$DIMBLK2
  1

  9
$DIMSTYLE
  2
STANDARD
  9
$DIMCLRD
 70
     0
  9
$DIMCLRE
 70
     0
  9
$DIMCLRT
 70
     0
  9
$DIMTFAC
 40
1.0
  9
$DIMGAP
 40
0.09
  9
$LUNITS
 70
     2
  9
$LUPREC
 70
     4
  9
$SKETCHINC
 40
0.1
  9
$FILLETRAD
 40
0.5
  9
$AUNITS
 70
     0
  9
$AUPREC
 70
     0
  9
$MENU
  1
.
  9
$ELEVATION
 40
0.0
  9
$PELEVATION
 40
0.0
  9
$THICKNESS
 40
0.0
  9
$LIMCHECK
 70
     0
  9
$CHAMFERA
 40
0.5
  9
$CHAMFERB
 40
0.5
  9
$SKPOLY
 70
     0
  9
$TDCREATE
 40
2453353.550459155
  9
$TDUPDATE
 40
4910249.905127407
  9
$TDINDWG
 40
4895786.051922963
  9
$TDUSRTIMER
 40
4895786.051922963
  9
$USRTIMER
 70
     1
  9
$ANGBASE
 50
0.0
  9
$ANGDIR
 70
     0
  9
$PDMODE
 70
     0
  9
$PDSIZE
 40
0.0
  9
$PLINEWID
 40
0.0
  9
$COORDS
 70
     1
  9
$SPLFRAME
 70
     0
  9
$SPLINETYPE
 70
     6
  9
$SPLINESEGS
 70
     8
  9
$ATTDIA
 70
     0
  9
$ATTREQ
 70
     1
  9
$HANDLING
 70
     1
  9
$HANDSEED
  5
7E4
  9
$SURFTAB1
 70
     6
  9
$SURFTAB2
 70
     6
  9
$SURFTYPE
 70
     6
  9
$SURFU
 70
     6
  9
$SURFV
 70
     6
  9
$UCSNAME
  2

  9
$UCSORG
 10
0.0
 20
0.0
 30
0.0
  9
$UCSXDIR
 10
1.0
 20
0.0
 30
0.0
  9
$UCSYDIR
 10
0.0
 20
1.0
 30
0.0
  9
$PUCSNAME
  2

  9
$PUCSORG
 10
0.0
 20
0.0
 30
0.0
  9
$PUCSXDIR
 10
1.0
 20
0.0
 30
0.0
  9
$PUCSYDIR
 10
0.0
 20
1.0
 30
0.0
  9
$USERI1
 70
     0
  9
$USERI2
 70
     0
  9
$USERI3
 70
     0
  9
$USERI4
 70
     0
  9
$USERI5
 70
     0
  9
$USERR1
 40
0.0
  9
$USERR2
 40
0.0
  9
$USERR3
 40
0.0
  9
$USERR4
 40
0.0
  9
$USERR5
 40
0.0
  9
$WORLDVIEW
 70
     1
  9
$SHADEDGE
 70
     3
  9
$SHADEDIF
 70
    70
  9
$TILEMODE
 70
     1
  9
$MAXACTVP
 70
    64
  9
$PLIMCHECK
 70
     0
  9
$PEXTMIN
 10
0.0
 20
0.0
 30
0.0
  9
$PEXTMAX
 10
0.0
 20
0.0
 30
0.0
  9
$PLIMMIN
 10
0.0
 20
0.0
  9
$PLIMMAX
 10
0.0
 20
0.0
  9
$UNITMODE
 70
     0
  9
$VISRETAIN
 70
     1
  9
$PLINEGEN
 70
     0
  9
$PSLTSCALE
 70
     1
  0
ENDSEC
  0
SECTION
  2
TABLES
  0
TABLE
  2
VPORT
 70
     1
  0
VPORT
  2
*ACTIVE
 70
     0
 10
0.0
 20
0.0
 11
1.0
 21
1.0
 12
53.10250279203132
 22
68.68819099786192
 13
0.0
 23
0.0
 14
0.5
 24
0.5
 15
0.5
 25
0.5
 16
0.0
 26
0.0
 36
1.0
 17
0.0
 27
0.0
 37
0.0
 40
135.5482469116861
 41
1.972972972850329
 42
50.0
 43
0.0
 44
0.0
 50
0.0
 51
0.0
 71
    16
 72
   100
 73
     1
 74
     3
 75
     0
 76
     0
 77
     0
 78
     0
  0
ENDTAB
  0
TABLE
  2
LTYPE
 70
     1
  0
LTYPE
  2
CONTINUOUS
 70
     0
  3
Solid line
 72
    65
 73
     0
 40
0.0
  0
ENDTAB
  0
TABLE
  2
LAYER
 70
     2
  0
LAYER
  2
0
 70
     0
 62
     7
  6
CONTINUOUS
  0
LAYER
  2
LAYER_1
 70
     0
 62
     7
  6
CONTINUOUS
  0
ENDTAB
  0
TABLE
  2
STYLE
 70
     1
  0
STYLE
  2
STANDARD
 70
     0
 40
0.0
 41
1.0
 50
0.0
 71
     0
 42
0.2
  3
txt
  4

  0
ENDTAB
  0
TABLE
  2
VIEW
 70
     0
  0
ENDTAB
  0
TABLE
  2
UCS
 70
     0
  0
ENDTAB
  0
TABLE
  2
APPID
 70
     1
  0
APPID
  2
ACAD
 70
     0
  0
ENDTAB
  0
TABLE
  2
DIMSTYLE
 70
     1
  0
DIMSTYLE
  2
STANDARD
 70
     0
  3

  4

  5

  6

  7

 40
1.0
 41
0.18
 42
0.0625
 43
0.38
 44
0.18
 45
0.0
 46
0.0
 47
0.0
 48
0.0
140
0.18
141
0.09
142
0.0
143
25.4
144
1.0
145
0.0
146
1.0
147
0.09
 71
     0
 72
     0
 73
     1
 74
     1
 75
     0
 76
     0
 77
     0
 78
     0
170
     0
171
     2
172
     0
173
     0
174
     0
175
     0
176
     0
177
     0
178
     0
  0
ENDTAB
  0
ENDSEC
  0
SECTION
  2
BLOCKS
  0
BLOCK
  8
0
  2
$MODEL_SPACE
 70
     0
 10
0.0
 20
0.0
 30
0.0
  3
$MODEL_SPACE
  1

  0
ENDBLK
  5
21
  8
0
  0
BLOCK
 67
     1
  8
0
  2
$PAPER_SPACE
 70
     0
 10
0.0
 20
0.0
 30
0.0
  3
$PAPER_SPACE
  1

  0
ENDBLK
  5
76
 67
     1
  8
0
  0
ENDSEC
  0
SECTION
  2
ENTITIES
  0
LINE
  5
7CD
  8
LAYER_1
 10
53.491519
 20
2.611354
 30
0.0
 11
51.353602
 21
2.805838
 31
0.0
  0
LINE
  5
7CE
  8
LAYER_1
 10
51.353602
 20
2.805838
 30
0.0
 11
50.726148
 21
2.93864
 31
0.0
  0
LINE
  5
23
  8
LAYER_1
 10
50.726148
 20
2.93864
 30
0.0
 11
50.331209
 21
3.151124
 31
0.0
  0
LINE
  5
24
  8
LAYER_1
 10
50.331209
 20
3.151124
 30
0.0
 11
50.122418
 21
3.48527
 31
0.0
  0
LINE
  5
25
  8
LAYER_1
 10
50.122418
 20
3.48527
 30
0.0
 11
50.05341
 21
3.98306
 31
0.0
  0
LINE
  5
26
  8
LAYER_1
 10
50.05341
 20
3.98306
 30
0.0
 11
50.149275
 21
5.637496
 31
0.0
  0
LINE
  5
7CF
  8
LAYER_1
 10
50.149275
 20
5.637496
 30
0.0
 11
50.442043
 21
16.10555
 31
0.0
  0
LINE
  5
28
  8
LAYER_1
 10
50.442043
 20
16.10555
 30
0.0
 11
50.449141
 21
21.457276
 31
0.0
  0
LINE
  5
29
  8
LAYER_1
 10
50.449141
 20
21.457276
 30
0.0
 11
50.294467
 21
25.422083
 31
0.0
  0
LINE
  5
2A
  8
LAYER_1
 10
50.294467
 20
25.422083
 30
0.0
 11
49.970973
 21
28.097866
 31
0.0
  0
LINE
  5
2B
  8
LAYER_1
 10
49.970973
 20
28.097866
 30
0.0
 11
49.471611
 21
29.582522
 31
0.0
  0
LINE
  5
2C
  8
LAYER_1
 10
49.471611
 20
29.582522
 30
0.0
 11
48.867107
 21
30.253638
 31
0.0
  0
LINE
  5
2D
  8
LAYER_1
 10
48.867107
 20
30.253638
 30
0.0
 11
48.073818
 21
30.805417
 31
0.0
  0
LINE
  5
2E
  8
LAYER_1
 10
48.073818
 20
30.805417
 30
0.0
 11
47.289836
 21
31.128041
 31
0.0
  0
LINE
  5
2F
  8
LAYER_1
 10
47.289836
 20
31.128041
 30
0.0
 11
46.713247
 21
31.111695
 31
0.0
  0
LINE
  5
30
  8
LAYER_1
 10
46.713247
 20
31.111695
 30
0.0
 11
44.94604
 21
30.312913
 31
0.0
  0
LINE
  5
31
  8
LAYER_1
 10
44.94604
 20
30.312913
 30
0.0
 11
43.409077
 21
29.892566
 31
0.0
  0
LINE
  5
32
  8
LAYER_1
 10
43.409077
 20
29.892566
 30
0.0
 11
42.714761
 21
29.658049
 31
0.0
  0
LINE
  5
33
  8
LAYER_1
 10
42.714761
 20
29.658049
 30
0.0
 11
42.47311
 21
29.034864
 31
0.0
  0
LINE
  5
34
  8
LAYER_1
 10
42.47311
 20
29.034864
 30
0.0
 11
42.23907
 21
28.419284
 31
0.0
  0
LINE
  5
35
  8
LAYER_1
 10
42.23907
 20
28.419284
 30
0.0
 11
41.485332
 21
28.300705
 31
0.0
  0
LINE
  5
36
  8
LAYER_1
 10
41.485332
 20
28.300705
 30
0.0
 11
40.024013
 21
28.555906
 31
0.0
  0
LINE
  5
37
  8
LAYER_1
 10
40.024013
 20
28.555906
 30
0.0
 11
39.599681
 21
28.820801
 31
0.0
  0
LINE
  5
38
  8
LAYER_1
 10
39.599681
 20
28.820801
 30
0.0
 11
39.431767
 21
29.155497
 31
0.0
  0
LINE
  5
39
  8
LAYER_1
 10
39.431767
 20
29.155497
 30
0.0
 11
39.35984
 21
30.024064
 31
0.0
  0
LINE
  5
3A
  8
LAYER_1
 10
39.35984
 20
30.024064
 30
0.0
 11
39.172139
 21
30.433973
 31
0.0
  0
LINE
  5
3B
  8
LAYER_1
 10
39.172139
 20
30.433973
 30
0.0
 11
38.780982
 21
30.581357
 31
0.0
  0
LINE
  5
3C
  8
LAYER_1
 10
38.780982
 20
30.581357
 30
0.0
 11
38.29713
 21
30.462591
 31
0.0
  0
LINE
  5
3D
  8
LAYER_1
 10
38.29713
 20
30.462591
 30
0.0
 11
37.831347
 21
30.074054
 31
0.0
  0
LINE
  5
3E
  8
LAYER_1
 10
37.831347
 20
30.074054
 30
0.0
 11
37.50864
 21
29.753598
 31
0.0
  0
LINE
  5
3F
  8
LAYER_1
 10
37.50864
 20
29.753598
 30
0.0
 11
37.097063
 21
29.568661
 31
0.0
  0
LINE
  5
40
  8
LAYER_1
 10
37.097063
 20
29.568661
 30
0.0
 11
35.518003
 21
29.47961
 31
0.0
  0
LINE
  5
41
  8
LAYER_1
 10
35.518003
 20
29.47961
 30
0.0
 11
33.925078
 21
29.62745
 31
0.0
  0
LINE
  5
42
  8
LAYER_1
 10
33.925078
 20
29.62745
 30
0.0
 11
32.981844
 21
30.126285
 31
0.0
  0
LINE
  5
43
  8
LAYER_1
 10
32.981844
 20
30.126285
 30
0.0
 11
32.516123
 21
30.651825
 31
0.0
  0
LINE
  5
44
  8
LAYER_1
 10
32.516123
 20
30.651825
 30
0.0
 11
32.295597
 21
31.198132
 31
0.0
  0
LINE
  5
45
  8
LAYER_1
 10
32.295597
 20
31.198132
 30
0.0
 11
32.326253
 21
31.731178
 31
0.0
  0
LINE
  5
46
  8
LAYER_1
 10
32.326253
 20
31.731178
 30
0.0
 11
32.614077
 21
32.216937
 31
0.0
  0
LINE
  5
47
  8
LAYER_1
 10
32.614077
 20
32.216937
 30
0.0
 11
32.770677
 21
32.433703
 31
0.0
  0
LINE
  5
48
  8
LAYER_1
 10
32.770677
 20
32.433703
 30
0.0
 11
32.651796
 21
32.42115
 31
0.0
  0
LINE
  5
49
  8
LAYER_1
 10
32.651796
 20
32.42115
 30
0.0
 11
32.228109
 21
32.442044
 31
0.0
  0
LINE
  5
4A
  8
LAYER_1
 10
32.228109
 20
32.442044
 30
0.0
 11
31.814687
 21
32.831466
 31
0.0
  0
LINE
  5
4B
  8
LAYER_1
 10
31.814687
 20
32.831466
 30
0.0
 11
31.527647
 21
33.42626
 31
0.0
  0
LINE
  5
4C
  8
LAYER_1
 10
31.527647
 20
33.42626
 30
0.0
 11
31.483102
 21
34.063271
 31
0.0
  0
LINE
  5
4D
  8
LAYER_1
 10
31.483102
 20
34.063271
 30
0.0
 11
31.50882
 21
34.617676
 31
0.0
  0
LINE
  5
4E
  8
LAYER_1
 10
31.50882
 20
34.617676
 30
0.0
 11
31.376784
 21
34.936481
 31
0.0
  0
LINE
  5
4F
  8
LAYER_1
 10
31.376784
 20
34.936481
 30
0.0
 11
31.204195
 21
35.286964
 31
0.0
  0
LINE
  5
50
  8
LAYER_1
 10
31.204195
 20
35.286964
 30
0.0
 11
31.13241
 21
35.917525
 31
0.0
  0
LINE
  5
51
  8
LAYER_1
 10
31.13241
 20
35.917525
 30
0.0
 11
31.006676
 21
36.58676
 31
0.0
  0
LINE
  5
52
  8
LAYER_1
 10
31.006676
 20
36.58676
 30
0.0
 11
30.483299
 21
36.747535
 31
0.0
  0
LINE
  5
53
  8
LAYER_1
 10
30.483299
 20
36.747535
 30
0.0
 11
29.928894
 21
36.843505
 31
0.0
  0
LINE
  5
54
  8
LAYER_1
 10
29.928894
 20
36.843505
 30
0.0
 11
29.507482
 21
37.074241
 31
0.0
  0
LINE
  5
55
  8
LAYER_1
 10
29.507482
 20
37.074241
 30
0.0
 11
29.161404
 21
37.255756
 31
0.0
  0
LINE
  5
56
  8
LAYER_1
 10
29.161404
 20
37.255756
 30
0.0
 11
28.764365
 21
37.055357
 31
0.0
  0
LINE
  5
57
  8
LAYER_1
 10
28.764365
 20
37.055357
 30
0.0
 11
28.315169
 21
36.89223
 31
0.0
  0
LINE
  5
58
  8
LAYER_1
 10
28.315169
 20
36.89223
 30
0.0
 11
27.764627
 21
37.293096
 31
0.0
  0
LINE
  5
7D0
  8
LAYER_1
 10
27.764627
 20
37.293096
 30
0.0
 11
27.352652
 21
37.869899
 31
0.0
  0
LINE
  5
7D1
  8
LAYER_1
 10
27.352652
 20
37.869899
 30
0.0
 11
27.181299
 21
38.437541
 31
0.0
  0
LINE
  5
5B
  8
LAYER_1
 10
27.181299
 20
38.437541
 30
0.0
 11
27.042547
 21
38.855636
 31
0.0
  0
LINE
  5
5C
  8
LAYER_1
 10
27.042547
 20
38.855636
 30
0.0
 11
26.571716
 21
38.931429
 31
0.0
  0
LINE
  5
5D
  8
LAYER_1
 10
26.571716
 20
38.931429
 30
0.0
 11
26.038812
 21
39.069021
 31
0.0
  0
LINE
  5
7D2
  8
LAYER_1
 10
26.038812
 20
39.069021
 30
0.0
 11
25.718668
 21
39.77491
 31
0.0
  0
LINE
  5
5F
  8
LAYER_1
 10
25.718668
 20
39.77491
 30
0.0
 11
25.388405
 21
40.502824
 31
0.0
  0
LINE
  5
60
  8
LAYER_1
 10
25.388405
 20
40.502824
 30
0.0
 11
24.936252
 21
40.974055
 31
0.0
  0
LINE
  5
61
  8
LAYER_1
 10
24.936252
 20
40.974055
 30
0.0
 11
24.501461
 21
41.348405
 31
0.0
  0
LINE
  5
62
  8
LAYER_1
 10
24.501461
 20
41.348405
 30
0.0
 11
24.212928
 21
41.843401
 31
0.0
  0
LINE
  5
63
  8
LAYER_1
 10
24.212928
 20
41.843401
 30
0.0
 11
23.961522
 21
42.2305
 31
0.0
  0
LINE
  5
64
  8
LAYER_1
 10
23.961522
 20
42.2305
 30
0.0
 11
23.496653
 21
42.589986
 31
0.0
  0
LINE
  5
65
  8
LAYER_1
 10
23.496653
 20
42.589986
 30
0.0
 11
22.185393
 21
43.069564
 31
0.0
  0
LINE
  5
66
  8
LAYER_1
 10
22.185393
 20
43.069564
 30
0.0
 11
21.740623
 21
43.230344
 31
0.0
  0
LINE
  5
67
  8
LAYER_1
 10
21.740623
 20
43.230344
 30
0.0
 11
21.360515
 21
43.5297
 31
0.0
  0
LINE
  5
68
  8
LAYER_1
 10
21.360515
 20
43.5297
 30
0.0
 11
20.842482
 21
44.401662
 31
0.0
  0
LINE
  5
69
  8
LAYER_1
 10
20.842482
 20
44.401662
 30
0.0
 11
20.727683
 21
45.400504
 31
0.0
  0
LINE
  5
6A
  8
LAYER_1
 10
20.727683
 20
45.400504
 30
0.0
 11
20.851617
 21
45.85846
 31
0.0
  0
LINE
  5
7D3
  8
LAYER_1
 10
20.851617
 20
45.85846
 30
0.0
 11
21.112505
 21
46.241281
 31
0.0
  0
LINE
  5
7D4
  8
LAYER_1
 10
21.112505
 20
46.241281
 30
0.0
 11
21.391372
 21
46.720446
 31
0.0
  0
LINE
  5
6D
  8
LAYER_1
 10
21.391372
 20
46.720446
 30
0.0
 11
21.14489
 21
47.407807
 31
0.0
  0
LINE
  5
6E
  8
LAYER_1
 10
21.14489
 20
47.407807
 30
0.0
 11
20.905902
 21
48.195417
 31
0.0
  0
LINE
  5
6F
  8
LAYER_1
 10
20.905902
 20
48.195417
 30
0.0
 11
21.037077
 21
48.844473
 31
0.0
  0
LINE
  5
70
  8
LAYER_1
 10
21.037077
 20
48.844473
 30
0.0
 11
21.500315
 21
49.285128
 31
0.0
  0
LINE
  5
71
  8
LAYER_1
 10
21.500315
 20
49.285128
 30
0.0
 11
22.257515
 21
49.447535
 31
0.0
  0
LINE
  5
72
  8
LAYER_1
 10
22.257515
 20
49.447535
 30
0.0
 11
22.960439
 21
49.332758
 31
0.0
  0
LINE
  5
7D5
  8
LAYER_1
 10
22.960439
 20
49.332758
 30
0.0
 11
23.328362
 21
49.034327
 31
0.0
  0
LINE
  5
7D6
  8
LAYER_1
 10
23.328362
 20
49.034327
 30
0.0
 11
23.59512
 21
48.762357
 31
0.0
  0
LINE
  5
7D7
  8
LAYER_1
 10
23.59512
 20
48.762357
 30
0.0
 11
24.275779
 21
49.030687
 31
0.0
  0
LINE
  5
7D8
  8
LAYER_1
 10
24.275779
 20
49.030687
 30
0.0
 11
24.963786
 21
49.278482
 31
0.0
  0
LINE
  5
77
  8
LAYER_1
 10
24.963786
 20
49.278482
 30
0.0
 11
25.510182
 21
49.299108
 31
0.0
  0
LINE
  5
78
  8
LAYER_1
 10
25.510182
 20
49.299108
 30
0.0
 11
25.840594
 21
49.348602
 31
0.0
  0
LINE
  5
79
  8
LAYER_1
 10
25.840594
 20
49.348602
 30
0.0
 11
25.84509
 21
49.937746
 31
0.0
  0
LINE
  5
7A
  8
LAYER_1
 10
25.84509
 20
49.937746
 30
0.0
 11
25.883698
 21
50.645836
 31
0.0
  0
LINE
  5
7B
  8
LAYER_1
 10
25.883698
 20
50.645836
 30
0.0
 11
26.13189
 21
51.25324
 31
0.0
  0
LINE
  5
7C
  8
LAYER_1
 10
26.13189
 20
51.25324
 30
0.0
 11
26.314647
 21
51.58294
 31
0.0
  0
LINE
  5
7D
  8
LAYER_1
 10
26.314647
 20
51.58294
 30
0.0
 11
26.30663
 21
51.938073
 31
0.0
  0
LINE
  5
7E
  8
LAYER_1
 10
26.30663
 20
51.938073
 30
0.0
 11
25.576555
 21
53.228796
 31
0.0
  0
LINE
  5
7F
  8
LAYER_1
 10
25.576555
 20
53.228796
 30
0.0
 11
24.920031
 21
54.412322
 31
0.0
  0
LINE
  5
80
  8
LAYER_1
 10
24.920031
 20
54.412322
 30
0.0
 11
24.698107
 21
55.309401
 31
0.0
  0
LINE
  5
81
  8
LAYER_1
 10
24.698107
 20
55.309401
 30
0.0
 11
24.910898
 21
55.901243
 31
0.0
  0
LINE
  5
82
  8
LAYER_1
 10
24.910898
 20
55.901243
 30
0.0
 11
25.558521
 21
56.169058
 31
0.0
  0
LINE
  5
83
  8
LAYER_1
 10
25.558521
 20
56.169058
 30
0.0
 11
26.199964
 21
56.408118
 31
0.0
  0
LINE
  5
84
  8
LAYER_1
 10
26.199964
 20
56.408118
 30
0.0
 11
26.334633
 21
57.210737
 31
0.0
  0
LINE
  5
85
  8
LAYER_1
 10
26.334633
 20
57.210737
 30
0.0
 11
26.399849
 21
57.937653
 31
0.0
  0
LINE
  5
86
  8
LAYER_1
 10
26.399849
 20
57.937653
 30
0.0
 11
26.653971
 21
58.293644
 31
0.0
  0
LINE
  5
87
  8
LAYER_1
 10
26.653971
 20
58.293644
 30
0.0
 11
27.184709
 21
58.32162
 31
0.0
  0
LINE
  5
88
  8
LAYER_1
 10
27.184709
 20
58.32162
 30
0.0
 11
28.079773
 21
58.06449
 31
0.0
  0
LINE
  5
89
  8
LAYER_1
 10
28.079773
 20
58.06449
 30
0.0
 11
29.951519
 21
57.636085
 31
0.0
  0
LINE
  5
8A
  8
LAYER_1
 10
29.951519
 20
57.636085
 30
0.0
 11
31.221519
 21
57.293002
 31
0.0
  0
LINE
  5
8B
  8
LAYER_1
 10
31.221519
 20
57.293002
 30
0.0
 11
31.957688
 21
56.966212
 31
0.0
  0
LINE
  5
8C
  8
LAYER_1
 10
31.957688
 20
56.966212
 30
0.0
 11
32.565775
 21
56.889572
 31
0.0
  0
LINE
  5
8D
  8
LAYER_1
 10
32.565775
 20
56.889572
 30
0.0
 11
33.101351
 21
57.068026
 31
0.0
  0
LINE
  5
8E
  8
LAYER_1
 10
33.101351
 20
57.068026
 30
0.0
 11
33.619988
 21
57.506523
 31
0.0
  0
LINE
  5
8F
  8
LAYER_1
 10
33.619988
 20
57.506523
 30
0.0
 11
34.297903
 21
58.039346
 31
0.0
  0
LINE
  5
90
  8
LAYER_1
 10
34.297903
 20
58.039346
 30
0.0
 11
34.96717
 21
58.074317
 31
0.0
  0
LINE
  5
91
  8
LAYER_1
 10
34.96717
 20
58.074317
 30
0.0
 11
35.427656
 21
58.070425
 31
0.0
  0
LINE
  5
7D9
  8
LAYER_1
 10
35.427656
 20
58.070425
 30
0.0
 11
35.452038
 21
58.387162
 31
0.0
  0
LINE
  5
7DA
  8
LAYER_1
 10
35.452038
 20
58.387162
 30
0.0
 11
35.048582
 21
59.00416
 31
0.0
  0
LINE
  5
94
  8
LAYER_1
 10
35.048582
 20
59.00416
 30
0.0
 11
34.225557
 21
59.901054
 31
0.0
  0
LINE
  5
95
  8
LAYER_1
 10
34.225557
 20
59.901054
 30
0.0
 11
33.134916
 21
60.752569
 31
0.0
  0
LINE
  5
96
  8
LAYER_1
 10
33.134916
 20
60.752569
 30
0.0
 11
31.924348
 21
61.132051
 31
0.0
  0
LINE
  5
7DB
  8
LAYER_1
 10
31.924348
 20
61.132051
 30
0.0
 11
30.704541
 21
61.519694
 31
0.0
  0
LINE
  5
7DC
  8
LAYER_1
 10
30.704541
 20
61.519694
 30
0.0
 11
29.592352
 21
62.453173
 31
0.0
  0
LINE
  5
99
  8
LAYER_1
 10
29.592352
 20
62.453173
 30
0.0
 11
28.705848
 21
63.60559
 31
0.0
  0
LINE
  5
9A
  8
LAYER_1
 10
28.705848
 20
63.60559
 30
0.0
 11
28.624075
 21
64.126774
 31
0.0
  0
LINE
  5
9B
  8
LAYER_1
 10
28.624075
 20
64.126774
 30
0.0
 11
28.692983
 21
64.852155
 31
0.0
  0
LINE
  5
9C
  8
LAYER_1
 10
28.692983
 20
64.852155
 30
0.0
 11
28.67024
 21
66.05054
 31
0.0
  0
LINE
  5
9D
  8
LAYER_1
 10
28.67024
 20
66.05054
 30
0.0
 11
28.255315
 21
67.09388
 31
0.0
  0
LINE
  5
9E
  8
LAYER_1
 10
28.255315
 20
67.09388
 30
0.0
 11
27.451998
 21
67.976186
 31
0.0
  0
LINE
  5
9F
  8
LAYER_1
 10
27.451998
 20
67.976186
 30
0.0
 11
26.264077
 21
68.691469
 31
0.0
  0
LINE
  5
A0
  8
LAYER_1
 10
26.264077
 20
68.691469
 30
0.0
 11
25.170785
 21
69.334594
 31
0.0
  0
LINE
  5
A1
  8
LAYER_1
 10
25.170785
 20
69.334594
 30
0.0
 11
24.974353
 21
69.661575
 31
0.0
  0
LINE
  5
A2
  8
LAYER_1
 10
24.974353
 20
69.661575
 30
0.0
 11
24.923521
 21
70.083409
 31
0.0
  0
LINE
  5
A3
  8
LAYER_1
 10
24.923521
 20
70.083409
 30
0.0
 11
24.998534
 21
70.68043400000001
 31
0.0
  0
LINE
  5
A4
  8
LAYER_1
 10
24.998534
 20
70.68043400000001
 30
0.0
 11
25.178882
 21
71.020932
 31
0.0
  0
LINE
  5
A5
  8
LAYER_1
 10
25.178882
 20
71.020932
 30
0.0
 11
25.317471
 21
71.443721
 31
0.0
  0
LINE
  5
A6
  8
LAYER_1
 10
25.317471
 20
71.443721
 30
0.0
 11
25.292087
 21
72.238593
 31
0.0
  0
LINE
  5
A7
  8
LAYER_1
 10
25.292087
 20
72.238593
 30
0.0
 11
25.300551
 21
73.19102700000001
 31
0.0
  0
LINE
  5
A8
  8
LAYER_1
 10
25.300551
 20
73.19102700000001
 30
0.0
 11
25.742282
 21
73.834504
 31
0.0
  0
LINE
  5
A9
  8
LAYER_1
 10
25.742282
 20
73.834504
 30
0.0
 11
26.160629
 21
74.31455
 31
0.0
  0
LINE
  5
AA
  8
LAYER_1
 10
26.160629
 20
74.31455
 30
0.0
 11
26.334633
 21
74.715926
 31
0.0
  0
LINE
  5
AB
  8
LAYER_1
 10
26.334633
 20
74.715926
 30
0.0
 11
26.446075
 21
74.949037
 31
0.0
  0
LINE
  5
AC
  8
LAYER_1
 10
26.446075
 20
74.949037
 30
0.0
 11
26.801568
 21
75.19561400000001
 31
0.0
  0
LINE
  5
AD
  8
LAYER_1
 10
26.801568
 20
75.19561400000001
 30
0.0
 11
28.371704
 21
75.796532
 31
0.0
  0
LINE
  5
AE
  8
LAYER_1
 10
28.371704
 20
75.796532
 30
0.0
 11
28.765617
 21
75.822862
 31
0.0
  0
LINE
  5
AF
  8
LAYER_1
 10
28.765617
 20
75.822862
 30
0.0
 11
29.03183
 21
75.668172
 31
0.0
  0
LINE
  5
B0
  8
LAYER_1
 10
29.03183
 20
75.668172
 30
0.0
 11
29.272159
 21
75.549744
 31
0.0
  0
LINE
  5
B1
  8
LAYER_1
 10
29.272159
 20
75.549744
 30
0.0
 11
29.633426
 21
75.73838600000001
 31
0.0
  0
LINE
  5
B2
  8
LAYER_1
 10
29.633426
 20
75.73838600000001
 30
0.0
 11
30.173368
 21
75.970067
 31
0.0
  0
LINE
  5
B3
  8
LAYER_1
 10
30.173368
 20
75.970067
 30
0.0
 11
30.872862
 21
76.030243
 31
0.0
  0
LINE
  5
B4
  8
LAYER_1
 10
30.872862
 20
76.030243
 30
0.0
 11
31.520388
 21
76.082407
 31
0.0
  0
LINE
  5
B5
  8
LAYER_1
 10
31.520388
 20
76.082407
 30
0.0
 11
31.429198
 21
76.64367300000001
 31
0.0
  0
LINE
  5
B6
  8
LAYER_1
 10
31.429198
 20
76.64367300000001
 30
0.0
 11
31.335474
 21
77.31747900000001
 31
0.0
  0
LINE
  5
B7
  8
LAYER_1
 10
31.335474
 20
77.31747900000001
 30
0.0
 11
31.640557
 21
77.987426
 31
0.0
  0
LINE
  5
B8
  8
LAYER_1
 10
31.640557
 20
77.987426
 30
0.0
 11
31.988984
 21
78.886476
 31
0.0
  0
LINE
  5
B9
  8
LAYER_1
 10
31.988984
 20
78.886476
 30
0.0
 11
32.154317
 21
80.138329
 31
0.0
  0
LINE
  5
BA
  8
LAYER_1
 10
32.154317
 20
80.138329
 30
0.0
 11
32.094775
 21
81.387227
 31
0.0
  0
LINE
  5
BB
  8
LAYER_1
 10
32.094775
 20
81.387227
 30
0.0
 11
31.913606
 21
81.579582
 31
0.0
  0
LINE
  5
BC
  8
LAYER_1
 10
31.913606
 20
81.579582
 30
0.0
 11
31.578276
 21
81.620868
 31
0.0
  0
LINE
  5
BD
  8
LAYER_1
 10
31.578276
 20
81.620868
 30
0.0
 11
31.036194
 21
81.77287
 31
0.0
  0
LINE
  5
BE
  8
LAYER_1
 10
31.036194
 20
81.77287
 30
0.0
 11
30.424386
 21
82.138835
 31
0.0
  0
LINE
  5
BF
  8
LAYER_1
 10
30.424386
 20
82.138835
 30
0.0
 11
29.927522
 21
82.583705
 31
0.0
  0
LINE
  5
C0
  8
LAYER_1
 10
29.927522
 20
82.583705
 30
0.0
 11
29.730274
 21
82.972419
 31
0.0
  0
LINE
  5
C1
  8
LAYER_1
 10
29.730274
 20
82.972419
 30
0.0
 11
30.146004
 21
83.69774099999999
 31
0.0
  0
LINE
  5
C2
  8
LAYER_1
 10
30.146004
 20
83.69774099999999
 30
0.0
 11
30.767003
 21
84.16086799999999
 31
0.0
  0
LINE
  5
C3
  8
LAYER_1
 10
30.767003
 20
84.16086799999999
 30
0.0
 11
31.534622
 21
84.701975
 31
0.0
  0
LINE
  5
C4
  8
LAYER_1
 10
31.534622
 20
84.701975
 30
0.0
 11
31.785856
 21
85.035934
 31
0.0
  0
LINE
  5
C5
  8
LAYER_1
 10
31.785856
 20
85.035934
 30
0.0
 11
31.803379
 21
85.36761799999999
 31
0.0
  0
LINE
  5
C6
  8
LAYER_1
 10
31.803379
 20
85.36761799999999
 30
0.0
 11
30.943364
 21
86.66951
 31
0.0
  0
LINE
  5
C7
  8
LAYER_1
 10
30.943364
 20
86.66951
 30
0.0
 11
29.993409
 21
87.729721
 31
0.0
  0
LINE
  5
C8
  8
LAYER_1
 10
29.993409
 20
87.729721
 30
0.0
 11
29.22741
 21
88.275665
 31
0.0
  0
LINE
  5
C9
  8
LAYER_1
 10
29.22741
 20
88.275665
 30
0.0
 11
28.747003
 21
88.578164
 31
0.0
  0
LINE
  5
CA
  8
LAYER_1
 10
28.747003
 20
88.578164
 30
0.0
 11
28.59241
 21
89.13941800000001
 31
0.0
  0
LINE
  5
CB
  8
LAYER_1
 10
28.59241
 20
89.13941800000001
 30
0.0
 11
28.721131
 21
89.97166900000001
 31
0.0
  0
LINE
  5
CC
  8
LAYER_1
 10
28.721131
 20
89.97166900000001
 30
0.0
 11
29.051571
 21
90.892138
 31
0.0
  0
LINE
  5
CD
  8
LAYER_1
 10
29.051571
 20
90.892138
 30
0.0
 11
29.500146
 21
91.71389499999999
 31
0.0
  0
LINE
  5
CE
  8
LAYER_1
 10
29.500146
 20
91.71389499999999
 30
0.0
 11
29.983275
 21
92.25000900000001
 31
0.0
  0
LINE
  5
CF
  8
LAYER_1
 10
29.983275
 20
92.25000900000001
 30
0.0
 11
30.329788
 21
92.66313599999999
 31
0.0
  0
LINE
  5
D0
  8
LAYER_1
 10
30.329788
 20
92.66313599999999
 30
0.0
 11
30.381296
 21
93.139291
 31
0.0
  0
LINE
  5
D1
  8
LAYER_1
 10
30.381296
 20
93.139291
 30
0.0
 11
30.36892
 21
93.40601700000001
 31
0.0
  0
LINE
  5
D2
  8
LAYER_1
 10
30.36892
 20
93.40601700000001
 30
0.0
 11
30.511874
 21
93.619727
 31
0.0
  0
LINE
  5
D3
  8
LAYER_1
 10
30.511874
 20
93.619727
 30
0.0
 11
31.394942
 21
93.999403
 31
0.0
  0
LINE
  5
D4
  8
LAYER_1
 10
31.394942
 20
93.999403
 30
0.0
 11
32.206126
 21
94.322014
 31
0.0
  0
LINE
  5
D5
  8
LAYER_1
 10
32.206126
 20
94.322014
 30
0.0
 11
32.543521
 21
94.614419
 31
0.0
  0
LINE
  5
D6
  8
LAYER_1
 10
32.543521
 20
94.614419
 30
0.0
 11
32.868703
 21
94.80573699999999
 31
0.0
  0
LINE
  5
D7
  8
LAYER_1
 10
32.868703
 20
94.80573699999999
 30
0.0
 11
33.650524
 21
94.885312
 31
0.0
  0
LINE
  5
D8
  8
LAYER_1
 10
33.650524
 20
94.885312
 30
0.0
 11
34.631651
 21
94.733988
 31
0.0
  0
LINE
  5
D9
  8
LAYER_1
 10
34.631651
 20
94.733988
 30
0.0
 11
34.870812
 21
94.447101
 31
0.0
  0
LINE
  5
DA
  8
LAYER_1
 10
34.870812
 20
94.447101
 30
0.0
 11
35.071976
 21
93.93252200000001
 31
0.0
  0
LINE
  5
DB
  8
LAYER_1
 10
35.071976
 20
93.93252200000001
 30
0.0
 11
35.281342
 21
93.41144900000001
 31
0.0
  0
LINE
  5
DC
  8
LAYER_1
 10
35.281342
 20
93.41144900000001
 30
0.0
 11
35.558174
 21
93.100537
 31
0.0
  0
LINE
  5
DD
  8
LAYER_1
 10
35.558174
 20
93.100537
 30
0.0
 11
36.790633
 21
92.79345600000001
 31
0.0
  0
LINE
  5
DE
  8
LAYER_1
 10
36.790633
 20
92.79345600000001
 30
0.0
 11
38.612358
 21
92.446966
 31
0.0
  0
LINE
  5
DF
  8
LAYER_1
 10
38.612358
 20
92.446966
 30
0.0
 11
39.010256
 21
92.467096
 31
0.0
  0
LINE
  5
E0
  8
LAYER_1
 10
39.010256
 20
92.467096
 30
0.0
 11
39.213164
 21
92.820616
 31
0.0
  0
LINE
  5
E1
  8
LAYER_1
 10
39.213164
 20
92.820616
 30
0.0
 11
39.196527
 21
93.386343
 31
0.0
  0
LINE
  5
E2
  8
LAYER_1
 10
39.196527
 20
93.386343
 30
0.0
 11
38.935787
 21
94.043094
 31
0.0
  0
LINE
  5
E3
  8
LAYER_1
 10
38.935787
 20
94.043094
 30
0.0
 11
38.470188
 21
95.247079
 31
0.0
  0
LINE
  5
E4
  8
LAYER_1
 10
38.470188
 20
95.247079
 30
0.0
 11
38.345834
 21
95.643933
 31
0.0
  0
LINE
  5
E5
  8
LAYER_1
 10
38.345834
 20
95.643933
 30
0.0
 11
38.046855
 21
96.014201
 31
0.0
  0
LINE
  5
E6
  8
LAYER_1
 10
38.046855
 20
96.014201
 30
0.0
 11
37.747876
 21
96.417987
 31
0.0
  0
LINE
  5
E7
  8
LAYER_1
 10
37.747876
 20
96.417987
 30
0.0
 11
37.623521
 21
96.89542299999999
 31
0.0
  0
LINE
  5
E8
  8
LAYER_1
 10
37.623521
 20
96.89542299999999
 30
0.0
 11
37.430481
 21
97.314114
 31
0.0
  0
LINE
  5
E9
  8
LAYER_1
 10
37.430481
 20
97.314114
 30
0.0
 11
36.703632
 21
97.42531200000001
 31
0.0
  0
LINE
  5
EA
  8
LAYER_1
 10
36.703632
 20
97.42531200000001
 30
0.0
 11
35.927445
 21
97.56528400000001
 31
0.0
  0
LINE
  5
EB
  8
LAYER_1
 10
35.927445
 20
97.56528400000001
 30
0.0
 11
35.435817
 21
97.982428
 31
0.0
  0
LINE
  5
EC
  8
LAYER_1
 10
35.435817
 20
97.982428
 30
0.0
 11
35.286038
 21
98.309693
 31
0.0
  0
LINE
  5
ED
  8
LAYER_1
 10
35.286038
 20
98.309693
 30
0.0
 11
35.309439
 21
98.628783
 31
0.0
  0
LINE
  5
EE
  8
LAYER_1
 10
35.309439
 20
98.628783
 30
0.0
 11
36.002451
 21
99.605205
 31
0.0
  0
LINE
  5
EF
  8
LAYER_1
 10
36.002451
 20
99.605205
 30
0.0
 11
37.083354
 21
100.811979
 31
0.0
  0
LINE
  5
F0
  8
LAYER_1
 10
37.083354
 20
100.811979
 30
0.0
 11
37.397346
 21
101.538981
 31
0.0
  0
LINE
  5
F1
  8
LAYER_1
 10
37.397346
 20
101.538981
 30
0.0
 11
37.307767
 21
102.134964
 31
0.0
  0
LINE
  5
F2
  8
LAYER_1
 10
37.307767
 20
102.134964
 30
0.0
 11
36.623569
 21
102.756242
 31
0.0
  0
LINE
  5
F3
  8
LAYER_1
 10
36.623569
 20
102.756242
 30
0.0
 11
35.763815
 21
103.611622
 31
0.0
  0
LINE
  5
F4
  8
LAYER_1
 10
35.763815
 20
103.611622
 30
0.0
 11
35.101101
 21
104.745012
 31
0.0
  0
LINE
  5
F5
  8
LAYER_1
 10
35.101101
 20
104.745012
 30
0.0
 11
34.749607
 21
105.898907
 31
0.0
  0
LINE
  5
F6
  8
LAYER_1
 10
34.749607
 20
105.898907
 30
0.0
 11
34.823513
 21
106.815802
 31
0.0
  0
LINE
  5
F7
  8
LAYER_1
 10
34.823513
 20
106.815802
 30
0.0
 11
35.31524
 21
107.390595
 31
0.0
  0
LINE
  5
F8
  8
LAYER_1
 10
35.31524
 20
107.390595
 30
0.0
 11
36.066897
 21
107.827515
 31
0.0
  0
LINE
  5
F9
  8
LAYER_1
 10
36.066897
 20
107.827515
 30
0.0
 11
36.932556
 21
108.213709
 31
0.0
  0
LINE
  5
FA
  8
LAYER_1
 10
36.932556
 20
108.213709
 30
0.0
 11
37.354785
 21
108.64507
 31
0.0
  0
LINE
  5
FB
  8
LAYER_1
 10
37.354785
 20
108.64507
 30
0.0
 11
37.380247
 21
109.227238
 31
0.0
  0
LINE
  5
FC
  8
LAYER_1
 10
37.380247
 20
109.227238
 30
0.0
 11
37.055606
 21
110.065856
 31
0.0
  0
LINE
  5
FD
  8
LAYER_1
 10
37.055606
 20
110.065856
 30
0.0
 11
36.669598
 21
110.968091
 31
0.0
  0
LINE
  5
FE
  8
LAYER_1
 10
36.669598
 20
110.968091
 30
0.0
 11
36.523884
 21
111.631237
 31
0.0
  0
LINE
  5
FF
  8
LAYER_1
 10
36.523884
 20
111.631237
 30
0.0
 11
36.614426
 21
112.141162
 31
0.0
  0
LINE
  5
100
  8
LAYER_1
 10
36.614426
 20
112.141162
 30
0.0
 11
36.937185
 21
112.583735
 31
0.0
  0
LINE
  5
101
  8
LAYER_1
 10
36.937185
 20
112.583735
 30
0.0
 11
37.241787
 21
112.806221
 31
0.0
  0
LINE
  5
102
  8
LAYER_1
 10
37.241787
 20
112.806221
 30
0.0
 11
37.677321
 21
112.86509
 31
0.0
  0
LINE
  5
103
  8
LAYER_1
 10
37.677321
 20
112.86509
 30
0.0
 11
39.688852
 21
112.457748
 31
0.0
  0
LINE
  5
104
  8
LAYER_1
 10
39.688852
 20
112.457748
 30
0.0
 11
41.346343
 21
112.125892
 31
0.0
  0
LINE
  5
105
  8
LAYER_1
 10
41.346343
 20
112.125892
 30
0.0
 11
42.088791
 21
112.126397
 31
0.0
  0
LINE
  5
106
  8
LAYER_1
 10
42.088791
 20
112.126397
 30
0.0
 11
41.884507
 21
112.684054
 31
0.0
  0
LINE
  5
107
  8
LAYER_1
 10
41.884507
 20
112.684054
 30
0.0
 11
41.265822
 21
113.691733
 31
0.0
  0
LINE
  5
108
  8
LAYER_1
 10
41.265822
 20
113.691733
 30
0.0
 11
40.352032
 21
115.019883
 31
0.0
  0
LINE
  5
109
  8
LAYER_1
 10
40.352032
 20
115.019883
 30
0.0
 11
40.892775
 21
115.995922
 31
0.0
  0
LINE
  5
10A
  8
LAYER_1
 10
40.892775
 20
115.995922
 30
0.0
 11
41.589383
 21
116.84239
 31
0.0
  0
LINE
  5
10B
  8
LAYER_1
 10
41.589383
 20
116.84239
 30
0.0
 11
42.659625
 21
117.37825
 31
0.0
  0
LINE
  5
10C
  8
LAYER_1
 10
42.659625
 20
117.37825
 30
0.0
 11
43.783282
 21
117.64112
 31
0.0
  0
LINE
  5
10D
  8
LAYER_1
 10
43.783282
 20
117.64112
 30
0.0
 11
44.112236
 21
117.538979
 31
0.0
  0
LINE
  5
10E
  8
LAYER_1
 10
44.112236
 20
117.538979
 30
0.0
 11
44.45482
 21
117.271036
 31
0.0
  0
LINE
  5
10F
  8
LAYER_1
 10
44.45482
 20
117.271036
 30
0.0
 11
45.090416
 21
116.88716
 31
0.0
  0
LINE
  5
110
  8
LAYER_1
 10
45.090416
 20
116.88716
 30
0.0
 11
45.795953
 21
116.783586
 31
0.0
  0
LINE
  5
111
  8
LAYER_1
 10
45.795953
 20
116.783586
 30
0.0
 11
46.514927
 21
116.957526
 31
0.0
  0
LINE
  5
112
  8
LAYER_1
 10
46.514927
 20
116.957526
 30
0.0
 11
47.190832
 21
117.406186
 31
0.0
  0
LINE
  5
113
  8
LAYER_1
 10
47.190832
 20
117.406186
 30
0.0
 11
47.742795
 21
118.162311
 31
0.0
  0
LINE
  5
114
  8
LAYER_1
 10
47.742795
 20
118.162311
 30
0.0
 11
47.821822
 21
119.251477
 31
0.0
  0
LINE
  5
115
  8
LAYER_1
 10
47.821822
 20
119.251477
 30
0.0
 11
47.890679
 21
120.311392
 31
0.0
  0
LINE
  5
116
  8
LAYER_1
 10
47.890679
 20
120.311392
 30
0.0
 11
48.35205
 21
120.994561
 31
0.0
  0
LINE
  5
117
  8
LAYER_1
 10
48.35205
 20
120.994561
 30
0.0
 11
49.138947
 21
121.975278
 31
0.0
  0
LINE
  5
118
  8
LAYER_1
 10
49.138947
 20
121.975278
 30
0.0
 11
49.720802
 21
123.266018
 31
0.0
  0
LINE
  5
119
  8
LAYER_1
 10
49.720802
 20
123.266018
 30
0.0
 11
50.068068
 21
124.777658
 31
0.0
  0
LINE
  5
11A
  8
LAYER_1
 10
50.068068
 20
124.777658
 30
0.0
 11
50.151197
 21
126.421078
 31
0.0
  0
LINE
  5
11B
  8
LAYER_1
 10
50.151197
 20
126.421078
 30
0.0
 11
50.192886
 21
128.195127
 31
0.0
  0
LINE
  5
11C
  8
LAYER_1
 10
50.192886
 20
128.195127
 30
0.0
 11
50.366881
 21
128.600422
 31
0.0
  0
LINE
  5
11D
  8
LAYER_1
 10
50.366881
 20
128.600422
 30
0.0
 11
50.687724
 21
128.890522
 31
0.0
  0
LINE
  5
11E
  8
LAYER_1
 10
50.687724
 20
128.890522
 30
0.0
 11
51.79743
 21
129.316422
 31
0.0
  0
LINE
  5
11F
  8
LAYER_1
 10
51.79743
 20
129.316422
 30
0.0
 11
52.151718
 21
129.400543
 31
0.0
  0
LINE
  5
120
  8
LAYER_1
 10
52.151718
 20
129.400543
 30
0.0
 11
52.299077
 21
129.602792
 31
0.0
  0
LINE
  5
121
  8
LAYER_1
 10
52.299077
 20
129.602792
 30
0.0
 11
52.598185
 21
130.054656
 31
0.0
  0
LINE
  5
122
  8
LAYER_1
 10
52.598185
 20
130.054656
 30
0.0
 11
53.343782
 21
130.50172
 31
0.0
  0
LINE
  5
123
  8
LAYER_1
 10
53.343782
 20
130.50172
 30
0.0
 11
54.308279
 21
130.83953
 31
0.0
  0
LINE
  5
124
  8
LAYER_1
 10
54.308279
 20
130.83953
 30
0.0
 11
55.264087
 21
130.963628
 31
0.0
  0
LINE
  5
125
  8
LAYER_1
 10
55.264087
 20
130.963628
 30
0.0
 11
56.204458
 21
130.866841
 31
0.0
  0
LINE
  5
126
  8
LAYER_1
 10
56.204458
 20
130.866841
 30
0.0
 11
56.841966
 21
130.585534
 31
0.0
  0
LINE
  5
127
  8
LAYER_1
 10
56.841966
 20
130.585534
 30
0.0
 11
57.2463
 21
130.066151
 31
0.0
  0
LINE
  5
128
  8
LAYER_1
 10
57.2463
 20
130.066151
 30
0.0
 11
57.487148
 21
129.255132
 31
0.0
  0
LINE
  5
129
  8
LAYER_1
 10
57.487148
 20
129.255132
 30
0.0
 11
57.776117
 21
128.390035
 31
0.0
  0
LINE
  5
12A
  8
LAYER_1
 10
57.776117
 20
128.390035
 30
0.0
 11
58.042961
 21
128.306001
 31
0.0
  0
LINE
  5
12B
  8
LAYER_1
 10
58.042961
 20
128.306001
 30
0.0
 11
58.489619
 21
128.367307
 31
0.0
  0
LINE
  5
12C
  8
LAYER_1
 10
58.489619
 20
128.367307
 30
0.0
 11
59.195088
 21
128.328545
 31
0.0
  0
LINE
  5
12D
  8
LAYER_1
 10
59.195088
 20
128.328545
 30
0.0
 11
59.836723
 21
127.991305
 31
0.0
  0
LINE
  5
12E
  8
LAYER_1
 10
59.836723
 20
127.991305
 30
0.0
 11
60.303281
 21
127.444345
 31
0.0
  0
LINE
  5
12F
  8
LAYER_1
 10
60.303281
 20
127.444345
 30
0.0
 11
60.483521
 21
126.776422
 31
0.0
  0
LINE
  5
130
  8
LAYER_1
 10
60.483521
 20
126.776422
 30
0.0
 11
60.560479
 21
126.377783
 31
0.0
  0
LINE
  5
131
  8
LAYER_1
 10
60.560479
 20
126.377783
 30
0.0
 11
60.745503
 21
126.211977
 31
0.0
  0
LINE
  5
132
  8
LAYER_1
 10
60.745503
 20
126.211977
 30
0.0
 11
61.034598
 21
125.735286
 31
0.0
  0
LINE
  5
133
  8
LAYER_1
 10
61.034598
 20
125.735286
 30
0.0
 11
61.361763
 21
124.589199
 31
0.0
  0
LINE
  5
134
  8
LAYER_1
 10
61.361763
 20
124.589199
 30
0.0
 11
61.752367
 21
123.100032
 31
0.0
  0
LINE
  5
135
  8
LAYER_1
 10
61.752367
 20
123.100032
 30
0.0
 11
62.234941
 21
122.232532
 31
0.0
  0
LINE
  5
136
  8
LAYER_1
 10
62.234941
 20
122.232532
 30
0.0
 11
62.997843
 21
121.788325
 31
0.0
  0
LINE
  5
137
  8
LAYER_1
 10
62.997843
 20
121.788325
 30
0.0
 11
64.229432
 21
121.569036
 31
0.0
  0
LINE
  5
138
  8
LAYER_1
 10
64.229432
 20
121.569036
 30
0.0
 11
65.57111500000001
 21
121.342374
 31
0.0
  0
LINE
  5
139
  8
LAYER_1
 10
65.57111500000001
 20
121.342374
 30
0.0
 11
66.336839
 21
121.07574
 31
0.0
  0
LINE
  5
13A
  8
LAYER_1
 10
66.336839
 20
121.07574
 30
0.0
 11
66.619255
 21
120.602299
 31
0.0
  0
LINE
  5
13B
  8
LAYER_1
 10
66.619255
 20
120.602299
 30
0.0
 11
66.671637
 21
119.932555
 31
0.0
  0
LINE
  5
13C
  8
LAYER_1
 10
66.671637
 20
119.932555
 30
0.0
 11
66.504402
 21
119.19421
 31
0.0
  0
LINE
  5
13D
  8
LAYER_1
 10
66.504402
 20
119.19421
 30
0.0
 11
66.127966
 21
118.514967
 31
0.0
  0
LINE
  5
13E
  8
LAYER_1
 10
66.127966
 20
118.514967
 30
0.0
 11
65.56352099999999
 21
117.489129
 31
0.0
  0
LINE
  5
13F
  8
LAYER_1
 10
65.56352099999999
 20
117.489129
 30
0.0
 11
65.65770000000001
 21
117.213489
 31
0.0
  0
LINE
  5
140
  8
LAYER_1
 10
65.65770000000001
 20
117.213489
 30
0.0
 11
65.888592
 21
117.205574
 31
0.0
  0
LINE
  5
141
  8
LAYER_1
 10
65.888592
 20
117.205574
 30
0.0
 11
66.17872800000001
 21
117.43278
 31
0.0
  0
LINE
  5
142
  8
LAYER_1
 10
66.17872800000001
 20
117.43278
 30
0.0
 11
66.450642
 21
117.862502
 31
0.0
  0
LINE
  5
143
  8
LAYER_1
 10
66.450642
 20
117.862502
 30
0.0
 11
66.799977
 21
118.361181
 31
0.0
  0
LINE
  5
144
  8
LAYER_1
 10
66.799977
 20
118.361181
 30
0.0
 11
67.28358900000001
 21
118.655619
 31
0.0
  0
LINE
  5
145
  8
LAYER_1
 10
67.28358900000001
 20
118.655619
 30
0.0
 11
67.87131599999999
 21
118.735284
 31
0.0
  0
LINE
  5
146
  8
LAYER_1
 10
67.87131599999999
 20
118.735284
 30
0.0
 11
68.53299300000001
 21
118.589643
 31
0.0
  0
LINE
  5
147
  8
LAYER_1
 10
68.53299300000001
 20
118.589643
 30
0.0
 11
69.012586
 21
118.290077
 31
0.0
  0
LINE
  5
148
  8
LAYER_1
 10
69.012586
 20
118.290077
 30
0.0
 11
69.332655
 21
117.784258
 31
0.0
  0
LINE
  5
149
  8
LAYER_1
 10
69.332655
 20
117.784258
 30
0.0
 11
69.5158
 21
117.014919
 31
0.0
  0
LINE
  5
14A
  8
LAYER_1
 10
69.5158
 20
117.014919
 30
0.0
 11
69.584621
 21
115.924789
 31
0.0
  0
LINE
  5
14B
  8
LAYER_1
 10
69.584621
 20
115.924789
 30
0.0
 11
69.544804
 21
115.130466
 31
0.0
  0
LINE
  5
14C
  8
LAYER_1
 10
69.544804
 20
115.130466
 30
0.0
 11
69.329927
 21
114.485605
 31
0.0
  0
LINE
  5
14D
  8
LAYER_1
 10
69.329927
 20
114.485605
 30
0.0
 11
68.83913699999999
 21
113.80007
 31
0.0
  0
LINE
  5
14E
  8
LAYER_1
 10
68.83913699999999
 20
113.80007
 30
0.0
 11
67.97158500000001
 21
112.883727
 31
0.0
  0
LINE
  5
14F
  8
LAYER_1
 10
67.97158500000001
 20
112.883727
 30
0.0
 11
67.339136
 21
112.117544
 31
0.0
  0
LINE
  5
150
  8
LAYER_1
 10
67.339136
 20
112.117544
 30
0.0
 11
67.377475
 21
111.903113
 31
0.0
  0
LINE
  5
151
  8
LAYER_1
 10
67.377475
 20
111.903113
 30
0.0
 11
67.618697
 21
111.687598
 31
0.0
  0
LINE
  5
152
  8
LAYER_1
 10
67.618697
 20
111.687598
 30
0.0
 11
67.97906399999999
 21
111.218469
 31
0.0
  0
LINE
  5
153
  8
LAYER_1
 10
67.97906399999999
 20
111.218469
 30
0.0
 11
68.164967
 21
110.588167
 31
0.0
  0
LINE
  5
154
  8
LAYER_1
 10
68.164967
 20
110.588167
 30
0.0
 11
68.248482
 21
110.132346
 31
0.0
  0
LINE
  5
155
  8
LAYER_1
 10
68.248482
 20
110.132346
 30
0.0
 11
68.440156
 21
109.915541
 31
0.0
  0
LINE
  5
156
  8
LAYER_1
 10
68.440156
 20
109.915541
 30
0.0
 11
68.796375
 21
109.915431
 31
0.0
  0
LINE
  5
157
  8
LAYER_1
 10
68.796375
 20
109.915431
 30
0.0
 11
69.373521
 21
110.109691
 31
0.0
  0
LINE
  5
158
  8
LAYER_1
 10
69.373521
 20
110.109691
 30
0.0
 11
69.95114
 21
110.206532
 31
0.0
  0
LINE
  5
159
  8
LAYER_1
 10
69.95114
 20
110.206532
 30
0.0
 11
70.447485
 21
110.046595
 31
0.0
  0
LINE
  5
15A
  8
LAYER_1
 10
70.447485
 20
110.046595
 30
0.0
 11
70.79490300000001
 21
109.672684
 31
0.0
  0
LINE
  5
15B
  8
LAYER_1
 10
70.79490300000001
 20
109.672684
 30
0.0
 11
70.925744
 21
109.127602
 31
0.0
  0
LINE
  5
15C
  8
LAYER_1
 10
70.925744
 20
109.127602
 30
0.0
 11
70.99104300000001
 21
108.693127
 31
0.0
  0
LINE
  5
15D
  8
LAYER_1
 10
70.99104300000001
 20
108.693127
 30
0.0
 11
71.158671
 21
108.462838
 31
0.0
  0
LINE
  5
15E
  8
LAYER_1
 10
71.158671
 20
108.462838
 30
0.0
 11
71.386225
 21
108.46158
 31
0.0
  0
LINE
  5
15F
  8
LAYER_1
 10
71.386225
 20
108.46158
 30
0.0
 11
71.631299
 21
108.7142
 31
0.0
  0
LINE
  5
160
  8
LAYER_1
 10
71.631299
 20
108.7142
 30
0.0
 11
71.97944800000001
 21
108.91352
 31
0.0
  0
LINE
  5
161
  8
LAYER_1
 10
71.97944800000001
 20
108.91352
 30
0.0
 11
72.57155400000001
 21
108.996423
 31
0.0
  0
LINE
  5
162
  8
LAYER_1
 10
72.57155400000001
 20
108.996423
 30
0.0
 11
73.315426
 21
108.75037
 31
0.0
  0
LINE
  5
163
  8
LAYER_1
 10
73.315426
 20
108.75037
 30
0.0
 11
73.86425
 21
108.071858
 31
0.0
  0
LINE
  5
164
  8
LAYER_1
 10
73.86425
 20
108.071858
 30
0.0
 11
74.172898
 21
107.050358
 31
0.0
  0
LINE
  5
165
  8
LAYER_1
 10
74.172898
 20
107.050358
 30
0.0
 11
74.196242
 21
105.775342
 31
0.0
  0
LINE
  5
166
  8
LAYER_1
 10
74.196242
 20
105.775342
 30
0.0
 11
74.01357400000001
 21
104.716
 31
0.0
  0
LINE
  5
167
  8
LAYER_1
 10
74.01357400000001
 20
104.716
 30
0.0
 11
73.76361799999999
 21
104.101409
 31
0.0
  0
LINE
  5
168
  8
LAYER_1
 10
73.76361799999999
 20
104.101409
 30
0.0
 11
73.533923
 21
103.635491
 31
0.0
  0
LINE
  5
169
  8
LAYER_1
 10
73.533923
 20
103.635491
 30
0.0
 11
73.476624
 21
103.004485
 31
0.0
  0
LINE
  5
16A
  8
LAYER_1
 10
73.476624
 20
103.004485
 30
0.0
 11
73.58384100000001
 21
102.402951
 31
0.0
  0
LINE
  5
16B
  8
LAYER_1
 10
73.58384100000001
 20
102.402951
 30
0.0
 11
73.847695
 21
102.025447
 31
0.0
  0
LINE
  5
16C
  8
LAYER_1
 10
73.847695
 20
102.025447
 30
0.0
 11
74.198975
 21
101.712584
 31
0.0
  0
LINE
  5
16D
  8
LAYER_1
 10
74.198975
 20
101.712584
 30
0.0
 11
74.37163
 21
101.323827
 31
0.0
  0
LINE
  5
16E
  8
LAYER_1
 10
74.37163
 20
101.323827
 30
0.0
 11
74.35600599999999
 21
100.908605
 31
0.0
  0
LINE
  5
16F
  8
LAYER_1
 10
74.35600599999999
 20
100.908605
 30
0.0
 11
74.142448
 21
100.516346
 31
0.0
  0
LINE
  5
170
  8
LAYER_1
 10
74.142448
 20
100.516346
 30
0.0
 11
73.89839499999999
 21
99.851049
 31
0.0
  0
LINE
  5
171
  8
LAYER_1
 10
73.89839499999999
 20
99.851049
 30
0.0
 11
73.997366
 21
98.602789
 31
0.0
  0
LINE
  5
172
  8
LAYER_1
 10
73.997366
 20
98.602789
 30
0.0
 11
74.091324
 21
97.51596000000001
 31
0.0
  0
LINE
  5
173
  8
LAYER_1
 10
74.091324
 20
97.51596000000001
 30
0.0
 11
73.98939300000001
 21
96.976765
 31
0.0
  0
LINE
  5
174
  8
LAYER_1
 10
73.98939300000001
 20
96.976765
 30
0.0
 11
73.818885
 21
96.58903700000001
 31
0.0
  0
LINE
  5
175
  8
LAYER_1
 10
73.818885
 20
96.58903700000001
 30
0.0
 11
73.74796600000001
 21
95.866365
 31
0.0
  0
LINE
  5
176
  8
LAYER_1
 10
73.74796600000001
 20
95.866365
 30
0.0
 11
73.613803
 21
95.061835
 31
0.0
  0
LINE
  5
177
  8
LAYER_1
 10
73.613803
 20
95.061835
 30
0.0
 11
73.183521
 21
94.60309
 31
0.0
  0
LINE
  5
178
  8
LAYER_1
 10
73.183521
 20
94.60309
 30
0.0
 11
72.78488299999999
 21
94.27717800000001
 31
0.0
  0
LINE
  5
179
  8
LAYER_1
 10
72.78488299999999
 20
94.27717800000001
 30
0.0
 11
72.619077
 21
93.917801
 31
0.0
  0
LINE
  5
17A
  8
LAYER_1
 10
72.619077
 20
93.917801
 30
0.0
 11
72.49472299999999
 21
93.59944
 31
0.0
  0
LINE
  5
17B
  8
LAYER_1
 10
72.49472299999999
 20
93.59944
 30
0.0
 11
72.19574400000001
 21
93.372141
 31
0.0
  0
LINE
  5
17C
  8
LAYER_1
 10
72.19574400000001
 20
93.372141
 30
0.0
 11
71.89676400000001
 21
93.050202
 31
0.0
  0
LINE
  5
17D
  8
LAYER_1
 10
71.89676400000001
 20
93.050202
 30
0.0
 11
71.77240999999999
 21
92.504294
 31
0.0
  0
LINE
  5
17E
  8
LAYER_1
 10
71.77240999999999
 20
92.504294
 30
0.0
 11
71.59114200000001
 21
91.879965
 31
0.0
  0
LINE
  5
17F
  8
LAYER_1
 10
71.59114200000001
 20
91.879965
 30
0.0
 11
71.046092
 21
91.41833699999999
 31
0.0
  0
LINE
  5
180
  8
LAYER_1
 10
71.046092
 20
91.41833699999999
 30
0.0
 11
70.514797
 21
91.039778
 31
0.0
  0
LINE
  5
181
  8
LAYER_1
 10
70.514797
 20
91.039778
 30
0.0
 11
70.763869
 21
90.669212
 31
0.0
  0
LINE
  5
182
  8
LAYER_1
 10
70.763869
 20
90.669212
 30
0.0
 11
71.077512
 21
90.304243
 31
0.0
  0
LINE
  5
183
  8
LAYER_1
 10
71.077512
 20
90.304243
 30
0.0
 11
71.207966
 21
89.944327
 31
0.0
  0
LINE
  5
184
  8
LAYER_1
 10
71.207966
 20
89.944327
 30
0.0
 11
71.407258
 21
89.565782
 31
0.0
  0
LINE
  5
185
  8
LAYER_1
 10
71.407258
 20
89.565782
 30
0.0
 11
71.892037
 21
89.14998900000001
 31
0.0
  0
LINE
  5
186
  8
LAYER_1
 10
71.892037
 20
89.14998900000001
 30
0.0
 11
72.492655
 21
88.81438900000001
 31
0.0
  0
LINE
  5
187
  8
LAYER_1
 10
72.492655
 20
88.81438900000001
 30
0.0
 11
73.039467
 21
88.676424
 31
0.0
  0
LINE
  5
188
  8
LAYER_1
 10
73.039467
 20
88.676424
 30
0.0
 11
73.429191
 21
88.88368
 31
0.0
  0
LINE
  5
189
  8
LAYER_1
 10
73.429191
 20
88.88368
 30
0.0
 11
73.74796600000001
 21
89.381979
 31
0.0
  0
LINE
  5
18A
  8
LAYER_1
 10
73.74796600000001
 20
89.381979
 30
0.0
 11
74.064949
 21
89.880278
 31
0.0
  0
LINE
  5
18B
  8
LAYER_1
 10
74.064949
 20
89.880278
 30
0.0
 11
74.450366
 21
90.087535
 31
0.0
  0
LINE
  5
18C
  8
LAYER_1
 10
74.450366
 20
90.087535
 30
0.0
 11
75.422212
 21
90.423334
 31
0.0
  0
LINE
  5
18D
  8
LAYER_1
 10
75.422212
 20
90.423334
 30
0.0
 11
76.050099
 21
90.618831
 31
0.0
  0
LINE
  5
18E
  8
LAYER_1
 10
76.050099
 20
90.618831
 30
0.0
 11
76.502274
 21
90.331615
 31
0.0
  0
LINE
  5
18F
  8
LAYER_1
 10
76.502274
 20
90.331615
 30
0.0
 11
76.764087
 21
89.582942
 31
0.0
  0
LINE
  5
190
  8
LAYER_1
 10
76.764087
 20
89.582942
 30
0.0
 11
76.820886
 21
88.394066
 31
0.0
  0
LINE
  5
191
  8
LAYER_1
 10
76.820886
 20
88.394066
 30
0.0
 11
76.853014
 21
87.14533900000001
 31
0.0
  0
LINE
  5
192
  8
LAYER_1
 10
76.853014
 20
87.14533900000001
 30
0.0
 11
77.011465
 21
86.393429
 31
0.0
  0
LINE
  5
193
  8
LAYER_1
 10
77.011465
 20
86.393429
 30
0.0
 11
77.246168
 21
85.902193
 31
0.0
  0
LINE
  5
194
  8
LAYER_1
 10
77.246168
 20
85.902193
 30
0.0
 11
77.303383
 21
85.450498
 31
0.0
  0
LINE
  5
195
  8
LAYER_1
 10
77.303383
 20
85.450498
 30
0.0
 11
77.181663
 21
85.01853
 31
0.0
  0
LINE
  5
196
  8
LAYER_1
 10
77.181663
 20
85.01853
 30
0.0
 11
76.87956300000001
 21
84.58647600000001
 31
0.0
  0
LINE
  5
197
  8
LAYER_1
 10
76.87956300000001
 20
84.58647600000001
 30
0.0
 11
76.413202
 21
83.771717
 31
0.0
  0
LINE
  5
198
  8
LAYER_1
 10
76.413202
 20
83.771717
 30
0.0
 11
76.004457
 21
82.60864599999999
 31
0.0
  0
LINE
  5
199
  8
LAYER_1
 10
76.004457
 20
82.60864599999999
 30
0.0
 11
75.37519399999999
 21
80.67975300000001
 31
0.0
  0
LINE
  5
19A
  8
LAYER_1
 10
75.37519399999999
 20
80.67975300000001
 30
0.0
 11
74.941507
 21
80.221762
 31
0.0
  0
LINE
  5
19B
  8
LAYER_1
 10
74.941507
 20
80.221762
 30
0.0
 11
74.207295
 21
79.79718800000001
 31
0.0
  0
LINE
  5
19C
  8
LAYER_1
 10
74.207295
 20
79.79718800000001
 30
0.0
 11
73.34322
 21
79.484731
 31
0.0
  0
LINE
  5
19D
  8
LAYER_1
 10
73.34322
 20
79.484731
 30
0.0
 11
72.519946
 21
79.36309
 31
0.0
  0
LINE
  5
19E
  8
LAYER_1
 10
72.519946
 20
79.36309
 30
0.0
 11
71.976461
 21
79.22003700000001
 31
0.0
  0
LINE
  5
19F
  8
LAYER_1
 10
71.976461
 20
79.22003700000001
 30
0.0
 11
71.693038
 21
78.807824
 31
0.0
  0
LINE
  5
1A0
  8
LAYER_1
 10
71.693038
 20
78.807824
 30
0.0
 11
71.29186
 21
78.273262
 31
0.0
  0
LINE
  5
1A1
  8
LAYER_1
 10
71.29186
 20
78.273262
 30
0.0
 11
70.53123100000001
 21
77.767775
 31
0.0
  0
LINE
  5
1A2
  8
LAYER_1
 10
70.53123100000001
 20
77.767775
 30
0.0
 11
69.813259
 21
77.35785
 31
0.0
  0
LINE
  5
1A3
  8
LAYER_1
 10
69.813259
 20
77.35785
 30
0.0
 11
69.514633
 21
77.05304200000001
 31
0.0
  0
LINE
  5
1A4
  8
LAYER_1
 10
69.514633
 20
77.05304200000001
 30
0.0
 11
69.85028
 21
76.858278
 31
0.0
  0
LINE
  5
1A5
  8
LAYER_1
 10
69.85028
 20
76.858278
 30
0.0
 11
70.651484
 21
76.836812
 31
0.0
  0
LINE
  5
1A6
  8
LAYER_1
 10
70.651484
 20
76.836812
 30
0.0
 11
71.60964
 21
76.96919
 31
0.0
  0
LINE
  5
1A7
  8
LAYER_1
 10
71.60964
 20
76.96919
 30
0.0
 11
72.416139
 21
77.235956
 31
0.0
  0
LINE
  5
1A8
  8
LAYER_1
 10
72.416139
 20
77.235956
 30
0.0
 11
73.055517
 21
77.486192
 31
0.0
  0
LINE
  5
1A9
  8
LAYER_1
 10
73.055517
 20
77.486192
 30
0.0
 11
73.583889
 21
77.459143
 31
0.0
  0
LINE
  5
1AA
  8
LAYER_1
 10
73.583889
 20
77.459143
 30
0.0
 11
74.09214299999999
 21
77.12296000000001
 31
0.0
  0
LINE
  5
1AB
  8
LAYER_1
 10
74.09214299999999
 20
77.12296000000001
 30
0.0
 11
74.67116799999999
 21
76.445796
 31
0.0
  0
LINE
  5
1AC
  8
LAYER_1
 10
74.67116799999999
 20
76.445796
 30
0.0
 11
75.28503000000001
 21
75.539942
 31
0.0
  0
LINE
  5
1AD
  8
LAYER_1
 10
75.28503000000001
 20
75.539942
 30
0.0
 11
75.543976
 21
74.834417
 31
0.0
  0
LINE
  5
1AE
  8
LAYER_1
 10
75.543976
 20
74.834417
 30
0.0
 11
75.47134300000001
 21
74.15585
 31
0.0
  0
LINE
  5
1AF
  8
LAYER_1
 10
75.47134300000001
 20
74.15585
 30
0.0
 11
75.090469
 21
73.33087500000001
 31
0.0
  0
LINE
  5
1B0
  8
LAYER_1
 10
75.090469
 20
73.33087500000001
 30
0.0
 11
74.638111
 21
72.272333
 31
0.0
  0
LINE
  5
1B1
  8
LAYER_1
 10
74.638111
 20
72.272333
 30
0.0
 11
74.733122
 21
71.519172
 31
0.0
  0
LINE
  5
1B2
  8
LAYER_1
 10
74.733122
 20
71.519172
 30
0.0
 11
75.103763
 21
71.03944799999999
 31
0.0
  0
LINE
  5
1B3
  8
LAYER_1
 10
75.103763
 20
71.03944799999999
 30
0.0
 11
75.72352100000001
 21
71.046148
 31
0.0
  0
LINE
  5
1B4
  8
LAYER_1
 10
75.72352100000001
 20
71.046148
 30
0.0
 11
76.249771
 21
71.246923
 31
0.0
  0
LINE
  5
1B5
  8
LAYER_1
 10
76.249771
 20
71.246923
 30
0.0
 11
76.52422799999999
 21
71.48497
 31
0.0
  0
LINE
  5
1B6
  8
LAYER_1
 10
76.52422799999999
 20
71.48497
 30
0.0
 11
76.82082
 21
71.876954
 31
0.0
  0
LINE
  5
1B7
  8
LAYER_1
 10
76.82082
 20
71.876954
 30
0.0
 11
77.326025
 21
72.10244
 31
0.0
  0
LINE
  5
1B8
  8
LAYER_1
 10
77.326025
 20
72.10244
 30
0.0
 11
77.96982800000001
 21
72.14509
 31
0.0
  0
LINE
  5
1B9
  8
LAYER_1
 10
77.96982800000001
 20
72.14509
 30
0.0
 11
78.682209
 21
71.988564
 31
0.0
  0
LINE
  5
1BA
  8
LAYER_1
 10
78.682209
 20
71.988564
 30
0.0
 11
79.56798600000001
 21
71.79254
 31
0.0
  0
LINE
  5
1BB
  8
LAYER_1
 10
79.56798600000001
 20
71.79254
 30
0.0
 11
80.29569100000001
 21
71.903105
 31
0.0
  0
LINE
  5
1BC
  8
LAYER_1
 10
80.29569100000001
 20
71.903105
 30
0.0
 11
81.288641
 21
72.047622
 31
0.0
  0
LINE
  5
1BD
  8
LAYER_1
 10
81.288641
 20
72.047622
 30
0.0
 11
82.764667
 21
72.025312
 31
0.0
  0
LINE
  5
1BE
  8
LAYER_1
 10
82.764667
 20
72.025312
 30
0.0
 11
84.584701
 21
71.884201
 31
0.0
  0
LINE
  5
1BF
  8
LAYER_1
 10
84.584701
 20
71.884201
 30
0.0
 11
84.635648
 21
69.20309
 31
0.0
  0
LINE
  5
1C0
  8
LAYER_1
 10
84.635648
 20
69.20309
 30
0.0
 11
84.55548400000001
 21
66.72736500000001
 31
0.0
  0
LINE
  5
1C1
  8
LAYER_1
 10
84.55548400000001
 20
66.72736500000001
 30
0.0
 11
84.34999000000001
 21
65.89649799999999
 31
0.0
  0
LINE
  5
1C2
  8
LAYER_1
 10
84.34999000000001
 20
65.89649799999999
 30
0.0
 11
83.984897
 21
65.019882
 31
0.0
  0
LINE
  5
1C3
  8
LAYER_1
 10
83.984897
 20
65.019882
 30
0.0
 11
83.374961
 21
63.91514
 31
0.0
  0
LINE
  5
1C4
  8
LAYER_1
 10
83.374961
 20
63.91514
 30
0.0
 11
82.89388200000001
 21
63.368388
 31
0.0
  0
LINE
  5
1C5
  8
LAYER_1
 10
82.89388200000001
 20
63.368388
 30
0.0
 11
80.948488
 21
63.487086
 31
0.0
  0
LINE
  5
1C6
  8
LAYER_1
 10
80.948488
 20
63.487086
 30
0.0
 11
79.39241
 21
63.755177
 31
0.0
  0
LINE
  5
1C7
  8
LAYER_1
 10
79.39241
 20
63.755177
 30
0.0
 11
79.39241
 21
62.810246
 31
0.0
  0
LINE
  5
1C8
  8
LAYER_1
 10
79.39241
 20
62.810246
 30
0.0
 11
79.50471
 21
62.055121
 31
0.0
  0
LINE
  5
1C9
  8
LAYER_1
 10
79.50471
 20
62.055121
 30
0.0
 11
79.95147799999999
 21
61.865312
 31
0.0
  0
LINE
  5
1CA
  8
LAYER_1
 10
79.95147799999999
 20
61.865312
 30
0.0
 11
80.382897
 21
61.695765
 31
0.0
  0
LINE
  5
1CB
  8
LAYER_1
 10
80.382897
 20
61.695765
 30
0.0
 11
80.67578399999999
 21
61.147991
 31
0.0
  0
LINE
  5
1CC
  8
LAYER_1
 10
80.67578399999999
 20
61.147991
 30
0.0
 11
80.847951
 21
60.163294
 31
0.0
  0
LINE
  5
1CD
  8
LAYER_1
 10
80.847951
 20
60.163294
 30
0.0
 11
80.91721200000001
 21
58.682975
 31
0.0
  0
LINE
  5
1CE
  8
LAYER_1
 10
80.91721200000001
 20
58.682975
 30
0.0
 11
80.813811
 21
57.222103
 31
0.0
  0
LINE
  5
1CF
  8
LAYER_1
 10
80.813811
 20
57.222103
 30
0.0
 11
80.60396400000001
 21
56.824024
 31
0.0
  0
LINE
  5
1D0
  8
LAYER_1
 10
80.60396400000001
 20
56.824024
 30
0.0
 11
80.23658500000001
 21
56.478788
 31
0.0
  0
LINE
  5
1D1
  8
LAYER_1
 10
80.23658500000001
 20
56.478788
 30
0.0
 11
79.512064
 21
56.038446
 31
0.0
  0
LINE
  5
1D2
  8
LAYER_1
 10
79.512064
 20
56.038446
 30
0.0
 11
78.75740999999999
 21
55.755955
 31
0.0
  0
LINE
  5
1D3
  8
LAYER_1
 10
78.75740999999999
 20
55.755955
 30
0.0
 11
78.173756
 21
55.559835
 31
0.0
  0
LINE
  5
1D4
  8
LAYER_1
 10
78.173756
 20
55.559835
 30
0.0
 11
78.018969
 21
55.33972
 31
0.0
  0
LINE
  5
1D5
  8
LAYER_1
 10
78.018969
 20
55.33972
 30
0.0
 11
78.28631900000001
 21
55.121796
 31
0.0
  0
LINE
  5
1D6
  8
LAYER_1
 10
78.28631900000001
 20
55.121796
 30
0.0
 11
78.969077
 21
54.932247
 31
0.0
  0
LINE
  5
1D7
  8
LAYER_1
 10
78.969077
 20
54.932247
 30
0.0
 11
79.552589
 21
54.784725
 31
0.0
  0
LINE
  5
1D8
  8
LAYER_1
 10
79.552589
 20
54.784725
 30
0.0
 11
79.87446
 21
54.564983
 31
0.0
  0
LINE
  5
1D9
  8
LAYER_1
 10
79.87446
 20
54.564983
 30
0.0
 11
79.993561
 21
54.194183
 31
0.0
  0
LINE
  5
1DA
  8
LAYER_1
 10
79.993561
 20
54.194183
 30
0.0
 11
79.968762
 21
53.593484
 31
0.0
  0
LINE
  5
1DB
  8
LAYER_1
 10
79.968762
 20
53.593484
 30
0.0
 11
80.032284
 21
53.029667
 31
0.0
  0
LINE
  5
1DC
  8
LAYER_1
 10
80.032284
 20
53.029667
 30
0.0
 11
80.31785100000001
 21
52.615399
 31
0.0
  0
LINE
  5
1DD
  8
LAYER_1
 10
80.31785100000001
 20
52.615399
 30
0.0
 11
80.773438
 21
52.395215
 31
0.0
  0
LINE
  5
1DE
  8
LAYER_1
 10
80.773438
 20
52.395215
 30
0.0
 11
81.347025
 21
52.413645
 31
0.0
  0
LINE
  5
1DF
  8
LAYER_1
 10
81.347025
 20
52.413645
 30
0.0
 11
82.071254
 21
52.719655
 31
0.0
  0
LINE
  5
1E0
  8
LAYER_1
 10
82.071254
 20
52.719655
 30
0.0
 11
82.712226
 21
53.210451
 31
0.0
  0
LINE
  5
1E1
  8
LAYER_1
 10
82.712226
 20
53.210451
 30
0.0
 11
83.171965
 21
53.790698
 31
0.0
  0
LINE
  5
1E2
  8
LAYER_1
 10
83.171965
 20
53.790698
 30
0.0
 11
83.352496
 21
54.365062
 31
0.0
  0
LINE
  5
1E3
  8
LAYER_1
 10
83.352496
 20
54.365062
 30
0.0
 11
83.486554
 21
55.086891
 31
0.0
  0
LINE
  5
1E4
  8
LAYER_1
 10
83.486554
 20
55.086891
 30
0.0
 11
83.86470199999999
 21
55.579699
 31
0.0
  0
LINE
  5
1E5
  8
LAYER_1
 10
83.86470199999999
 20
55.579699
 30
0.0
 11
84.489375
 21
55.845328
 31
0.0
  0
LINE
  5
1E6
  8
LAYER_1
 10
84.489375
 20
55.845328
 30
0.0
 11
85.36300799999999
 21
55.885619
 31
0.0
  0
LINE
  5
1E7
  8
LAYER_1
 10
85.36300799999999
 20
55.885619
 30
0.0
 11
86.37370300000001
 21
55.696521
 31
0.0
  0
LINE
  5
1E8
  8
LAYER_1
 10
86.37370300000001
 20
55.696521
 30
0.0
 11
86.584056
 21
55.493793
 31
0.0
  0
LINE
  5
1E9
  8
LAYER_1
 10
86.584056
 20
55.493793
 30
0.0
 11
86.677514
 21
55.175878
 31
0.0
  0
LINE
  5
1EA
  8
LAYER_1
 10
86.677514
 20
55.175878
 30
0.0
 11
86.891372
 21
54.68878
 31
0.0
  0
LINE
  5
1EB
  8
LAYER_1
 10
86.891372
 20
54.68878
 30
0.0
 11
87.281357
 21
54.390637
 31
0.0
  0
LINE
  5
1EC
  8
LAYER_1
 10
87.281357
 20
54.390637
 30
0.0
 11
87.646191
 21
54.173626
 31
0.0
  0
LINE
  5
1ED
  8
LAYER_1
 10
87.646191
 20
54.173626
 30
0.0
 11
87.882373
 21
53.813051
 31
0.0
  0
LINE
  5
1EE
  8
LAYER_1
 10
87.882373
 20
53.813051
 30
0.0
 11
87.981166
 21
52.765506
 31
0.0
  0
LINE
  5
1EF
  8
LAYER_1
 10
87.981166
 20
52.765506
 30
0.0
 11
87.60251100000001
 21
51.456598
 31
0.0
  0
LINE
  5
1F0
  8
LAYER_1
 10
87.60251100000001
 20
51.456598
 30
0.0
 11
86.771181
 21
50.094921
 31
0.0
  0
LINE
  5
1F1
  8
LAYER_1
 10
86.771181
 20
50.094921
 30
0.0
 11
86.109028
 21
49.090017
 31
0.0
  0
LINE
  5
1F2
  8
LAYER_1
 10
86.109028
 20
49.090017
 30
0.0
 11
85.713717
 21
48.177535
 31
0.0
  0
LINE
  5
1F3
  8
LAYER_1
 10
85.713717
 20
48.177535
 30
0.0
 11
85.37785
 21
47.275925
 31
0.0
  0
LINE
  5
1F4
  8
LAYER_1
 10
85.37785
 20
47.275925
 30
0.0
 11
84.855155
 21
46.482618
 31
0.0
  0
LINE
  5
1F5
  8
LAYER_1
 10
84.855155
 20
46.482618
 30
0.0
 11
84.190968
 21
45.852002
 31
0.0
  0
LINE
  5
1F6
  8
LAYER_1
 10
84.190968
 20
45.852002
 30
0.0
 11
83.430626
 21
45.438466
 31
0.0
  0
LINE
  5
1F7
  8
LAYER_1
 10
83.430626
 20
45.438466
 30
0.0
 11
82.77115000000001
 21
45.107563
 31
0.0
  0
LINE
  5
1F8
  8
LAYER_1
 10
82.77115000000001
 20
45.107563
 30
0.0
 11
82.496855
 21
44.786141
 31
0.0
  0
LINE
  5
1F9
  8
LAYER_1
 10
82.496855
 20
44.786141
 30
0.0
 11
82.16068
 21
44.374965
 31
0.0
  0
LINE
  5
1FA
  8
LAYER_1
 10
82.16068
 20
44.374965
 30
0.0
 11
81.35243199999999
 21
43.82827
 31
0.0
  0
LINE
  5
1FB
  8
LAYER_1
 10
81.35243199999999
 20
43.82827
 30
0.0
 11
80.60764399999999
 21
43.273019
 31
0.0
  0
LINE
  5
1FC
  8
LAYER_1
 10
80.60764399999999
 20
43.273019
 30
0.0
 11
80.289664
 21
42.757369
 31
0.0
  0
LINE
  5
1FD
  8
LAYER_1
 10
80.289664
 20
42.757369
 30
0.0
 11
80.42470299999999
 21
42.405605
 31
0.0
  0
LINE
  5
1FE
  8
LAYER_1
 10
80.42470299999999
 20
42.405605
 30
0.0
 11
81.038974
 21
42.342014
 31
0.0
  0
LINE
  5
1FF
  8
LAYER_1
 10
81.038974
 20
42.342014
 30
0.0
 11
81.616455
 21
42.31467
 31
0.0
  0
LINE
  5
200
  8
LAYER_1
 10
81.616455
 20
42.31467
 30
0.0
 11
82.078748
 21
42.079384
 31
0.0
  0
LINE
  5
201
  8
LAYER_1
 10
82.078748
 20
42.079384
 30
0.0
 11
82.385623
 21
41.669881
 31
0.0
  0
LINE
  5
202
  8
LAYER_1
 10
82.385623
 20
41.669881
 30
0.0
 11
82.496855
 21
41.119882
 31
0.0
  0
LINE
  5
203
  8
LAYER_1
 10
82.496855
 20
41.119882
 30
0.0
 11
82.694394
 21
40.533583
 31
0.0
  0
LINE
  5
204
  8
LAYER_1
 10
82.694394
 20
40.533583
 30
0.0
 11
83.191155
 21
40.026418
 31
0.0
  0
LINE
  5
205
  8
LAYER_1
 10
83.191155
 20
40.026418
 30
0.0
 11
83.601584
 21
39.790377
 31
0.0
  0
LINE
  5
206
  8
LAYER_1
 10
83.601584
 20
39.790377
 30
0.0
 11
83.939373
 21
39.742359
 31
0.0
  0
LINE
  5
207
  8
LAYER_1
 10
83.939373
 20
39.742359
 30
0.0
 11
84.951604
 21
40.294997
 31
0.0
  0
LINE
  5
208
  8
LAYER_1
 10
84.951604
 20
40.294997
 30
0.0
 11
86.002742
 21
40.836537
 31
0.0
  0
LINE
  5
209
  8
LAYER_1
 10
86.002742
 20
40.836537
 30
0.0
 11
87.008967
 21
40.833404
 31
0.0
  0
LINE
  5
20A
  8
LAYER_1
 10
87.008967
 20
40.833404
 30
0.0
 11
88.08587900000001
 21
40.564266
 31
0.0
  0
LINE
  5
20B
  8
LAYER_1
 10
88.08587900000001
 20
40.564266
 30
0.0
 11
88.15512699999999
 21
39.980535
 31
0.0
  0
LINE
  5
20C
  8
LAYER_1
 10
88.15512699999999
 20
39.980535
 30
0.0
 11
88.056108
 21
37.735312
 31
0.0
  0
LINE
  5
20D
  8
LAYER_1
 10
88.056108
 20
37.735312
 30
0.0
 11
88.05499399999999
 21
36.407133
 31
0.0
  0
LINE
  5
20E
  8
LAYER_1
 10
88.05499399999999
 20
36.407133
 30
0.0
 11
88.18068599999999
 21
35.591725
 31
0.0
  0
LINE
  5
20F
  8
LAYER_1
 10
88.18068599999999
 20
35.591725
 30
0.0
 11
88.258461
 21
34.970702
 31
0.0
  0
LINE
  5
210
  8
LAYER_1
 10
88.258461
 20
34.970702
 30
0.0
 11
87.887187
 21
34.447111
 31
0.0
  0
LINE
  5
211
  8
LAYER_1
 10
87.887187
 20
34.447111
 30
0.0
 11
87.108052
 21
34.053782
 31
0.0
  0
LINE
  5
212
  8
LAYER_1
 10
87.108052
 20
34.053782
 30
0.0
 11
85.96224700000001
 21
33.823543
 31
0.0
  0
LINE
  5
213
  8
LAYER_1
 10
85.96224700000001
 20
33.823543
 30
0.0
 11
84.007538
 21
33.592144
 31
0.0
  0
LINE
  5
214
  8
LAYER_1
 10
84.007538
 20
33.592144
 30
0.0
 11
82.85386699999999
 21
33.346186
 31
0.0
  0
LINE
  5
215
  8
LAYER_1
 10
82.85386699999999
 20
33.346186
 30
0.0
 11
82.209412
 21
32.98755
 31
0.0
  0
LINE
  5
216
  8
LAYER_1
 10
82.209412
 20
32.98755
 30
0.0
 11
81.782347
 21
32.418113
 31
0.0
  0
LINE
  5
217
  8
LAYER_1
 10
81.782347
 20
32.418113
 30
0.0
 11
81.27433600000001
 21
31.625227
 31
0.0
  0
LINE
  5
218
  8
LAYER_1
 10
81.27433600000001
 20
31.625227
 30
0.0
 11
80.779332
 21
31.114993
 31
0.0
  0
LINE
  5
219
  8
LAYER_1
 10
80.779332
 20
31.114993
 30
0.0
 11
80.11247299999999
 21
30.747806
 31
0.0
  0
LINE
  5
21A
  8
LAYER_1
 10
80.11247299999999
 20
30.747806
 30
0.0
 11
79.088894
 21
30.384061
 31
0.0
  0
LINE
  5
21B
  8
LAYER_1
 10
79.088894
 20
30.384061
 30
0.0
 11
75.417282
 21
29.084959
 31
0.0
  0
LINE
  5
21C
  8
LAYER_1
 10
75.417282
 20
29.084959
 30
0.0
 11
72.991576
 21
28.280868
 31
0.0
  0
LINE
  5
21D
  8
LAYER_1
 10
72.991576
 20
28.280868
 30
0.0
 11
72.17528299999999
 21
27.693815
 31
0.0
  0
LINE
  5
21E
  8
LAYER_1
 10
72.17528299999999
 20
27.693815
 30
0.0
 11
71.601214
 21
27.282171
 31
0.0
  0
LINE
  5
21F
  8
LAYER_1
 10
71.601214
 20
27.282171
 30
0.0
 11
70.932096
 21
27.260127
 31
0.0
  0
LINE
  5
220
  8
LAYER_1
 10
70.932096
 20
27.260127
 30
0.0
 11
68.748969
 21
27.650769
 31
0.0
  0
LINE
  5
221
  8
LAYER_1
 10
68.748969
 20
27.650769
 30
0.0
 11
68.270105
 21
27.608442
 31
0.0
  0
LINE
  5
222
  8
LAYER_1
 10
68.270105
 20
27.608442
 30
0.0
 11
67.94690799999999
 21
27.421335
 31
0.0
  0
LINE
  5
223
  8
LAYER_1
 10
67.94690799999999
 20
27.421335
 30
0.0
 11
67.024677
 21
27.147483
 31
0.0
  0
LINE
  5
224
  8
LAYER_1
 10
67.024677
 20
27.147483
 30
0.0
 11
65.338937
 21
27.008125
 31
0.0
  0
LINE
  5
225
  8
LAYER_1
 10
65.338937
 20
27.008125
 30
0.0
 11
62.883446
 21
26.669406
 31
0.0
  0
LINE
  5
226
  8
LAYER_1
 10
62.883446
 20
26.669406
 30
0.0
 11
60.774578
 21
25.834279
 31
0.0
  0
LINE
  5
227
  8
LAYER_1
 10
60.774578
 20
25.834279
 30
0.0
 11
59.895798
 21
25.256124
 31
0.0
  0
LINE
  5
228
  8
LAYER_1
 10
59.895798
 20
25.256124
 30
0.0
 11
59.158478
 21
24.584541
 31
0.0
  0
LINE
  5
229
  8
LAYER_1
 10
59.158478
 20
24.584541
 30
0.0
 11
58.580887
 21
23.829754
 31
0.0
  0
LINE
  5
22A
  8
LAYER_1
 10
58.580887
 20
23.829754
 30
0.0
 11
58.181294
 21
23.001989
 31
0.0
  0
LINE
  5
22B
  8
LAYER_1
 10
58.181294
 20
23.001989
 30
0.0
 11
57.987066
 21
21.879838
 31
0.0
  0
LINE
  5
22C
  8
LAYER_1
 10
57.987066
 20
21.879838
 30
0.0
 11
57.889122
 21
20.019915
 31
0.0
  0
LINE
  5
22D
  8
LAYER_1
 10
57.889122
 20
20.019915
 30
0.0
 11
57.953693
 21
14.823422
 31
0.0
  0
LINE
  5
22E
  8
LAYER_1
 10
57.953693
 20
14.823422
 30
0.0
 11
58.318226
 21
8.885835999999999
 31
0.0
  0
LINE
  5
22F
  8
LAYER_1
 10
58.318226
 20
8.885835999999999
 30
0.0
 11
58.92594
 21
3.680488
 31
0.0
  0
LINE
  5
230
  8
LAYER_1
 10
58.92594
 20
3.680488
 30
0.0
 11
58.865603
 21
3.009797
 31
0.0
  0
LINE
  5
231
  8
LAYER_1
 10
58.865603
 20
3.009797
 30
0.0
 11
58.171873
 21
2.622155
 31
0.0
  0
LINE
  5
232
  8
LAYER_1
 10
58.171873
 20
2.622155
 30
0.0
 11
56.701964
 21
2.35664
 31
0.0
  0
LINE
  5
233
  8
LAYER_1
 10
56.701964
 20
2.35664
 30
0.0
 11
53.491519
 21
2.611354
 31
0.0
  0
LINE
  5
234
  8
LAYER_1
 10
53.491519
 20
2.611354
 30
0.0
 11
53.491519
 21
2.611354
 31
0.0
  0
LINE
  5
235
  8
LAYER_1
 10
57.744332
 20
4.150868
 30
0.0
 11
57.377951
 21
7.960868
 31
0.0
  0
LINE
  5
236
  8
LAYER_1
 10
57.377951
 20
7.960868
 30
0.0
 11
56.954934
 21
12.05309
 31
0.0
  0
LINE
  5
237
  8
LAYER_1
 10
56.954934
 20
12.05309
 30
0.0
 11
56.838545
 21
17.68197
 31
0.0
  0
LINE
  5
238
  8
LAYER_1
 10
56.838545
 20
17.68197
 30
0.0
 11
56.976533
 21
21.644306
 31
0.0
  0
LINE
  5
239
  8
LAYER_1
 10
56.976533
 20
21.644306
 30
0.0
 11
57.201275
 21
23.043334
 31
0.0
  0
LINE
  5
23A
  8
LAYER_1
 10
57.201275
 20
23.043334
 30
0.0
 11
57.57516
 21
24.151548
 31
0.0
  0
LINE
  5
23B
  8
LAYER_1
 10
57.57516
 20
24.151548
 30
0.0
 11
58.132171
 21
25.041908
 31
0.0
  0
LINE
  5
23C
  8
LAYER_1
 10
58.132171
 20
25.041908
 30
0.0
 11
58.906291
 21
25.787373
 31
0.0
  0
LINE
  5
23D
  8
LAYER_1
 10
58.906291
 20
25.787373
 30
0.0
 11
59.931503
 21
26.460902
 31
0.0
  0
LINE
  5
23E
  8
LAYER_1
 10
59.931503
 20
26.460902
 30
0.0
 11
61.24179
 21
27.135455
 31
0.0
  0
LINE
  5
23F
  8
LAYER_1
 10
61.24179
 20
27.135455
 30
0.0
 11
63.059741
 21
27.816222
 31
0.0
  0
LINE
  5
240
  8
LAYER_1
 10
63.059741
 20
27.816222
 30
0.0
 11
65.015415
 21
28.059535
 31
0.0
  0
LINE
  5
241
  8
LAYER_1
 10
65.015415
 20
28.059535
 30
0.0
 11
66.505549
 21
28.20373
 31
0.0
  0
LINE
  5
242
  8
LAYER_1
 10
66.505549
 20
28.20373
 30
0.0
 11
67.269848
 21
28.437755
 31
0.0
  0
LINE
  5
243
  8
LAYER_1
 10
67.269848
 20
28.437755
 30
0.0
 11
67.946777
 21
28.607871
 31
0.0
  0
LINE
  5
244
  8
LAYER_1
 10
67.946777
 20
28.607871
 30
0.0
 11
69.433172
 21
28.536973
 31
0.0
  0
LINE
  5
245
  8
LAYER_1
 10
69.433172
 20
28.536973
 30
0.0
 11
70.827731
 21
28.461156
 31
0.0
  0
LINE
  5
246
  8
LAYER_1
 10
70.827731
 20
28.461156
 30
0.0
 11
71.490188
 21
28.558013
 31
0.0
  0
LINE
  5
247
  8
LAYER_1
 10
71.490188
 20
28.558013
 30
0.0
 11
74.561888
 21
29.918296
 31
0.0
  0
LINE
  5
248
  8
LAYER_1
 10
74.561888
 20
29.918296
 30
0.0
 11
77.846572
 21
31.10309
 31
0.0
  0
LINE
  5
249
  8
LAYER_1
 10
77.846572
 20
31.10309
 30
0.0
 11
79.266243
 21
31.54713
 31
0.0
  0
LINE
  5
24A
  8
LAYER_1
 10
79.266243
 20
31.54713
 30
0.0
 11
80.31849699999999
 21
32.161905
 31
0.0
  0
LINE
  5
24B
  8
LAYER_1
 10
80.31849699999999
 20
32.161905
 30
0.0
 11
81.050836
 21
33.271209
 31
0.0
  0
LINE
  5
24C
  8
LAYER_1
 10
81.050836
 20
33.271209
 30
0.0
 11
81.692089
 21
34.307882
 31
0.0
  0
LINE
  5
24D
  8
LAYER_1
 10
81.692089
 20
34.307882
 30
0.0
 11
82.000542
 21
34.442425
 31
0.0
  0
LINE
  5
24E
  8
LAYER_1
 10
82.000542
 20
34.442425
 30
0.0
 11
82.40763
 21
34.410763
 31
0.0
  0
LINE
  5
24F
  8
LAYER_1
 10
82.40763
 20
34.410763
 30
0.0
 11
83.21892699999999
 21
34.433665
 31
0.0
  0
LINE
  5
250
  8
LAYER_1
 10
83.21892699999999
 20
34.433665
 30
0.0
 11
84.1375
 21
34.686003
 31
0.0
  0
LINE
  5
251
  8
LAYER_1
 10
84.1375
 20
34.686003
 30
0.0
 11
85.02804999999999
 21
34.943697
 31
0.0
  0
LINE
  5
252
  8
LAYER_1
 10
85.02804999999999
 20
34.943697
 30
0.0
 11
85.771973
 21
34.979477
 31
0.0
  0
LINE
  5
253
  8
LAYER_1
 10
85.771973
 20
34.979477
 30
0.0
 11
86.38742000000001
 21
34.93801
 31
0.0
  0
LINE
  5
254
  8
LAYER_1
 10
86.38742000000001
 20
34.93801
 30
0.0
 11
86.7696
 21
35.080006
 31
0.0
  0
LINE
  5
255
  8
LAYER_1
 10
86.7696
 20
35.080006
 30
0.0
 11
86.899613
 21
35.388831
 31
0.0
  0
LINE
  5
256
  8
LAYER_1
 10
86.899613
 20
35.388831
 30
0.0
 11
86.758563
 21
35.84785
 31
0.0
  0
LINE
  5
257
  8
LAYER_1
 10
86.758563
 20
35.84785
 30
0.0
 11
86.596943
 21
36.327795
 31
0.0
  0
LINE
  5
258
  8
LAYER_1
 10
86.596943
 20
36.327795
 30
0.0
 11
86.729426
 21
36.605952
 31
0.0
  0
LINE
  5
259
  8
LAYER_1
 10
86.729426
 20
36.605952
 30
0.0
 11
86.991985
 21
36.941848
 31
0.0
  0
LINE
  5
25A
  8
LAYER_1
 10
86.991985
 20
36.941848
 30
0.0
 11
87.01093899999999
 21
37.363308
 31
0.0
  0
LINE
  5
25B
  8
LAYER_1
 10
87.01093899999999
 20
37.363308
 30
0.0
 11
86.818772
 21
37.723707
 31
0.0
  0
LINE
  5
25C
  8
LAYER_1
 10
86.818772
 20
37.723707
 30
0.0
 11
86.44796599999999
 21
37.876424
 31
0.0
  0
LINE
  5
25D
  8
LAYER_1
 10
86.44796599999999
 20
37.876424
 30
0.0
 11
86.04932700000001
 21
37.946478
 31
0.0
  0
LINE
  5
25E
  8
LAYER_1
 10
86.04932700000001
 20
37.946478
 30
0.0
 11
85.883521
 21
38.114904
 31
0.0
  0
LINE
  5
25F
  8
LAYER_1
 10
85.883521
 20
38.114904
 30
0.0
 11
86.44796599999999
 21
38.864201
 31
0.0
  0
LINE
  5
260
  8
LAYER_1
 10
86.44796599999999
 20
38.864201
 30
0.0
 11
87.01241
 21
39.613499
 31
0.0
  0
LINE
  5
261
  8
LAYER_1
 10
87.01241
 20
39.613499
 30
0.0
 11
86.841472
 21
39.810686
 31
0.0
  0
LINE
  5
262
  8
LAYER_1
 10
86.841472
 20
39.810686
 30
0.0
 11
86.433632
 21
39.841157
 31
0.0
  0
LINE
  5
263
  8
LAYER_1
 10
86.433632
 20
39.841157
 30
0.0
 11
85.946354
 21
39.720735
 31
0.0
  0
LINE
  5
264
  8
LAYER_1
 10
85.946354
 20
39.720735
 30
0.0
 11
85.537102
 21
39.465242
 31
0.0
  0
LINE
  5
265
  8
LAYER_1
 10
85.537102
 20
39.465242
 30
0.0
 11
84.22750000000001
 21
38.608769
 31
0.0
  0
LINE
  5
266
  8
LAYER_1
 10
84.22750000000001
 20
38.608769
 30
0.0
 11
82.915184
 21
38.158646
 31
0.0
  0
LINE
  5
267
  8
LAYER_1
 10
82.915184
 20
38.158646
 30
0.0
 11
82.60532600000001
 21
38.28877
 31
0.0
  0
LINE
  5
268
  8
LAYER_1
 10
82.60532600000001
 20
38.28877
 30
0.0
 11
82.63796600000001
 21
38.72309
 31
0.0
  0
LINE
  5
269
  8
LAYER_1
 10
82.63796600000001
 20
38.72309
 30
0.0
 11
82.675136
 21
39.148661
 31
0.0
  0
LINE
  5
26A
  8
LAYER_1
 10
82.675136
 20
39.148661
 30
0.0
 11
82.41920399999999
 21
39.287535
 31
0.0
  0
LINE
  5
26B
  8
LAYER_1
 10
82.41920399999999
 20
39.287535
 30
0.0
 11
81.98630799999999
 21
39.569542
 31
0.0
  0
LINE
  5
26C
  8
LAYER_1
 10
81.98630799999999
 20
39.569542
 30
0.0
 11
81.504285
 21
40.247562
 31
0.0
  0
LINE
  5
26D
  8
LAYER_1
 10
81.504285
 20
40.247562
 30
0.0
 11
81.031069
 21
40.894138
 31
0.0
  0
LINE
  5
26E
  8
LAYER_1
 10
81.031069
 20
40.894138
 30
0.0
 11
80.62387800000001
 21
41.06814
 31
0.0
  0
LINE
  5
26F
  8
LAYER_1
 10
80.62387800000001
 20
41.06814
 30
0.0
 11
80.147054
 21
41.206302
 31
0.0
  0
LINE
  5
270
  8
LAYER_1
 10
80.147054
 20
41.206302
 30
0.0
 11
79.548463
 21
41.708778
 31
0.0
  0
LINE
  5
271
  8
LAYER_1
 10
79.548463
 20
41.708778
 30
0.0
 11
79.072035
 21
42.322334
 31
0.0
  0
LINE
  5
272
  8
LAYER_1
 10
79.072035
 20
42.322334
 30
0.0
 11
78.961702
 21
42.793731
 31
0.0
  0
LINE
  5
273
  8
LAYER_1
 10
78.961702
 20
42.793731
 30
0.0
 11
79.277992
 21
43.568315
 31
0.0
  0
LINE
  5
274
  8
LAYER_1
 10
79.277992
 20
43.568315
 30
0.0
 11
79.640874
 21
44.001921
 31
0.0
  0
LINE
  5
275
  8
LAYER_1
 10
79.640874
 20
44.001921
 30
0.0
 11
80.277191
 21
44.383322
 31
0.0
  0
LINE
  5
276
  8
LAYER_1
 10
80.277191
 20
44.383322
 30
0.0
 11
80.974688
 21
44.784308
 31
0.0
  0
LINE
  5
277
  8
LAYER_1
 10
80.974688
 20
44.784308
 30
0.0
 11
81.48466999999999
 21
45.264999
 31
0.0
  0
LINE
  5
278
  8
LAYER_1
 10
81.48466999999999
 20
45.264999
 30
0.0
 11
82.113343
 21
45.82761
 31
0.0
  0
LINE
  5
279
  8
LAYER_1
 10
82.113343
 20
45.82761
 30
0.0
 11
83.09620700000001
 21
46.42555
 31
0.0
  0
LINE
  5
27A
  8
LAYER_1
 10
83.09620700000001
 20
46.42555
 30
0.0
 11
83.760694
 21
46.803782
 31
0.0
  0
LINE
  5
27B
  8
LAYER_1
 10
83.760694
 20
46.803782
 30
0.0
 11
84.203025
 21
47.205797
 31
0.0
  0
LINE
  5
27C
  8
LAYER_1
 10
84.203025
 20
47.205797
 30
0.0
 11
84.82270699999999
 21
48.582837
 31
0.0
  0
LINE
  5
27D
  8
LAYER_1
 10
84.82270699999999
 20
48.582837
 30
0.0
 11
85.37073599999999
 21
49.878913
 31
0.0
  0
LINE
  5
27E
  8
LAYER_1
 10
85.37073599999999
 20
49.878913
 30
0.0
 11
85.99827000000001
 21
50.840615
 31
0.0
  0
LINE
  5
27F
  8
LAYER_1
 10
85.99827000000001
 20
50.840615
 30
0.0
 11
86.511877
 21
51.640606
 31
0.0
  0
LINE
  5
280
  8
LAYER_1
 10
86.511877
 20
51.640606
 30
0.0
 11
86.77686199999999
 21
52.551979
 31
0.0
  0
LINE
  5
281
  8
LAYER_1
 10
86.77686199999999
 20
52.551979
 30
0.0
 11
86.74027599999999
 21
53.378529
 31
0.0
  0
LINE
  5
282
  8
LAYER_1
 10
86.74027599999999
 20
53.378529
 30
0.0
 11
86.56097800000001
 21
53.547679
 31
0.0
  0
LINE
  5
283
  8
LAYER_1
 10
86.56097800000001
 20
53.547679
 30
0.0
 11
86.236299
 21
53.629941
 31
0.0
  0
LINE
  5
284
  8
LAYER_1
 10
86.236299
 20
53.629941
 30
0.0
 11
85.76576799999999
 21
53.837878
 31
0.0
  0
LINE
  5
285
  8
LAYER_1
 10
85.76576799999999
 20
53.837878
 30
0.0
 11
85.601299
 21
54.264941
 31
0.0
  0
LINE
  5
286
  8
LAYER_1
 10
85.601299
 20
54.264941
 30
0.0
 11
85.453383
 21
54.674852
 31
0.0
  0
LINE
  5
287
  8
LAYER_1
 10
85.453383
 20
54.674852
 30
0.0
 11
85.003939
 21
54.809757
 31
0.0
  0
LINE
  5
288
  8
LAYER_1
 10
85.003939
 20
54.809757
 30
0.0
 11
84.56720300000001
 21
54.691884
 31
0.0
  0
LINE
  5
289
  8
LAYER_1
 10
84.56720300000001
 20
54.691884
 30
0.0
 11
84.548435
 21
54.267292
 31
0.0
  0
LINE
  5
28A
  8
LAYER_1
 10
84.548435
 20
54.267292
 30
0.0
 11
84.446606
 21
53.664217
 31
0.0
  0
LINE
  5
28B
  8
LAYER_1
 10
84.446606
 20
53.664217
 30
0.0
 11
83.875795
 21
52.944491
 31
0.0
  0
LINE
  5
28C
  8
LAYER_1
 10
83.875795
 20
52.944491
 30
0.0
 11
83.300558
 21
52.303384
 31
0.0
  0
LINE
  5
28D
  8
LAYER_1
 10
83.300558
 20
52.303384
 30
0.0
 11
83.06129900000001
 21
51.857789
 31
0.0
  0
LINE
  5
28E
  8
LAYER_1
 10
83.06129900000001
 20
51.857789
 30
0.0
 11
82.683216
 21
51.553699
 31
0.0
  0
LINE
  5
28F
  8
LAYER_1
 10
82.683216
 20
51.553699
 30
0.0
 11
81.774208
 21
51.252803
 31
0.0
  0
LINE
  5
290
  8
LAYER_1
 10
81.774208
 20
51.252803
 30
0.0
 11
80.592528
 21
51.103423
 31
0.0
  0
LINE
  5
291
  8
LAYER_1
 10
80.592528
 20
51.103423
 30
0.0
 11
80.264695
 21
51.2827
 31
0.0
  0
LINE
  5
292
  8
LAYER_1
 10
80.264695
 20
51.2827
 30
0.0
 11
79.920095
 21
51.675036
 31
0.0
  0
LINE
  5
293
  8
LAYER_1
 10
79.920095
 20
51.675036
 30
0.0
 11
79.47360000000001
 21
52.41432
 31
0.0
  0
LINE
  5
294
  8
LAYER_1
 10
79.47360000000001
 20
52.41432
 30
0.0
 11
79.196353
 21
53.179489
 31
0.0
  0
LINE
  5
295
  8
LAYER_1
 10
79.196353
 20
53.179489
 30
0.0
 11
79.019909
 21
53.732908
 31
0.0
  0
LINE
  5
296
  8
LAYER_1
 10
79.019909
 20
53.732908
 30
0.0
 11
78.815771
 21
53.96309
 31
0.0
  0
LINE
  5
297
  8
LAYER_1
 10
78.815771
 20
53.96309
 30
0.0
 11
78.074938
 21
54.158893
 31
0.0
  0
LINE
  5
298
  8
LAYER_1
 10
78.074938
 20
54.158893
 30
0.0
 11
77.85930500000001
 21
54.206457
 31
0.0
  0
LINE
  5
299
  8
LAYER_1
 10
77.85930500000001
 20
54.206457
 30
0.0
 11
77.82695800000001
 21
54.099938
 31
0.0
  0
LINE
  5
29A
  8
LAYER_1
 10
77.82695800000001
 20
54.099938
 30
0.0
 11
78.348439
 21
53.312227
 31
0.0
  0
LINE
  5
29B
  8
LAYER_1
 10
78.348439
 20
53.312227
 30
0.0
 11
79.138913
 21
52.269757
 31
0.0
  0
LINE
  5
29C
  8
LAYER_1
 10
79.138913
 20
52.269757
 30
0.0
 11
77.85455
 21
52.269757
 31
0.0
  0
LINE
  5
29D
  8
LAYER_1
 10
77.85455
 20
52.269757
 30
0.0
 11
76.915964
 21
52.3584
 31
0.0
  0
LINE
  5
29E
  8
LAYER_1
 10
76.915964
 20
52.3584
 30
0.0
 11
76.570188
 21
52.599017
 31
0.0
  0
LINE
  5
29F
  8
LAYER_1
 10
76.570188
 20
52.599017
 30
0.0
 11
76.50814200000001
 21
52.769509
 31
0.0
  0
LINE
  5
2A0
  8
LAYER_1
 10
76.50814200000001
 20
52.769509
 30
0.0
 11
76.358964
 21
52.717054
 31
0.0
  0
LINE
  5
2A1
  8
LAYER_1
 10
76.358964
 20
52.717054
 30
0.0
 11
76.364763
 21
52.454556
 31
0.0
  0
LINE
  5
2A2
  8
LAYER_1
 10
76.364763
 20
52.454556
 30
0.0
 11
76.675313
 21
52.120061
 31
0.0
  0
LINE
  5
2A3
  8
LAYER_1
 10
76.675313
 20
52.120061
 30
0.0
 11
77.05782600000001
 21
51.60932
 31
0.0
  0
LINE
  5
2A4
  8
LAYER_1
 10
77.05782600000001
 20
51.60932
 30
0.0
 11
77.01486
 21
50.732024
 31
0.0
  0
LINE
  5
2A5
  8
LAYER_1
 10
77.01486
 20
50.732024
 30
0.0
 11
76.79747
 21
50.024173
 31
0.0
  0
LINE
  5
2A6
  8
LAYER_1
 10
76.79747
 20
50.024173
 30
0.0
 11
76.538847
 21
49.729757
 31
0.0
  0
LINE
  5
2A7
  8
LAYER_1
 10
76.538847
 20
49.729757
 30
0.0
 11
75.559319
 21
50.103427
 31
0.0
  0
LINE
  5
2A8
  8
LAYER_1
 10
75.559319
 20
50.103427
 30
0.0
 11
74.22020000000001
 21
51.041687
 31
0.0
  0
LINE
  5
2A9
  8
LAYER_1
 10
74.22020000000001
 20
51.041687
 30
0.0
 11
73.464753
 21
51.510373
 31
0.0
  0
LINE
  5
2AA
  8
LAYER_1
 10
73.464753
 20
51.510373
 30
0.0
 11
72.768728
 21
51.705312
 31
0.0
  0
LINE
  5
2AB
  8
LAYER_1
 10
72.768728
 20
51.705312
 30
0.0
 11
72.26244
 21
51.821562
 31
0.0
  0
LINE
  5
2AC
  8
LAYER_1
 10
72.26244
 20
51.821562
 30
0.0
 11
71.963161
 21
52.101053
 31
0.0
  0
LINE
  5
2AD
  8
LAYER_1
 10
71.963161
 20
52.101053
 30
0.0
 11
71.89900299999999
 21
52.425368
 31
0.0
  0
LINE
  5
2AE
  8
LAYER_1
 10
71.89900299999999
 20
52.425368
 30
0.0
 11
71.994253
 21
52.654081
 31
0.0
  0
LINE
  5
2AF
  8
LAYER_1
 10
71.994253
 20
52.654081
 30
0.0
 11
72.672166
 21
52.834201
 31
0.0
  0
LINE
  5
2B0
  8
LAYER_1
 10
72.672166
 20
52.834201
 30
0.0
 11
73.139815
 21
53.048085
 31
0.0
  0
LINE
  5
2B1
  8
LAYER_1
 10
73.139815
 20
53.048085
 30
0.0
 11
73.528468
 21
53.564719
 31
0.0
  0
LINE
  5
2B2
  8
LAYER_1
 10
73.528468
 20
53.564719
 30
0.0
 11
74.074617
 21
54.213229
 31
0.0
  0
LINE
  5
2B3
  8
LAYER_1
 10
74.074617
 20
54.213229
 30
0.0
 11
74.955507
 21
54.733046
 31
0.0
  0
LINE
  5
2B4
  8
LAYER_1
 10
74.955507
 20
54.733046
 30
0.0
 11
75.814346
 21
55.234753
 31
0.0
  0
LINE
  5
2B5
  8
LAYER_1
 10
75.814346
 20
55.234753
 30
0.0
 11
76.30296
 21
55.836972
 31
0.0
  0
LINE
  5
2B6
  8
LAYER_1
 10
76.30296
 20
55.836972
 30
0.0
 11
76.679542
 21
56.350375
 31
0.0
  0
LINE
  5
2B7
  8
LAYER_1
 10
76.679542
 20
56.350375
 30
0.0
 11
77.339314
 21
56.513092
 31
0.0
  0
LINE
  5
2B8
  8
LAYER_1
 10
77.339314
 20
56.513092
 30
0.0
 11
78.61183200000001
 21
56.760901
 31
0.0
  0
LINE
  5
2B9
  8
LAYER_1
 10
78.61183200000001
 20
56.760901
 30
0.0
 11
79.48421399999999
 21
57.425909
 31
0.0
  0
LINE
  5
2BA
  8
LAYER_1
 10
79.48421399999999
 20
57.425909
 30
0.0
 11
79.908884
 21
58.446294
 31
0.0
  0
LINE
  5
2BB
  8
LAYER_1
 10
79.908884
 20
58.446294
 30
0.0
 11
79.83826500000001
 21
59.760237
 31
0.0
  0
LINE
  5
2BC
  8
LAYER_1
 10
79.83826500000001
 20
59.760237
 30
0.0
 11
79.483543
 21
60.76783
 31
0.0
  0
LINE
  5
2BD
  8
LAYER_1
 10
79.483543
 20
60.76783
 30
0.0
 11
79.252259
 21
60.963915
 31
0.0
  0
LINE
  5
2BE
  8
LAYER_1
 10
79.252259
 20
60.963915
 30
0.0
 11
78.939466
 21
61.018646
 31
0.0
  0
LINE
  5
2BF
  8
LAYER_1
 10
78.939466
 20
61.018646
 30
0.0
 11
78.415806
 21
61.120065
 31
0.0
  0
LINE
  5
2C0
  8
LAYER_1
 10
78.415806
 20
61.120065
 30
0.0
 11
78.04531900000001
 21
61.382694
 31
0.0
  0
LINE
  5
2C1
  8
LAYER_1
 10
78.04531900000001
 20
61.382694
 30
0.0
 11
77.881478
 21
61.744085
 31
0.0
  0
LINE
  5
2C2
  8
LAYER_1
 10
77.881478
 20
61.744085
 30
0.0
 11
77.977752
 21
62.141794
 31
0.0
  0
LINE
  5
2C3
  8
LAYER_1
 10
77.977752
 20
62.141794
 30
0.0
 11
78.07808
 21
62.571541
 31
0.0
  0
LINE
  5
2C4
  8
LAYER_1
 10
78.07808
 20
62.571541
 30
0.0
 11
77.951677
 21
63.049551
 31
0.0
  0
LINE
  5
2C5
  8
LAYER_1
 10
77.951677
 20
63.049551
 30
0.0
 11
77.827012
 21
63.579888
 31
0.0
  0
LINE
  5
2C6
  8
LAYER_1
 10
77.827012
 20
63.579888
 30
0.0
 11
77.99708699999999
 21
64.152591
 31
0.0
  0
LINE
  5
2C7
  8
LAYER_1
 10
77.99708699999999
 20
64.152591
 30
0.0
 11
78.232523
 21
64.471504
 31
0.0
  0
LINE
  5
2C8
  8
LAYER_1
 10
78.232523
 20
64.471504
 30
0.0
 11
78.62334
 21
64.63726800000001
 31
0.0
  0
LINE
  5
2C9
  8
LAYER_1
 10
78.62334
 20
64.63726800000001
 30
0.0
 11
80.591477
 21
64.64648
 31
0.0
  0
LINE
  5
2CA
  8
LAYER_1
 10
80.591477
 20
64.64648
 30
0.0
 11
82.867997
 21
64.546424
 31
0.0
  0
LINE
  5
2CB
  8
LAYER_1
 10
82.867997
 20
64.546424
 30
0.0
 11
83.284802
 21
66.034511
 31
0.0
  0
LINE
  5
2CC
  8
LAYER_1
 10
83.284802
 20
66.034511
 30
0.0
 11
83.560845
 21
67.365753
 31
0.0
  0
LINE
  5
2CD
  8
LAYER_1
 10
83.560845
 20
67.365753
 30
0.0
 11
83.476657
 21
67.71491500000001
 31
0.0
  0
LINE
  5
2CE
  8
LAYER_1
 10
83.476657
 20
67.71491500000001
 30
0.0
 11
83.240341
 21
68.03228900000001
 31
0.0
  0
LINE
  5
2CF
  8
LAYER_1
 10
83.240341
 20
68.03228900000001
 30
0.0
 11
82.80144199999999
 21
68.714193
 31
0.0
  0
LINE
  5
2D0
  8
LAYER_1
 10
82.80144199999999
 20
68.714193
 30
0.0
 11
82.89719
 21
68.871133
 31
0.0
  0
LINE
  5
2D1
  8
LAYER_1
 10
82.89719
 20
68.871133
 30
0.0
 11
83.20241
 21
68.920868
 31
0.0
  0
LINE
  5
2D2
  8
LAYER_1
 10
83.20241
 20
68.920868
 30
0.0
 11
83.527973
 21
69.174335
 31
0.0
  0
LINE
  5
2D3
  8
LAYER_1
 10
83.527973
 20
69.174335
 30
0.0
 11
83.625744
 21
70.018337
 31
0.0
  0
LINE
  5
2D4
  8
LAYER_1
 10
83.625744
 20
70.018337
 30
0.0
 11
83.625744
 21
71.115803
 31
0.0
  0
LINE
  5
2D5
  8
LAYER_1
 10
83.625744
 20
71.115803
 30
0.0
 11
82.21065299999999
 21
71.05858000000001
 31
0.0
  0
LINE
  5
2D6
  8
LAYER_1
 10
82.21065299999999
 20
71.05858000000001
 30
0.0
 11
81.123004
 21
70.929923
 31
0.0
  0
LINE
  5
2D7
  8
LAYER_1
 10
81.123004
 20
70.929923
 30
0.0
 11
80.495165
 21
70.70095600000001
 31
0.0
  0
LINE
  5
2D8
  8
LAYER_1
 10
80.495165
 20
70.70095600000001
 30
0.0
 11
79.96108700000001
 21
70.56267200000001
 31
0.0
  0
LINE
  5
2D9
  8
LAYER_1
 10
79.96108700000001
 20
70.56267200000001
 30
0.0
 11
78.899456
 21
70.790387
 31
0.0
  0
LINE
  5
2DA
  8
LAYER_1
 10
78.899456
 20
70.790387
 30
0.0
 11
77.75749999999999
 21
71.03911700000001
 31
0.0
  0
LINE
  5
2DB
  8
LAYER_1
 10
77.75749999999999
 20
71.03911700000001
 30
0.0
 11
77.157724
 21
70.788982
 31
0.0
  0
LINE
  5
2DC
  8
LAYER_1
 10
77.157724
 20
70.788982
 30
0.0
 11
75.476975
 21
69.78382499999999
 31
0.0
  0
LINE
  5
2DD
  8
LAYER_1
 10
75.476975
 20
69.78382499999999
 30
0.0
 11
73.890389
 21
69.20309
 31
0.0
  0
LINE
  5
2DE
  8
LAYER_1
 10
73.890389
 20
69.20309
 30
0.0
 11
73.594972
 21
69.314464
 31
0.0
  0
LINE
  5
2DF
  8
LAYER_1
 10
73.594972
 20
69.314464
 30
0.0
 11
73.741974
 21
69.756339
 31
0.0
  0
LINE
  5
2E0
  8
LAYER_1
 10
73.741974
 20
69.756339
 30
0.0
 11
73.89725
 21
70.46920299999999
 31
0.0
  0
LINE
  5
2E1
  8
LAYER_1
 10
73.89725
 20
70.46920299999999
 30
0.0
 11
73.770098
 21
71.502211
 31
0.0
  0
LINE
  5
2E2
  8
LAYER_1
 10
73.770098
 20
71.502211
 30
0.0
 11
73.65215000000001
 21
72.61644200000001
 31
0.0
  0
LINE
  5
2E3
  8
LAYER_1
 10
73.65215000000001
 20
72.61644200000001
 30
0.0
 11
74.048383
 21
73.46197600000001
 31
0.0
  0
LINE
  5
2E4
  8
LAYER_1
 10
74.048383
 20
73.46197600000001
 30
0.0
 11
74.44089099999999
 21
74.106745
 31
0.0
  0
LINE
  5
2E5
  8
LAYER_1
 10
74.44089099999999
 20
74.106745
 30
0.0
 11
74.554873
 21
74.634708
 31
0.0
  0
LINE
  5
2E6
  8
LAYER_1
 10
74.554873
 20
74.634708
 30
0.0
 11
74.383776
 21
75.167564
 31
0.0
  0
LINE
  5
2E7
  8
LAYER_1
 10
74.383776
 20
75.167564
 30
0.0
 11
73.921047
 21
75.827009
 31
0.0
  0
LINE
  5
2E8
  8
LAYER_1
 10
73.921047
 20
75.827009
 30
0.0
 11
73.289952
 21
76.44900800000001
 31
0.0
  0
LINE
  5
2E9
  8
LAYER_1
 10
73.289952
 20
76.44900800000001
 30
0.0
 11
73.05785
 21
76.455789
 31
0.0
  0
LINE
  5
2EA
  8
LAYER_1
 10
73.05785
 20
76.455789
 30
0.0
 11
72.801562
 21
76.292981
 31
0.0
  0
LINE
  5
2EB
  8
LAYER_1
 10
72.801562
 20
76.292981
 30
0.0
 11
72.152151
 21
75.937298
 31
0.0
  0
LINE
  5
2EC
  8
LAYER_1
 10
72.152151
 20
75.937298
 30
0.0
 11
71.283261
 21
75.69231000000001
 31
0.0
  0
LINE
  5
2ED
  8
LAYER_1
 10
71.283261
 20
75.69231000000001
 30
0.0
 11
70.368695
 21
75.59169900000001
 31
0.0
  0
LINE
  5
2EE
  8
LAYER_1
 10
70.368695
 20
75.59169900000001
 30
0.0
 11
69.582256
 21
75.66914300000001
 31
0.0
  0
LINE
  5
2EF
  8
LAYER_1
 10
69.582256
 20
75.66914300000001
 30
0.0
 11
68.95260500000001
 21
76.02843
 31
0.0
  0
LINE
  5
2F0
  8
LAYER_1
 10
68.95260500000001
 20
76.02843
 30
0.0
 11
68.63979999999999
 21
76.77612000000001
 31
0.0
  0
LINE
  5
2F1
  8
LAYER_1
 10
68.63979999999999
 20
76.77612000000001
 30
0.0
 11
68.62846500000001
 21
77.618709
 31
0.0
  0
LINE
  5
2F2
  8
LAYER_1
 10
68.62846500000001
 20
77.618709
 30
0.0
 11
69.239965
 21
78.23958
 31
0.0
  0
LINE
  5
2F3
  8
LAYER_1
 10
69.239965
 20
78.23958
 30
0.0
 11
70.263755
 21
78.80042899999999
 31
0.0
  0
LINE
  5
2F4
  8
LAYER_1
 10
70.263755
 20
78.80042899999999
 30
0.0
 11
70.98317299999999
 21
79.64709600000001
 31
0.0
  0
LINE
  5
2F5
  8
LAYER_1
 10
70.98317299999999
 20
79.64709600000001
 30
0.0
 11
71.566253
 21
80.32889400000001
 31
0.0
  0
LINE
  5
2F6
  8
LAYER_1
 10
71.566253
 20
80.32889400000001
 30
0.0
 11
72.474768
 21
80.491979
 31
0.0
  0
LINE
  5
2F7
  8
LAYER_1
 10
72.474768
 20
80.491979
 30
0.0
 11
73.394459
 21
80.626818
 31
0.0
  0
LINE
  5
2F8
  8
LAYER_1
 10
73.394459
 20
80.626818
 30
0.0
 11
74.18616400000001
 21
80.951005
 31
0.0
  0
LINE
  5
2F9
  8
LAYER_1
 10
74.18616400000001
 20
80.951005
 30
0.0
 11
74.685588
 21
81.402188
 31
0.0
  0
LINE
  5
2FA
  8
LAYER_1
 10
74.685588
 20
81.402188
 30
0.0
 11
74.539664
 21
81.828211
 31
0.0
  0
LINE
  5
2FB
  8
LAYER_1
 10
74.539664
 20
81.828211
 30
0.0
 11
74.356365
 21
82.23360700000001
 31
0.0
  0
LINE
  5
2FC
  8
LAYER_1
 10
74.356365
 20
82.23360700000001
 30
0.0
 11
74.675842
 21
82.599744
 31
0.0
  0
LINE
  5
2FD
  8
LAYER_1
 10
74.675842
 20
82.599744
 30
0.0
 11
75.017127
 21
83.030046
 31
0.0
  0
LINE
  5
2FE
  8
LAYER_1
 10
75.017127
 20
83.030046
 30
0.0
 11
75.159077
 21
83.56841
 31
0.0
  0
LINE
  5
2FF
  8
LAYER_1
 10
75.159077
 20
83.56841
 30
0.0
 11
75.33464600000001
 21
84.240444
 31
0.0
  0
LINE
  5
300
  8
LAYER_1
 10
75.33464600000001
 20
84.240444
 30
0.0
 11
75.756759
 21
84.992131
 31
0.0
  0
LINE
  5
301
  8
LAYER_1
 10
75.756759
 20
84.992131
 30
0.0
 11
76.086876
 21
85.564363
 31
0.0
  0
LINE
  5
302
  8
LAYER_1
 10
76.086876
 20
85.564363
 30
0.0
 11
76.16199400000001
 21
86.015912
 31
0.0
  0
LINE
  5
303
  8
LAYER_1
 10
76.16199400000001
 20
86.015912
 30
0.0
 11
75.986743
 21
86.31219900000001
 31
0.0
  0
LINE
  5
304
  8
LAYER_1
 10
75.986743
 20
86.31219900000001
 30
0.0
 11
75.565754
 21
86.418646
 31
0.0
  0
LINE
  5
305
  8
LAYER_1
 10
75.565754
 20
86.418646
 30
0.0
 11
75.27539299999999
 21
86.530618
 31
0.0
  0
LINE
  5
306
  8
LAYER_1
 10
75.27539299999999
 20
86.530618
 30
0.0
 11
75.171677
 21
86.807987
 31
0.0
  0
LINE
  5
307
  8
LAYER_1
 10
75.171677
 20
86.807987
 30
0.0
 11
75.25714000000001
 21
87.16292799999999
 31
0.0
  0
LINE
  5
308
  8
LAYER_1
 10
75.25714000000001
 20
87.16292799999999
 30
0.0
 11
75.534317
 21
87.50762
 31
0.0
  0
LINE
  5
309
  8
LAYER_1
 10
75.534317
 20
87.50762
 30
0.0
 11
75.77017100000001
 21
87.968091
 31
0.0
  0
LINE
  5
30A
  8
LAYER_1
 10
75.77017100000001
 20
87.968091
 30
0.0
 11
75.785489
 21
88.664378
 31
0.0
  0
LINE
  5
30B
  8
LAYER_1
 10
75.785489
 20
88.664378
 30
0.0
 11
75.589128
 21
89.30999900000001
 31
0.0
  0
LINE
  5
30C
  8
LAYER_1
 10
75.589128
 20
89.30999900000001
 30
0.0
 11
75.128027
 21
89.224251
 31
0.0
  0
LINE
  5
30D
  8
LAYER_1
 10
75.128027
 20
89.224251
 30
0.0
 11
74.751317
 21
88.870116
 31
0.0
  0
LINE
  5
30E
  8
LAYER_1
 10
74.751317
 20
88.870116
 30
0.0
 11
74.594633
 21
88.419551
 31
0.0
  0
LINE
  5
30F
  8
LAYER_1
 10
74.594633
 20
88.419551
 30
0.0
 11
74.34563
 21
87.953902
 31
0.0
  0
LINE
  5
310
  8
LAYER_1
 10
74.34563
 20
87.953902
 30
0.0
 11
73.6889
 21
87.721135
 31
0.0
  0
LINE
  5
311
  8
LAYER_1
 10
73.6889
 20
87.721135
 30
0.0
 11
72.75985300000001
 21
87.739552
 31
0.0
  0
LINE
  5
312
  8
LAYER_1
 10
72.75985300000001
 20
87.739552
 30
0.0
 11
71.693905
 21
88.027456
 31
0.0
  0
LINE
  5
313
  8
LAYER_1
 10
71.693905
 20
88.027456
 30
0.0
 11
70.389104
 21
88.735035
 31
0.0
  0
LINE
  5
314
  8
LAYER_1
 10
70.389104
 20
88.735035
 30
0.0
 11
70.18423900000001
 21
89.09756
 31
0.0
  0
LINE
  5
315
  8
LAYER_1
 10
70.18423900000001
 20
89.09756
 30
0.0
 11
70.22143300000001
 21
89.52309
 31
0.0
  0
LINE
  5
316
  8
LAYER_1
 10
70.22143300000001
 20
89.52309
 30
0.0
 11
70.091362
 21
89.933075
 31
0.0
  0
LINE
  5
317
  8
LAYER_1
 10
70.091362
 20
89.933075
 30
0.0
 11
69.614036
 21
90.292979
 31
0.0
  0
LINE
  5
318
  8
LAYER_1
 10
69.614036
 20
90.292979
 30
0.0
 11
69.02142499999999
 21
90.483474
 31
0.0
  0
LINE
  5
319
  8
LAYER_1
 10
69.02142499999999
 20
90.483474
 30
0.0
 11
68.545498
 21
90.385228
 31
0.0
  0
LINE
  5
31A
  8
LAYER_1
 10
68.545498
 20
90.385228
 30
0.0
 11
68.132732
 21
90.338122
 31
0.0
  0
LINE
  5
31B
  8
LAYER_1
 10
68.132732
 20
90.338122
 30
0.0
 11
67.534104
 21
90.675381
 31
0.0
  0
LINE
  5
31C
  8
LAYER_1
 10
67.534104
 20
90.675381
 30
0.0
 11
67.00848000000001
 21
91.200569
 31
0.0
  0
LINE
  5
31D
  8
LAYER_1
 10
67.00848000000001
 20
91.200569
 30
0.0
 11
67.34052800000001
 21
91.613434
 31
0.0
  0
LINE
  5
31E
  8
LAYER_1
 10
67.34052800000001
 20
91.613434
 30
0.0
 11
67.855076
 21
91.84791900000001
 31
0.0
  0
LINE
  5
31F
  8
LAYER_1
 10
67.855076
 20
91.84791900000001
 30
0.0
 11
68.38021500000001
 21
91.864087
 31
0.0
  0
LINE
  5
320
  8
LAYER_1
 10
68.38021500000001
 20
91.864087
 30
0.0
 11
69.048908
 21
91.862235
 31
0.0
  0
LINE
  5
321
  8
LAYER_1
 10
69.048908
 20
91.862235
 30
0.0
 11
69.90859500000001
 21
92.053399
 31
0.0
  0
LINE
  5
322
  8
LAYER_1
 10
69.90859500000001
 20
92.053399
 30
0.0
 11
70.719109
 21
92.461688
 31
0.0
  0
LINE
  5
323
  8
LAYER_1
 10
70.719109
 20
92.461688
 30
0.0
 11
70.79956
 21
92.75418000000001
 31
0.0
  0
LINE
  5
324
  8
LAYER_1
 10
70.79956
 20
92.75418000000001
 30
0.0
 11
70.73863
 21
93.210326
 31
0.0
  0
LINE
  5
325
  8
LAYER_1
 10
70.73863
 20
93.210326
 30
0.0
 11
70.70762499999999
 21
93.882434
 31
0.0
  0
LINE
  5
326
  8
LAYER_1
 10
70.70762499999999
 20
93.882434
 30
0.0
 11
71.102133
 21
94.06092700000001
 31
0.0
  0
LINE
  5
327
  8
LAYER_1
 10
71.102133
 20
94.06092700000001
 30
0.0
 11
71.37620699999999
 21
94.117936
 31
0.0
  0
LINE
  5
328
  8
LAYER_1
 10
71.37620699999999
 20
94.117936
 30
0.0
 11
71.278521
 21
94.225556
 31
0.0
  0
LINE
  5
329
  8
LAYER_1
 10
71.278521
 20
94.225556
 30
0.0
 11
71.029372
 21
94.484987
 31
0.0
  0
LINE
  5
32A
  8
LAYER_1
 10
71.029372
 20
94.484987
 30
0.0
 11
70.925744
 21
94.90883
 31
0.0
  0
LINE
  5
32B
  8
LAYER_1
 10
70.925744
 20
94.90883
 30
0.0
 11
71.102706
 21
95.332418
 31
0.0
  0
LINE
  5
32C
  8
LAYER_1
 10
71.102706
 20
95.332418
 30
0.0
 11
71.74153200000001
 21
95.44975700000001
 31
0.0
  0
LINE
  5
32D
  8
LAYER_1
 10
71.74153200000001
 20
95.44975700000001
 30
0.0
 11
72.438261
 21
95.61197
 31
0.0
  0
LINE
  5
32E
  8
LAYER_1
 10
72.438261
 20
95.61197
 30
0.0
 11
72.69988600000001
 21
96.366979
 31
0.0
  0
LINE
  5
32F
  8
LAYER_1
 10
72.69988600000001
 20
96.366979
 30
0.0
 11
73.034898
 21
97.877128
 31
0.0
  0
LINE
  5
330
  8
LAYER_1
 10
73.034898
 20
97.877128
 30
0.0
 11
73.06136100000001
 21
98.43135599999999
 31
0.0
  0
LINE
  5
331
  8
LAYER_1
 10
73.06136100000001
 20
98.43135599999999
 30
0.0
 11
72.78291299999999
 21
98.914492
 31
0.0
  0
LINE
  5
332
  8
LAYER_1
 10
72.78291299999999
 20
98.914492
 30
0.0
 11
72.536276
 21
99.30783
 31
0.0
  0
LINE
  5
333
  8
LAYER_1
 10
72.536276
 20
99.30783
 30
0.0
 11
72.512165
 21
99.76929
 31
0.0
  0
LINE
  5
334
  8
LAYER_1
 10
72.512165
 20
99.76929
 30
0.0
 11
72.709962
 21
100.295362
 31
0.0
  0
LINE
  5
335
  8
LAYER_1
 10
72.709962
 20
100.295362
 30
0.0
 11
73.12905000000001
 21
100.882535
 31
0.0
  0
LINE
  5
336
  8
LAYER_1
 10
73.12905000000001
 20
100.882535
 30
0.0
 11
73.37465400000001
 21
101.298986
 31
0.0
  0
LINE
  5
337
  8
LAYER_1
 10
73.37465400000001
 20
101.298986
 30
0.0
 11
72.83848500000001
 21
101.376424
 31
0.0
  0
LINE
  5
338
  8
LAYER_1
 10
72.83848500000001
 20
101.376424
 30
0.0
 11
72.208517
 21
101.498705
 31
0.0
  0
LINE
  5
339
  8
LAYER_1
 10
72.208517
 20
101.498705
 30
0.0
 11
71.765058
 21
101.78706
 31
0.0
  0
LINE
  5
33A
  8
LAYER_1
 10
71.765058
 20
101.78706
 30
0.0
 11
71.61912599999999
 21
102.123755
 31
0.0
  0
LINE
  5
33B
  8
LAYER_1
 10
71.61912599999999
 20
102.123755
 30
0.0
 11
71.881738
 21
102.391058
 31
0.0
  0
LINE
  5
33C
  8
LAYER_1
 10
71.881738
 20
102.391058
 30
0.0
 11
72.211878
 21
102.741949
 31
0.0
  0
LINE
  5
33D
  8
LAYER_1
 10
72.211878
 20
102.741949
 30
0.0
 11
72.336855
 21
103.382174
 31
0.0
  0
LINE
  5
33E
  8
LAYER_1
 10
72.336855
 20
103.382174
 30
0.0
 11
72.419758
 21
103.958807
 31
0.0
  0
LINE
  5
33F
  8
LAYER_1
 10
72.419758
 20
103.958807
 30
0.0
 11
72.619077
 21
104.198646
 31
0.0
  0
LINE
  5
340
  8
LAYER_1
 10
72.619077
 20
104.198646
 30
0.0
 11
72.81839600000001
 21
104.442461
 31
0.0
  0
LINE
  5
341
  8
LAYER_1
 10
72.81839600000001
 20
104.442461
 30
0.0
 11
72.901299
 21
105.028656
 31
0.0
  0
LINE
  5
342
  8
LAYER_1
 10
72.901299
 20
105.028656
 30
0.0
 11
72.984202
 21
105.666088
 31
0.0
  0
LINE
  5
343
  8
LAYER_1
 10
72.984202
 20
105.666088
 30
0.0
 11
73.183521
 21
106.03309
 31
0.0
  0
LINE
  5
344
  8
LAYER_1
 10
73.183521
 20
106.03309
 30
0.0
 11
73.393855
 21
106.262002
 31
0.0
  0
LINE
  5
345
  8
LAYER_1
 10
73.393855
 20
106.262002
 30
0.0
 11
73.439093
 21
106.577753
 31
0.0
  0
LINE
  5
346
  8
LAYER_1
 10
73.439093
 20
106.577753
 30
0.0
 11
73.039526
 21
107.419255
 31
0.0
  0
LINE
  5
347
  8
LAYER_1
 10
73.039526
 20
107.419255
 30
0.0
 11
72.78609899999999
 21
107.715199
 31
0.0
  0
LINE
  5
348
  8
LAYER_1
 10
72.78609899999999
 20
107.715199
 30
0.0
 11
72.53318400000001
 21
107.816869
 31
0.0
  0
LINE
  5
349
  8
LAYER_1
 10
72.53318400000001
 20
107.816869
 30
0.0
 11
71.496281
 21
107.446947
 31
0.0
  0
LINE
  5
34A
  8
LAYER_1
 10
71.496281
 20
107.446947
 30
0.0
 11
70.66357499999999
 21
106.937908
 31
0.0
  0
LINE
  5
34B
  8
LAYER_1
 10
70.66357499999999
 20
106.937908
 30
0.0
 11
70.361299
 21
106.433719
 31
0.0
  0
LINE
  5
34C
  8
LAYER_1
 10
70.361299
 20
106.433719
 30
0.0
 11
70.22461300000001
 21
105.940289
 31
0.0
  0
LINE
  5
34D
  8
LAYER_1
 10
70.22461300000001
 20
105.940289
 30
0.0
 11
69.90155900000001
 21
105.485704
 31
0.0
  0
LINE
  5
34E
  8
LAYER_1
 10
69.90155900000001
 20
105.485704
 30
0.0
 11
69.52264700000001
 21
105.206405
 31
0.0
  0
LINE
  5
34F
  8
LAYER_1
 10
69.52264700000001
 20
105.206405
 30
0.0
 11
69.218384
 21
105.238835
 31
0.0
  0
LINE
  5
350
  8
LAYER_1
 10
69.218384
 20
105.238835
 30
0.0
 11
68.970669
 21
105.731467
 31
0.0
  0
LINE
  5
351
  8
LAYER_1
 10
68.970669
 20
105.731467
 30
0.0
 11
68.933669
 21
106.409152
 31
0.0
  0
LINE
  5
352
  8
LAYER_1
 10
68.933669
 20
106.409152
 30
0.0
 11
69.099908
 21
107.187635
 31
0.0
  0
LINE
  5
353
  8
LAYER_1
 10
69.099908
 20
107.187635
 30
0.0
 11
69.461905
 21
107.982658
 31
0.0
  0
LINE
  5
354
  8
LAYER_1
 10
69.461905
 20
107.982658
 30
0.0
 11
69.94502
 21
109.14321
 31
0.0
  0
LINE
  5
355
  8
LAYER_1
 10
69.94502
 20
109.14321
 30
0.0
 11
69.80273
 21
109.263788
 31
0.0
  0
LINE
  5
356
  8
LAYER_1
 10
69.80273
 20
109.263788
 30
0.0
 11
69.407337
 21
109.024487
 31
0.0
  0
LINE
  5
357
  8
LAYER_1
 10
69.407337
 20
109.024487
 30
0.0
 11
68.917141
 21
108.838761
 31
0.0
  0
LINE
  5
358
  8
LAYER_1
 10
68.917141
 20
108.838761
 30
0.0
 11
68.302418
 21
108.866025
 31
0.0
  0
LINE
  5
359
  8
LAYER_1
 10
68.302418
 20
108.866025
 30
0.0
 11
67.74988999999999
 21
108.902223
 31
0.0
  0
LINE
  5
35A
  8
LAYER_1
 10
67.74988999999999
 20
108.902223
 30
0.0
 11
67.4121
 21
108.737066
 31
0.0
  0
LINE
  5
35B
  8
LAYER_1
 10
67.4121
 20
108.737066
 30
0.0
 11
67.180419
 21
108.489149
 31
0.0
  0
LINE
  5
35C
  8
LAYER_1
 10
67.180419
 20
108.489149
 30
0.0
 11
66.943693
 21
108.457931
 31
0.0
  0
LINE
  5
35D
  8
LAYER_1
 10
66.943693
 20
108.457931
 30
0.0
 11
66.72436500000001
 21
108.636175
 31
0.0
  0
LINE
  5
35E
  8
LAYER_1
 10
66.72436500000001
 20
108.636175
 30
0.0
 11
66.544879
 21
109.016647
 31
0.0
  0
LINE
  5
35F
  8
LAYER_1
 10
66.544879
 20
109.016647
 30
0.0
 11
66.52968300000001
 21
109.578906
 31
0.0
  0
LINE
  5
360
  8
LAYER_1
 10
66.52968300000001
 20
109.578906
 30
0.0
 11
66.81240800000001
 21
110.10198
 31
0.0
  0
LINE
  5
361
  8
LAYER_1
 10
66.81240800000001
 20
110.10198
 30
0.0
 11
67.114718
 21
110.630188
 31
0.0
  0
LINE
  5
362
  8
LAYER_1
 10
67.114718
 20
110.630188
 30
0.0
 11
66.74477400000001
 21
111.281198
 31
0.0
  0
LINE
  5
363
  8
LAYER_1
 10
66.74477400000001
 20
111.281198
 30
0.0
 11
66.22372799999999
 21
112.0432
 31
0.0
  0
LINE
  5
364
  8
LAYER_1
 10
66.22372799999999
 20
112.0432
 30
0.0
 11
66.068296
 21
112.573866
 31
0.0
  0
LINE
  5
365
  8
LAYER_1
 10
66.068296
 20
112.573866
 30
0.0
 11
66.28568
 21
112.982353
 31
0.0
  0
LINE
  5
366
  8
LAYER_1
 10
66.28568
 20
112.982353
 30
0.0
 11
66.88308000000001
 21
113.377818
 31
0.0
  0
LINE
  5
367
  8
LAYER_1
 10
66.88308000000001
 20
113.377818
 30
0.0
 11
67.72356499999999
 21
113.98489
 31
0.0
  0
LINE
  5
368
  8
LAYER_1
 10
67.72356499999999
 20
113.98489
 30
0.0
 11
68.282118
 21
114.741533
 31
0.0
  0
LINE
  5
369
  8
LAYER_1
 10
68.282118
 20
114.741533
 30
0.0
 11
68.55101500000001
 21
115.632369
 31
0.0
  0
LINE
  5
36A
  8
LAYER_1
 10
68.55101500000001
 20
115.632369
 30
0.0
 11
68.522531
 21
116.642015
 31
0.0
  0
LINE
  5
36B
  8
LAYER_1
 10
68.522531
 20
116.642015
 30
0.0
 11
68.29366899999999
 21
117.394019
 31
0.0
  0
LINE
  5
36C
  8
LAYER_1
 10
68.29366899999999
 20
117.394019
 30
0.0
 11
67.964474
 21
117.71959
 31
0.0
  0
LINE
  5
36D
  8
LAYER_1
 10
67.964474
 20
117.71959
 30
0.0
 11
67.58428000000001
 21
117.604117
 31
0.0
  0
LINE
  5
36E
  8
LAYER_1
 10
67.58428000000001
 20
117.604117
 30
0.0
 11
67.20242
 21
117.032988
 31
0.0
  0
LINE
  5
36F
  8
LAYER_1
 10
67.20242
 20
117.032988
 30
0.0
 11
66.803893
 21
116.512728
 31
0.0
  0
LINE
  5
370
  8
LAYER_1
 10
66.803893
 20
116.512728
 30
0.0
 11
66.232218
 21
116.18162
 31
0.0
  0
LINE
  5
371
  8
LAYER_1
 10
66.232218
 20
116.18162
 30
0.0
 11
65.60152600000001
 21
116.080676
 31
0.0
  0
LINE
  5
372
  8
LAYER_1
 10
65.60152600000001
 20
116.080676
 30
0.0
 11
65.02595
 21
116.250908
 31
0.0
  0
LINE
  5
373
  8
LAYER_1
 10
65.02595
 20
116.250908
 30
0.0
 11
64.639875
 21
116.665128
 31
0.0
  0
LINE
  5
374
  8
LAYER_1
 10
64.639875
 20
116.665128
 30
0.0
 11
64.502787
 21
117.239926
 31
0.0
  0
LINE
  5
375
  8
LAYER_1
 10
64.502787
 20
117.239926
 30
0.0
 11
64.61550699999999
 21
117.93258
 31
0.0
  0
LINE
  5
376
  8
LAYER_1
 10
64.61550699999999
 20
117.93258
 30
0.0
 11
64.97885599999999
 21
118.700369
 31
0.0
  0
LINE
  5
377
  8
LAYER_1
 10
64.97885599999999
 20
118.700369
 30
0.0
 11
65.48670799999999
 21
119.652388
 31
0.0
  0
LINE
  5
378
  8
LAYER_1
 10
65.48670799999999
 20
119.652388
 30
0.0
 11
65.52896
 21
120.220862
 31
0.0
  0
LINE
  5
379
  8
LAYER_1
 10
65.52896
 20
120.220862
 30
0.0
 11
65.060042
 21
120.49588
 31
0.0
  0
LINE
  5
37A
  8
LAYER_1
 10
65.060042
 20
120.49588
 30
0.0
 11
64.03438199999999
 21
120.567533
 31
0.0
  0
LINE
  5
37B
  8
LAYER_1
 10
64.03438199999999
 20
120.567533
 30
0.0
 11
62.046804
 21
120.743452
 31
0.0
  0
LINE
  5
37C
  8
LAYER_1
 10
62.046804
 20
120.743452
 30
0.0
 11
61.523638
 21
121.208497
 31
0.0
  0
LINE
  5
37D
  8
LAYER_1
 10
61.523638
 20
121.208497
 30
0.0
 11
61.017249
 21
122.070864
 31
0.0
  0
LINE
  5
37E
  8
LAYER_1
 10
61.017249
 20
122.070864
 30
0.0
 11
60.634817
 21
123.102196
 31
0.0
  0
LINE
  5
37F
  8
LAYER_1
 10
60.634817
 20
123.102196
 30
0.0
 11
60.483521
 21
124.074138
 31
0.0
  0
LINE
  5
380
  8
LAYER_1
 10
60.483521
 20
124.074138
 30
0.0
 11
60.353207
 21
124.896769
 31
0.0
  0
LINE
  5
381
  8
LAYER_1
 10
60.353207
 20
124.896769
 30
0.0
 11
59.937833
 21
125.355272
 31
0.0
  0
LINE
  5
382
  8
LAYER_1
 10
59.937833
 20
125.355272
 30
0.0
 11
59.526205
 21
125.789543
 31
0.0
  0
LINE
  5
383
  8
LAYER_1
 10
59.526205
 20
125.789543
 30
0.0
 11
59.302833
 21
126.423535
 31
0.0
  0
LINE
  5
384
  8
LAYER_1
 10
59.302833
 20
126.423535
 30
0.0
 11
59.082616
 21
127.04937
 31
0.0
  0
LINE
  5
385
  8
LAYER_1
 10
59.082616
 20
127.04937
 30
0.0
 11
58.448535
 21
127.199755
 31
0.0
  0
LINE
  5
386
  8
LAYER_1
 10
58.448535
 20
127.199755
 30
0.0
 11
57.763743
 21
127.33294
 31
0.0
  0
LINE
  5
387
  8
LAYER_1
 10
57.763743
 20
127.33294
 30
0.0
 11
57.147897
 21
127.679333
 31
0.0
  0
LINE
  5
388
  8
LAYER_1
 10
57.147897
 20
127.679333
 30
0.0
 11
56.703339
 21
128.159191
 31
0.0
  0
LINE
  5
389
  8
LAYER_1
 10
56.703339
 20
128.159191
 30
0.0
 11
56.53241
 21
128.692771
 31
0.0
  0
LINE
  5
38A
  8
LAYER_1
 10
56.53241
 20
128.692771
 30
0.0
 11
56.428863
 21
129.196297
 31
0.0
  0
LINE
  5
38B
  8
LAYER_1
 10
56.428863
 20
129.196297
 30
0.0
 11
56.128108
 21
129.569044
 31
0.0
  0
LINE
  5
38C
  8
LAYER_1
 10
56.128108
 20
129.569044
 30
0.0
 11
55.644977
 21
129.799598
 31
0.0
  0
LINE
  5
38D
  8
LAYER_1
 10
55.644977
 20
129.799598
 30
0.0
 11
54.994299
 21
129.876544
 31
0.0
  0
LINE
  5
38E
  8
LAYER_1
 10
54.994299
 20
129.876544
 30
0.0
 11
54.265022
 21
129.805241
 31
0.0
  0
LINE
  5
38F
  8
LAYER_1
 10
54.265022
 20
129.805241
 30
0.0
 11
53.758586
 21
129.610999
 31
0.0
  0
LINE
  5
390
  8
LAYER_1
 10
53.758586
 20
129.610999
 30
0.0
 11
53.501206
 21
129.310785
 31
0.0
  0
LINE
  5
391
  8
LAYER_1
 10
53.501206
 20
129.310785
 30
0.0
 11
53.519095
 21
128.921572
 31
0.0
  0
LINE
  5
392
  8
LAYER_1
 10
53.519095
 20
128.921572
 30
0.0
 11
53.563241
 21
128.650632
 31
0.0
  0
LINE
  5
393
  8
LAYER_1
 10
53.563241
 20
128.650632
 30
0.0
 11
53.44005
 21
128.484728
 31
0.0
  0
LINE
  5
394
  8
LAYER_1
 10
53.44005
 20
128.484728
 30
0.0
 11
52.655047
 21
128.447955
 31
0.0
  0
LINE
  5
395
  8
LAYER_1
 10
52.655047
 20
128.447955
 30
0.0
 11
51.772953
 21
128.20804
 31
0.0
  0
LINE
  5
396
  8
LAYER_1
 10
51.772953
 20
128.20804
 30
0.0
 11
51.500809
 21
127.979331
 31
0.0
  0
LINE
  5
397
  8
LAYER_1
 10
51.500809
 20
127.979331
 30
0.0
 11
51.33239
 21
127.573265
 31
0.0
  0
LINE
  5
398
  8
LAYER_1
 10
51.33239
 20
127.573265
 30
0.0
 11
51.198774
 21
125.770849
 31
0.0
  0
LINE
  5
399
  8
LAYER_1
 10
51.198774
 20
125.770849
 30
0.0
 11
51.105871
 21
124.316767
 31
0.0
  0
LINE
  5
39A
  8
LAYER_1
 10
51.105871
 20
124.316767
 30
0.0
 11
50.848746
 21
123.155097
 31
0.0
  0
LINE
  5
39B
  8
LAYER_1
 10
50.848746
 20
123.155097
 30
0.0
 11
50.363104
 21
122.093375
 31
0.0
  0
LINE
  5
39C
  8
LAYER_1
 10
50.363104
 20
122.093375
 30
0.0
 11
49.58465
 21
120.939141
 31
0.0
  0
LINE
  5
39D
  8
LAYER_1
 10
49.58465
 20
120.939141
 30
0.0
 11
49.072361
 21
119.959555
 31
0.0
  0
LINE
  5
39E
  8
LAYER_1
 10
49.072361
 20
119.959555
 30
0.0
 11
48.91241
 21
118.801114
 31
0.0
  0
LINE
  5
39F
  8
LAYER_1
 10
48.91241
 20
118.801114
 30
0.0
 11
48.763971
 21
117.68283
 31
0.0
  0
LINE
  5
3A0
  8
LAYER_1
 10
48.763971
 20
117.68283
 30
0.0
 11
48.206855
 21
116.898644
 31
0.0
  0
LINE
  5
3A1
  8
LAYER_1
 10
48.206855
 20
116.898644
 30
0.0
 11
47.501299
 21
115.92949
 31
0.0
  0
LINE
  5
3A2
  8
LAYER_1
 10
47.501299
 20
115.92949
 30
0.0
 11
47.040343
 21
115.701348
 31
0.0
  0
LINE
  5
3A3
  8
LAYER_1
 10
47.040343
 20
115.701348
 30
0.0
 11
45.829087
 21
115.600453
 31
0.0
  0
LINE
  5
3A4
  8
LAYER_1
 10
45.829087
 20
115.600453
 30
0.0
 11
44.443528
 21
115.678868
 31
0.0
  0
LINE
  5
3A5
  8
LAYER_1
 10
44.443528
 20
115.678868
 30
0.0
 11
44.154913
 21
115.833686
 31
0.0
  0
LINE
  5
3A6
  8
LAYER_1
 10
44.154913
 20
115.833686
 30
0.0
 11
44.021065
 21
116.097078
 31
0.0
  0
LINE
  5
3A7
  8
LAYER_1
 10
44.021065
 20
116.097078
 30
0.0
 11
43.843859
 21
116.431424
 31
0.0
  0
LINE
  5
3A8
  8
LAYER_1
 10
43.843859
 20
116.431424
 30
0.0
 11
43.591596
 21
116.603702
 31
0.0
  0
LINE
  5
3A9
  8
LAYER_1
 10
43.591596
 20
116.603702
 30
0.0
 11
43.365793
 21
116.581949
 31
0.0
  0
LINE
  5
3AA
  8
LAYER_1
 10
43.365793
 20
116.581949
 30
0.0
 11
43.267966
 21
116.334199
 31
0.0
  0
LINE
  5
3AB
  8
LAYER_1
 10
43.267966
 20
116.334199
 30
0.0
 11
43.065602
 21
116.13488
 31
0.0
  0
LINE
  5
3AC
  8
LAYER_1
 10
43.065602
 20
116.13488
 30
0.0
 11
42.579067
 21
116.051977
 31
0.0
  0
LINE
  5
3AD
  8
LAYER_1
 10
42.579067
 20
116.051977
 30
0.0
 11
41.813293
 21
115.829288
 31
0.0
  0
LINE
  5
3AE
  8
LAYER_1
 10
41.813293
 20
115.829288
 30
0.0
 11
41.647069
 21
115.57883
 31
0.0
  0
LINE
  5
3AF
  8
LAYER_1
 10
41.647069
 20
115.57883
 30
0.0
 11
41.622075
 21
115.260434
 31
0.0
  0
LINE
  5
3B0
  8
LAYER_1
 10
41.622075
 20
115.260434
 30
0.0
 11
41.986145
 21
114.494234
 31
0.0
  0
LINE
  5
3B1
  8
LAYER_1
 10
41.986145
 20
114.494234
 30
0.0
 11
42.886235
 21
113.67951
 31
0.0
  0
LINE
  5
3B2
  8
LAYER_1
 10
42.886235
 20
113.67951
 30
0.0
 11
43.513734
 21
113.142889
 31
0.0
  0
LINE
  5
3B3
  8
LAYER_1
 10
43.513734
 20
113.142889
 30
0.0
 11
43.57166
 21
112.819692
 31
0.0
  0
LINE
  5
3B4
  8
LAYER_1
 10
43.57166
 20
112.819692
 30
0.0
 11
43.313963
 21
112.441825
 31
0.0
  0
LINE
  5
3B5
  8
LAYER_1
 10
43.313963
 20
112.441825
 30
0.0
 11
43.290793
 21
111.872526
 31
0.0
  0
LINE
  5
3B6
  8
LAYER_1
 10
43.290793
 20
111.872526
 30
0.0
 11
43.48247
 21
111.250872
 31
0.0
  0
LINE
  5
3B7
  8
LAYER_1
 10
43.48247
 20
111.250872
 30
0.0
 11
43.869316
 21
110.715943
 31
0.0
  0
LINE
  5
3B8
  8
LAYER_1
 10
43.869316
 20
110.715943
 30
0.0
 11
44.470664
 21
110.155701
 31
0.0
  0
LINE
  5
3B9
  8
LAYER_1
 10
44.470664
 20
110.155701
 30
0.0
 11
43.598149
 21
109.283186
 31
0.0
  0
LINE
  5
3BA
  8
LAYER_1
 10
43.598149
 20
109.283186
 30
0.0
 11
42.725631
 21
108.41067
 31
0.0
  0
LINE
  5
3BB
  8
LAYER_1
 10
42.725631
 20
108.41067
 30
0.0
 11
41.950205
 21
109.620766
 31
0.0
  0
LINE
  5
3BC
  8
LAYER_1
 10
41.950205
 20
109.620766
 30
0.0
 11
41.119882
 21
110.921057
 31
0.0
  0
LINE
  5
3BD
  8
LAYER_1
 10
41.119882
 20
110.921057
 30
0.0
 11
39.414951
 21
111.438503
 31
0.0
  0
LINE
  5
3BE
  8
LAYER_1
 10
39.414951
 20
111.438503
 30
0.0
 11
37.696326
 21
111.703301
 31
0.0
  0
LINE
  5
3BF
  8
LAYER_1
 10
37.696326
 20
111.703301
 30
0.0
 11
37.68309
 21
111.320186
 31
0.0
  0
LINE
  5
3C0
  8
LAYER_1
 10
37.68309
 20
111.320186
 30
0.0
 11
37.92628
 21
110.664517
 31
0.0
  0
LINE
  5
3C1
  8
LAYER_1
 10
37.92628
 20
110.664517
 30
0.0
 11
38.7782
 21
109.396416
 31
0.0
  0
LINE
  5
3C2
  8
LAYER_1
 10
38.7782
 20
109.396416
 30
0.0
 11
39.188311
 21
108.914269
 31
0.0
  0
LINE
  5
3C3
  8
LAYER_1
 10
39.188311
 20
108.914269
 30
0.0
 11
39.293434
 21
108.517658
 31
0.0
  0
LINE
  5
3C4
  8
LAYER_1
 10
39.293434
 20
108.517658
 30
0.0
 11
39.099214
 21
108.248761
 31
0.0
  0
LINE
  5
3C5
  8
LAYER_1
 10
39.099214
 20
108.248761
 30
0.0
 11
38.611299
 21
108.149756
 31
0.0
  0
LINE
  5
3C6
  8
LAYER_1
 10
38.611299
 20
108.149756
 30
0.0
 11
38.113001
 21
108.079444
 31
0.0
  0
LINE
  5
3C7
  8
LAYER_1
 10
38.113001
 20
108.079444
 30
0.0
 11
37.905744
 21
107.910395
 31
0.0
  0
LINE
  5
3C8
  8
LAYER_1
 10
37.905744
 20
107.910395
 30
0.0
 11
37.574133
 21
107.591813
 31
0.0
  0
LINE
  5
3C9
  8
LAYER_1
 10
37.574133
 20
107.591813
 30
0.0
 11
36.776855
 21
107.161978
 31
0.0
  0
LINE
  5
3CA
  8
LAYER_1
 10
36.776855
 20
107.161978
 30
0.0
 11
36.063258
 21
106.732412
 31
0.0
  0
LINE
  5
3CB
  8
LAYER_1
 10
36.063258
 20
106.732412
 30
0.0
 11
35.691634
 21
106.250662
 31
0.0
  0
LINE
  5
3CC
  8
LAYER_1
 10
35.691634
 20
106.250662
 30
0.0
 11
35.668592
 21
105.73346
 31
0.0
  0
LINE
  5
3CD
  8
LAYER_1
 10
35.668592
 20
105.73346
 30
0.0
 11
36.000744
 21
105.197537
 31
0.0
  0
LINE
  5
3CE
  8
LAYER_1
 10
36.000744
 20
105.197537
 30
0.0
 11
36.886941
 21
104.088808
 31
0.0
  0
LINE
  5
3CF
  8
LAYER_1
 10
36.886941
 20
104.088808
 30
0.0
 11
37.360942
 21
103.581591
 31
0.0
  0
LINE
  5
3D0
  8
LAYER_1
 10
37.360942
 20
103.581591
 30
0.0
 11
37.799381
 21
103.380322
 31
0.0
  0
LINE
  5
3D1
  8
LAYER_1
 10
37.799381
 20
103.380322
 30
0.0
 11
38.156969
 21
103.4902
 31
0.0
  0
LINE
  5
3D2
  8
LAYER_1
 10
38.156969
 20
103.4902
 30
0.0
 11
38.388414
 21
103.916424
 31
0.0
  0
LINE
  5
3D3
  8
LAYER_1
 10
38.388414
 20
103.916424
 30
0.0
 11
38.665747
 21
104.331578
 31
0.0
  0
LINE
  5
3D4
  8
LAYER_1
 10
38.665747
 20
104.331578
 30
0.0
 11
39.174104
 21
104.480868
 31
0.0
  0
LINE
  5
3D5
  8
LAYER_1
 10
39.174104
 20
104.480868
 30
0.0
 11
39.711817
 21
104.374491
 31
0.0
  0
LINE
  5
3D6
  8
LAYER_1
 10
39.711817
 20
104.374491
 30
0.0
 11
40.110162
 21
104.094345
 31
0.0
  0
LINE
  5
3D7
  8
LAYER_1
 10
40.110162
 20
104.094345
 30
0.0
 11
40.316779
 21
103.698902
 31
0.0
  0
LINE
  5
3D8
  8
LAYER_1
 10
40.316779
 20
103.698902
 30
0.0
 11
40.279306
 21
103.24664
 31
0.0
  0
LINE
  5
3D9
  8
LAYER_1
 10
40.279306
 20
103.24664
 30
0.0
 11
40.23397
 21
102.922397
 31
0.0
  0
LINE
  5
3DA
  8
LAYER_1
 10
40.23397
 20
102.922397
 30
0.0
 11
40.372366
 21
102.787535
 31
0.0
  0
LINE
  5
3DB
  8
LAYER_1
 10
40.372366
 20
102.787535
 30
0.0
 11
40.814228
 21
102.612246
 31
0.0
  0
LINE
  5
3DC
  8
LAYER_1
 10
40.814228
 20
102.612246
 30
0.0
 11
41.300671
 21
102.203753
 31
0.0
  0
LINE
  5
3DD
  8
LAYER_1
 10
41.300671
 20
102.203753
 30
0.0
 11
41.661121
 21
101.738118
 31
0.0
  0
LINE
  5
3DE
  8
LAYER_1
 10
41.661121
 20
101.738118
 30
0.0
 11
41.725001
 21
101.391401
 31
0.0
  0
LINE
  5
3DF
  8
LAYER_1
 10
41.725001
 20
101.391401
 30
0.0
 11
41.159128
 21
101.181504
 31
0.0
  0
LINE
  5
3E0
  8
LAYER_1
 10
41.159128
 20
101.181504
 30
0.0
 11
40.056559
 21
101.094201
 31
0.0
  0
LINE
  5
3E1
  8
LAYER_1
 10
40.056559
 20
101.094201
 30
0.0
 11
39.203599
 21
101.064373
 31
0.0
  0
LINE
  5
3E2
  8
LAYER_1
 10
39.203599
 20
101.064373
 30
0.0
 11
38.616843
 21
100.905914
 31
0.0
  0
LINE
  5
3E3
  8
LAYER_1
 10
38.616843
 20
100.905914
 30
0.0
 11
38.085608
 21
100.515366
 31
0.0
  0
LINE
  5
3E4
  8
LAYER_1
 10
38.085608
 20
100.515366
 30
0.0
 11
37.399211
 21
99.78926800000001
 31
0.0
  0
LINE
  5
3E5
  8
LAYER_1
 10
37.399211
 20
99.78926800000001
 30
0.0
 11
36.226623
 21
98.484334
 31
0.0
  0
LINE
  5
3E6
  8
LAYER_1
 10
36.226623
 20
98.484334
 30
0.0
 11
37.348406
 21
98.663715
 31
0.0
  0
LINE
  5
3E7
  8
LAYER_1
 10
37.348406
 20
98.663715
 30
0.0
 11
38.470188
 21
98.84309500000001
 31
0.0
  0
LINE
  5
3E8
  8
LAYER_1
 10
38.470188
 20
98.84309500000001
 30
0.0
 11
38.470188
 21
97.866005
 31
0.0
  0
LINE
  5
3E9
  8
LAYER_1
 10
38.470188
 20
97.866005
 30
0.0
 11
38.590415
 21
97.08798
 31
0.0
  0
LINE
  5
3EA
  8
LAYER_1
 10
38.590415
 20
97.08798
 30
0.0
 11
38.911239
 21
96.642089
 31
0.0
  0
LINE
  5
3EB
  8
LAYER_1
 10
38.911239
 20
96.642089
 30
0.0
 11
39.373731
 21
96.066564
 31
0.0
  0
LINE
  5
3EC
  8
LAYER_1
 10
39.373731
 20
96.066564
 30
0.0
 11
39.577484
 21
94.955868
 31
0.0
  0
LINE
  5
3ED
  8
LAYER_1
 10
39.577484
 20
94.955868
 30
0.0
 11
39.799991
 21
94.70671900000001
 31
0.0
  0
LINE
  5
3EE
  8
LAYER_1
 10
39.799991
 20
94.70671900000001
 30
0.0
 11
40.304633
 21
94.60309
 31
0.0
  0
LINE
  5
3EF
  8
LAYER_1
 10
40.304633
 20
94.60309
 30
0.0
 11
40.769442
 21
94.560433
 31
0.0
  0
LINE
  5
3F0
  8
LAYER_1
 10
40.769442
 20
94.560433
 30
0.0
 11
40.963152
 21
94.408406
 31
0.0
  0
LINE
  5
3F1
  8
LAYER_1
 10
40.963152
 20
94.408406
 30
0.0
 11
40.895914
 21
94.11093099999999
 31
0.0
  0
LINE
  5
3F2
  8
LAYER_1
 10
40.895914
 20
94.11093099999999
 30
0.0
 11
40.57788
 21
93.63192700000001
 31
0.0
  0
LINE
  5
3F3
  8
LAYER_1
 10
40.57788
 20
93.63192700000001
 30
0.0
 11
40.278425
 21
93.13325399999999
 31
0.0
  0
LINE
  5
3F4
  8
LAYER_1
 10
40.278425
 20
93.13325399999999
 30
0.0
 11
40.180301
 21
92.724051
 31
0.0
  0
LINE
  5
3F5
  8
LAYER_1
 10
40.180301
 20
92.724051
 30
0.0
 11
40.283211
 21
92.44713299999999
 31
0.0
  0
LINE
  5
3F6
  8
LAYER_1
 10
40.283211
 20
92.44713299999999
 30
0.0
 11
40.586855
 21
92.34531200000001
 31
0.0
  0
LINE
  5
3F7
  8
LAYER_1
 10
40.586855
 20
92.34531200000001
 30
0.0
 11
40.887103
 21
92.44894100000001
 31
0.0
  0
LINE
  5
3F8
  8
LAYER_1
 10
40.887103
 20
92.44894100000001
 30
0.0
 11
41.014509
 21
92.69808999999999
 31
0.0
  0
LINE
  5
3F9
  8
LAYER_1
 10
41.014509
 20
92.69808999999999
 30
0.0
 11
41.086145
 21
92.85684000000001
 31
0.0
  0
LINE
  5
3FA
  8
LAYER_1
 10
41.086145
 20
92.85684000000001
 30
0.0
 11
41.29241
 21
92.627535
 31
0.0
  0
LINE
  5
3FB
  8
LAYER_1
 10
41.29241
 20
92.627535
 30
0.0
 11
41.554251
 21
91.790513
 31
0.0
  0
LINE
  5
3FC
  8
LAYER_1
 10
41.554251
 20
91.790513
 30
0.0
 11
41.316117
 21
90.962898
 31
0.0
  0
LINE
  5
3FD
  8
LAYER_1
 10
41.316117
 20
90.962898
 30
0.0
 11
41.147671
 21
90.775142
 31
0.0
  0
LINE
  5
3FE
  8
LAYER_1
 10
41.147671
 20
90.775142
 30
0.0
 11
40.915211
 21
90.717406
 31
0.0
  0
LINE
  5
3FF
  8
LAYER_1
 10
40.915211
 20
90.717406
 30
0.0
 11
39.979885
 21
90.999646
 31
0.0
  0
LINE
  5
400
  8
LAYER_1
 10
39.979885
 20
90.999646
 30
0.0
 11
38.709955
 21
91.419366
 31
0.0
  0
LINE
  5
401
  8
LAYER_1
 10
38.709955
 20
91.419366
 30
0.0
 11
37.552654
 21
91.653361
 31
0.0
  0
LINE
  5
402
  8
LAYER_1
 10
37.552654
 20
91.653361
 30
0.0
 11
36.664802
 21
91.681529
 31
0.0
  0
LINE
  5
403
  8
LAYER_1
 10
36.664802
 20
91.681529
 30
0.0
 11
36.203215
 21
91.483767
 31
0.0
  0
LINE
  5
404
  8
LAYER_1
 10
36.203215
 20
91.483767
 30
0.0
 11
36.053507
 21
91.369451
 31
0.0
  0
LINE
  5
405
  8
LAYER_1
 10
36.053507
 20
91.369451
 30
0.0
 11
35.833605
 21
91.42406200000001
 31
0.0
  0
LINE
  5
406
  8
LAYER_1
 10
35.833605
 20
91.42406200000001
 30
0.0
 11
35.109249
 21
92.08040200000001
 31
0.0
  0
LINE
  5
407
  8
LAYER_1
 10
35.109249
 20
92.08040200000001
 30
0.0
 11
34.49312
 21
92.853944
 31
0.0
  0
LINE
  5
408
  8
LAYER_1
 10
34.49312
 20
92.853944
 30
0.0
 11
34.236855
 21
93.372469
 31
0.0
  0
LINE
  5
409
  8
LAYER_1
 10
34.236855
 20
93.372469
 30
0.0
 11
34.138246
 21
93.643286
 31
0.0
  0
LINE
  5
40A
  8
LAYER_1
 10
34.138246
 20
93.643286
 30
0.0
 11
33.901166
 21
93.82128400000001
 31
0.0
  0
LINE
  5
40B
  8
LAYER_1
 10
33.901166
 20
93.82128400000001
 30
0.0
 11
33.323916
 21
93.729165
 31
0.0
  0
LINE
  5
40C
  8
LAYER_1
 10
33.323916
 20
93.729165
 30
0.0
 11
32.492677
 21
93.33678000000001
 31
0.0
  0
LINE
  5
40D
  8
LAYER_1
 10
32.492677
 20
93.33678000000001
 30
0.0
 11
31.714522
 21
92.817981
 31
0.0
  0
LINE
  5
40E
  8
LAYER_1
 10
31.714522
 20
92.817981
 30
0.0
 11
31.296523
 21
92.346625
 31
0.0
  0
LINE
  5
40F
  8
LAYER_1
 10
31.296523
 20
92.346625
 30
0.0
 11
30.74797
 21
91.307762
 31
0.0
  0
LINE
  5
410
  8
LAYER_1
 10
30.74797
 20
91.307762
 30
0.0
 11
30.074077
 21
90.56740000000001
 31
0.0
  0
LINE
  5
411
  8
LAYER_1
 10
30.074077
 20
90.56740000000001
 30
0.0
 11
29.842123
 21
90.27071700000001
 31
0.0
  0
LINE
  5
412
  8
LAYER_1
 10
29.842123
 20
90.27071700000001
 30
0.0
 11
29.731304
 21
89.84573
 31
0.0
  0
LINE
  5
413
  8
LAYER_1
 10
29.731304
 20
89.84573
 30
0.0
 11
29.756594
 21
89.438186
 31
0.0
  0
LINE
  5
414
  8
LAYER_1
 10
29.756594
 20
89.438186
 30
0.0
 11
29.932966
 21
89.19383000000001
 31
0.0
  0
LINE
  5
415
  8
LAYER_1
 10
29.932966
 20
89.19383000000001
 30
0.0
 11
30.725918
 21
88.467017
 31
0.0
  0
LINE
  5
416
  8
LAYER_1
 10
30.725918
 20
88.467017
 30
0.0
 11
31.866912
 21
87.106674
 31
0.0
  0
LINE
  5
417
  8
LAYER_1
 10
31.866912
 20
87.106674
 30
0.0
 11
32.868647
 21
85.73428
 31
0.0
  0
LINE
  5
418
  8
LAYER_1
 10
32.868647
 20
85.73428
 30
0.0
 11
33.243825
 21
84.971317
 31
0.0
  0
LINE
  5
419
  8
LAYER_1
 10
33.243825
 20
84.971317
 30
0.0
 11
31.97356
 21
83.75700000000001
 31
0.0
  0
LINE
  5
41A
  8
LAYER_1
 10
31.97356
 20
83.75700000000001
 30
0.0
 11
30.965594
 21
82.82250000000001
 31
0.0
  0
LINE
  5
41B
  8
LAYER_1
 10
30.965594
 20
82.82250000000001
 30
0.0
 11
32.253053
 21
82.69891200000001
 31
0.0
  0
LINE
  5
41C
  8
LAYER_1
 10
32.253053
 20
82.69891200000001
 30
0.0
 11
33.237506
 21
82.565265
 31
0.0
  0
LINE
  5
41D
  8
LAYER_1
 10
33.237506
 20
82.565265
 30
0.0
 11
33.652409
 21
82.090074
 31
0.0
  0
LINE
  5
41E
  8
LAYER_1
 10
33.652409
 20
82.090074
 30
0.0
 11
33.716047
 21
81.55206800000001
 31
0.0
  0
LINE
  5
41F
  8
LAYER_1
 10
33.716047
 20
81.55206800000001
 30
0.0
 11
33.489787
 21
81.11570399999999
 31
0.0
  0
LINE
  5
420
  8
LAYER_1
 10
33.489787
 20
81.11570399999999
 30
0.0
 11
33.219889
 21
80.719512
 31
0.0
  0
LINE
  5
421
  8
LAYER_1
 10
33.219889
 20
80.719512
 30
0.0
 11
33.136749
 21
80.252853
 31
0.0
  0
LINE
  5
422
  8
LAYER_1
 10
33.136749
 20
80.252853
 30
0.0
 11
33.240506
 21
79.70891
 31
0.0
  0
LINE
  5
423
  8
LAYER_1
 10
33.240506
 20
79.70891
 30
0.0
 11
33.531299
 21
79.080868
 31
0.0
  0
LINE
  5
424
  8
LAYER_1
 10
33.531299
 20
79.080868
 30
0.0
 11
33.905365
 21
78.15048299999999
 31
0.0
  0
LINE
  5
425
  8
LAYER_1
 10
33.905365
 20
78.15048299999999
 30
0.0
 11
33.724347
 21
77.99114
 31
0.0
  0
LINE
  5
426
  8
LAYER_1
 10
33.724347
 20
77.99114
 30
0.0
 11
33.279272
 21
77.95197899999999
 31
0.0
  0
LINE
  5
427
  8
LAYER_1
 10
33.279272
 20
77.95197899999999
 30
0.0
 11
32.742451
 21
77.830192
 31
0.0
  0
LINE
  5
428
  8
LAYER_1
 10
32.742451
 20
77.830192
 30
0.0
 11
32.449688
 21
77.459971
 31
0.0
  0
LINE
  5
429
  8
LAYER_1
 10
32.449688
 20
77.459971
 30
0.0
 11
32.398464
 21
76.834025
 31
0.0
  0
LINE
  5
42A
  8
LAYER_1
 10
32.398464
 20
76.834025
 30
0.0
 11
32.586261
 21
75.94506300000001
 31
0.0
  0
LINE
  5
42B
  8
LAYER_1
 10
32.586261
 20
75.94506300000001
 30
0.0
 11
32.770086
 21
75.118184
 31
0.0
  0
LINE
  5
42C
  8
LAYER_1
 10
32.770086
 20
75.118184
 30
0.0
 11
32.748759
 21
74.67647700000001
 31
0.0
  0
LINE
  5
42D
  8
LAYER_1
 10
32.748759
 20
74.67647700000001
 30
0.0
 11
32.328486
 21
74.657917
 31
0.0
  0
LINE
  5
42E
  8
LAYER_1
 10
32.328486
 20
74.657917
 30
0.0
 11
31.553142
 21
74.848393
 31
0.0
  0
LINE
  5
42F
  8
LAYER_1
 10
31.553142
 20
74.848393
 30
0.0
 11
30.585546
 21
75.033467
 31
0.0
  0
LINE
  5
430
  8
LAYER_1
 10
30.585546
 20
75.033467
 30
0.0
 11
29.8713
 21
74.573663
 31
0.0
  0
LINE
  5
431
  8
LAYER_1
 10
29.8713
 20
74.573663
 30
0.0
 11
29.267239
 21
74.140164
 31
0.0
  0
LINE
  5
432
  8
LAYER_1
 10
29.267239
 20
74.140164
 30
0.0
 11
28.842812
 21
74.360873
 31
0.0
  0
LINE
  5
433
  8
LAYER_1
 10
28.842812
 20
74.360873
 30
0.0
 11
28.440859
 21
74.59970800000001
 31
0.0
  0
LINE
  5
434
  8
LAYER_1
 10
28.440859
 20
74.59970800000001
 30
0.0
 11
27.987443
 21
74.62250899999999
 31
0.0
  0
LINE
  5
435
  8
LAYER_1
 10
27.987443
 20
74.62250899999999
 30
0.0
 11
27.616889
 21
74.453166
 31
0.0
  0
LINE
  5
436
  8
LAYER_1
 10
27.616889
 20
74.453166
 30
0.0
 11
27.463521
 21
74.11556899999999
 31
0.0
  0
LINE
  5
437
  8
LAYER_1
 10
27.463521
 20
74.11556899999999
 30
0.0
 11
27.257882
 21
73.709692
 31
0.0
  0
LINE
  5
438
  8
LAYER_1
 10
27.257882
 20
73.709692
 30
0.0
 11
26.763475
 21
73.272969
 31
0.0
  0
LINE
  5
439
  8
LAYER_1
 10
26.763475
 20
73.272969
 30
0.0
 11
26.26065
 21
72.8025
 31
0.0
  0
LINE
  5
43A
  8
LAYER_1
 10
26.26065
 20
72.8025
 30
0.0
 11
26.340141
 21
72.29723900000001
 31
0.0
  0
LINE
  5
43B
  8
LAYER_1
 10
26.340141
 20
72.29723900000001
 30
0.0
 11
26.607679
 21
71.203968
 31
0.0
  0
LINE
  5
43C
  8
LAYER_1
 10
26.607679
 20
71.203968
 30
0.0
 11
26.538521
 21
70.782769
 31
0.0
  0
LINE
  5
43D
  8
LAYER_1
 10
26.538521
 20
70.782769
 30
0.0
 11
26.334633
 21
70.61420099999999
 31
0.0
  0
LINE
  5
43E
  8
LAYER_1
 10
26.334633
 20
70.61420099999999
 30
0.0
 11
26.135313
 21
70.489847
 31
0.0
  0
LINE
  5
43F
  8
LAYER_1
 10
26.135313
 20
70.489847
 30
0.0
 11
26.05241
 21
70.190868
 31
0.0
  0
LINE
  5
440
  8
LAYER_1
 10
26.05241
 20
70.190868
 30
0.0
 11
26.205023
 21
69.89188900000001
 31
0.0
  0
LINE
  5
441
  8
LAYER_1
 10
26.205023
 20
69.89188900000001
 30
0.0
 11
26.571942
 21
69.767535
 31
0.0
  0
LINE
  5
442
  8
LAYER_1
 10
26.571942
 20
69.767535
 30
0.0
 11
27.38987
 21
69.410653
 31
0.0
  0
LINE
  5
443
  8
LAYER_1
 10
27.38987
 20
69.410653
 30
0.0
 11
28.360992
 21
68.505447
 31
0.0
  0
LINE
  5
444
  8
LAYER_1
 10
28.360992
 20
68.505447
 30
0.0
 11
29.264853
 21
67.300072
 31
0.0
  0
LINE
  5
445
  8
LAYER_1
 10
29.264853
 20
67.300072
 30
0.0
 11
29.880997
 21
66.04268399999999
 31
0.0
  0
LINE
  5
446
  8
LAYER_1
 10
29.880997
 20
66.04268399999999
 30
0.0
 11
30.180061
 21
64.890525
 31
0.0
  0
LINE
  5
447
  8
LAYER_1
 10
30.180061
 20
64.890525
 30
0.0
 11
30.165738
 21
64.597696
 31
0.0
  0
LINE
  5
448
  8
LAYER_1
 10
30.165738
 20
64.597696
 30
0.0
 11
30.045039
 21
64.466191
 31
0.0
  0
LINE
  5
449
  8
LAYER_1
 10
30.045039
 20
64.466191
 30
0.0
 11
29.775631
 21
64.260834
 31
0.0
  0
LINE
  5
44A
  8
LAYER_1
 10
29.775631
 20
64.260834
 30
0.0
 11
29.757561
 21
63.926728
 31
0.0
  0
LINE
  5
44B
  8
LAYER_1
 10
29.757561
 20
63.926728
 30
0.0
 11
30.447824
 21
62.974502
 31
0.0
  0
LINE
  5
44C
  8
LAYER_1
 10
30.447824
 20
62.974502
 30
0.0
 11
31.367246
 21
62.414518
 31
0.0
  0
LINE
  5
44D
  8
LAYER_1
 10
31.367246
 20
62.414518
 30
0.0
 11
32.750472
 21
62.149194
 31
0.0
  0
LINE
  5
44E
  8
LAYER_1
 10
32.750472
 20
62.149194
 30
0.0
 11
34.040463
 21
61.926746
 31
0.0
  0
LINE
  5
44F
  8
LAYER_1
 10
34.040463
 20
61.926746
 30
0.0
 11
34.30289
 21
61.734574
 31
0.0
  0
LINE
  5
450
  8
LAYER_1
 10
34.30289
 20
61.734574
 30
0.0
 11
34.407441
 21
61.447274
 31
0.0
  0
LINE
  5
451
  8
LAYER_1
 10
34.407441
 20
61.447274
 30
0.0
 11
34.734362
 21
60.832154
 31
0.0
  0
LINE
  5
452
  8
LAYER_1
 10
34.734362
 20
60.832154
 30
0.0
 11
35.406832
 21
60.138445
 31
0.0
  0
LINE
  5
453
  8
LAYER_1
 10
35.406832
 20
60.138445
 30
0.0
 11
36.122378
 21
59.353608
 31
0.0
  0
LINE
  5
454
  8
LAYER_1
 10
36.122378
 20
59.353608
 30
0.0
 11
36.441252
 21
58.544042
 31
0.0
  0
LINE
  5
455
  8
LAYER_1
 10
36.441252
 20
58.544042
 30
0.0
 11
36.350158
 21
57.800394
 31
0.0
  0
LINE
  5
456
  8
LAYER_1
 10
36.350158
 20
57.800394
 30
0.0
 11
35.835804
 21
57.213311
 31
0.0
  0
LINE
  5
457
  8
LAYER_1
 10
35.835804
 20
57.213311
 30
0.0
 11
34.864853
 21
56.844923
 31
0.0
  0
LINE
  5
458
  8
LAYER_1
 10
34.864853
 20
56.844923
 30
0.0
 11
34.502608
 21
56.718713
 31
0.0
  0
LINE
  5
459
  8
LAYER_1
 10
34.502608
 20
56.718713
 30
0.0
 11
34.030957
 21
56.300824
 31
0.0
  0
LINE
  5
45A
  8
LAYER_1
 10
34.030957
 20
56.300824
 30
0.0
 11
33.395292
 21
55.882837
 31
0.0
  0
LINE
  5
45B
  8
LAYER_1
 10
33.395292
 20
55.882837
 30
0.0
 11
32.550804
 21
55.755613
 31
0.0
  0
LINE
  5
45C
  8
LAYER_1
 10
32.550804
 20
55.755613
 30
0.0
 11
31.604774
 21
55.9171
 31
0.0
  0
LINE
  5
45D
  8
LAYER_1
 10
31.604774
 20
55.9171
 30
0.0
 11
30.664486
 21
56.365244
 31
0.0
  0
LINE
  5
45E
  8
LAYER_1
 10
30.664486
 20
56.365244
 30
0.0
 11
30.053816
 21
56.668387
 31
0.0
  0
LINE
  5
45F
  8
LAYER_1
 10
30.053816
 20
56.668387
 30
0.0
 11
29.782764
 21
56.546372
 31
0.0
  0
LINE
  5
460
  8
LAYER_1
 10
29.782764
 20
56.546372
 30
0.0
 11
29.57386
 21
56.29411
 31
0.0
  0
LINE
  5
461
  8
LAYER_1
 10
29.57386
 20
56.29411
 30
0.0
 11
29.251953
 21
56.232701
 31
0.0
  0
LINE
  5
462
  8
LAYER_1
 10
29.251953
 20
56.232701
 30
0.0
 11
28.923378
 21
56.352584
 31
0.0
  0
LINE
  5
463
  8
LAYER_1
 10
28.923378
 20
56.352584
 30
0.0
 11
28.694467
 21
56.644201
 31
0.0
  0
LINE
  5
464
  8
LAYER_1
 10
28.694467
 20
56.644201
 30
0.0
 11
28.401277
 21
56.94318
 31
0.0
  0
LINE
  5
465
  8
LAYER_1
 10
28.401277
 20
56.94318
 30
0.0
 11
27.924486
 21
57.067535
 31
0.0
  0
LINE
  5
466
  8
LAYER_1
 10
27.924486
 20
57.067535
 30
0.0
 11
27.434559
 21
56.890775
 31
0.0
  0
LINE
  5
467
  8
LAYER_1
 10
27.434559
 20
56.890775
 30
0.0
 11
27.319681
 21
56.150312
 31
0.0
  0
LINE
  5
468
  8
LAYER_1
 10
27.319681
 20
56.150312
 30
0.0
 11
27.192759
 21
55.387628
 31
0.0
  0
LINE
  5
469
  8
LAYER_1
 10
27.192759
 20
55.387628
 30
0.0
 11
26.546299
 21
55.244215
 31
0.0
  0
LINE
  5
46A
  8
LAYER_1
 10
26.546299
 20
55.244215
 30
0.0
 11
25.998171
 21
55.183711
 31
0.0
  0
LINE
  5
46B
  8
LAYER_1
 10
25.998171
 20
55.183711
 30
0.0
 11
25.770188
 21
55.02262
 31
0.0
  0
LINE
  5
46C
  8
LAYER_1
 10
25.770188
 20
55.02262
 30
0.0
 11
26.303394
 21
53.953922
 31
0.0
  0
LINE
  5
46D
  8
LAYER_1
 10
26.303394
 20
53.953922
 30
0.0
 11
27.535251
 21
52.315031
 31
0.0
  0
LINE
  5
46E
  8
LAYER_1
 10
27.535251
 20
52.315031
 30
0.0
 11
28.100942
 21
51.491142
 31
0.0
  0
LINE
  5
46F
  8
LAYER_1
 10
28.100942
 20
51.491142
 30
0.0
 11
28.134601
 21
51.219884
 31
0.0
  0
LINE
  5
470
  8
LAYER_1
 10
28.134601
 20
51.219884
 30
0.0
 11
28.020907
 21
50.991251
 31
0.0
  0
LINE
  5
471
  8
LAYER_1
 10
28.020907
 20
50.991251
 30
0.0
 11
27.679134
 21
50.767368
 31
0.0
  0
LINE
  5
472
  8
LAYER_1
 10
27.679134
 20
50.767368
 30
0.0
 11
27.301777
 21
50.764505
 31
0.0
  0
LINE
  5
473
  8
LAYER_1
 10
27.301777
 20
50.764505
 30
0.0
 11
26.992314
 21
50.773122
 31
0.0
  0
LINE
  5
474
  8
LAYER_1
 10
26.992314
 20
50.773122
 30
0.0
 11
26.915598
 21
50.526452
 31
0.0
  0
LINE
  5
475
  8
LAYER_1
 10
26.915598
 20
50.526452
 30
0.0
 11
27.062634
 21
50.109392
 31
0.0
  0
LINE
  5
476
  8
LAYER_1
 10
27.062634
 20
50.109392
 30
0.0
 11
27.424428
 21
49.606835
 31
0.0
  0
LINE
  5
477
  8
LAYER_1
 10
27.424428
 20
49.606835
 30
0.0
 11
28.256413
 21
48.106979
 31
0.0
  0
LINE
  5
478
  8
LAYER_1
 10
28.256413
 20
48.106979
 30
0.0
 11
28.424806
 21
47.343228
 31
0.0
  0
LINE
  5
479
  8
LAYER_1
 10
28.424806
 20
47.343228
 30
0.0
 11
28.30946
 21
47.218645
 31
0.0
  0
LINE
  5
47A
  8
LAYER_1
 10
28.30946
 20
47.218645
 30
0.0
 11
28.04348
 21
47.189757
 31
0.0
  0
LINE
  5
47B
  8
LAYER_1
 10
28.04348
 20
47.189757
 30
0.0
 11
27.627078
 21
47.06088
 31
0.0
  0
LINE
  5
47C
  8
LAYER_1
 10
27.627078
 20
47.06088
 30
0.0
 11
27.355552
 21
46.751026
 31
0.0
  0
LINE
  5
47D
  8
LAYER_1
 10
27.355552
 20
46.751026
 30
0.0
 11
27.099389
 21
46.472246
 31
0.0
  0
LINE
  5
47E
  8
LAYER_1
 10
27.099389
 20
46.472246
 30
0.0
 11
26.498423
 21
46.821581
 31
0.0
  0
LINE
  5
47F
  8
LAYER_1
 10
26.498423
 20
46.821581
 30
0.0
 11
25.972492
 21
47.326345
 31
0.0
  0
LINE
  5
480
  8
LAYER_1
 10
25.972492
 20
47.326345
 30
0.0
 11
25.675229
 21
47.824757
 31
0.0
  0
LINE
  5
481
  8
LAYER_1
 10
25.675229
 20
47.824757
 30
0.0
 11
25.483637
 21
48.201465
 31
0.0
  0
LINE
  5
482
  8
LAYER_1
 10
25.483637
 20
48.201465
 30
0.0
 11
25.206374
 21
48.289424
 31
0.0
  0
LINE
  5
483
  8
LAYER_1
 10
25.206374
 20
48.289424
 30
0.0
 11
24.863289
 21
48.092133
 31
0.0
  0
LINE
  5
484
  8
LAYER_1
 10
24.863289
 20
48.092133
 30
0.0
 11
24.474235
 21
47.61309
 31
0.0
  0
LINE
  5
485
  8
LAYER_1
 10
24.474235
 20
47.61309
 30
0.0
 11
24.066687
 21
47.117001
 31
0.0
  0
LINE
  5
486
  8
LAYER_1
 10
24.066687
 20
47.117001
 30
0.0
 11
23.701228
 21
46.9397
 31
0.0
  0
LINE
  5
487
  8
LAYER_1
 10
23.701228
 20
46.9397
 30
0.0
 11
23.375075
 21
47.081044
 31
0.0
  0
LINE
  5
488
  8
LAYER_1
 10
23.375075
 20
47.081044
 30
0.0
 11
23.085445
 21
47.540886
 31
0.0
  0
LINE
  5
489
  8
LAYER_1
 10
23.085445
 20
47.540886
 30
0.0
 11
22.736732
 21
48.016804
 31
0.0
  0
LINE
  5
48A
  8
LAYER_1
 10
22.736732
 20
48.016804
 30
0.0
 11
22.289547
 21
48.271644
 31
0.0
  0
LINE
  5
48B
  8
LAYER_1
 10
22.289547
 20
48.271644
 30
0.0
 11
21.922033
 21
48.247373
 31
0.0
  0
LINE
  5
48C
  8
LAYER_1
 10
21.922033
 20
48.247373
 30
0.0
 11
22.07788
 21
47.79796
 31
0.0
  0
LINE
  5
48D
  8
LAYER_1
 10
22.07788
 20
47.79796
 30
0.0
 11
22.29945
 21
47.223237
 31
0.0
  0
LINE
  5
48E
  8
LAYER_1
 10
22.29945
 20
47.223237
 30
0.0
 11
22.369585
 21
46.63204
 31
0.0
  0
LINE
  5
48F
  8
LAYER_1
 10
22.369585
 20
46.63204
 30
0.0
 11
22.288587
 21
46.056808
 31
0.0
  0
LINE
  5
490
  8
LAYER_1
 10
22.288587
 20
46.056808
 30
0.0
 11
22.056759
 21
45.52998
 31
0.0
  0
LINE
  5
491
  8
LAYER_1
 10
22.056759
 20
45.52998
 30
0.0
 11
21.864662
 21
45.005545
 31
0.0
  0
LINE
  5
492
  8
LAYER_1
 10
21.864662
 20
45.005545
 30
0.0
 11
21.930173
 21
44.54213
 31
0.0
  0
LINE
  5
493
  8
LAYER_1
 10
21.930173
 20
44.54213
 30
0.0
 11
22.221093
 21
44.211473
 31
0.0
  0
LINE
  5
494
  8
LAYER_1
 10
22.221093
 20
44.211473
 30
0.0
 11
22.705218
 21
44.085312
 31
0.0
  0
LINE
  5
495
  8
LAYER_1
 10
22.705218
 20
44.085312
 30
0.0
 11
23.296464
 21
43.94756
 31
0.0
  0
LINE
  5
496
  8
LAYER_1
 10
23.296464
 20
43.94756
 30
0.0
 11
23.845032
 21
43.616369
 31
0.0
  0
LINE
  5
497
  8
LAYER_1
 10
23.845032
 20
43.616369
 30
0.0
 11
24.264165
 21
43.340955
 31
0.0
  0
LINE
  5
498
  8
LAYER_1
 10
24.264165
 20
43.340955
 30
0.0
 11
24.184754
 21
44.039703
 31
0.0
  0
LINE
  5
499
  8
LAYER_1
 10
24.184754
 20
44.039703
 30
0.0
 11
24.134139
 21
44.742656
 31
0.0
  0
LINE
  5
49A
  8
LAYER_1
 10
24.134139
 20
44.742656
 30
0.0
 11
24.430352
 21
44.931979
 31
0.0
  0
LINE
  5
49B
  8
LAYER_1
 10
24.430352
 20
44.931979
 30
0.0
 11
24.827811
 21
44.824212
 31
0.0
  0
LINE
  5
49C
  8
LAYER_1
 10
24.827811
 20
44.824212
 30
0.0
 11
25.1865
 21
44.507058
 31
0.0
  0
LINE
  5
49D
  8
LAYER_1
 10
25.1865
 20
44.507058
 30
0.0
 11
25.757906
 21
43.28147
 31
0.0
  0
LINE
  5
49E
  8
LAYER_1
 10
25.757906
 20
43.28147
 30
0.0
 11
25.866053
 21
42.600063
 31
0.0
  0
LINE
  5
49F
  8
LAYER_1
 10
25.866053
 20
42.600063
 30
0.0
 11
25.675494
 21
42.30186
 31
0.0
  0
LINE
  5
4A0
  8
LAYER_1
 10
25.675494
 20
42.30186
 30
0.0
 11
25.60112
 21
42.051531
 31
0.0
  0
LINE
  5
4A1
  8
LAYER_1
 10
25.60112
 20
42.051531
 30
0.0
 11
25.981855
 21
41.569838
 31
0.0
  0
LINE
  5
4A2
  8
LAYER_1
 10
25.981855
 20
41.569838
 30
0.0
 11
26.432166
 21
40.996498
 31
0.0
  0
LINE
  5
4A3
  8
LAYER_1
 10
26.432166
 20
40.996498
 30
0.0
 11
26.623129
 21
40.475984
 31
0.0
  0
LINE
  5
4A4
  8
LAYER_1
 10
26.623129
 20
40.475984
 30
0.0
 11
26.725072
 21
40.212483
 31
0.0
  0
LINE
  5
4A5
  8
LAYER_1
 10
26.725072
 20
40.212483
 30
0.0
 11
27.12987
 21
40.643519
 31
0.0
  0
LINE
  5
4A6
  8
LAYER_1
 10
27.12987
 20
40.643519
 30
0.0
 11
27.626535
 21
41.133751
 31
0.0
  0
LINE
  5
4A7
  8
LAYER_1
 10
27.626535
 20
41.133751
 30
0.0
 11
28.102978
 21
40.771685
 31
0.0
  0
LINE
  5
4A8
  8
LAYER_1
 10
28.102978
 20
40.771685
 30
0.0
 11
28.432302
 21
40.120608
 31
0.0
  0
LINE
  5
4A9
  8
LAYER_1
 10
28.432302
 20
40.120608
 30
0.0
 11
28.39569
 21
39.140638
 31
0.0
  0
LINE
  5
4AA
  8
LAYER_1
 10
28.39569
 20
39.140638
 30
0.0
 11
28.215759
 21
38.031857
 31
0.0
  0
LINE
  5
4AB
  8
LAYER_1
 10
28.215759
 20
38.031857
 30
0.0
 11
28.958599
 21
38.518584
 31
0.0
  0
LINE
  5
4AC
  8
LAYER_1
 10
28.958599
 20
38.518584
 30
0.0
 11
29.633067
 21
38.879693
 31
0.0
  0
LINE
  5
4AD
  8
LAYER_1
 10
29.633067
 20
38.879693
 30
0.0
 11
30.161606
 21
38.976145
 31
0.0
  0
LINE
  5
4AE
  8
LAYER_1
 10
30.161606
 20
38.976145
 30
0.0
 11
30.559341
 21
38.806749
 31
0.0
  0
LINE
  5
4AF
  8
LAYER_1
 10
30.559341
 20
38.806749
 30
0.0
 11
30.841394
 21
38.370312
 31
0.0
  0
LINE
  5
4B0
  8
LAYER_1
 10
30.841394
 20
38.370312
 30
0.0
 11
31.02691
 21
37.989942
 31
0.0
  0
LINE
  5
4B1
  8
LAYER_1
 10
31.02691
 20
37.989942
 30
0.0
 11
31.11452
 21
37.967138
 31
0.0
  0
LINE
  5
4B2
  8
LAYER_1
 10
31.11452
 20
37.967138
 30
0.0
 11
31.258194
 21
37.999827
 31
0.0
  0
LINE
  5
4B3
  8
LAYER_1
 10
31.258194
 20
37.999827
 30
0.0
 11
31.578496
 21
37.752878
 31
0.0
  0
LINE
  5
4B4
  8
LAYER_1
 10
31.578496
 20
37.752878
 30
0.0
 11
31.952884
 21
37.474503
 31
0.0
  0
LINE
  5
4B5
  8
LAYER_1
 10
31.952884
 20
37.474503
 30
0.0
 11
32.226589
 21
37.431639
 31
0.0
  0
LINE
  5
4B6
  8
LAYER_1
 10
32.226589
 20
37.431639
 30
0.0
 11
32.376679
 21
37.214465
 31
0.0
  0
LINE
  5
4B7
  8
LAYER_1
 10
32.376679
 20
37.214465
 30
0.0
 11
32.453868
 21
36.51701
 31
0.0
  0
LINE
  5
4B8
  8
LAYER_1
 10
32.453868
 20
36.51701
 30
0.0
 11
32.654736
 21
34.225591
 31
0.0
  0
LINE
  5
4B9
  8
LAYER_1
 10
32.654736
 20
34.225591
 30
0.0
 11
32.855139
 21
33.712684
 31
0.0
  0
LINE
  5
4BA
  8
LAYER_1
 10
32.855139
 20
33.712684
 30
0.0
 11
33.128639
 21
33.593701
 31
0.0
  0
LINE
  5
4BB
  8
LAYER_1
 10
33.128639
 20
33.593701
 30
0.0
 11
33.625372
 21
33.946479
 31
0.0
  0
LINE
  5
4BC
  8
LAYER_1
 10
33.625372
 20
33.946479
 30
0.0
 11
33.883091
 21
34.13085
 31
0.0
  0
LINE
  5
4BD
  8
LAYER_1
 10
33.883091
 20
34.13085
 30
0.0
 11
34.370608
 21
34.207535
 31
0.0
  0
LINE
  5
4BE
  8
LAYER_1
 10
34.370608
 20
34.207535
 30
0.0
 11
34.705703
 21
34.165754
 31
0.0
  0
LINE
  5
4BF
  8
LAYER_1
 10
34.705703
 20
34.165754
 30
0.0
 11
34.923986
 21
34.007925
 31
0.0
  0
LINE
  5
4C0
  8
LAYER_1
 10
34.923986
 20
34.007925
 30
0.0
 11
35.154486
 21
33.149201
 31
0.0
  0
LINE
  5
4C1
  8
LAYER_1
 10
35.154486
 20
33.149201
 30
0.0
 11
35.187277
 21
32.336777
 31
0.0
  0
LINE
  5
4C2
  8
LAYER_1
 10
35.187277
 20
32.336777
 30
0.0
 11
35.03198
 21
31.822961
 31
0.0
  0
LINE
  5
4C3
  8
LAYER_1
 10
35.03198
 20
31.822961
 30
0.0
 11
34.672802
 21
31.584666
 31
0.0
  0
LINE
  5
4C4
  8
LAYER_1
 10
34.672802
 20
31.584666
 30
0.0
 11
34.093952
 21
31.598802
 31
0.0
  0
LINE
  5
4C5
  8
LAYER_1
 10
34.093952
 20
31.598802
 30
0.0
 11
33.555013
 21
31.602047
 31
0.0
  0
LINE
  5
4C6
  8
LAYER_1
 10
33.555013
 20
31.602047
 30
0.0
 11
33.390188
 21
31.307298
 31
0.0
  0
LINE
  5
4C7
  8
LAYER_1
 10
33.390188
 20
31.307298
 30
0.0
 11
33.51032
 21
30.960307
 31
0.0
  0
LINE
  5
4C8
  8
LAYER_1
 10
33.51032
 20
30.960307
 30
0.0
 11
33.799148
 21
30.724325
 31
0.0
  0
LINE
  5
4C9
  8
LAYER_1
 10
33.799148
 20
30.724325
 30
0.0
 11
34.066997
 21
30.708503
 31
0.0
  0
LINE
  5
4CA
  8
LAYER_1
 10
34.066997
 20
30.708503
 30
0.0
 11
34.051175
 21
30.976353
 31
0.0
  0
LINE
  5
4CB
  8
LAYER_1
 10
34.051175
 20
30.976353
 30
0.0
 11
33.983629
 21
31.274888
 31
0.0
  0
LINE
  5
4CC
  8
LAYER_1
 10
33.983629
 20
31.274888
 30
0.0
 11
34.136325
 21
31.353676
 31
0.0
  0
LINE
  5
4CD
  8
LAYER_1
 10
34.136325
 20
31.353676
 30
0.0
 11
35.365744
 21
30.820868
 31
0.0
  0
LINE
  5
4CE
  8
LAYER_1
 10
35.365744
 20
30.820868
 30
0.0
 11
36.745839
 21
30.256424
 31
0.0
  0
LINE
  5
4CF
  8
LAYER_1
 10
36.745839
 20
30.256424
 30
0.0
 11
37.090021
 21
30.732348
 31
0.0
  0
LINE
  5
4D0
  8
LAYER_1
 10
37.090021
 20
30.732348
 30
0.0
 11
37.533191
 21
31.876591
 31
0.0
  0
LINE
  5
4D1
  8
LAYER_1
 10
37.533191
 20
31.876591
 30
0.0
 11
38.041805
 21
33.107004
 31
0.0
  0
LINE
  5
4D2
  8
LAYER_1
 10
38.041805
 20
33.107004
 30
0.0
 11
38.540744
 21
33.590619
 31
0.0
  0
LINE
  5
4D3
  8
LAYER_1
 10
38.540744
 20
33.590619
 30
0.0
 11
38.785082
 21
33.592956
 31
0.0
  0
LINE
  5
4D4
  8
LAYER_1
 10
38.785082
 20
33.592956
 30
0.0
 11
38.936282
 21
33.463575
 31
0.0
  0
LINE
  5
4D5
  8
LAYER_1
 10
38.936282
 20
33.463575
 30
0.0
 11
39.034633
 21
32.66902
 31
0.0
  0
LINE
  5
4D6
  8
LAYER_1
 10
39.034633
 20
32.66902
 30
0.0
 11
39.17285
 21
31.79994
 31
0.0
  0
LINE
  5
4D7
  8
LAYER_1
 10
39.17285
 20
31.79994
 30
0.0
 11
39.740188
 21
31.385312
 31
0.0
  0
LINE
  5
4D8
  8
LAYER_1
 10
39.740188
 20
31.385312
 30
0.0
 11
40.294701
 21
30.991741
 31
0.0
  0
LINE
  5
4D9
  8
LAYER_1
 10
40.294701
 20
30.991741
 30
0.0
 11
40.445744
 21
30.263409
 31
0.0
  0
LINE
  5
4DA
  8
LAYER_1
 10
40.445744
 20
30.263409
 30
0.0
 11
40.559932
 21
29.677165
 31
0.0
  0
LINE
  5
4DB
  8
LAYER_1
 10
40.559932
 20
29.677165
 30
0.0
 11
40.832542
 21
29.412909
 31
0.0
  0
LINE
  5
4DC
  8
LAYER_1
 10
40.832542
 20
29.412909
 30
0.0
 11
41.158646
 21
29.501437
 31
0.0
  0
LINE
  5
4DD
  8
LAYER_1
 10
41.158646
 20
29.501437
 30
0.0
 11
41.433313
 21
29.973547
 31
0.0
  0
LINE
  5
4DE
  8
LAYER_1
 10
41.433313
 20
29.973547
 30
0.0
 11
41.72439
 21
30.365566
 31
0.0
  0
LINE
  5
4DF
  8
LAYER_1
 10
41.72439
 20
30.365566
 30
0.0
 11
42.250999
 21
30.680907
 31
0.0
  0
LINE
  5
4E0
  8
LAYER_1
 10
42.250999
 20
30.680907
 30
0.0
 11
42.88558
 21
30.864733
 31
0.0
  0
LINE
  5
4E1
  8
LAYER_1
 10
42.88558
 20
30.864733
 30
0.0
 11
43.500571
 21
30.862208
 31
0.0
  0
LINE
  5
4E2
  8
LAYER_1
 10
43.500571
 20
30.862208
 30
0.0
 11
44.206832
 21
31.062495
 31
0.0
  0
LINE
  5
4E3
  8
LAYER_1
 10
44.206832
 20
31.062495
 30
0.0
 11
45.968595
 21
31.90183
 31
0.0
  0
LINE
  5
4E4
  8
LAYER_1
 10
45.968595
 20
31.90183
 30
0.0
 11
47.397817
 21
32.465177
 31
0.0
  0
LINE
  5
4E5
  8
LAYER_1
 10
47.397817
 20
32.465177
 30
0.0
 11
48.649004
 21
31.683839
 31
0.0
  0
LINE
  5
4E6
  8
LAYER_1
 10
48.649004
 20
31.683839
 30
0.0
 11
49.550543
 21
30.934657
 31
0.0
  0
LINE
  5
4E7
  8
LAYER_1
 10
49.550543
 20
30.934657
 30
0.0
 11
50.392362
 21
29.956497
 31
0.0
  0
LINE
  5
4E8
  8
LAYER_1
 10
50.392362
 20
29.956497
 30
0.0
 11
50.953782
 21
29.046322
 31
0.0
  0
LINE
  5
4E9
  8
LAYER_1
 10
50.953782
 20
29.046322
 30
0.0
 11
51.014125
 21
28.5011
 31
0.0
  0
LINE
  5
4EA
  8
LAYER_1
 10
51.014125
 20
28.5011
 30
0.0
 11
51.172773
 21
26.999328
 31
0.0
  0
LINE
  5
4EB
  8
LAYER_1
 10
51.172773
 20
26.999328
 30
0.0
 11
51.349139
 21
25.540351
 31
0.0
  0
LINE
  5
4EC
  8
LAYER_1
 10
51.349139
 20
25.540351
 30
0.0
 11
51.436421
 21
22.696787
 31
0.0
  0
LINE
  5
4ED
  8
LAYER_1
 10
51.436421
 20
22.696787
 30
0.0
 11
51.377317
 21
10.077535
 31
0.0
  0
LINE
  5
4EE
  8
LAYER_1
 10
51.377317
 20
10.077535
 30
0.0
 11
51.311299
 21
3.868646
 31
0.0
  0
LINE
  5
4EF
  8
LAYER_1
 10
51.311299
 20
3.868646
 30
0.0
 11
53.145744
 21
3.699566
 31
0.0
  0
LINE
  5
4F0
  8
LAYER_1
 10
53.145744
 20
3.699566
 30
0.0
 11
56.391299
 21
3.558455
 31
0.0
  0
LINE
  5
4F1
  8
LAYER_1
 10
56.391299
 20
3.558455
 30
0.0
 11
57.549736
 21
3.678687
 31
0.0
  0
LINE
  5
4F2
  8
LAYER_1
 10
57.549736
 20
3.678687
 30
0.0
 11
57.727929
 21
3.853452
 31
0.0
  0
LINE
  5
4F3
  8
LAYER_1
 10
57.727929
 20
3.853452
 30
0.0
 11
57.744332
 21
4.150868
 31
0.0
  0
LINE
  5
4F4
  8
LAYER_1
 10
57.744332
 20
4.150868
 30
0.0
 11
57.744332
 21
4.150868
 31
0.0
  0
LINE
  5
4F5
  8
LAYER_1
 10
56.379237
 20
26.951048
 30
0.0
 11
56.163811
 21
27.333281
 31
0.0
  0
LINE
  5
4F6
  8
LAYER_1
 10
56.163811
 20
27.333281
 30
0.0
 11
56.042751
 21
28.091452
 31
0.0
  0
LINE
  5
4F7
  8
LAYER_1
 10
56.042751
 20
28.091452
 30
0.0
 11
55.96938
 21
32.200065
 31
0.0
  0
LINE
  5
4F8
  8
LAYER_1
 10
55.96938
 20
32.200065
 30
0.0
 11
55.959776
 21
35.695932
 31
0.0
  0
LINE
  5
4F9
  8
LAYER_1
 10
55.959776
 20
35.695932
 30
0.0
 11
57.72776
 21
37.363564
 31
0.0
  0
LINE
  5
4FA
  8
LAYER_1
 10
57.72776
 20
37.363564
 30
0.0
 11
59.266558
 21
38.6688
 31
0.0
  0
LINE
  5
4FB
  8
LAYER_1
 10
59.266558
 20
38.6688
 30
0.0
 11
60.483521
 21
39.465134
 31
0.0
  0
LINE
  5
4FC
  8
LAYER_1
 10
60.483521
 20
39.465134
 30
0.0
 11
62.317966
 21
40.258337
 31
0.0
  0
LINE
  5
4FD
  8
LAYER_1
 10
62.317966
 20
40.258337
 30
0.0
 11
63.438795
 21
40.517645
 31
0.0
  0
LINE
  5
4FE
  8
LAYER_1
 10
63.438795
 20
40.517645
 30
0.0
 11
64.813641
 21
40.530068
 31
0.0
  0
LINE
  5
4FF
  8
LAYER_1
 10
64.813641
 20
40.530068
 30
0.0
 11
66.20793000000001
 21
40.312947
 31
0.0
  0
LINE
  5
500
  8
LAYER_1
 10
66.20793000000001
 20
40.312947
 30
0.0
 11
67.387083
 21
39.883622
 31
0.0
  0
LINE
  5
501
  8
LAYER_1
 10
67.387083
 20
39.883622
 30
0.0
 11
68.346152
 21
39.481573
 31
0.0
  0
LINE
  5
502
  8
LAYER_1
 10
68.346152
 20
39.481573
 30
0.0
 11
69.217736
 21
39.31006
 31
0.0
  0
LINE
  5
503
  8
LAYER_1
 10
69.217736
 20
39.31006
 30
0.0
 11
69.88994
 21
39.376684
 31
0.0
  0
LINE
  5
504
  8
LAYER_1
 10
69.88994
 20
39.376684
 30
0.0
 11
70.250866
 21
39.689047
 31
0.0
  0
LINE
  5
505
  8
LAYER_1
 10
70.250866
 20
39.689047
 30
0.0
 11
70.81277900000001
 21
40.247062
 31
0.0
  0
LINE
  5
506
  8
LAYER_1
 10
70.81277900000001
 20
40.247062
 30
0.0
 11
71.529853
 21
40.260447
 31
0.0
  0
LINE
  5
507
  8
LAYER_1
 10
71.529853
 20
40.260447
 30
0.0
 11
72.61202
 21
40.07666
 31
0.0
  0
LINE
  5
508
  8
LAYER_1
 10
72.61202
 20
40.07666
 30
0.0
 11
73.598919
 21
39.798488
 31
0.0
  0
LINE
  5
509
  8
LAYER_1
 10
73.598919
 20
39.798488
 30
0.0
 11
74.030188
 21
39.528713
 31
0.0
  0
LINE
  5
50A
  8
LAYER_1
 10
74.030188
 20
39.528713
 30
0.0
 11
73.62947
 21
38.937077
 31
0.0
  0
LINE
  5
50B
  8
LAYER_1
 10
73.62947
 20
38.937077
 30
0.0
 11
72.71861199999999
 21
37.9985
 31
0.0
  0
LINE
  5
50C
  8
LAYER_1
 10
72.71861199999999
 20
37.9985
 30
0.0
 11
71.734559
 21
37.129735
 31
0.0
  0
LINE
  5
50D
  8
LAYER_1
 10
71.734559
 20
37.129735
 30
0.0
 11
71.114257
 21
36.747535
 31
0.0
  0
LINE
  5
50E
  8
LAYER_1
 10
71.114257
 20
36.747535
 30
0.0
 11
69.877076
 21
36.101164
 31
0.0
  0
LINE
  5
50F
  8
LAYER_1
 10
69.877076
 20
36.101164
 30
0.0
 11
68.829165
 21
35.589448
 31
0.0
  0
LINE
  5
510
  8
LAYER_1
 10
68.829165
 20
35.589448
 30
0.0
 11
67.195359
 21
35.536926
 31
0.0
  0
LINE
  5
511
  8
LAYER_1
 10
67.195359
 20
35.536926
 30
0.0
 11
65.60911400000001
 21
35.523729
 31
0.0
  0
LINE
  5
512
  8
LAYER_1
 10
65.60911400000001
 20
35.523729
 30
0.0
 11
65.10505499999999
 21
35.402756
 31
0.0
  0
LINE
  5
513
  8
LAYER_1
 10
65.10505499999999
 20
35.402756
 30
0.0
 11
64.764692
 21
35.173774
 31
0.0
  0
LINE
  5
514
  8
LAYER_1
 10
64.764692
 20
35.173774
 30
0.0
 11
64.566266
 21
34.812964
 31
0.0
  0
LINE
  5
515
  8
LAYER_1
 10
64.566266
 20
34.812964
 30
0.0
 11
64.488017
 21
34.296507
 31
0.0
  0
LINE
  5
516
  8
LAYER_1
 10
64.488017
 20
34.296507
 30
0.0
 11
64.605013
 21
32.701371
 31
0.0
  0
LINE
  5
517
  8
LAYER_1
 10
64.605013
 20
32.701371
 30
0.0
 11
64.759649
 21
31.030715
 31
0.0
  0
LINE
  5
518
  8
LAYER_1
 10
64.759649
 20
31.030715
 30
0.0
 11
64.628674
 21
30.042625
 31
0.0
  0
LINE
  5
519
  8
LAYER_1
 10
64.628674
 20
30.042625
 30
0.0
 11
64.114318
 21
29.506119
 31
0.0
  0
LINE
  5
51A
  8
LAYER_1
 10
64.114318
 20
29.506119
 30
0.0
 11
63.118814
 21
29.190216
 31
0.0
  0
LINE
  5
51B
  8
LAYER_1
 10
63.118814
 20
29.190216
 30
0.0
 11
59.846491
 21
28.340932
 31
0.0
  0
LINE
  5
51C
  8
LAYER_1
 10
59.846491
 20
28.340932
 30
0.0
 11
58.914104
 21
27.933914
 31
0.0
  0
LINE
  5
51D
  8
LAYER_1
 10
58.914104
 20
27.933914
 30
0.0
 11
58.119558
 21
27.421414
 31
0.0
  0
LINE
  5
51E
  8
LAYER_1
 10
58.119558
 20
27.421414
 30
0.0
 11
56.927844
 21
26.656373
 31
0.0
  0
LINE
  5
51F
  8
LAYER_1
 10
56.927844
 20
26.656373
 30
0.0
 11
56.64653
 21
26.691079
 31
0.0
  0
LINE
  5
520
  8
LAYER_1
 10
56.64653
 20
26.691079
 30
0.0
 11
56.379237
 21
26.951048
 31
0.0
  0
LINE
  5
521
  8
LAYER_1
 10
56.379237
 20
26.951048
 30
0.0
 11
56.379237
 21
26.951048
 31
0.0
  0
LINE
  5
522
  8
LAYER_1
 10
57.661299
 20
28.216691
 30
0.0
 11
57.94285
 21
28.537619
 31
0.0
  0
LINE
  5
523
  8
LAYER_1
 10
57.94285
 20
28.537619
 30
0.0
 11
58.641897
 21
28.945181
 31
0.0
  0
LINE
  5
524
  8
LAYER_1
 10
58.641897
 20
28.945181
 30
0.0
 11
60.418839
 21
29.58629
 31
0.0
  0
LINE
  5
525
  8
LAYER_1
 10
60.418839
 20
29.58629
 30
0.0
 11
61.493829
 21
30.010653
 31
0.0
  0
LINE
  5
526
  8
LAYER_1
 10
61.493829
 20
30.010653
 30
0.0
 11
61.894373
 21
30.184228
 31
0.0
  0
LINE
  5
527
  8
LAYER_1
 10
61.894373
 20
30.184228
 30
0.0
 11
62.644088
 21
30.256424
 31
0.0
  0
LINE
  5
528
  8
LAYER_1
 10
62.644088
 20
30.256424
 30
0.0
 11
63.642452
 21
30.256424
 31
0.0
  0
LINE
  5
529
  8
LAYER_1
 10
63.642452
 20
30.256424
 30
0.0
 11
63.544653
 21
32.946772
 31
0.0
  0
LINE
  5
52A
  8
LAYER_1
 10
63.544653
 20
32.946772
 30
0.0
 11
63.446855
 21
35.637117
 31
0.0
  0
LINE
  5
52B
  8
LAYER_1
 10
63.446855
 20
35.637117
 30
0.0
 11
64.575744
 21
36.158277
 31
0.0
  0
LINE
  5
52C
  8
LAYER_1
 10
64.575744
 20
36.158277
 30
0.0
 11
65.780097
 21
36.527103
 31
0.0
  0
LINE
  5
52D
  8
LAYER_1
 10
65.780097
 20
36.527103
 30
0.0
 11
67.133315
 21
36.595428
 31
0.0
  0
LINE
  5
52E
  8
LAYER_1
 10
67.133315
 20
36.595428
 30
0.0
 11
68.627929
 21
36.71378
 31
0.0
  0
LINE
  5
52F
  8
LAYER_1
 10
68.627929
 20
36.71378
 30
0.0
 11
70.35603
 21
37.548735
 31
0.0
  0
LINE
  5
530
  8
LAYER_1
 10
70.35603
 20
37.548735
 30
0.0
 11
71.550258
 21
38.301304
 31
0.0
  0
LINE
  5
531
  8
LAYER_1
 10
71.550258
 20
38.301304
 30
0.0
 11
72.173061
 21
38.845585
 31
0.0
  0
LINE
  5
532
  8
LAYER_1
 10
72.173061
 20
38.845585
 30
0.0
 11
72.220274
 21
39.176141
 31
0.0
  0
LINE
  5
533
  8
LAYER_1
 10
72.220274
 20
39.176141
 30
0.0
 11
71.687732
 21
39.287535
 31
0.0
  0
LINE
  5
534
  8
LAYER_1
 10
71.687732
 20
39.287535
 30
0.0
 11
71.12298800000001
 21
39.139549
 31
0.0
  0
LINE
  5
535
  8
LAYER_1
 10
71.12298800000001
 20
39.139549
 30
0.0
 11
70.833206
 21
38.681925
 31
0.0
  0
LINE
  5
536
  8
LAYER_1
 10
70.833206
 20
38.681925
 30
0.0
 11
70.707433
 21
38.361895
 31
0.0
  0
LINE
  5
537
  8
LAYER_1
 10
70.707433
 20
38.361895
 30
0.0
 11
70.476444
 21
38.201
 31
0.0
  0
LINE
  5
538
  8
LAYER_1
 10
70.476444
 20
38.201
 30
0.0
 11
69.292323
 21
38.240053
 31
0.0
  0
LINE
  5
539
  8
LAYER_1
 10
69.292323
 20
38.240053
 30
0.0
 11
67.978702
 21
38.531465
 31
0.0
  0
LINE
  5
53A
  8
LAYER_1
 10
67.978702
 20
38.531465
 30
0.0
 11
66.761814
 21
39.00216
 31
0.0
  0
LINE
  5
53B
  8
LAYER_1
 10
66.761814
 20
39.00216
 30
0.0
 11
65.95134899999999
 21
39.308602
 31
0.0
  0
LINE
  5
53C
  8
LAYER_1
 10
65.95134899999999
 20
39.308602
 30
0.0
 11
65.040584
 21
39.451652
 31
0.0
  0
LINE
  5
53D
  8
LAYER_1
 10
65.040584
 20
39.451652
 30
0.0
 11
63.048779
 21
39.277428
 31
0.0
  0
LINE
  5
53E
  8
LAYER_1
 10
63.048779
 20
39.277428
 30
0.0
 11
61.047651
 21
38.539187
 31
0.0
  0
LINE
  5
53F
  8
LAYER_1
 10
61.047651
 20
38.539187
 30
0.0
 11
60.125232
 21
37.977218
 31
0.0
  0
LINE
  5
540
  8
LAYER_1
 10
60.125232
 20
37.977218
 30
0.0
 11
59.298451
 21
37.296632
 31
0.0
  0
LINE
  5
541
  8
LAYER_1
 10
59.298451
 20
37.296632
 30
0.0
 11
57.721475
 21
35.891103
 31
0.0
  0
LINE
  5
542
  8
LAYER_1
 10
57.721475
 20
35.891103
 30
0.0
 11
57.39668
 21
35.560688
 31
0.0
  0
LINE
  5
543
  8
LAYER_1
 10
57.39668
 20
35.560688
 30
0.0
 11
57.179288
 21
35.126137
 31
0.0
  0
LINE
  5
544
  8
LAYER_1
 10
57.179288
 20
35.126137
 30
0.0
 11
56.94886
 21
33.594308
 31
0.0
  0
LINE
  5
545
  8
LAYER_1
 10
56.94886
 20
33.594308
 30
0.0
 11
56.997695
 21
29.979744
 31
0.0
  0
LINE
  5
546
  8
LAYER_1
 10
56.997695
 20
29.979744
 30
0.0
 11
57.1787
 21
28.566693
 31
0.0
  0
LINE
  5
547
  8
LAYER_1
 10
57.1787
 20
28.566693
 30
0.0
 11
57.415543
 21
27.998646
 31
0.0
  0
LINE
  5
548
  8
LAYER_1
 10
57.415543
 20
27.998646
 30
0.0
 11
57.661299
 21
28.216691
 31
0.0
  0
LINE
  5
549
  8
LAYER_1
 10
57.661299
 20
28.216691
 30
0.0
 11
57.661299
 21
28.216691
 31
0.0
  0
LINE
  5
54A
  8
LAYER_1
 10
50.28889
 20
32.789794
 30
0.0
 11
48.98873
 21
33.702449
 31
0.0
  0
LINE
  5
54B
  8
LAYER_1
 10
48.98873
 20
33.702449
 30
0.0
 11
46.902223
 21
34.882187
 31
0.0
  0
LINE
  5
54C
  8
LAYER_1
 10
46.902223
 20
34.882187
 30
0.0
 11
43.479633
 21
36.80127
 31
0.0
  0
LINE
  5
54D
  8
LAYER_1
 10
43.479633
 20
36.80127
 30
0.0
 11
42.806971
 21
37.524131
 31
0.0
  0
LINE
  5
54E
  8
LAYER_1
 10
42.806971
 20
37.524131
 30
0.0
 11
42.743581
 21
38.130622
 31
0.0
  0
LINE
  5
54F
  8
LAYER_1
 10
42.743581
 20
38.130622
 30
0.0
 11
42.912194
 21
38.326207
 31
0.0
  0
LINE
  5
550
  8
LAYER_1
 10
42.912194
 20
38.326207
 30
0.0
 11
43.199322
 21
38.415873
 31
0.0
  0
LINE
  5
551
  8
LAYER_1
 10
43.199322
 20
38.415873
 30
0.0
 11
44.084054
 21
38.175012
 31
0.0
  0
LINE
  5
552
  8
LAYER_1
 10
44.084054
 20
38.175012
 30
0.0
 11
44.645181
 21
38.078158
 31
0.0
  0
LINE
  5
553
  8
LAYER_1
 10
44.645181
 20
38.078158
 30
0.0
 11
45.430367
 21
38.210498
 31
0.0
  0
LINE
  5
554
  8
LAYER_1
 10
45.430367
 20
38.210498
 30
0.0
 11
46.332623
 21
38.542584
 31
0.0
  0
LINE
  5
555
  8
LAYER_1
 10
46.332623
 20
38.542584
 30
0.0
 11
47.24496
 21
39.04497
 31
0.0
  0
LINE
  5
556
  8
LAYER_1
 10
47.24496
 20
39.04497
 30
0.0
 11
47.659336
 21
39.287834
 31
0.0
  0
LINE
  5
557
  8
LAYER_1
 10
47.659336
 20
39.287834
 30
0.0
 11
47.975151
 21
39.337082
 31
0.0
  0
LINE
  5
558
  8
LAYER_1
 10
47.975151
 20
39.337082
 30
0.0
 11
48.827453
 21
38.762599
 31
0.0
  0
LINE
  5
559
  8
LAYER_1
 10
48.827453
 20
38.762599
 30
0.0
 11
49.634856
 21
37.930551
 31
0.0
  0
LINE
  5
55A
  8
LAYER_1
 10
49.634856
 20
37.930551
 30
0.0
 11
50.374913
 21
36.878946
 31
0.0
  0
LINE
  5
55B
  8
LAYER_1
 10
50.374913
 20
36.878946
 30
0.0
 11
51.020475
 21
35.652422
 31
0.0
  0
LINE
  5
55C
  8
LAYER_1
 10
51.020475
 20
35.652422
 30
0.0
 11
51.544392
 21
34.295616
 31
0.0
  0
LINE
  5
55D
  8
LAYER_1
 10
51.544392
 20
34.295616
 30
0.0
 11
51.976119
 21
32.732075
 31
0.0
  0
LINE
  5
55E
  8
LAYER_1
 10
51.976119
 20
32.732075
 30
0.0
 11
51.861282
 21
32.480001
 31
0.0
  0
LINE
  5
55F
  8
LAYER_1
 10
51.861282
 20
32.480001
 30
0.0
 11
51.522966
 21
32.3007
 31
0.0
  0
LINE
  5
560
  8
LAYER_1
 10
51.522966
 20
32.3007
 30
0.0
 11
50.972529
 21
32.286786
 31
0.0
  0
LINE
  5
561
  8
LAYER_1
 10
50.972529
 20
32.286786
 30
0.0
 11
50.28889
 21
32.789794
 31
0.0
  0
LINE
  5
562
  8
LAYER_1
 10
50.28889
 20
32.789794
 30
0.0
 11
50.28889
 21
32.789794
 31
0.0
  0
LINE
  5
563
  8
LAYER_1
 10
49.590579
 20
36.116122
 30
0.0
 11
48.84126
 21
37.32919
 31
0.0
  0
LINE
  5
564
  8
LAYER_1
 10
48.84126
 20
37.32919
 30
0.0
 11
48.304659
 21
37.935037
 31
0.0
  0
LINE
  5
565
  8
LAYER_1
 10
48.304659
 20
37.935037
 30
0.0
 11
47.8185
 21
38.04766
 31
0.0
  0
LINE
  5
566
  8
LAYER_1
 10
47.8185
 20
38.04766
 30
0.0
 11
47.220508
 21
37.781052
 31
0.0
  0
LINE
  5
567
  8
LAYER_1
 10
47.220508
 20
37.781052
 30
0.0
 11
45.952568
 21
37.311979
 31
0.0
  0
LINE
  5
568
  8
LAYER_1
 10
45.952568
 20
37.311979
 30
0.0
 11
45.646515
 21
37.226145
 31
0.0
  0
LINE
  5
569
  8
LAYER_1
 10
45.646515
 20
37.226145
 30
0.0
 11
45.576106
 21
37.019778
 31
0.0
  0
LINE
  5
56A
  8
LAYER_1
 10
45.576106
 20
37.019778
 30
0.0
 11
46.356079
 21
36.404953
 31
0.0
  0
LINE
  5
56B
  8
LAYER_1
 10
46.356079
 20
36.404953
 30
0.0
 11
47.93943
 21
35.497442
 31
0.0
  0
LINE
  5
56C
  8
LAYER_1
 10
47.93943
 20
35.497442
 30
0.0
 11
49.516513
 21
34.727084
 31
0.0
  0
LINE
  5
56D
  8
LAYER_1
 10
49.516513
 20
34.727084
 30
0.0
 11
50.27768
 21
34.52372
 31
0.0
  0
LINE
  5
56E
  8
LAYER_1
 10
50.27768
 20
34.52372
 30
0.0
 11
50.115144
 21
35.096856
 31
0.0
  0
LINE
  5
56F
  8
LAYER_1
 10
50.115144
 20
35.096856
 30
0.0
 11
49.590579
 21
36.116122
 31
0.0
  0
LINE
  5
570
  8
LAYER_1
 10
49.590579
 20
36.116122
 30
0.0
 11
49.590579
 21
36.116122
 31
0.0
  0
LINE
  5
571
  8
LAYER_1
 10
50.10218
 20
39.265547
 30
0.0
 11
49.279322
 21
39.987806
 31
0.0
  0
LINE
  5
572
  8
LAYER_1
 10
49.279322
 20
39.987806
 30
0.0
 11
47.90558
 21
40.445357
 31
0.0
  0
LINE
  5
573
  8
LAYER_1
 10
47.90558
 20
40.445357
 30
0.0
 11
46.790315
 21
40.803996
 31
0.0
  0
LINE
  5
574
  8
LAYER_1
 10
46.790315
 20
40.803996
 30
0.0
 11
46.031879
 21
41.302265
 31
0.0
  0
LINE
  5
575
  8
LAYER_1
 10
46.031879
 20
41.302265
 30
0.0
 11
45.627532
 21
41.942851
 31
0.0
  0
LINE
  5
576
  8
LAYER_1
 10
45.627532
 20
41.942851
 30
0.0
 11
45.574531
 21
42.728439
 31
0.0
  0
LINE
  5
577
  8
LAYER_1
 10
45.574531
 20
42.728439
 30
0.0
 11
45.661355
 21
43.062183
 31
0.0
  0
LINE
  5
578
  8
LAYER_1
 10
45.661355
 20
43.062183
 30
0.0
 11
45.843363
 21
43.258263
 31
0.0
  0
LINE
  5
579
  8
LAYER_1
 10
45.843363
 20
43.258263
 30
0.0
 11
46.725188
 21
43.366154
 31
0.0
  0
LINE
  5
57A
  8
LAYER_1
 10
46.725188
 20
43.366154
 30
0.0
 11
47.472636
 21
43.418405
 31
0.0
  0
LINE
  5
57B
  8
LAYER_1
 10
47.472636
 20
43.418405
 30
0.0
 11
47.783521
 21
43.563139
 31
0.0
  0
LINE
  5
57C
  8
LAYER_1
 10
47.783521
 20
43.563139
 30
0.0
 11
48.081624
 21
43.655005
 31
0.0
  0
LINE
  5
57D
  8
LAYER_1
 10
48.081624
 20
43.655005
 30
0.0
 11
48.796533
 21
43.420464
 31
0.0
  0
LINE
  5
57E
  8
LAYER_1
 10
48.796533
 20
43.420464
 30
0.0
 11
49.65915
 21
42.97544
 31
0.0
  0
LINE
  5
57F
  8
LAYER_1
 10
49.65915
 20
42.97544
 30
0.0
 11
50.400376
 21
42.435853
 31
0.0
  0
LINE
  5
580
  8
LAYER_1
 10
50.400376
 20
42.435853
 30
0.0
 11
51.056599
 21
41.629
 31
0.0
  0
LINE
  5
581
  8
LAYER_1
 10
51.056599
 20
41.629
 30
0.0
 11
51.483401
 21
40.703719
 31
0.0
  0
LINE
  5
582
  8
LAYER_1
 10
51.483401
 20
40.703719
 30
0.0
 11
51.637267
 21
39.797275
 31
0.0
  0
LINE
  5
583
  8
LAYER_1
 10
51.637267
 20
39.797275
 30
0.0
 11
51.474683
 21
39.046932
 31
0.0
  0
LINE
  5
584
  8
LAYER_1
 10
51.474683
 20
39.046932
 30
0.0
 11
51.181892
 21
38.605035
 31
0.0
  0
LINE
  5
585
  8
LAYER_1
 10
51.181892
 20
38.605035
 30
0.0
 11
50.900754
 21
38.48697
 31
0.0
  0
LINE
  5
586
  8
LAYER_1
 10
50.900754
 20
38.48697
 30
0.0
 11
50.563455
 21
38.70354
 31
0.0
  0
LINE
  5
587
  8
LAYER_1
 10
50.563455
 20
38.70354
 30
0.0
 11
50.10218
 21
39.265547
 31
0.0
  0
LINE
  5
588
  8
LAYER_1
 10
50.10218
 20
39.265547
 30
0.0
 11
50.10218
 21
39.265547
 31
0.0
  0
LINE
  5
589
  8
LAYER_1
 10
50.323521
 20
41.070011
 30
0.0
 11
49.995649
 21
41.566829
 31
0.0
  0
LINE
  5
58A
  8
LAYER_1
 10
49.995649
 20
41.566829
 30
0.0
 11
49.20813
 21
42.062154
 31
0.0
  0
LINE
  5
58B
  8
LAYER_1
 10
49.20813
 20
42.062154
 30
0.0
 11
48.255113
 21
42.412986
 31
0.0
  0
LINE
  5
58C
  8
LAYER_1
 10
48.255113
 20
42.412986
 30
0.0
 11
47.430744
 21
42.476327
 31
0.0
  0
LINE
  5
58D
  8
LAYER_1
 10
47.430744
 20
42.476327
 30
0.0
 11
46.83021
 21
42.288485
 31
0.0
  0
LINE
  5
58E
  8
LAYER_1
 10
46.83021
 20
42.288485
 30
0.0
 11
46.705267
 21
42.060518
 31
0.0
  0
LINE
  5
58F
  8
LAYER_1
 10
46.705267
 20
42.060518
 30
0.0
 11
47.048895
 21
41.807854
 31
0.0
  0
LINE
  5
590
  8
LAYER_1
 10
47.048895
 20
41.807854
 30
0.0
 11
47.854077
 21
41.545916
 31
0.0
  0
LINE
  5
591
  8
LAYER_1
 10
47.854077
 20
41.545916
 30
0.0
 11
49.617966
 21
40.989696
 31
0.0
  0
LINE
  5
592
  8
LAYER_1
 10
49.617966
 20
40.989696
 30
0.0
 11
50.252966
 21
40.717747
 31
0.0
  0
LINE
  5
593
  8
LAYER_1
 10
50.252966
 20
40.717747
 30
0.0
 11
50.323521
 21
41.070011
 31
0.0
  0
LINE
  5
594
  8
LAYER_1
 10
50.323521
 20
41.070011
 30
0.0
 11
50.323521
 21
41.070011
 31
0.0
  0
LINE
  5
595
  8
LAYER_1
 10
60.389448
 20
43.144573
 30
0.0
 11
60.201299
 21
44.382114
 31
0.0
  0
LINE
  5
596
  8
LAYER_1
 10
60.201299
 20
44.382114
 30
0.0
 11
60.04782
 21
45.315918
 31
0.0
  0
LINE
  5
597
  8
LAYER_1
 10
60.04782
 20
45.315918
 30
0.0
 11
59.456179
 21
45.919729
 31
0.0
  0
LINE
  5
598
  8
LAYER_1
 10
59.456179
 20
45.919729
 30
0.0
 11
58.711059
 21
46.407951
 31
0.0
  0
LINE
  5
599
  8
LAYER_1
 10
58.711059
 20
46.407951
 30
0.0
 11
59.637701
 21
47.151631
 31
0.0
  0
LINE
  5
59A
  8
LAYER_1
 10
59.637701
 20
47.151631
 30
0.0
 11
62.692686
 21
49.377242
 31
0.0
  0
LINE
  5
59B
  8
LAYER_1
 10
62.692686
 20
49.377242
 30
0.0
 11
64.821029
 21
50.859171
 31
0.0
  0
LINE
  5
59C
  8
LAYER_1
 10
64.821029
 20
50.859171
 30
0.0
 11
65.463584
 21
50.25552
 31
0.0
  0
LINE
  5
59D
  8
LAYER_1
 10
65.463584
 20
50.25552
 30
0.0
 11
65.92079800000001
 21
49.660608
 31
0.0
  0
LINE
  5
59E
  8
LAYER_1
 10
65.92079800000001
 20
49.660608
 30
0.0
 11
65.806845
 21
49.092629
 31
0.0
  0
LINE
  5
59F
  8
LAYER_1
 10
65.806845
 20
49.092629
 30
0.0
 11
65.448977
 21
48.659357
 31
0.0
  0
LINE
  5
5A0
  8
LAYER_1
 10
65.448977
 20
48.659357
 30
0.0
 11
65.008859
 21
48.402977
 31
0.0
  0
LINE
  5
5A1
  8
LAYER_1
 10
65.008859
 20
48.402977
 30
0.0
 11
64.59535
 21
48.003976
 31
0.0
  0
LINE
  5
5A2
  8
LAYER_1
 10
64.59535
 20
48.003976
 30
0.0
 11
64.205817
 21
47.222388
 31
0.0
  0
LINE
  5
5A3
  8
LAYER_1
 10
64.205817
 20
47.222388
 30
0.0
 11
63.965212
 21
46.380193
 31
0.0
  0
LINE
  5
5A4
  8
LAYER_1
 10
63.965212
 20
46.380193
 30
0.0
 11
63.998486
 21
45.799375
 31
0.0
  0
LINE
  5
5A5
  8
LAYER_1
 10
63.998486
 20
45.799375
 30
0.0
 11
63.766133
 21
45.345667
 31
0.0
  0
LINE
  5
5A6
  8
LAYER_1
 10
63.766133
 20
45.345667
 30
0.0
 11
62.990628
 21
44.605736
 31
0.0
  0
LINE
  5
5A7
  8
LAYER_1
 10
62.990628
 20
44.605736
 30
0.0
 11
61.458308
 21
43.309201
 31
0.0
  0
LINE
  5
5A8
  8
LAYER_1
 10
61.458308
 20
43.309201
 30
0.0
 11
60.876525
 21
42.973262
 31
0.0
  0
LINE
  5
5A9
  8
LAYER_1
 10
60.876525
 20
42.973262
 30
0.0
 11
60.389448
 21
43.144573
 31
0.0
  0
LINE
  5
5AA
  8
LAYER_1
 10
60.389448
 20
43.144573
 30
0.0
 11
60.389448
 21
43.144573
 31
0.0
  0
LINE
  5
5AB
  8
LAYER_1
 10
62.573981
 20
45.585439
 30
0.0
 11
63.108973
 21
47.260312
 31
0.0
  0
LINE
  5
5AC
  8
LAYER_1
 10
63.108973
 20
47.260312
 30
0.0
 11
63.408924
 21
48.600868
 31
0.0
  0
LINE
  5
5AD
  8
LAYER_1
 10
63.408924
 20
48.600868
 30
0.0
 11
62.831684
 21
48.309987
 31
0.0
  0
LINE
  5
5AE
  8
LAYER_1
 10
62.831684
 20
48.309987
 30
0.0
 11
61.94134
 21
47.64634
 31
0.0
  0
LINE
  5
5AF
  8
LAYER_1
 10
61.94134
 20
47.64634
 30
0.0
 11
61.123993
 21
46.923423
 31
0.0
  0
LINE
  5
5B0
  8
LAYER_1
 10
61.123993
 20
46.923423
 30
0.0
 11
60.765744
 21
46.454732
 31
0.0
  0
LINE
  5
5B1
  8
LAYER_1
 10
60.765744
 20
46.454732
 30
0.0
 11
61.045299
 21
45.362328
 31
0.0
  0
LINE
  5
5B2
  8
LAYER_1
 10
61.045299
 20
45.362328
 30
0.0
 11
61.378221
 21
44.811206
 31
0.0
  0
LINE
  5
5B3
  8
LAYER_1
 10
61.378221
 20
44.811206
 30
0.0
 11
61.907908
 21
44.939083
 31
0.0
  0
LINE
  5
5B4
  8
LAYER_1
 10
61.907908
 20
44.939083
 30
0.0
 11
62.344076
 21
45.257667
 31
0.0
  0
LINE
  5
5B5
  8
LAYER_1
 10
62.344076
 20
45.257667
 30
0.0
 11
62.573981
 21
45.585439
 31
0.0
  0
LINE
  5
5B6
  8
LAYER_1
 10
62.573981
 20
45.585439
 30
0.0
 11
62.573981
 21
45.585439
 31
0.0
  0
LINE
  5
5B7
  8
LAYER_1
 10
56.423758
 20
48.732051
 30
0.0
 11
56.076154
 21
49.780115
 31
0.0
  0
LINE
  5
5B8
  8
LAYER_1
 10
56.076154
 20
49.780115
 30
0.0
 11
55.973102
 21
51.624828
 31
0.0
  0
LINE
  5
5B9
  8
LAYER_1
 10
55.973102
 20
51.624828
 30
0.0
 11
56.11614
 21
53.667602
 31
0.0
  0
LINE
  5
5BA
  8
LAYER_1
 10
56.11614
 20
53.667602
 30
0.0
 11
56.368558
 21
54.348534
 31
0.0
  0
LINE
  5
5BB
  8
LAYER_1
 10
56.368558
 20
54.348534
 30
0.0
 11
56.811585
 21
55.091979
 31
0.0
  0
LINE
  5
5BC
  8
LAYER_1
 10
56.811585
 20
55.091979
 30
0.0
 11
58.053417
 21
56.762971
 31
0.0
  0
LINE
  5
5BD
  8
LAYER_1
 10
58.053417
 20
56.762971
 30
0.0
 11
58.515836
 21
57.200268
 31
0.0
  0
LINE
  5
5BE
  8
LAYER_1
 10
58.515836
 20
57.200268
 30
0.0
 11
58.852395
 21
57.349757
 31
0.0
  0
LINE
  5
5BF
  8
LAYER_1
 10
58.852395
 20
57.349757
 30
0.0
 11
59.733857
 21
56.713967
 31
0.0
  0
LINE
  5
5C0
  8
LAYER_1
 10
59.733857
 20
56.713967
 30
0.0
 11
61.196423
 21
55.551073
 31
0.0
  0
LINE
  5
5C1
  8
LAYER_1
 10
61.196423
 20
55.551073
 30
0.0
 11
61.869275
 21
55.213452
 31
0.0
  0
LINE
  5
5C2
  8
LAYER_1
 10
61.869275
 20
55.213452
 30
0.0
 11
62.41459
 21
55.091979
 31
0.0
  0
LINE
  5
5C3
  8
LAYER_1
 10
62.41459
 20
55.091979
 30
0.0
 11
63.086656
 21
54.935492
 31
0.0
  0
LINE
  5
5C4
  8
LAYER_1
 10
63.086656
 20
54.935492
 30
0.0
 11
63.444768
 21
54.507883
 31
0.0
  0
LINE
  5
5C5
  8
LAYER_1
 10
63.444768
 20
54.507883
 30
0.0
 11
63.513164
 21
53.871929
 31
0.0
  0
LINE
  5
5C6
  8
LAYER_1
 10
63.513164
 20
53.871929
 30
0.0
 11
63.316081
 21
53.090408
 31
0.0
  0
LINE
  5
5C7
  8
LAYER_1
 10
63.316081
 20
53.090408
 30
0.0
 11
62.877755
 21
52.226096
 31
0.0
  0
LINE
  5
5C8
  8
LAYER_1
 10
62.877755
 20
52.226096
 30
0.0
 11
62.222422
 21
51.341772
 31
0.0
  0
LINE
  5
5C9
  8
LAYER_1
 10
62.222422
 20
51.341772
 30
0.0
 11
61.37432
 21
50.500213
 31
0.0
  0
LINE
  5
5CA
  8
LAYER_1
 10
61.37432
 20
50.500213
 30
0.0
 11
60.357684
 21
49.764196
 31
0.0
  0
LINE
  5
5CB
  8
LAYER_1
 10
60.357684
 20
49.764196
 30
0.0
 11
58.485413
 21
48.432585
 31
0.0
  0
LINE
  5
5CC
  8
LAYER_1
 10
58.485413
 20
48.432585
 30
0.0
 11
58.016245
 21
48.108059
 31
0.0
  0
LINE
  5
5CD
  8
LAYER_1
 10
58.016245
 20
48.108059
 30
0.0
 11
57.450268
 21
48.059379
 31
0.0
  0
LINE
  5
5CE
  8
LAYER_1
 10
57.450268
 20
48.059379
 30
0.0
 11
56.886449
 21
48.272168
 31
0.0
  0
LINE
  5
5CF
  8
LAYER_1
 10
56.886449
 20
48.272168
 30
0.0
 11
56.423758
 21
48.732051
 31
0.0
  0
LINE
  5
5D0
  8
LAYER_1
 10
56.423758
 20
48.732051
 30
0.0
 11
56.423758
 21
48.732051
 31
0.0
  0
LINE
  5
5D1
  8
LAYER_1
 10
58.62399
 20
49.870868
 30
0.0
 11
59.819797
 21
50.576424
 31
0.0
  0
LINE
  5
5D2
  8
LAYER_1
 10
59.819797
 20
50.576424
 30
0.0
 11
60.447602
 21
50.984988
 31
0.0
  0
LINE
  5
5D3
  8
LAYER_1
 10
60.447602
 20
50.984988
 30
0.0
 11
61.330919
 21
51.92977
 31
0.0
  0
LINE
  5
5D4
  8
LAYER_1
 10
61.330919
 20
51.92977
 30
0.0
 11
62.118495
 21
52.989404
 31
0.0
  0
LINE
  5
5D5
  8
LAYER_1
 10
62.118495
 20
52.989404
 30
0.0
 11
62.459077
 21
53.742522
 31
0.0
  0
LINE
  5
5D6
  8
LAYER_1
 10
62.459077
 20
53.742522
 30
0.0
 11
60.776406
 21
54.678298
 31
0.0
  0
LINE
  5
5D7
  8
LAYER_1
 10
60.776406
 20
54.678298
 30
0.0
 11
59.556485
 21
55.393794
 31
0.0
  0
LINE
  5
5D8
  8
LAYER_1
 10
59.556485
 20
55.393794
 30
0.0
 11
58.98638
 21
55.938646
 31
0.0
  0
LINE
  5
5D9
  8
LAYER_1
 10
58.98638
 20
55.938646
 30
0.0
 11
58.834009
 21
56.09007
 31
0.0
  0
LINE
  5
5DA
  8
LAYER_1
 10
58.834009
 20
56.09007
 30
0.0
 11
58.584773
 21
55.656424
 31
0.0
  0
LINE
  5
5DB
  8
LAYER_1
 10
58.584773
 20
55.656424
 30
0.0
 11
57.693687
 21
54.413237
 31
0.0
  0
LINE
  5
5DC
  8
LAYER_1
 10
57.693687
 20
54.413237
 30
0.0
 11
57.385643
 21
54.057111
 31
0.0
  0
LINE
  5
5DD
  8
LAYER_1
 10
57.385643
 20
54.057111
 30
0.0
 11
57.204348
 21
53.582151
 31
0.0
  0
LINE
  5
5DE
  8
LAYER_1
 10
57.204348
 20
53.582151
 30
0.0
 11
57.096855
 21
51.708609
 31
0.0
  0
LINE
  5
5DF
  8
LAYER_1
 10
57.096855
 20
51.708609
 30
0.0
 11
57.202289
 21
49.713453
 31
0.0
  0
LINE
  5
5E0
  8
LAYER_1
 10
57.202289
 20
49.713453
 30
0.0
 11
57.353056
 21
49.291387
 31
0.0
  0
LINE
  5
5E1
  8
LAYER_1
 10
57.353056
 20
49.291387
 30
0.0
 11
57.586056
 21
49.165312
 31
0.0
  0
LINE
  5
5E2
  8
LAYER_1
 10
57.586056
 20
49.165312
 30
0.0
 11
58.62399
 21
49.870868
 31
0.0
  0
LINE
  5
5E3
  8
LAYER_1
 10
58.62399
 20
49.870868
 30
0.0
 11
58.62399
 21
49.870868
 31
0.0
  0
LINE
  5
5E4
  8
LAYER_1
 10
50.392618
 20
51.493646
 30
0.0
 11
49.901475
 21
52.526277
 31
0.0
  0
LINE
  5
5E5
  8
LAYER_1
 10
49.901475
 20
52.526277
 30
0.0
 11
49.452818
 21
53.283011
 31
0.0
  0
LINE
  5
5E6
  8
LAYER_1
 10
49.452818
 20
53.283011
 30
0.0
 11
48.667489
 21
54.147706
 31
0.0
  0
LINE
  5
5E7
  8
LAYER_1
 10
48.667489
 20
54.147706
 30
0.0
 11
47.636128
 21
54.88703
 31
0.0
  0
LINE
  5
5E8
  8
LAYER_1
 10
47.636128
 20
54.88703
 30
0.0
 11
46.588127
 21
55.09063
 31
0.0
  0
LINE
  5
5E9
  8
LAYER_1
 10
46.588127
 20
55.09063
 30
0.0
 11
44.259387
 21
55.432844
 31
0.0
  0
LINE
  5
5EA
  8
LAYER_1
 10
44.259387
 20
55.432844
 30
0.0
 11
43.24452
 21
55.815839
 31
0.0
  0
LINE
  5
5EB
  8
LAYER_1
 10
43.24452
 20
55.815839
 30
0.0
 11
43.115805
 21
56.039593
 31
0.0
  0
LINE
  5
5EC
  8
LAYER_1
 10
43.115805
 20
56.039593
 30
0.0
 11
43.161509
 21
56.350067
 31
0.0
  0
LINE
  5
5ED
  8
LAYER_1
 10
43.161509
 20
56.350067
 30
0.0
 11
43.373582
 21
56.943461
 31
0.0
  0
LINE
  5
5EE
  8
LAYER_1
 10
43.373582
 20
56.943461
 30
0.0
 11
44.844897
 21
57.860684
 31
0.0
  0
LINE
  5
5EF
  8
LAYER_1
 10
44.844897
 20
57.860684
 30
0.0
 11
45.855665
 21
58.461395
 31
0.0
  0
LINE
  5
5F0
  8
LAYER_1
 10
45.855665
 20
58.461395
 30
0.0
 11
46.541937
 21
58.701745
 31
0.0
  0
LINE
  5
5F1
  8
LAYER_1
 10
46.541937
 20
58.701745
 30
0.0
 11
47.170072
 21
58.612319
 31
0.0
  0
LINE
  5
5F2
  8
LAYER_1
 10
47.170072
 20
58.612319
 30
0.0
 11
48.006432
 21
58.2237
 31
0.0
  0
LINE
  5
5F3
  8
LAYER_1
 10
48.006432
 20
58.2237
 30
0.0
 11
48.907723
 21
57.64376
 31
0.0
  0
LINE
  5
5F4
  8
LAYER_1
 10
48.907723
 20
57.64376
 30
0.0
 11
49.764956
 21
56.878131
 31
0.0
  0
LINE
  5
5F5
  8
LAYER_1
 10
49.764956
 20
56.878131
 30
0.0
 11
51.205104
 21
55.023808
 31
0.0
  0
LINE
  5
5F6
  8
LAYER_1
 10
51.205104
 20
55.023808
 30
0.0
 11
51.716945
 21
54.052115
 31
0.0
  0
LINE
  5
5F7
  8
LAYER_1
 10
51.716945
 20
54.052115
 30
0.0
 11
52.042581
 21
53.128735
 31
0.0
  0
LINE
  5
5F8
  8
LAYER_1
 10
52.042581
 20
53.128735
 30
0.0
 11
52.146475
 21
52.312167
 31
0.0
  0
LINE
  5
5F9
  8
LAYER_1
 10
52.146475
 20
52.312167
 30
0.0
 11
51.993092
 21
51.660913
 31
0.0
  0
LINE
  5
5FA
  8
LAYER_1
 10
51.993092
 20
51.660913
 30
0.0
 11
51.66683
 21
51.31014
 31
0.0
  0
LINE
  5
5FB
  8
LAYER_1
 10
51.66683
 20
51.31014
 30
0.0
 11
51.229046
 21
51.158828
 31
0.0
  0
LINE
  5
5FC
  8
LAYER_1
 10
51.229046
 20
51.158828
 30
0.0
 11
50.773166
 21
51.216742
 31
0.0
  0
LINE
  5
5FD
  8
LAYER_1
 10
50.773166
 20
51.216742
 30
0.0
 11
50.392618
 21
51.493646
 31
0.0
  0
LINE
  5
5FE
  8
LAYER_1
 10
50.392618
 20
51.493646
 30
0.0
 11
50.392618
 21
51.493646
 31
0.0
  0
LINE
  5
5FF
  8
LAYER_1
 10
50.454461
 20
54.448171
 30
0.0
 11
48.925581
 21
56.238294
 31
0.0
  0
LINE
  5
600
  8
LAYER_1
 10
48.925581
 20
56.238294
 30
0.0
 11
48.08333
 21
56.935117
 31
0.0
  0
LINE
  5
601
  8
LAYER_1
 10
48.08333
 20
56.935117
 30
0.0
 11
47.34256
 21
57.35646
 31
0.0
  0
LINE
  5
602
  8
LAYER_1
 10
47.34256
 20
57.35646
 30
0.0
 11
46.626851
 21
57.466263
 31
0.0
  0
LINE
  5
603
  8
LAYER_1
 10
46.626851
 20
57.466263
 30
0.0
 11
45.846475
 21
57.36738
 31
0.0
  0
LINE
  5
604
  8
LAYER_1
 10
45.846475
 20
57.36738
 30
0.0
 11
45.218826
 21
57.114173
 31
0.0
  0
LINE
  5
605
  8
LAYER_1
 10
45.218826
 20
57.114173
 30
0.0
 11
44.961299
 21
56.761002
 31
0.0
  0
LINE
  5
606
  8
LAYER_1
 10
44.961299
 20
56.761002
 30
0.0
 11
45.126781
 21
56.46344
 31
0.0
  0
LINE
  5
607
  8
LAYER_1
 10
45.126781
 20
56.46344
 30
0.0
 11
45.556704
 21
56.237893
 31
0.0
  0
LINE
  5
608
  8
LAYER_1
 10
45.556704
 20
56.237893
 30
0.0
 11
46.151287
 21
56.118008
 31
0.0
  0
LINE
  5
609
  8
LAYER_1
 10
46.151287
 20
56.118008
 30
0.0
 11
46.810747
 21
56.137426
 31
0.0
  0
LINE
  5
60A
  8
LAYER_1
 10
46.810747
 20
56.137426
 30
0.0
 11
47.300877
 21
56.152198
 31
0.0
  0
LINE
  5
60B
  8
LAYER_1
 10
47.300877
 20
56.152198
 30
0.0
 11
47.792675
 21
56.012101
 31
0.0
  0
LINE
  5
60C
  8
LAYER_1
 10
47.792675
 20
56.012101
 30
0.0
 11
49.13908
 21
55.109296
 31
0.0
  0
LINE
  5
60D
  8
LAYER_1
 10
49.13908
 20
55.109296
 30
0.0
 11
50.174911
 21
54.195726
 31
0.0
  0
LINE
  5
60E
  8
LAYER_1
 10
50.174911
 20
54.195726
 30
0.0
 11
50.605744
 21
53.627268
 31
0.0
  0
LINE
  5
60F
  8
LAYER_1
 10
50.605744
 20
53.627268
 30
0.0
 11
50.658425
 21
53.452045
 31
0.0
  0
LINE
  5
610
  8
LAYER_1
 10
50.658425
 20
53.452045
 30
0.0
 11
50.785085
 21
53.483914
 31
0.0
  0
LINE
  5
611
  8
LAYER_1
 10
50.785085
 20
53.483914
 30
0.0
 11
50.761942
 21
53.841142
 31
0.0
  0
LINE
  5
612
  8
LAYER_1
 10
50.761942
 20
53.841142
 30
0.0
 11
50.454461
 21
54.448171
 31
0.0
  0
LINE
  5
613
  8
LAYER_1
 10
50.454461
 20
54.448171
 30
0.0
 11
50.454461
 21
54.448171
 31
0.0
  0
LINE
  5
614
  8
LAYER_1
 10
56.136046
 20
57.30612
 30
0.0
 11
55.922123
 21
57.958082
 31
0.0
  0
LINE
  5
615
  8
LAYER_1
 10
55.922123
 20
57.958082
 30
0.0
 11
55.782457
 21
58.967443
 31
0.0
  0
LINE
  5
616
  8
LAYER_1
 10
55.782457
 20
58.967443
 30
0.0
 11
55.806611
 21
61.123139
 31
0.0
  0
LINE
  5
617
  8
LAYER_1
 10
55.806611
 20
61.123139
 30
0.0
 11
56.315065
 21
62.586232
 31
0.0
  0
LINE
  5
618
  8
LAYER_1
 10
56.315065
 20
62.586232
 30
0.0
 11
57.566283
 21
64.522796
 31
0.0
  0
LINE
  5
619
  8
LAYER_1
 10
57.566283
 20
64.522796
 30
0.0
 11
58.751736
 21
66.034379
 31
0.0
  0
LINE
  5
61A
  8
LAYER_1
 10
58.751736
 20
66.034379
 30
0.0
 11
59.396043
 21
66.66309
 31
0.0
  0
LINE
  5
61B
  8
LAYER_1
 10
59.396043
 20
66.66309
 30
0.0
 11
60.482182
 21
66.355625
 31
0.0
  0
LINE
  5
61C
  8
LAYER_1
 10
60.482182
 20
66.355625
 30
0.0
 11
61.458305
 21
65.62633700000001
 31
0.0
  0
LINE
  5
61D
  8
LAYER_1
 10
61.458305
 20
65.62633700000001
 30
0.0
 11
62.04063
 21
64.764889
 31
0.0
  0
LINE
  5
61E
  8
LAYER_1
 10
62.04063
 20
64.764889
 30
0.0
 11
62.095436
 21
64.375124
 31
0.0
  0
LINE
  5
61F
  8
LAYER_1
 10
62.095436
 20
64.375124
 30
0.0
 11
61.945373
 21
64.060942
 31
0.0
  0
LINE
  5
620
  8
LAYER_1
 10
61.945373
 20
64.060942
 30
0.0
 11
61.710219
 21
63.624171
 31
0.0
  0
LINE
  5
621
  8
LAYER_1
 10
61.710219
 20
63.624171
 30
0.0
 11
61.61241
 21
63.041623
 31
0.0
  0
LINE
  5
622
  8
LAYER_1
 10
61.61241
 20
63.041623
 30
0.0
 11
61.44297
 21
62.30107
 31
0.0
  0
LINE
  5
623
  8
LAYER_1
 10
61.44297
 20
62.30107
 30
0.0
 11
61.020748
 21
61.401892
 31
0.0
  0
LINE
  5
624
  8
LAYER_1
 10
61.020748
 20
61.401892
 30
0.0
 11
60.474893
 21
60.574434
 31
0.0
  0
LINE
  5
625
  8
LAYER_1
 10
60.474893
 20
60.574434
 30
0.0
 11
59.934554
 21
60.049043
 31
0.0
  0
LINE
  5
626
  8
LAYER_1
 10
59.934554
 20
60.049043
 30
0.0
 11
58.057364
 21
58.426265
 31
0.0
  0
LINE
  5
627
  8
LAYER_1
 10
58.057364
 20
58.426265
 30
0.0
 11
56.628288
 21
57.187727
 31
0.0
  0
LINE
  5
628
  8
LAYER_1
 10
56.628288
 20
57.187727
 30
0.0
 11
56.329661
 21
57.114968
 31
0.0
  0
LINE
  5
629
  8
LAYER_1
 10
56.329661
 20
57.114968
 30
0.0
 11
56.136046
 21
57.30612
 31
0.0
  0
LINE
  5
62A
  8
LAYER_1
 10
56.136046
 20
57.30612
 30
0.0
 11
56.136046
 21
57.30612
 31
0.0
  0
LINE
  5
62B
  8
LAYER_1
 10
60.583662
 20
63.197715
 30
0.0
 11
60.908513
 21
64.63792100000001
 31
0.0
  0
LINE
  5
62C
  8
LAYER_1
 10
60.908513
 20
64.63792100000001
 30
0.0
 11
60.823154
 21
64.94678999999999
 31
0.0
  0
LINE
  5
62D
  8
LAYER_1
 10
60.823154
 20
64.94678999999999
 30
0.0
 11
60.571366
 21
65.18142400000001
 31
0.0
  0
LINE
  5
62E
  8
LAYER_1
 10
60.571366
 20
65.18142400000001
 30
0.0
 11
60.067499
 21
65.46066500000001
 31
0.0
  0
LINE
  5
62F
  8
LAYER_1
 10
60.067499
 20
65.46066500000001
 30
0.0
 11
59.616529
 21
65.384929
 31
0.0
  0
LINE
  5
630
  8
LAYER_1
 10
59.616529
 20
65.384929
 30
0.0
 11
59.071671
 21
64.866658
 31
0.0
  0
LINE
  5
631
  8
LAYER_1
 10
59.071671
 20
64.866658
 30
0.0
 11
58.286136
 21
63.818293
 31
0.0
  0
LINE
  5
632
  8
LAYER_1
 10
58.286136
 20
63.818293
 30
0.0
 11
57.493987
 21
62.472911
 31
0.0
  0
LINE
  5
633
  8
LAYER_1
 10
57.493987
 20
62.472911
 30
0.0
 11
56.907409
 21
61.047301
 31
0.0
  0
LINE
  5
634
  8
LAYER_1
 10
56.907409
 20
61.047301
 30
0.0
 11
56.612982
 21
59.803773
 31
0.0
  0
LINE
  5
635
  8
LAYER_1
 10
56.612982
 20
59.803773
 30
0.0
 11
56.697287
 21
59.004635
 31
0.0
  0
LINE
  5
636
  8
LAYER_1
 10
56.697287
 20
59.004635
 30
0.0
 11
57.290056
 21
59.234761
 31
0.0
  0
LINE
  5
637
  8
LAYER_1
 10
57.290056
 20
59.234761
 30
0.0
 11
58.488408
 21
60.155034
 31
0.0
  0
LINE
  5
638
  8
LAYER_1
 10
58.488408
 20
60.155034
 30
0.0
 11
59.907076
 21
61.606502
 31
0.0
  0
LINE
  5
639
  8
LAYER_1
 10
59.907076
 20
61.606502
 30
0.0
 11
60.284088
 21
62.306162
 31
0.0
  0
LINE
  5
63A
  8
LAYER_1
 10
60.284088
 20
62.306162
 30
0.0
 11
60.583662
 21
63.197715
 31
0.0
  0
LINE
  5
63B
  8
LAYER_1
 10
60.583662
 20
63.197715
 30
0.0
 11
60.583662
 21
63.197715
 31
0.0
  0
LINE
  5
63C
  8
LAYER_1
 10
48.686364
 20
62.382902
 30
0.0
 11
47.449548
 21
63.888263
 31
0.0
  0
LINE
  5
63D
  8
LAYER_1
 10
47.449548
 20
63.888263
 30
0.0
 11
47.317995
 21
64.388193
 31
0.0
  0
LINE
  5
63E
  8
LAYER_1
 10
47.317995
 20
64.388193
 30
0.0
 11
47.385196
 21
64.969757
 31
0.0
  0
LINE
  5
63F
  8
LAYER_1
 10
47.385196
 20
64.969757
 30
0.0
 11
47.628564
 21
66.38086800000001
 31
0.0
  0
LINE
  5
640
  8
LAYER_1
 10
47.628564
 20
66.38086800000001
 30
0.0
 11
48.0231
 21
67.440429
 31
0.0
  0
LINE
  5
641
  8
LAYER_1
 10
48.0231
 20
67.440429
 30
0.0
 11
48.197824
 21
68.02176400000001
 31
0.0
  0
LINE
  5
642
  8
LAYER_1
 10
48.197824
 20
68.02176400000001
 30
0.0
 11
47.692177
 21
68.38509999999999
 31
0.0
  0
LINE
  5
643
  8
LAYER_1
 10
47.692177
 20
68.38509999999999
 30
0.0
 11
47.047426
 21
68.90102400000001
 31
0.0
  0
LINE
  5
644
  8
LAYER_1
 10
47.047426
 20
68.90102400000001
 30
0.0
 11
46.538703
 21
69.67647599999999
 31
0.0
  0
LINE
  5
645
  8
LAYER_1
 10
46.538703
 20
69.67647599999999
 30
0.0
 11
46.281253
 21
70.474744
 31
0.0
  0
LINE
  5
646
  8
LAYER_1
 10
46.281253
 20
70.474744
 30
0.0
 11
46.390323
 21
71.059116
 31
0.0
  0
LINE
  5
647
  8
LAYER_1
 10
46.390323
 20
71.059116
 30
0.0
 11
46.595267
 21
71.233367
 31
0.0
  0
LINE
  5
648
  8
LAYER_1
 10
46.595267
 20
71.233367
 30
0.0
 11
46.854358
 21
71.26812200000001
 31
0.0
  0
LINE
  5
649
  8
LAYER_1
 10
46.854358
 20
71.26812200000001
 30
0.0
 11
47.803297
 21
70.88633400000001
 31
0.0
  0
LINE
  5
64A
  8
LAYER_1
 10
47.803297
 20
70.88633400000001
 30
0.0
 11
49.707456
 21
69.620756
 31
0.0
  0
LINE
  5
64B
  8
LAYER_1
 10
49.707456
 20
69.620756
 30
0.0
 11
50.454984
 21
68.872483
 31
0.0
  0
LINE
  5
64C
  8
LAYER_1
 10
50.454984
 20
68.872483
 30
0.0
 11
51.065509
 21
68.048232
 31
0.0
  0
LINE
  5
64D
  8
LAYER_1
 10
51.065509
 20
68.048232
 30
0.0
 11
51.538554
 21
67.14876200000001
 31
0.0
  0
LINE
  5
64E
  8
LAYER_1
 10
51.538554
 20
67.14876200000001
 30
0.0
 11
51.873642
 21
66.17483
 31
0.0
  0
LINE
  5
64F
  8
LAYER_1
 10
51.873642
 20
66.17483
 30
0.0
 11
52.128039
 21
64.00661700000001
 31
0.0
  0
LINE
  5
650
  8
LAYER_1
 10
52.128039
 20
64.00661700000001
 30
0.0
 11
51.987292
 21
62.264435
 31
0.0
  0
LINE
  5
651
  8
LAYER_1
 10
51.987292
 20
62.264435
 30
0.0
 11
51.753464
 21
61.807515
 31
0.0
  0
LINE
  5
652
  8
LAYER_1
 10
51.753464
 20
61.807515
 30
0.0
 11
51.341144
 21
61.396062
 31
0.0
  0
LINE
  5
653
  8
LAYER_1
 10
51.341144
 20
61.396062
 30
0.0
 11
50.37834
 21
60.760125
 31
0.0
  0
LINE
  5
654
  8
LAYER_1
 10
50.37834
 20
60.760125
 30
0.0
 11
48.686364
 21
62.382902
 31
0.0
  0
LINE
  5
655
  8
LAYER_1
 10
48.686364
 20
62.382902
 30
0.0
 11
48.686364
 21
62.382902
 31
0.0
  0
LINE
  5
656
  8
LAYER_1
 10
51.113865
 20
63.758106
 30
0.0
 11
51.026293
 21
65.025527
 31
0.0
  0
LINE
  5
657
  8
LAYER_1
 10
51.026293
 20
65.025527
 30
0.0
 11
50.687267
 21
66.38633400000001
 31
0.0
  0
LINE
  5
658
  8
LAYER_1
 10
50.687267
 20
66.38633400000001
 30
0.0
 11
50.179833
 21
67.589024
 31
0.0
  0
LINE
  5
659
  8
LAYER_1
 10
50.179833
 20
67.589024
 30
0.0
 11
49.587034
 21
68.382094
 31
0.0
  0
LINE
  5
65A
  8
LAYER_1
 10
49.587034
 20
68.382094
 30
0.0
 11
49.270897
 21
68.484167
 31
0.0
  0
LINE
  5
65B
  8
LAYER_1
 10
49.270897
 20
68.484167
 30
0.0
 11
49.194633
 21
67.88297900000001
 31
0.0
  0
LINE
  5
65C
  8
LAYER_1
 10
49.194633
 20
67.88297900000001
 30
0.0
 11
49.115973
 21
67.221722
 31
0.0
  0
LINE
  5
65D
  8
LAYER_1
 10
49.115973
 20
67.221722
 30
0.0
 11
48.926857
 21
66.79009000000001
 31
0.0
  0
LINE
  5
65E
  8
LAYER_1
 10
48.926857
 20
66.79009000000001
 30
0.0
 11
48.491685
 21
65.39309
 31
0.0
  0
LINE
  5
65F
  8
LAYER_1
 10
48.491685
 20
65.39309
 30
0.0
 11
48.509604
 21
64.274484
 31
0.0
  0
LINE
  5
660
  8
LAYER_1
 10
48.509604
 20
64.274484
 30
0.0
 11
49.23433
 21
63.195098
 31
0.0
  0
LINE
  5
661
  8
LAYER_1
 10
49.23433
 20
63.195098
 30
0.0
 11
50.035449
 21
62.407803
 31
0.0
  0
LINE
  5
662
  8
LAYER_1
 10
50.035449
 20
62.407803
 30
0.0
 11
50.598251
 21
62.233967
 31
0.0
  0
LINE
  5
663
  8
LAYER_1
 10
50.598251
 20
62.233967
 30
0.0
 11
50.948976
 21
62.681448
 31
0.0
  0
LINE
  5
664
  8
LAYER_1
 10
50.948976
 20
62.681448
 30
0.0
 11
51.113865
 21
63.758106
 31
0.0
  0
LINE
  5
665
  8
LAYER_1
 10
51.113865
 20
63.758106
 30
0.0
 11
51.113865
 21
63.758106
 31
0.0
  0
LINE
  5
666
  8
LAYER_1
 10
48.206855
 20
69.48531199999999
 30
0.0
 11
47.907976
 21
69.767535
 31
0.0
  0
LINE
  5
667
  8
LAYER_1
 10
47.907976
 20
69.767535
 30
0.0
 11
47.783521
 21
69.48531199999999
 31
0.0
  0
LINE
  5
668
  8
LAYER_1
 10
47.783521
 20
69.48531199999999
 30
0.0
 11
47.871317
 21
69.28599300000001
 31
0.0
  0
LINE
  5
669
  8
LAYER_1
 10
47.871317
 20
69.28599300000001
 30
0.0
 11
48.0824
 21
69.20309
 31
0.0
  0
LINE
  5
66A
  8
LAYER_1
 10
48.0824
 20
69.20309
 30
0.0
 11
48.242246
 21
69.28599300000001
 31
0.0
  0
LINE
  5
66B
  8
LAYER_1
 10
48.242246
 20
69.28599300000001
 30
0.0
 11
48.206855
 21
69.48531199999999
 31
0.0
  0
LINE
  5
66C
  8
LAYER_1
 10
48.206855
 20
69.48531199999999
 30
0.0
 11
48.206855
 21
69.48531199999999
 31
0.0
  0
LINE
  5
66D
  8
LAYER_1
 10
55.682662
 20
65.67531200000001
 30
0.0
 11
55.509995
 21
66.650081
 31
0.0
  0
LINE
  5
66E
  8
LAYER_1
 10
55.509995
 20
66.650081
 30
0.0
 11
55.537926
 21
67.85923699999999
 31
0.0
  0
LINE
  5
66F
  8
LAYER_1
 10
55.537926
 20
67.85923699999999
 30
0.0
 11
55.731784
 21
68.944164
 31
0.0
  0
LINE
  5
670
  8
LAYER_1
 10
55.731784
 20
68.944164
 30
0.0
 11
56.0569
 21
69.54624699999999
 31
0.0
  0
LINE
  5
671
  8
LAYER_1
 10
56.0569
 20
69.54624699999999
 30
0.0
 11
56.601885
 21
69.733339
 31
0.0
  0
LINE
  5
672
  8
LAYER_1
 10
56.601885
 20
69.733339
 30
0.0
 11
57.24526
 21
69.75011000000001
 31
0.0
  0
LINE
  5
673
  8
LAYER_1
 10
57.24526
 20
69.75011000000001
 30
0.0
 11
57.811354
 21
69.613907
 31
0.0
  0
LINE
  5
674
  8
LAYER_1
 10
57.811354
 20
69.613907
 30
0.0
 11
58.124499
 21
69.34207600000001
 31
0.0
  0
LINE
  5
675
  8
LAYER_1
 10
58.124499
 20
69.34207600000001
 30
0.0
 11
58.208392
 21
68.592969
 31
0.0
  0
LINE
  5
676
  8
LAYER_1
 10
58.208392
 20
68.592969
 30
0.0
 11
58.012732
 21
67.675836
 31
0.0
  0
LINE
  5
677
  8
LAYER_1
 10
58.012732
 20
67.675836
 30
0.0
 11
57.581639
 21
66.722359
 31
0.0
  0
LINE
  5
678
  8
LAYER_1
 10
57.581639
 20
66.722359
 30
0.0
 11
56.959235
 21
65.864221
 31
0.0
  0
LINE
  5
679
  8
LAYER_1
 10
56.959235
 20
65.864221
 30
0.0
 11
56.00906
 21
64.82864600000001
 31
0.0
  0
LINE
  5
67A
  8
LAYER_1
 10
56.00906
 20
64.82864600000001
 30
0.0
 11
55.682662
 21
65.67531200000001
 31
0.0
  0
LINE
  5
67B
  8
LAYER_1
 10
55.682662
 20
65.67531200000001
 30
0.0
 11
55.682662
 21
65.67531200000001
 31
0.0
  0
LINE
  5
67C
  8
LAYER_1
 10
57.096855
 20
67.96640100000001
 30
0.0
 11
57.015519
 21
68.418351
 31
0.0
  0
LINE
  5
67D
  8
LAYER_1
 10
57.015519
 20
68.418351
 30
0.0
 11
56.814633
 21
68.497535
 31
0.0
  0
LINE
  5
67E
  8
LAYER_1
 10
56.814633
 20
68.497535
 30
0.0
 11
56.615313
 21
68.167092
 31
0.0
  0
LINE
  5
67F
  8
LAYER_1
 10
56.615313
 20
68.167092
 30
0.0
 11
56.53241
 21
67.61755700000001
 31
0.0
  0
LINE
  5
680
  8
LAYER_1
 10
56.53241
 20
67.61755700000001
 30
0.0
 11
56.613746
 21
67.16560699999999
 31
0.0
  0
LINE
  5
681
  8
LAYER_1
 10
56.613746
 20
67.16560699999999
 30
0.0
 11
56.814633
 21
67.08642399999999
 31
0.0
  0
LINE
  5
682
  8
LAYER_1
 10
56.814633
 20
67.08642399999999
 30
0.0
 11
57.013952
 21
67.416866
 31
0.0
  0
LINE
  5
683
  8
LAYER_1
 10
57.013952
 20
67.416866
 30
0.0
 11
57.096855
 21
67.96640100000001
 31
0.0
  0
LINE
  5
684
  8
LAYER_1
 10
57.096855
 20
67.96640100000001
 30
0.0
 11
57.096855
 21
67.96640100000001
 31
0.0
  0
LINE
  5
685
  8
LAYER_1
 10
50.29145
 20
73.252465
 30
0.0
 11
49.504069
 21
73.76946700000001
 31
0.0
  0
LINE
  5
686
  8
LAYER_1
 10
49.504069
 20
73.76946700000001
 30
0.0
 11
48.556748
 21
74.081857
 31
0.0
  0
LINE
  5
687
  8
LAYER_1
 10
48.556748
 20
74.081857
 30
0.0
 11
47.86712
 21
74.23023000000001
 31
0.0
  0
LINE
  5
688
  8
LAYER_1
 10
47.86712
 20
74.23023000000001
 30
0.0
 11
47.341233
 21
74.492341
 31
0.0
  0
LINE
  5
689
  8
LAYER_1
 10
47.341233
 20
74.492341
 30
0.0
 11
46.146342
 21
75.813474
 31
0.0
  0
LINE
  5
68A
  8
LAYER_1
 10
46.146342
 20
75.813474
 30
0.0
 11
45.730064
 21
76.499622
 31
0.0
  0
LINE
  5
68B
  8
LAYER_1
 10
45.730064
 20
76.499622
 30
0.0
 11
45.850277
 21
76.84924100000001
 31
0.0
  0
LINE
  5
68C
  8
LAYER_1
 10
45.850277
 20
76.84924100000001
 30
0.0
 11
46.135108
 21
77.149547
 31
0.0
  0
LINE
  5
68D
  8
LAYER_1
 10
46.135108
 20
77.149547
 30
0.0
 11
46.247776
 21
77.51439000000001
 31
0.0
  0
LINE
  5
68E
  8
LAYER_1
 10
46.247776
 20
77.51439000000001
 30
0.0
 11
46.180152
 21
77.822344
 31
0.0
  0
LINE
  5
68F
  8
LAYER_1
 10
46.180152
 20
77.822344
 30
0.0
 11
45.924106
 21
77.95197899999999
 31
0.0
  0
LINE
  5
690
  8
LAYER_1
 10
45.924106
 20
77.95197899999999
 30
0.0
 11
45.617382
 21
78.201194
 31
0.0
  0
LINE
  5
691
  8
LAYER_1
 10
45.617382
 20
78.201194
 30
0.0
 11
45.529738
 21
78.792553
 31
0.0
  0
LINE
  5
692
  8
LAYER_1
 10
45.529738
 20
78.792553
 30
0.0
 11
45.65444
 21
79.49163299999999
 31
0.0
  0
LINE
  5
693
  8
LAYER_1
 10
45.65444
 20
79.49163299999999
 30
0.0
 11
45.984758
 21
80.064009
 31
0.0
  0
LINE
  5
694
  8
LAYER_1
 10
45.984758
 20
80.064009
 30
0.0
 11
46.346197
 21
80.30850599999999
 31
0.0
  0
LINE
  5
695
  8
LAYER_1
 10
46.346197
 20
80.30850599999999
 30
0.0
 11
46.78881
 21
80.408136
 31
0.0
  0
LINE
  5
696
  8
LAYER_1
 10
46.78881
 20
80.408136
 30
0.0
 11
47.884103
 21
80.186401
 31
0.0
  0
LINE
  5
697
  8
LAYER_1
 10
47.884103
 20
80.186401
 30
0.0
 11
49.203733
 21
79.426014
 31
0.0
  0
LINE
  5
698
  8
LAYER_1
 10
49.203733
 20
79.426014
 30
0.0
 11
50.680792
 21
78.154186
 31
0.0
  0
LINE
  5
699
  8
LAYER_1
 10
50.680792
 20
78.154186
 30
0.0
 11
51.595646
 21
76.901066
 31
0.0
  0
LINE
  5
69A
  8
LAYER_1
 10
51.595646
 20
76.901066
 30
0.0
 11
52.180141
 21
75.42921200000001
 31
0.0
  0
LINE
  5
69B
  8
LAYER_1
 10
52.180141
 20
75.42921200000001
 30
0.0
 11
52.354145
 21
74.040797
 31
0.0
  0
LINE
  5
69C
  8
LAYER_1
 10
52.354145
 20
74.040797
 30
0.0
 11
52.262171
 21
73.472309
 31
0.0
  0
LINE
  5
69D
  8
LAYER_1
 10
52.262171
 20
73.472309
 30
0.0
 11
52.037525
 21
73.03799600000001
 31
0.0
  0
LINE
  5
69E
  8
LAYER_1
 10
52.037525
 20
73.03799600000001
 30
0.0
 11
51.659698
 21
72.701965
 31
0.0
  0
LINE
  5
69F
  8
LAYER_1
 10
51.659698
 20
72.701965
 30
0.0
 11
51.268528
 21
72.62253200000001
 31
0.0
  0
LINE
  5
6A0
  8
LAYER_1
 10
51.268528
 20
72.62253200000001
 30
0.0
 11
50.825337
 21
72.80444799999999
 31
0.0
  0
LINE
  5
6A1
  8
LAYER_1
 10
50.825337
 20
72.80444799999999
 30
0.0
 11
50.29145
 21
73.252465
 31
0.0
  0
LINE
  5
6A2
  8
LAYER_1
 10
50.29145
 20
73.252465
 30
0.0
 11
50.29145
 21
73.252465
 31
0.0
  0
LINE
  5
6A3
  8
LAYER_1
 10
50.897674
 20
76.033833
 30
0.0
 11
50.171907
 21
77.098388
 31
0.0
  0
LINE
  5
6A4
  8
LAYER_1
 10
50.171907
 20
77.098388
 30
0.0
 11
49.102199
 21
78.18233600000001
 31
0.0
  0
LINE
  5
6A5
  8
LAYER_1
 10
49.102199
 20
78.18233600000001
 30
0.0
 11
47.985253
 21
79.02434700000001
 31
0.0
  0
LINE
  5
6A6
  8
LAYER_1
 10
47.985253
 20
79.02434700000001
 30
0.0
 11
47.117773
 21
79.36309
 31
0.0
  0
LINE
  5
6A7
  8
LAYER_1
 10
47.117773
 20
79.36309
 30
0.0
 11
46.809808
 21
79.30746000000001
 31
0.0
  0
LINE
  5
6A8
  8
LAYER_1
 10
46.809808
 20
79.30746000000001
 30
0.0
 11
46.673749
 21
79.153611
 31
0.0
  0
LINE
  5
6A9
  8
LAYER_1
 10
46.673749
 20
79.153611
 30
0.0
 11
46.936668
 21
78.629499
 31
0.0
  0
LINE
  5
6AA
  8
LAYER_1
 10
46.936668
 20
78.629499
 30
0.0
 11
47.149813
 21
78.074085
 31
0.0
  0
LINE
  5
6AB
  8
LAYER_1
 10
47.149813
 20
78.074085
 30
0.0
 11
47.266219
 21
77.13477399999999
 31
0.0
  0
LINE
  5
6AC
  8
LAYER_1
 10
47.266219
 20
77.13477399999999
 30
0.0
 11
47.391145
 21
76.215782
 31
0.0
  0
LINE
  5
6AD
  8
LAYER_1
 10
47.391145
 20
76.215782
 30
0.0
 11
47.697093
 21
75.593858
 31
0.0
  0
LINE
  5
6AE
  8
LAYER_1
 10
47.697093
 20
75.593858
 30
0.0
 11
48.207398
 21
75.24113800000001
 31
0.0
  0
LINE
  5
6AF
  8
LAYER_1
 10
48.207398
 20
75.24113800000001
 30
0.0
 11
48.945396
 21
75.129757
 31
0.0
  0
LINE
  5
6B0
  8
LAYER_1
 10
48.945396
 20
75.129757
 30
0.0
 11
49.764955
 21
74.930695
 31
0.0
  0
LINE
  5
6B1
  8
LAYER_1
 10
49.764955
 20
74.930695
 30
0.0
 11
50.548015
 21
74.364317
 31
0.0
  0
LINE
  5
6B2
  8
LAYER_1
 10
50.548015
 20
74.364317
 30
0.0
 11
51.217417
 21
73.787392
 31
0.0
  0
LINE
  5
6B3
  8
LAYER_1
 10
51.217417
 20
73.787392
 30
0.0
 11
51.333162
 21
73.874518
 31
0.0
  0
LINE
  5
6B4
  8
LAYER_1
 10
51.333162
 20
73.874518
 30
0.0
 11
51.397521
 21
74.19295700000001
 31
0.0
  0
LINE
  5
6B5
  8
LAYER_1
 10
51.397521
 20
74.19295700000001
 30
0.0
 11
51.286256
 21
74.97877200000001
 31
0.0
  0
LINE
  5
6B6
  8
LAYER_1
 10
51.286256
 20
74.97877200000001
 30
0.0
 11
50.897674
 21
76.033833
 31
0.0
  0
LINE
  5
6B7
  8
LAYER_1
 10
50.897674
 20
76.033833
 30
0.0
 11
50.897674
 21
76.033833
 31
0.0
  0
LINE
  5
6B8
  8
LAYER_1
 10
55.615188
 20
75.23850299999999
 30
0.0
 11
55.185312
 21
75.90669699999999
 31
0.0
  0
LINE
  5
6B9
  8
LAYER_1
 10
55.185312
 20
75.90669699999999
 30
0.0
 11
55.141518
 21
76.857235
 31
0.0
  0
LINE
  5
6BA
  8
LAYER_1
 10
55.141518
 20
76.857235
 30
0.0
 11
55.423156
 21
77.98109100000001
 31
0.0
  0
LINE
  5
6BB
  8
LAYER_1
 10
55.423156
 20
77.98109100000001
 30
0.0
 11
55.969579
 21
79.169237
 31
0.0
  0
LINE
  5
6BC
  8
LAYER_1
 10
55.969579
 20
79.169237
 30
0.0
 11
56.720136
 21
80.312645
 31
0.0
  0
LINE
  5
6BD
  8
LAYER_1
 10
56.720136
 20
80.312645
 30
0.0
 11
57.61418
 21
81.302289
 31
0.0
  0
LINE
  5
6BE
  8
LAYER_1
 10
57.61418
 20
81.302289
 30
0.0
 11
58.591061
 21
82.02914
 31
0.0
  0
LINE
  5
6BF
  8
LAYER_1
 10
58.591061
 20
82.02914
 30
0.0
 11
59.59013
 21
82.38417200000001
 31
0.0
  0
LINE
  5
6C0
  8
LAYER_1
 10
59.59013
 20
82.38417200000001
 30
0.0
 11
60.526796
 21
82.372073
 31
0.0
  0
LINE
  5
6C1
  8
LAYER_1
 10
60.526796
 20
82.372073
 30
0.0
 11
61.037061
 21
81.782353
 31
0.0
  0
LINE
  5
6C2
  8
LAYER_1
 10
61.037061
 20
81.782353
 30
0.0
 11
61.291031
 21
81.09418700000001
 31
0.0
  0
LINE
  5
6C3
  8
LAYER_1
 10
61.291031
 20
81.09418700000001
 30
0.0
 11
61.005435
 21
80.61071800000001
 31
0.0
  0
LINE
  5
6C4
  8
LAYER_1
 10
61.005435
 20
80.61071800000001
 30
0.0
 11
60.506886
 21
80.292976
 31
0.0
  0
LINE
  5
6C5
  8
LAYER_1
 10
60.506886
 20
80.292976
 30
0.0
 11
59.910734
 21
80.131531
 31
0.0
  0
LINE
  5
6C6
  8
LAYER_1
 10
59.910734
 20
80.131531
 30
0.0
 11
59.063122
 21
79.807661
 31
0.0
  0
LINE
  5
6C7
  8
LAYER_1
 10
59.063122
 20
79.807661
 30
0.0
 11
58.243091
 21
79.088514
 31
0.0
  0
LINE
  5
6C8
  8
LAYER_1
 10
58.243091
 20
79.088514
 30
0.0
 11
57.623968
 21
78.171182
 31
0.0
  0
LINE
  5
6C9
  8
LAYER_1
 10
57.623968
 20
78.171182
 30
0.0
 11
57.379077
 21
77.252754
 31
0.0
  0
LINE
  5
6CA
  8
LAYER_1
 10
57.379077
 20
77.252754
 30
0.0
 11
57.209631
 21
76.35641
 31
0.0
  0
LINE
  5
6CB
  8
LAYER_1
 10
57.209631
 20
76.35641
 30
0.0
 11
56.744077
 21
75.57590500000001
 31
0.0
  0
LINE
  5
6CC
  8
LAYER_1
 10
56.744077
 20
75.57590500000001
 30
0.0
 11
56.133737
 21
75.052346
 31
0.0
  0
LINE
  5
6CD
  8
LAYER_1
 10
56.133737
 20
75.052346
 30
0.0
 11
55.615188
 21
75.23850299999999
 31
0.0
  0
LINE
  5
6CE
  8
LAYER_1
 10
55.615188
 20
75.23850299999999
 30
0.0
 11
55.615188
 21
75.23850299999999
 31
0.0
  0
LINE
  5
6CF
  8
LAYER_1
 10
51.734633
 20
79.051613
 30
0.0
 11
51.382296
 21
79.44211900000001
 31
0.0
  0
LINE
  5
6D0
  8
LAYER_1
 10
51.382296
 20
79.44211900000001
 30
0.0
 11
50.535188
 21
79.959711
 31
0.0
  0
LINE
  5
6D1
  8
LAYER_1
 10
50.535188
 20
79.959711
 30
0.0
 11
49.128398
 21
80.882668
 31
0.0
  0
LINE
  5
6D2
  8
LAYER_1
 10
49.128398
 20
80.882668
 30
0.0
 11
48.931829
 21
81.582511
 31
0.0
  0
LINE
  5
6D3
  8
LAYER_1
 10
48.931829
 20
81.582511
 30
0.0
 11
49.048526
 21
81.814761
 31
0.0
  0
LINE
  5
6D4
  8
LAYER_1
 10
49.048526
 20
81.814761
 30
0.0
 11
49.297683
 21
81.90309000000001
 31
0.0
  0
LINE
  5
6D5
  8
LAYER_1
 10
49.297683
 20
81.90309000000001
 30
0.0
 11
50.397881
 21
82.46544900000001
 31
0.0
  0
LINE
  5
6D6
  8
LAYER_1
 10
50.397881
 20
82.46544900000001
 30
0.0
 11
51.104109
 21
82.882716
 31
0.0
  0
LINE
  5
6D7
  8
LAYER_1
 10
51.104109
 20
82.882716
 30
0.0
 11
51.762493
 21
82.50172600000001
 31
0.0
  0
LINE
  5
6D8
  8
LAYER_1
 10
51.762493
 20
82.50172600000001
 30
0.0
 11
52.287085
 21
81.785864
 31
0.0
  0
LINE
  5
6D9
  8
LAYER_1
 10
52.287085
 20
81.785864
 30
0.0
 11
52.426184
 21
80.485175
 31
0.0
  0
LINE
  5
6DA
  8
LAYER_1
 10
52.426184
 20
80.485175
 30
0.0
 11
52.344485
 21
79.351894
 31
0.0
  0
LINE
  5
6DB
  8
LAYER_1
 10
52.344485
 20
79.351894
 30
0.0
 11
52.08741
 21
78.873158
 31
0.0
  0
LINE
  5
6DC
  8
LAYER_1
 10
52.08741
 20
78.873158
 30
0.0
 11
51.838261
 21
78.87544
 31
0.0
  0
LINE
  5
6DD
  8
LAYER_1
 10
51.838261
 20
78.87544
 30
0.0
 11
51.734633
 21
79.051613
 31
0.0
  0
LINE
  5
6DE
  8
LAYER_1
 10
51.734633
 20
79.051613
 30
0.0
 11
51.734633
 21
79.051613
 31
0.0
  0
LINE
  5
6DF
  8
LAYER_1
 10
51.45241
 20
81.00938600000001
 30
0.0
 11
51.237581
 21
81.42972500000001
 31
0.0
  0
LINE
  5
6E0
  8
LAYER_1
 10
51.237581
 20
81.42972500000001
 30
0.0
 11
50.6956
 21
81.421038
 31
0.0
  0
LINE
  5
6E1
  8
LAYER_1
 10
50.6956
 20
81.421038
 30
0.0
 11
50.430857
 21
81.24499900000001
 31
0.0
  0
LINE
  5
6E2
  8
LAYER_1
 10
50.430857
 20
81.24499900000001
 30
0.0
 11
50.652635
 21
81.02146999999999
 31
0.0
  0
LINE
  5
6E3
  8
LAYER_1
 10
50.652635
 20
81.02146999999999
 30
0.0
 11
51.233492
 21
80.788731
 31
0.0
  0
LINE
  5
6E4
  8
LAYER_1
 10
51.233492
 20
80.788731
 30
0.0
 11
51.395309
 21
80.842277
 31
0.0
  0
LINE
  5
6E5
  8
LAYER_1
 10
51.395309
 20
80.842277
 30
0.0
 11
51.45241
 21
81.00938600000001
 31
0.0
  0
LINE
  5
6E6
  8
LAYER_1
 10
51.45241
 20
81.00938600000001
 30
0.0
 11
51.45241
 21
81.00938600000001
 31
0.0
  0
LINE
  5
6E7
  8
LAYER_1
 10
50.605744
 20
89.452972
 30
0.0
 11
49.789719
 21
90.04459
 31
0.0
  0
LINE
  5
6E8
  8
LAYER_1
 10
49.789719
 20
90.04459
 30
0.0
 11
49.533279
 21
90.95604
 31
0.0
  0
LINE
  5
6E9
  8
LAYER_1
 10
49.533279
 20
90.95604
 30
0.0
 11
49.601495
 21
91.869742
 31
0.0
  0
LINE
  5
6EA
  8
LAYER_1
 10
49.601495
 20
91.869742
 30
0.0
 11
49.962223
 21
92.599964
 31
0.0
  0
LINE
  5
6EB
  8
LAYER_1
 10
49.962223
 20
92.599964
 30
0.0
 11
50.475856
 21
93.234273
 31
0.0
  0
LINE
  5
6EC
  8
LAYER_1
 10
50.475856
 20
93.234273
 30
0.0
 11
51.278189
 21
92.60315900000001
 31
0.0
  0
LINE
  5
6ED
  8
LAYER_1
 10
51.278189
 20
92.60315900000001
 30
0.0
 11
52.580376
 21
91.15009600000001
 31
0.0
  0
LINE
  5
6EE
  8
LAYER_1
 10
52.580376
 20
91.15009600000001
 30
0.0
 11
52.928145
 21
90.346542
 31
0.0
  0
LINE
  5
6EF
  8
LAYER_1
 10
52.928145
 20
90.346542
 30
0.0
 11
52.445624
 21
89.643399
 31
0.0
  0
LINE
  5
6F0
  8
LAYER_1
 10
52.445624
 20
89.643399
 30
0.0
 11
52.011198
 21
89.18364800000001
 31
0.0
  0
LINE
  5
6F1
  8
LAYER_1
 10
52.011198
 20
89.18364800000001
 30
0.0
 11
51.700761
 21
89.013255
 31
0.0
  0
LINE
  5
6F2
  8
LAYER_1
 10
51.700761
 20
89.013255
 30
0.0
 11
50.605744
 21
89.452972
 31
0.0
  0
LINE
  5
6F3
  8
LAYER_1
 10
50.605744
 20
89.452972
 30
0.0
 11
50.605744
 21
89.452972
 31
0.0
  0
LINE
  5
6F4
  8
LAYER_1
 10
51.323356
 20
91.20310000000001
 30
0.0
 11
50.962175
 21
91.506545
 31
0.0
  0
LINE
  5
6F5
  8
LAYER_1
 10
50.962175
 20
91.506545
 30
0.0
 11
50.641255
 21
91.611069
 31
0.0
  0
LINE
  5
6F6
  8
LAYER_1
 10
50.641255
 20
91.611069
 30
0.0
 11
50.411427
 21
91.51581400000001
 31
0.0
  0
LINE
  5
6F7
  8
LAYER_1
 10
50.411427
 20
91.51581400000001
 30
0.0
 11
50.323521
 21
91.219926
 31
0.0
  0
LINE
  5
6F8
  8
LAYER_1
 10
50.323521
 20
91.219926
 30
0.0
 11
50.785155
 21
90.512883
 31
0.0
  0
LINE
  5
6F9
  8
LAYER_1
 10
50.785155
 20
90.512883
 30
0.0
 11
51.257908
 21
90.222211
 31
0.0
  0
LINE
  5
6FA
  8
LAYER_1
 10
51.257908
 20
90.222211
 30
0.0
 11
51.566707
 21
90.31924600000001
 31
0.0
  0
LINE
  5
6FB
  8
LAYER_1
 10
51.566707
 20
90.31924600000001
 30
0.0
 11
51.61928
 21
90.685653
 31
0.0
  0
LINE
  5
6FC
  8
LAYER_1
 10
51.61928
 20
90.685653
 30
0.0
 11
51.323356
 21
91.20310000000001
 31
0.0
  0
LINE
  5
6FD
  8
LAYER_1
 10
51.323356
 20
91.20310000000001
 30
0.0
 11
51.323356
 21
91.20310000000001
 31
0.0
  0
LINE
  5
6FE
  8
LAYER_1
 10
55.727005
 20
93.847818
 30
0.0
 11
55.597364
 21
94.521315
 31
0.0
  0
LINE
  5
6FF
  8
LAYER_1
 10
55.597364
 20
94.521315
 30
0.0
 11
55.654658
 21
95.68458699999999
 31
0.0
  0
LINE
  5
700
  8
LAYER_1
 10
55.654658
 20
95.68458699999999
 30
0.0
 11
55.853431
 21
96.91306400000001
 31
0.0
  0
LINE
  5
701
  8
LAYER_1
 10
55.853431
 20
96.91306400000001
 30
0.0
 11
56.148227
 21
97.782177
 31
0.0
  0
LINE
  5
702
  8
LAYER_1
 10
56.148227
 20
97.782177
 30
0.0
 11
57.026038
 21
98.609701
 31
0.0
  0
LINE
  5
703
  8
LAYER_1
 10
57.026038
 20
98.609701
 30
0.0
 11
58.453951
 21
99.324369
 31
0.0
  0
LINE
  5
704
  8
LAYER_1
 10
58.453951
 20
99.324369
 30
0.0
 11
59.383783
 21
99.524401
 31
0.0
  0
LINE
  5
705
  8
LAYER_1
 10
59.383783
 20
99.524401
 30
0.0
 11
60.241327
 21
99.239059
 31
0.0
  0
LINE
  5
706
  8
LAYER_1
 10
60.241327
 20
99.239059
 30
0.0
 11
60.861949
 21
98.83423500000001
 31
0.0
  0
LINE
  5
707
  8
LAYER_1
 10
60.861949
 20
98.83423500000001
 30
0.0
 11
61.203526
 21
98.39555
 31
0.0
  0
LINE
  5
708
  8
LAYER_1
 10
61.203526
 20
98.39555
 30
0.0
 11
61.275025
 21
97.90278499999999
 31
0.0
  0
LINE
  5
709
  8
LAYER_1
 10
61.275025
 20
97.90278499999999
 30
0.0
 11
61.085411
 21
97.335718
 31
0.0
  0
LINE
  5
70A
  8
LAYER_1
 10
61.085411
 20
97.335718
 30
0.0
 11
60.880309
 21
96.65523500000001
 31
0.0
  0
LINE
  5
70B
  8
LAYER_1
 10
60.880309
 20
96.65523500000001
 30
0.0
 11
60.836243
 21
95.884151
 31
0.0
  0
LINE
  5
70C
  8
LAYER_1
 10
60.836243
 20
95.884151
 30
0.0
 11
60.775701
 21
95.21059200000001
 31
0.0
  0
LINE
  5
70D
  8
LAYER_1
 10
60.775701
 20
95.21059200000001
 30
0.0
 11
60.387888
 21
94.94140400000001
 31
0.0
  0
LINE
  5
70E
  8
LAYER_1
 10
60.387888
 20
94.94140400000001
 30
0.0
 11
58.86684
 21
94.15423300000001
 31
0.0
  0
LINE
  5
70F
  8
LAYER_1
 10
58.86684
 20
94.15423300000001
 30
0.0
 11
57.982694
 21
93.70981500000001
 31
0.0
  0
LINE
  5
710
  8
LAYER_1
 10
57.982694
 20
93.70981500000001
 30
0.0
 11
57.069306
 21
93.5013
 31
0.0
  0
LINE
  5
711
  8
LAYER_1
 10
57.069306
 20
93.5013
 30
0.0
 11
56.269726
 21
93.542648
 31
0.0
  0
LINE
  5
712
  8
LAYER_1
 10
56.269726
 20
93.542648
 30
0.0
 11
55.727005
 21
93.847818
 31
0.0
  0
LINE
  5
713
  8
LAYER_1
 10
55.727005
 20
93.847818
 30
0.0
 11
55.727005
 21
93.847818
 31
0.0
  0
LINE
  5
714
  8
LAYER_1
 10
59.071301
 20
95.448967
 30
0.0
 11
59.687328
 21
96.07135599999999
 31
0.0
  0
LINE
  5
715
  8
LAYER_1
 10
59.687328
 20
96.07135599999999
 30
0.0
 11
59.73616
 21
96.86238400000001
 31
0.0
  0
LINE
  5
716
  8
LAYER_1
 10
59.73616
 20
96.86238400000001
 30
0.0
 11
59.724957
 21
97.469072
 31
0.0
  0
LINE
  5
717
  8
LAYER_1
 10
59.724957
 20
97.469072
 30
0.0
 11
59.902132
 21
97.70753499999999
 31
0.0
  0
LINE
  5
718
  8
LAYER_1
 10
59.902132
 20
97.70753499999999
 30
0.0
 11
60.158377
 21
97.791015
 31
0.0
  0
LINE
  5
719
  8
LAYER_1
 10
60.158377
 20
97.791015
 30
0.0
 11
60.186492
 21
97.98815999999999
 31
0.0
  0
LINE
  5
71A
  8
LAYER_1
 10
60.186492
 20
97.98815999999999
 30
0.0
 11
60.01353
 21
98.219025
 31
0.0
  0
LINE
  5
71B
  8
LAYER_1
 10
60.01353
 20
98.219025
 30
0.0
 11
59.666547
 21
98.403667
 31
0.0
  0
LINE
  5
71C
  8
LAYER_1
 10
59.666547
 20
98.403667
 30
0.0
 11
58.989629
 21
98.38290499999999
 31
0.0
  0
LINE
  5
71D
  8
LAYER_1
 10
58.989629
 20
98.38290499999999
 30
0.0
 11
58.135905
 21
98.086553
 31
0.0
  0
LINE
  5
71E
  8
LAYER_1
 10
58.135905
 20
98.086553
 30
0.0
 11
57.374279
 21
97.638526
 31
0.0
  0
LINE
  5
71F
  8
LAYER_1
 10
57.374279
 20
97.638526
 30
0.0
 11
56.973653
 21
97.162739
 31
0.0
  0
LINE
  5
720
  8
LAYER_1
 10
56.973653
 20
97.162739
 30
0.0
 11
56.649058
 21
95.618244
 31
0.0
  0
LINE
  5
721
  8
LAYER_1
 10
56.649058
 20
95.618244
 30
0.0
 11
56.453391
 21
94.51673
 31
0.0
  0
LINE
  5
722
  8
LAYER_1
 10
56.453391
 20
94.51673
 30
0.0
 11
57.363318
 21
94.69871600000001
 31
0.0
  0
LINE
  5
723
  8
LAYER_1
 10
57.363318
 20
94.69871600000001
 30
0.0
 11
58.240384
 21
94.99417200000001
 31
0.0
  0
LINE
  5
724
  8
LAYER_1
 10
58.240384
 20
94.99417200000001
 30
0.0
 11
59.071301
 21
95.448967
 31
0.0
  0
LINE
  5
725
  8
LAYER_1
 10
59.071301
 20
95.448967
 30
0.0
 11
59.071301
 21
95.448967
 31
0.0
  0
LINE
  5
726
  8
LAYER_1
 10
52.256952
 20
94.57565
 30
0.0
 11
50.470221
 21
95.570345
 31
0.0
  0
LINE
  5
727
  8
LAYER_1
 10
50.470221
 20
95.570345
 30
0.0
 11
49.169117
 21
96.267545
 31
0.0
  0
LINE
  5
728
  8
LAYER_1
 10
49.169117
 20
96.267545
 30
0.0
 11
48.470435
 21
96.988168
 31
0.0
  0
LINE
  5
729
  8
LAYER_1
 10
48.470435
 20
96.988168
 30
0.0
 11
48.35753
 21
97.337867
 31
0.0
  0
LINE
  5
72A
  8
LAYER_1
 10
48.35753
 20
97.337867
 30
0.0
 11
48.407863
 21
97.670146
 31
0.0
  0
LINE
  5
72B
  8
LAYER_1
 10
48.407863
 20
97.670146
 30
0.0
 11
49.015088
 21
98.251411
 31
0.0
  0
LINE
  5
72C
  8
LAYER_1
 10
49.015088
 20
98.251411
 30
0.0
 11
49.725716
 21
98.45458600000001
 31
0.0
  0
LINE
  5
72D
  8
LAYER_1
 10
49.725716
 20
98.45458600000001
 30
0.0
 11
50.581831
 21
98.143232
 31
0.0
  0
LINE
  5
72E
  8
LAYER_1
 10
50.581831
 20
98.143232
 30
0.0
 11
51.265071
 21
97.689894
 31
0.0
  0
LINE
  5
72F
  8
LAYER_1
 10
51.265071
 20
97.689894
 30
0.0
 11
51.64446
 21
97.253225
 31
0.0
  0
LINE
  5
730
  8
LAYER_1
 10
51.64446
 20
97.253225
 30
0.0
 11
51.866985
 21
96.994426
 31
0.0
  0
LINE
  5
731
  8
LAYER_1
 10
51.866985
 20
96.994426
 30
0.0
 11
52.173084
 21
96.968728
 31
0.0
  0
LINE
  5
732
  8
LAYER_1
 10
52.173084
 20
96.968728
 30
0.0
 11
52.466826
 21
96.95279100000001
 31
0.0
  0
LINE
  5
733
  8
LAYER_1
 10
52.466826
 20
96.95279100000001
 30
0.0
 11
52.755947
 21
96.723124
 31
0.0
  0
LINE
  5
734
  8
LAYER_1
 10
52.755947
 20
96.723124
 30
0.0
 11
53.233563
 21
95.86141600000001
 31
0.0
  0
LINE
  5
735
  8
LAYER_1
 10
53.233563
 20
95.86141600000001
 30
0.0
 11
53.432398
 21
94.86124700000001
 31
0.0
  0
LINE
  5
736
  8
LAYER_1
 10
53.432398
 20
94.86124700000001
 30
0.0
 11
53.373042
 21
94.458502
 31
0.0
  0
LINE
  5
737
  8
LAYER_1
 10
53.373042
 20
94.458502
 30
0.0
 11
53.178916
 21
94.20025800000001
 31
0.0
  0
LINE
  5
738
  8
LAYER_1
 10
53.178916
 20
94.20025800000001
 30
0.0
 11
52.805356
 21
94.24703700000001
 31
0.0
  0
LINE
  5
739
  8
LAYER_1
 10
52.805356
 20
94.24703700000001
 30
0.0
 11
52.256952
 21
94.57565
 31
0.0
  0
LINE
  5
73A
  8
LAYER_1
 10
52.256952
 20
94.57565
 30
0.0
 11
52.256952
 21
94.57565
 31
0.0
  0
LINE
  5
73B
  8
LAYER_1
 10
50.481247
 20
97.010954
 30
0.0
 11
49.770842
 21
97.40323600000001
 31
0.0
  0
LINE
  5
73C
  8
LAYER_1
 10
49.770842
 20
97.40323600000001
 30
0.0
 11
49.555713
 21
97.40845299999999
 31
0.0
  0
LINE
  5
73D
  8
LAYER_1
 10
49.555713
 20
97.40845299999999
 30
0.0
 11
49.476855
 21
97.275108
 31
0.0
  0
LINE
  5
73E
  8
LAYER_1
 10
49.476855
 20
97.275108
 30
0.0
 11
50.057388
 21
96.896778
 31
0.0
  0
LINE
  5
73F
  8
LAYER_1
 10
50.057388
 20
96.896778
 30
0.0
 11
50.887966
 21
96.60551100000001
 31
0.0
  0
LINE
  5
740
  8
LAYER_1
 10
50.887966
 20
96.60551100000001
 30
0.0
 11
50.481247
 21
97.010954
 31
0.0
  0
LINE
  5
741
  8
LAYER_1
 10
50.481247
 20
97.010954
 30
0.0
 11
50.481247
 21
97.010954
 31
0.0
  0
LINE
  5
742
  8
LAYER_1
 10
52.103147
 20
98.69726
 30
0.0
 11
51.311299
 21
99.404763
 31
0.0
  0
LINE
  5
743
  8
LAYER_1
 10
51.311299
 20
99.404763
 30
0.0
 11
52.157966
 21
100.107897
 31
0.0
  0
LINE
  5
744
  8
LAYER_1
 10
52.157966
 20
100.107897
 30
0.0
 11
52.9284
 21
100.628907
 31
0.0
  0
LINE
  5
745
  8
LAYER_1
 10
52.9284
 20
100.628907
 30
0.0
 11
53.142561
 21
100.575412
 31
0.0
  0
LINE
  5
746
  8
LAYER_1
 10
53.142561
 20
100.575412
 30
0.0
 11
53.35741
 21
100.334231
 31
0.0
  0
LINE
  5
747
  8
LAYER_1
 10
53.35741
 20
100.334231
 30
0.0
 11
53.60656
 21
99.723176
 31
0.0
  0
LINE
  5
748
  8
LAYER_1
 10
53.60656
 20
99.723176
 30
0.0
 11
53.710188
 21
98.92359399999999
 31
0.0
  0
LINE
  5
749
  8
LAYER_1
 10
53.710188
 20
98.92359399999999
 30
0.0
 11
53.614722
 21
98.266244
 31
0.0
  0
LINE
  5
74A
  8
LAYER_1
 10
53.614722
 20
98.266244
 30
0.0
 11
53.321693
 21
98.010339
 31
0.0
  0
LINE
  5
74B
  8
LAYER_1
 10
53.321693
 20
98.010339
 30
0.0
 11
52.821151
 21
98.154478
 31
0.0
  0
LINE
  5
74C
  8
LAYER_1
 10
52.821151
 20
98.154478
 30
0.0
 11
52.103147
 21
98.69726
 31
0.0
  0
LINE
  5
74D
  8
LAYER_1
 10
52.103147
 20
98.69726
 30
0.0
 11
52.103147
 21
98.69726
 31
0.0
  0
LINE
  5
74E
  8
LAYER_1
 10
55.294468
 20
99.348996
 30
0.0
 11
55.450768
 21
101.59161
 31
0.0
  0
LINE
  5
74F
  8
LAYER_1
 10
55.450768
 20
101.59161
 30
0.0
 11
55.857013
 21
103.374687
 31
0.0
  0
LINE
  5
750
  8
LAYER_1
 10
55.857013
 20
103.374687
 30
0.0
 11
56.564253
 21
104.516535
 31
0.0
  0
LINE
  5
751
  8
LAYER_1
 10
56.564253
 20
104.516535
 30
0.0
 11
57.379077
 21
105.680216
 31
0.0
  0
LINE
  5
752
  8
LAYER_1
 10
57.379077
 20
105.680216
 30
0.0
 11
57.565608
 21
105.831007
 31
0.0
  0
LINE
  5
753
  8
LAYER_1
 10
57.565608
 20
105.831007
 30
0.0
 11
58.014077
 21
105.841052
 31
0.0
  0
LINE
  5
754
  8
LAYER_1
 10
58.014077
 20
105.841052
 30
0.0
 11
58.494669
 21
105.531281
 31
0.0
  0
LINE
  5
755
  8
LAYER_1
 10
58.494669
 20
105.531281
 30
0.0
 11
58.742493
 21
104.832906
 31
0.0
  0
LINE
  5
756
  8
LAYER_1
 10
58.742493
 20
104.832906
 30
0.0
 11
58.743704
 21
103.839946
 31
0.0
  0
LINE
  5
757
  8
LAYER_1
 10
58.743704
 20
103.839946
 30
0.0
 11
58.48446
 21
102.646424
 31
0.0
  0
LINE
  5
758
  8
LAYER_1
 10
58.48446
 20
102.646424
 30
0.0
 11
58.10835
 21
100.979853
 31
0.0
  0
LINE
  5
759
  8
LAYER_1
 10
58.10835
 20
100.979853
 30
0.0
 11
57.776221
 21
100.410962
 31
0.0
  0
LINE
  5
75A
  8
LAYER_1
 10
57.776221
 20
100.410962
 30
0.0
 11
56.955744
 21
99.792649
 31
0.0
  0
LINE
  5
75B
  8
LAYER_1
 10
56.955744
 20
99.792649
 30
0.0
 11
55.730568
 21
99.174611
 31
0.0
  0
LINE
  5
75C
  8
LAYER_1
 10
55.730568
 20
99.174611
 30
0.0
 11
55.463949
 21
99.176121
 31
0.0
  0
LINE
  5
75D
  8
LAYER_1
 10
55.463949
 20
99.176121
 30
0.0
 11
55.294468
 21
99.348996
 31
0.0
  0
LINE
  5
75E
  8
LAYER_1
 10
55.294468
 20
99.348996
 30
0.0
 11
55.294468
 21
99.348996
 31
0.0
  0
LINE
  5
75F
  8
LAYER_1
 10
57.165336
 20
101.818146
 30
0.0
 11
57.564503
 21
103.475682
 31
0.0
  0
LINE
  5
760
  8
LAYER_1
 10
57.564503
 20
103.475682
 30
0.0
 11
57.540165
 21
103.776567
 31
0.0
  0
LINE
  5
761
  8
LAYER_1
 10
57.540165
 20
103.776567
 30
0.0
 11
57.371288
 21
103.770498
 31
0.0
  0
LINE
  5
762
  8
LAYER_1
 10
57.371288
 20
103.770498
 30
0.0
 11
56.889108
 21
103.073525
 31
0.0
  0
LINE
  5
763
  8
LAYER_1
 10
56.889108
 20
103.073525
 30
0.0
 11
56.420314
 21
101.560469
 31
0.0
  0
LINE
  5
764
  8
LAYER_1
 10
56.420314
 20
101.560469
 30
0.0
 11
56.378461
 21
100.978723
 31
0.0
  0
LINE
  5
765
  8
LAYER_1
 10
56.378461
 20
100.978723
 30
0.0
 11
56.570819
 21
100.856162
 31
0.0
  0
LINE
  5
766
  8
LAYER_1
 10
56.570819
 20
100.856162
 30
0.0
 11
56.87418
 21
101.150175
 31
0.0
  0
LINE
  5
767
  8
LAYER_1
 10
56.87418
 20
101.150175
 30
0.0
 11
57.165336
 21
101.818146
 31
0.0
  0
LINE
  5
768
  8
LAYER_1
 10
57.165336
 20
101.818146
 30
0.0
 11
57.165336
 21
101.818146
 31
0.0
  0
LINE
  5
769
  8
LAYER_1
 10
55.231098
 20
106.339595
 30
0.0
 11
55.196051
 21
108.914829
 31
0.0
  0
LINE
  5
76A
  8
LAYER_1
 10
55.196051
 20
108.914829
 30
0.0
 11
55.455415
 21
110.532823
 31
0.0
  0
LINE
  5
76B
  8
LAYER_1
 10
55.455415
 20
110.532823
 30
0.0
 11
55.698766
 21
111.018439
 31
0.0
  0
LINE
  5
76C
  8
LAYER_1
 10
55.698766
 20
111.018439
 30
0.0
 11
56.067091
 21
111.430547
 31
0.0
  0
LINE
  5
76D
  8
LAYER_1
 10
56.067091
 20
111.430547
 30
0.0
 11
56.687866
 21
111.882163
 31
0.0
  0
LINE
  5
76E
  8
LAYER_1
 10
56.687866
 20
111.882163
 30
0.0
 11
57.284497
 21
112.071478
 31
0.0
  0
LINE
  5
76F
  8
LAYER_1
 10
57.284497
 20
112.071478
 30
0.0
 11
57.842325
 21
111.997035
 31
0.0
  0
LINE
  5
770
  8
LAYER_1
 10
57.842325
 20
111.997035
 30
0.0
 11
58.346696
 21
111.657375
 31
0.0
  0
LINE
  5
771
  8
LAYER_1
 10
58.346696
 20
111.657375
 30
0.0
 11
58.676929
 21
111.251395
 31
0.0
  0
LINE
  5
772
  8
LAYER_1
 10
58.676929
 20
111.251395
 30
0.0
 11
58.750792
 21
110.891391
 31
0.0
  0
LINE
  5
773
  8
LAYER_1
 10
58.750792
 20
110.891391
 30
0.0
 11
58.556022
 21
110.501273
 31
0.0
  0
LINE
  5
774
  8
LAYER_1
 10
58.556022
 20
110.501273
 30
0.0
 11
58.080354
 21
110.004952
 31
0.0
  0
LINE
  5
775
  8
LAYER_1
 10
58.080354
 20
110.004952
 30
0.0
 11
57.673136
 21
109.474937
 31
0.0
  0
LINE
  5
776
  8
LAYER_1
 10
57.673136
 20
109.474937
 30
0.0
 11
57.541162
 21
108.965809
 31
0.0
  0
LINE
  5
777
  8
LAYER_1
 10
57.541162
 20
108.965809
 30
0.0
 11
57.683239
 21
108.583009
 31
0.0
  0
LINE
  5
778
  8
LAYER_1
 10
57.683239
 20
108.583009
 30
0.0
 11
58.098171
 21
108.431978
 31
0.0
  0
LINE
  5
779
  8
LAYER_1
 10
58.098171
 20
108.431978
 30
0.0
 11
58.535164
 21
108.315046
 31
0.0
  0
LINE
  5
77A
  8
LAYER_1
 10
58.535164
 20
108.315046
 30
0.0
 11
58.62108
 21
107.978024
 31
0.0
  0
LINE
  5
77B
  8
LAYER_1
 10
58.62108
 20
107.978024
 30
0.0
 11
58.36006
 21
107.441579
 31
0.0
  0
LINE
  5
77C
  8
LAYER_1
 10
58.36006
 20
107.441579
 30
0.0
 11
57.756247
 21
106.726377
 31
0.0
  0
LINE
  5
77D
  8
LAYER_1
 10
57.756247
 20
106.726377
 30
0.0
 11
56.857739
 21
105.954138
 31
0.0
  0
LINE
  5
77E
  8
LAYER_1
 10
56.857739
 20
105.954138
 30
0.0
 11
56.113883
 21
105.628662
 31
0.0
  0
LINE
  5
77F
  8
LAYER_1
 10
56.113883
 20
105.628662
 30
0.0
 11
55.559922
 21
105.755349
 31
0.0
  0
LINE
  5
780
  8
LAYER_1
 10
55.559922
 20
105.755349
 30
0.0
 11
55.231098
 21
106.339595
 31
0.0
  0
LINE
  5
781
  8
LAYER_1
 10
55.231098
 20
106.339595
 30
0.0
 11
55.231098
 21
106.339595
 31
0.0
  0
LINE
  5
782
  8
LAYER_1
 10
56.966392
 20
107.934934
 30
0.0
 11
56.654989
 21
108.331025
 31
0.0
  0
LINE
  5
783
  8
LAYER_1
 10
56.654989
 20
108.331025
 30
0.0
 11
56.547069
 21
108.955881
 31
0.0
  0
LINE
  5
784
  8
LAYER_1
 10
56.547069
 20
108.955881
 30
0.0
 11
56.643905
 21
109.657289
 31
0.0
  0
LINE
  5
785
  8
LAYER_1
 10
56.643905
 20
109.657289
 30
0.0
 11
56.946769
 21
110.283037
 31
0.0
  0
LINE
  5
786
  8
LAYER_1
 10
56.946769
 20
110.283037
 30
0.0
 11
57.351036
 21
111.0311
 31
0.0
  0
LINE
  5
787
  8
LAYER_1
 10
57.351036
 20
111.0311
 30
0.0
 11
57.196699
 21
111.03854
 31
0.0
  0
LINE
  5
788
  8
LAYER_1
 10
57.196699
 20
111.03854
 30
0.0
 11
56.814633
 21
110.765383
 31
0.0
  0
LINE
  5
789
  8
LAYER_1
 10
56.814633
 20
110.765383
 30
0.0
 11
56.534122
 21
110.447722
 31
0.0
  0
LINE
  5
78A
  8
LAYER_1
 10
56.534122
 20
110.447722
 30
0.0
 11
56.361463
 21
110.019466
 31
0.0
  0
LINE
  5
78B
  8
LAYER_1
 10
56.361463
 20
110.019466
 30
0.0
 11
56.250188
 21
108.466627
 31
0.0
  0
LINE
  5
78C
  8
LAYER_1
 10
56.250188
 20
108.466627
 30
0.0
 11
56.322867
 21
106.946372
 31
0.0
  0
LINE
  5
78D
  8
LAYER_1
 10
56.322867
 20
106.946372
 30
0.0
 11
56.493697
 21
106.900841
 31
0.0
  0
LINE
  5
78E
  8
LAYER_1
 10
56.493697
 20
106.900841
 30
0.0
 11
56.825281
 21
107.171616
 31
0.0
  0
LINE
  5
78F
  8
LAYER_1
 10
56.825281
 20
107.171616
 30
0.0
 11
57.224218
 21
107.643608
 31
0.0
  0
LINE
  5
790
  8
LAYER_1
 10
57.224218
 20
107.643608
 30
0.0
 11
56.966392
 21
107.934934
 31
0.0
  0
LINE
  5
791
  8
LAYER_1
 10
56.966392
 20
107.934934
 30
0.0
 11
56.966392
 21
107.934934
 31
0.0
  0
LINE
  5
792
  8
LAYER_1
 10
53.193397
 20
106.948994
 30
0.0
 11
51.718661
 21
108.277765
 31
0.0
  0
LINE
  5
793
  8
LAYER_1
 10
51.718661
 20
108.277765
 30
0.0
 11
50.252517
 21
109.991513
 31
0.0
  0
LINE
  5
794
  8
LAYER_1
 10
50.252517
 20
109.991513
 30
0.0
 11
50.106775
 21
110.471665
 31
0.0
  0
LINE
  5
795
  8
LAYER_1
 10
50.106775
 20
110.471665
 30
0.0
 11
50.26464
 21
110.836938
 31
0.0
  0
LINE
  5
796
  8
LAYER_1
 10
50.26464
 20
110.836938
 30
0.0
 11
50.701831
 21
111.063194
 31
0.0
  0
LINE
  5
797
  8
LAYER_1
 10
50.701831
 20
111.063194
 30
0.0
 11
51.394066
 21
111.126297
 31
0.0
  0
LINE
  5
798
  8
LAYER_1
 10
51.394066
 20
111.126297
 30
0.0
 11
53.216299
 21
111.29457
 31
0.0
  0
LINE
  5
799
  8
LAYER_1
 10
53.216299
 20
111.29457
 30
0.0
 11
53.99241
 21
111.497019
 31
0.0
  0
LINE
  5
79A
  8
LAYER_1
 10
53.99241
 20
111.497019
 30
0.0
 11
53.99241
 21
109.2756
 31
0.0
  0
LINE
  5
79B
  8
LAYER_1
 10
53.99241
 20
109.2756
 30
0.0
 11
53.849915
 21
107.180327
 31
0.0
  0
LINE
  5
79C
  8
LAYER_1
 10
53.849915
 20
107.180327
 30
0.0
 11
53.60738
 21
106.894191
 31
0.0
  0
LINE
  5
79D
  8
LAYER_1
 10
53.60738
 20
106.894191
 30
0.0
 11
53.193397
 21
106.948994
 31
0.0
  0
LINE
  5
79E
  8
LAYER_1
 10
53.193397
 20
106.948994
 30
0.0
 11
53.193397
 21
106.948994
 31
0.0
  0
LINE
  5
79F
  8
LAYER_1
 10
52.863521
 20
109.419756
 30
0.0
 11
52.717491
 21
109.988799
 31
0.0
  0
LINE
  5
7A0
  8
LAYER_1
 10
52.717491
 20
109.988799
 30
0.0
 11
52.108772
 21
110.125312
 31
0.0
  0
LINE
  5
7A1
  8
LAYER_1
 10
52.108772
 20
110.125312
 30
0.0
 11
51.354019
 21
110.125312
 31
0.0
  0
LINE
  5
7A2
  8
LAYER_1
 10
51.354019
 20
110.125312
 30
0.0
 11
52.016855
 21
109.419756
 31
0.0
  0
LINE
  5
7A3
  8
LAYER_1
 10
52.016855
 20
109.419756
 30
0.0
 11
52.771604
 21
108.7142
 31
0.0
  0
LINE
  5
7A4
  8
LAYER_1
 10
52.771604
 20
108.7142
 30
0.0
 11
52.863521
 21
109.419756
 31
0.0
  0
LINE
  5
7A5
  8
LAYER_1
 10
52.863521
 20
109.419756
 30
0.0
 11
52.863521
 21
109.419756
 31
0.0
  0
LINE
  5
7A6
  8
LAYER_1
 10
26.871092
 20
48.900385
 30
0.0
 11
26.540976
 21
49.046008
 31
0.0
  0
LINE
  5
7A7
  8
LAYER_1
 10
26.540976
 20
49.046008
 30
0.0
 11
26.381497
 21
48.996446
 31
0.0
  0
LINE
  5
7A8
  8
LAYER_1
 10
26.381497
 20
48.996446
 30
0.0
 11
26.636878
 21
48.43563
 31
0.0
  0
LINE
  5
7A9
  8
LAYER_1
 10
26.636878
 20
48.43563
 30
0.0
 11
26.957179
 21
48.162755
 31
0.0
  0
LINE
  5
7AA
  8
LAYER_1
 10
26.957179
 20
48.162755
 30
0.0
 11
27.134826
 21
48.320339
 31
0.0
  0
LINE
  5
7AB
  8
LAYER_1
 10
27.134826
 20
48.320339
 30
0.0
 11
27.104903
 21
48.633374
 31
0.0
  0
LINE
  5
7AC
  8
LAYER_1
 10
27.104903
 20
48.633374
 30
0.0
 11
26.871092
 21
48.900385
 31
0.0
  0
LINE
  5
7AD
  8
LAYER_1
 10
26.871092
 20
48.900385
 30
0.0
 11
26.871092
 21
48.900385
 31
0.0
  0
LINE
  5
7AE
  8
LAYER_1
 10
75.591622
 20
51.877527
 30
0.0
 11
75.278477
 21
52.411485
 31
0.0
  0
LINE
  5
7AF
  8
LAYER_1
 10
75.278477
 20
52.411485
 30
0.0
 11
75.238805
 21
53.031043
 31
0.0
  0
LINE
  5
7B0
  8
LAYER_1
 10
75.238805
 20
53.031043
 30
0.0
 11
75.246381
 21
53.455839
 31
0.0
  0
LINE
  5
7B1
  8
LAYER_1
 10
75.246381
 20
53.455839
 30
0.0
 11
75.086505
 21
53.59339
 31
0.0
  0
LINE
  5
7B2
  8
LAYER_1
 10
75.086505
 20
53.59339
 30
0.0
 11
74.811498
 21
53.444999
 31
0.0
  0
LINE
  5
7B3
  8
LAYER_1
 10
74.811498
 20
53.444999
 30
0.0
 11
74.47368299999999
 21
53.01197
 31
0.0
  0
LINE
  5
7B4
  8
LAYER_1
 10
74.47368299999999
 20
53.01197
 30
0.0
 11
74.357392
 21
52.736134
 31
0.0
  0
LINE
  5
7B5
  8
LAYER_1
 10
74.357392
 20
52.736134
 30
0.0
 11
74.38942
 21
52.476799
 31
0.0
  0
LINE
  5
7B6
  8
LAYER_1
 10
74.38942
 20
52.476799
 30
0.0
 11
74.979973
 21
51.814849
 31
0.0
  0
LINE
  5
7B7
  8
LAYER_1
 10
74.979973
 20
51.814849
 30
0.0
 11
75.55750000000001
 21
51.391399
 31
0.0
  0
LINE
  5
7B8
  8
LAYER_1
 10
75.55750000000001
 20
51.391399
 30
0.0
 11
75.90876900000001
 21
51.266519
 31
0.0
  0
LINE
  5
7B9
  8
LAYER_1
 10
75.90876900000001
 20
51.266519
 30
0.0
 11
75.94855200000001
 21
51.431472
 31
0.0
  0
LINE
  5
7BA
  8
LAYER_1
 10
75.94855200000001
 20
51.431472
 30
0.0
 11
75.591622
 21
51.877527
 31
0.0
  0
LINE
  5
7BB
  8
LAYER_1
 10
75.591622
 20
51.877527
 30
0.0
 11
75.591622
 21
51.877527
 31
0.0
  0
LINE
  5
7BC
  8
LAYER_1
 10
39.316855
 20
102.505312
 30
0.0
 11
39.238845
 21
102.704632
 31
0.0
  0
LINE
  5
7BD
  8
LAYER_1
 10
39.238845
 20
102.704632
 30
0.0
 11
39.051289
 21
102.787535
 31
0.0
  0
LINE
  5
7BE
  8
LAYER_1
 10
39.051289
 20
102.787535
 30
0.0
 11
38.611299
 21
102.505312
 31
0.0
  0
LINE
  5
7BF
  8
LAYER_1
 10
38.611299
 20
102.505312
 30
0.0
 11
38.617359
 21
102.305993
 31
0.0
  0
LINE
  5
7C0
  8
LAYER_1
 10
38.617359
 20
102.305993
 30
0.0
 11
38.876865
 21
102.22309
 31
0.0
  0
LINE
  5
7C1
  8
LAYER_1
 10
38.876865
 20
102.22309
 30
0.0
 11
39.187608
 21
102.305993
 31
0.0
  0
LINE
  5
7C2
  8
LAYER_1
 10
39.187608
 20
102.305993
 30
0.0
 11
39.316855
 21
102.505312
 31
0.0
  0
LINE
  5
7C3
  8
LAYER_1
 10
39.316855
 20
102.505312
 30
0.0
 11
39.316855
 21
102.505312
 31
0.0
  0
ENDSEC
  0
EOF
