  0
SECTION
  2
HEADER
  9
$ACADVER
  1
AC1009
  9
$DWGCODEPAGE
  3
ansi_1252
  9
$INSBASE
 10
0.0
 20
0.0
 30
0.0
  9
$EXTMIN
 10
20.063923
 20
1.187512
 30
0.0
  9
$EXTMAX
 10
78.30411100000001
 20
129.556518
 30
0.0
  9
$LIMMIN
 10
0.0
 20
0.0
  9
$LIMMAX
 10
12.0
 20
9.0
  9
$ORTHOMODE
 70
     0
  9
$REGENMODE
 70
     1
  9
$FILLMODE
 70
     1
  9
$QTEXTMODE
 70
     0
  9
$MIRRTEXT
 70
     1
  9
$DRAGMODE
 70
     2
  9
$LTSCALE
 40
1.0
  9
$OSMODE
 70
    37
  9
$ATTMODE
 70
     1
  9
$TEXTSIZE
 40
0.2
  9
$TRACEWID
 40
0.05
  9
$TEXTSTYLE
  7
STANDARD
  9
$CLAYER
  8
0
  9
$CELTYPE
  6
BYBLOCK
  9
$CECOLOR
 62
   256
  9
$DIMSCALE
 40
1.0
  9
$DIMASZ
 40
0.18
  9
$DIMEXO
 40
0.0625
  9
$DIMDLI
 40
0.38
  9
$DIMRND
 40
0.0
  9
$DIMDLE
 40
0.0
  9
$DIMEXE
 40
0.18
  9
$DIMTP
 40
0.0
  9
$DIMTM
 40
0.0
  9
$DIMTXT
 40
0.18
  9
$DIMCEN
 40
0.09
  9
$DIMTSZ
 40
0.0
  9
$DIMTOL
 70
     0
  9
$DIMLIM
 70
     0
  9
$DIMTIH
 70
     1
  9
$DIMTOH
 70
     1
  9
$DIMSE1
 70
     0
  9
$DIMSE2
 70
     0
  9
$DIMTAD
 70
     0
  9
$DIMZIN
 70
     0
  9
$DIMBLK
  1

  9
$DIMASO
 70
     1
  9
$DIMSHO
 70
     1
  9
$DIMPOST
  1

  9
$DIMAPOST
  1

  9
$DIMALT
 70
     0
  9
$DIMALTD
 70
     2
  9
$DIMALTF
 40
25.4
  9
$DIMLFAC
 40
1.0
  9
$DIMTOFL
 70
     0
  9
$DIMTVP
 40
0.0
  9
$DIMTIX
 70
     0
  9
$DIMSOXD
 70
     0
  9
$DIMSAH
 70
     0
  9
$DIMBLK1
  1

  9
$DIMBLK2
  1

  9
$DIMSTYLE
  2
STANDARD
  9
$DIMCLRD
 70
     0
  9
$DIMCLRE
 70
     0
  9
$DIMCLRT
 70
     0
  9
$DIMTFAC
 40
1.0
  9
$DIMGAP
 40
0.09
  9
$LUNITS
 70
     2
  9
$LUPREC
 70
     4
  9
$SKETCHINC
 40
0.1
  9
$FILLETRAD
 40
0.5
  9
$AUNITS
 70
     0
  9
$AUPREC
 70
     0
  9
$MENU
  1
.
  9
$ELEVATION
 40
0.0
  9
$PELEVATION
 40
0.0
  9
$THICKNESS
 40
0.0
  9
$LIMCHECK
 70
     0
  9
$CHAMFERA
 40
0.5
  9
$CHAMFERB
 40
0.5
  9
$SKPOLY
 70
     0
  9
$TDCREATE
 40
2453353.550459155
  9
$TDUPDATE
 40
4910249.905127407
  9
$TDINDWG
 40
4895786.051922963
  9
$TDUSRTIMER
 40
4895786.051922963
  9
$USRTIMER
 70
     1
  9
$ANGBASE
 50
0.0
  9
$ANGDIR
 70
     0
  9
$PDMODE
 70
     0
  9
$PDSIZE
 40
0.0
  9
$PLINEWID
 40
0.0
  9
$COORDS
 70
     1
  9
$SPLFRAME
 70
     0
  9
$SPLINETYPE
 70
     6
  9
$SPLINESEGS
 70
     8
  9
$ATTDIA
 70
     0
  9
$ATTREQ
 70
     1
  9
$HANDLING
 70
     1
  9
$HANDSEED
  5
58F
  9
$SURFTAB1
 70
     6
  9
$SURFTAB2
 70
     6
  9
$SURFTYPE
 70
     6
  9
$SURFU
 70
     6
  9
$SURFV
 70
     6
  9
$UCSNAME
  2

  9
$UCSORG
 10
0.0
 20
0.0
 30
0.0
  9
$UCSXDIR
 10
1.0
 20
0.0
 30
0.0
  9
$UCSYDIR
 10
0.0
 20
1.0
 30
0.0
  9
$PUCSNAME
  2

  9
$PUCSORG
 10
0.0
 20
0.0
 30
0.0
  9
$PUCSXDIR
 10
1.0
 20
0.0
 30
0.0
  9
$PUCSYDIR
 10
0.0
 20
1.0
 30
0.0
  9
$USERI1
 70
     0
  9
$USERI2
 70
     0
  9
$USERI3
 70
     0
  9
$USERI4
 70
     0
  9
$USERI5
 70
     0
  9
$USERR1
 40
0.0
  9
$USERR2
 40
0.0
  9
$USERR3
 40
0.0
  9
$USERR4
 40
0.0
  9
$USERR5
 40
0.0
  9
$WORLDVIEW
 70
     1
  9
$SHADEDGE
 70
     3
  9
$SHADEDIF
 70
    70
  9
$TILEMODE
 70
     1
  9
$MAXACTVP
 70
    64
  9
$PLIMCHECK
 70
     0
  9
$PEXTMIN
 10
0.0
 20
0.0
 30
0.0
  9
$PEXTMAX
 10
0.0
 20
0.0
 30
0.0
  9
$PLIMMIN
 10
0.0
 20
0.0
  9
$PLIMMAX
 10
0.0
 20
0.0
  9
$UNITMODE
 70
     0
  9
$VISRETAIN
 70
     1
  9
$PLINEGEN
 70
     0
  9
$PSLTSCALE
 70
     1
  0
ENDSEC
  0
SECTION
  2
TABLES
  0
TABLE
  2
VPORT
 70
     1
  0
VPORT
  2
*ACTIVE
 70
     0
 10
0.0
 20
0.0
 11
1.0
 21
1.0
 12
48.72461628998549
 22
65.88416709594569
 13
0.0
 23
0.0
 14
0.5
 24
0.5
 15
0.5
 25
0.5
 16
0.0
 26
0.0
 36
1.0
 17
0.0
 27
0.0
 37
0.0
 40
137.4104290955115
 41
1.972972972850329
 42
50.0
 43
0.0
 44
0.0
 50
0.0
 51
0.0
 71
    16
 72
   100
 73
     1
 74
     3
 75
     0
 76
     0
 77
     0
 78
     0
  0
ENDTAB
  0
TABLE
  2
LTYPE
 70
     1
  0
LTYPE
  2
CONTINUOUS
 70
     0
  3
Solid line
 72
    65
 73
     0
 40
0.0
  0
ENDTAB
  0
TABLE
  2
LAYER
 70
     2
  0
LAYER
  2
0
 70
     0
 62
     7
  6
CONTINUOUS
  0
LAYER
  2
LAYER_1
 70
     0
 62
     7
  6
CONTINUOUS
  0
ENDTAB
  0
TABLE
  2
STYLE
 70
     1
  0
STYLE
  2
STANDARD
 70
     0
 40
0.0
 41
1.0
 50
0.0
 71
     0
 42
0.2
  3
txt
  4

  0
ENDTAB
  0
TABLE
  2
VIEW
 70
     0
  0
ENDTAB
  0
TABLE
  2
UCS
 70
     0
  0
ENDTAB
  0
TABLE
  2
APPID
 70
     1
  0
APPID
  2
ACAD
 70
     0
  0
ENDTAB
  0
TABLE
  2
DIMSTYLE
 70
     1
  0
DIMSTYLE
  2
STANDARD
 70
     0
  3

  4

  5

  6

  7

 40
1.0
 41
0.18
 42
0.0625
 43
0.38
 44
0.18
 45
0.0
 46
0.0
 47
0.0
 48
0.0
140
0.18
141
0.09
142
0.0
143
25.4
144
1.0
145
0.0
146
1.0
147
0.09
 71
     0
 72
     0
 73
     1
 74
     1
 75
     0
 76
     0
 77
     0
 78
     0
170
     0
171
     2
172
     0
173
     0
174
     0
175
     0
176
     0
177
     0
178
     0
  0
ENDTAB
  0
ENDSEC
  0
SECTION
  2
BLOCKS
  0
BLOCK
  8
0
  2
$MODEL_SPACE
 70
     0
 10
0.0
 20
0.0
 30
0.0
  3
$MODEL_SPACE
  1

  0
ENDBLK
  5
21
  8
0
  0
BLOCK
 67
     1
  8
0
  2
$PAPER_SPACE
 70
     0
 10
0.0
 20
0.0
 30
0.0
  3
$PAPER_SPACE
  1

  0
ENDBLK
  5
76
 67
     1
  8
0
  0
ENDSEC
  0
SECTION
  2
ENTITIES
  0
LINE
  5
578
  8
LAYER_1
 10
43.673736
 20
1.519846
 30
0.0
 11
43.135229
 21
1.853764
 31
0.0
  0
LINE
  5
579
  8
LAYER_1
 10
43.135229
 20
1.853764
 30
0.0
 11
42.920595
 21
2.366512
 31
0.0
  0
LINE
  5
23
  8
LAYER_1
 10
42.920595
 20
2.366512
 30
0.0
 11
42.937791
 21
13.226325
 31
0.0
  0
LINE
  5
24
  8
LAYER_1
 10
42.937791
 20
13.226325
 30
0.0
 11
42.990812
 21
23.474652
 31
0.0
  0
LINE
  5
25
  8
LAYER_1
 10
42.990812
 20
23.474652
 30
0.0
 11
42.31609
 21
23.032556
 31
0.0
  0
LINE
  5
26
  8
LAYER_1
 10
42.31609
 20
23.032556
 30
0.0
 11
41.78314
 21
22.776749
 31
0.0
  0
LINE
  5
57A
  8
LAYER_1
 10
41.78314
 20
22.776749
 30
0.0
 11
41.449281
 21
22.782541
 31
0.0
  0
LINE
  5
28
  8
LAYER_1
 10
41.449281
 20
22.782541
 30
0.0
 11
41.086506
 21
22.701783
 31
0.0
  0
LINE
  5
29
  8
LAYER_1
 10
41.086506
 20
22.701783
 30
0.0
 11
40.484033
 21
22.237892
 31
0.0
  0
LINE
  5
2A
  8
LAYER_1
 10
40.484033
 20
22.237892
 30
0.0
 11
39.617954
 21
21.663496
 31
0.0
  0
LINE
  5
2B
  8
LAYER_1
 10
39.617954
 20
21.663496
 30
0.0
 11
38.575401
 21
21.397443
 31
0.0
  0
LINE
  5
2C
  8
LAYER_1
 10
38.575401
 20
21.397443
 30
0.0
 11
37.164289
 21
21.129605
 31
0.0
  0
LINE
  5
2D
  8
LAYER_1
 10
37.164289
 20
21.129605
 30
0.0
 11
35.973348
 21
20.769182
 31
0.0
  0
LINE
  5
2E
  8
LAYER_1
 10
35.973348
 20
20.769182
 30
0.0
 11
35.088808
 21
20.74075
 31
0.0
  0
LINE
  5
2F
  8
LAYER_1
 10
35.088808
 20
20.74075
 30
0.0
 11
34.289478
 21
21.177445
 31
0.0
  0
LINE
  5
30
  8
LAYER_1
 10
34.289478
 20
21.177445
 30
0.0
 11
33.613614
 21
21.590962
 31
0.0
  0
LINE
  5
31
  8
LAYER_1
 10
33.613614
 20
21.590962
 30
0.0
 11
33.229217
 21
21.403877
 31
0.0
  0
LINE
  5
32
  8
LAYER_1
 10
33.229217
 20
21.403877
 30
0.0
 11
32.89886
 21
21.144034
 31
0.0
  0
LINE
  5
33
  8
LAYER_1
 10
32.89886
 20
21.144034
 30
0.0
 11
32.514199
 21
21.050295
 31
0.0
  0
LINE
  5
34
  8
LAYER_1
 10
32.514199
 20
21.050295
 30
0.0
 11
31.743396
 21
20.815715
 31
0.0
  0
LINE
  5
35
  8
LAYER_1
 10
31.743396
 20
20.815715
 30
0.0
 11
31.383534
 21
20.687386
 31
0.0
  0
LINE
  5
36
  8
LAYER_1
 10
31.383534
 20
20.687386
 30
0.0
 11
30.727701
 21
20.68527
 31
0.0
  0
LINE
  5
37
  8
LAYER_1
 10
30.727701
 20
20.68527
 30
0.0
 11
28.039926
 21
21.096726
 31
0.0
  0
LINE
  5
38
  8
LAYER_1
 10
28.039926
 20
21.096726
 30
0.0
 11
27.339121
 21
21.247545
 31
0.0
  0
LINE
  5
39
  8
LAYER_1
 10
27.339121
 20
21.247545
 30
0.0
 11
26.962957
 21
21.452044
 31
0.0
  0
LINE
  5
3A
  8
LAYER_1
 10
26.962957
 20
21.452044
 30
0.0
 11
26.795938
 21
21.835175
 31
0.0
  0
LINE
  5
3B
  8
LAYER_1
 10
26.795938
 20
21.835175
 30
0.0
 11
26.722567
 21
22.521884
 31
0.0
  0
LINE
  5
3C
  8
LAYER_1
 10
26.722567
 20
22.521884
 30
0.0
 11
26.736051
 21
23.368991
 31
0.0
  0
LINE
  5
3D
  8
LAYER_1
 10
26.736051
 20
23.368991
 30
0.0
 11
26.89295
 21
23.721328
 31
0.0
  0
LINE
  5
3E
  8
LAYER_1
 10
26.89295
 20
23.721328
 30
0.0
 11
27.077157
 21
23.949311
 31
0.0
  0
LINE
  5
3F
  8
LAYER_1
 10
27.077157
 20
23.949311
 30
0.0
 11
27.1563
 21
24.497439
 31
0.0
  0
LINE
  5
40
  8
LAYER_1
 10
27.1563
 20
24.497439
 30
0.0
 11
27.231784
 21
25.203747
 31
0.0
  0
LINE
  5
41
  8
LAYER_1
 10
27.231784
 20
25.203747
 30
0.0
 11
27.458965
 21
25.685793
 31
0.0
  0
LINE
  5
42
  8
LAYER_1
 10
27.458965
 20
25.685793
 30
0.0
 11
27.852702
 21
25.961718
 31
0.0
  0
LINE
  5
43
  8
LAYER_1
 10
27.852702
 20
25.961718
 30
0.0
 11
28.427855
 21
26.049661
 31
0.0
  0
LINE
  5
44
  8
LAYER_1
 10
28.427855
 20
26.049661
 30
0.0
 11
29.101013
 21
26.169813
 31
0.0
  0
LINE
  5
45
  8
LAYER_1
 10
29.101013
 20
26.169813
 30
0.0
 11
29.686533
 21
26.487004
 31
0.0
  0
LINE
  5
46
  8
LAYER_1
 10
29.686533
 20
26.487004
 30
0.0
 11
30.099856
 21
26.936344
 31
0.0
  0
LINE
  5
47
  8
LAYER_1
 10
30.099856
 20
26.936344
 30
0.0
 11
30.256421
 21
27.452938
 31
0.0
  0
LINE
  5
48
  8
LAYER_1
 10
30.256421
 20
27.452938
 30
0.0
 11
30.380775
 21
27.80728
 31
0.0
  0
LINE
  5
49
  8
LAYER_1
 10
30.380775
 20
27.80728
 30
0.0
 11
30.679754
 21
27.954661
 31
0.0
  0
LINE
  5
4A
  8
LAYER_1
 10
30.679754
 20
27.954661
 30
0.0
 11
30.978733
 21
28.028577
 31
0.0
  0
LINE
  5
4B
  8
LAYER_1
 10
30.978733
 20
28.028577
 30
0.0
 11
31.103087
 21
28.206288
 31
0.0
  0
LINE
  5
4C
  8
LAYER_1
 10
31.103087
 20
28.206288
 30
0.0
 11
30.871231
 21
28.461385
 31
0.0
  0
LINE
  5
4D
  8
LAYER_1
 10
30.871231
 20
28.461385
 30
0.0
 11
30.272416
 21
28.672741
 31
0.0
  0
LINE
  5
4E
  8
LAYER_1
 10
30.272416
 20
28.672741
 30
0.0
 11
28.554429
 21
28.823618
 31
0.0
  0
LINE
  5
4F
  8
LAYER_1
 10
28.554429
 20
28.823618
 30
0.0
 11
27.616066
 21
28.944412
 31
0.0
  0
LINE
  5
50
  8
LAYER_1
 10
27.616066
 20
28.944412
 30
0.0
 11
26.842915
 21
29.569658
 31
0.0
  0
LINE
  5
51
  8
LAYER_1
 10
26.842915
 20
29.569658
 30
0.0
 11
25.87169
 21
30.283896
 31
0.0
  0
LINE
  5
52
  8
LAYER_1
 10
25.87169
 20
30.283896
 30
0.0
 11
24.232328
 21
30.767768
 31
0.0
  0
LINE
  5
53
  8
LAYER_1
 10
24.232328
 20
30.767768
 30
0.0
 11
22.803125
 21
31.156177
 31
0.0
  0
LINE
  5
54
  8
LAYER_1
 10
22.803125
 20
31.156177
 30
0.0
 11
22.028731
 21
31.534549
 31
0.0
  0
LINE
  5
55
  8
LAYER_1
 10
22.028731
 20
31.534549
 30
0.0
 11
21.665639
 21
31.796726
 31
0.0
  0
LINE
  5
56
  8
LAYER_1
 10
21.665639
 20
31.796726
 30
0.0
 11
21.22531
 21
31.905773
 31
0.0
  0
LINE
  5
57
  8
LAYER_1
 10
21.22531
 20
31.905773
 30
0.0
 11
20.677734
 21
32.061211
 31
0.0
  0
LINE
  5
58
  8
LAYER_1
 10
20.677734
 20
32.061211
 30
0.0
 11
20.294197
 21
32.512719
 31
0.0
  0
LINE
  5
57B
  8
LAYER_1
 10
20.294197
 20
32.512719
 30
0.0
 11
20.085869
 21
33.238082
 31
0.0
  0
LINE
  5
57C
  8
LAYER_1
 10
20.085869
 20
33.238082
 30
0.0
 11
20.063923
 21
34.215087
 31
0.0
  0
LINE
  5
5B
  8
LAYER_1
 10
20.063923
 20
34.215087
 30
0.0
 11
20.231954
 21
34.597004
 31
0.0
  0
LINE
  5
5C
  8
LAYER_1
 10
20.231954
 20
34.597004
 30
0.0
 11
20.59031
 21
34.848388
 31
0.0
  0
LINE
  5
5D
  8
LAYER_1
 10
20.59031
 20
34.848388
 30
0.0
 11
21.904206
 21
35.714071
 31
0.0
  0
LINE
  5
57D
  8
LAYER_1
 10
21.904206
 20
35.714071
 30
0.0
 11
22.611067
 21
36.213572
 31
0.0
  0
LINE
  5
5F
  8
LAYER_1
 10
22.611067
 20
36.213572
 30
0.0
 11
23.159037
 21
36.421328
 31
0.0
  0
LINE
  5
60
  8
LAYER_1
 10
23.159037
 20
36.421328
 30
0.0
 11
23.776664
 21
36.636529
 31
0.0
  0
LINE
  5
61
  8
LAYER_1
 10
23.776664
 20
36.636529
 30
0.0
 11
24.650996
 21
37.153926
 31
0.0
  0
LINE
  5
62
  8
LAYER_1
 10
24.650996
 20
37.153926
 30
0.0
 11
25.300957
 21
37.570401
 31
0.0
  0
LINE
  5
63
  8
LAYER_1
 10
25.300957
 20
37.570401
 30
0.0
 11
25.892516
 21
37.750132
 31
0.0
  0
LINE
  5
64
  8
LAYER_1
 10
25.892516
 20
37.750132
 30
0.0
 11
28.219623
 21
37.543311
 31
0.0
  0
LINE
  5
65
  8
LAYER_1
 10
28.219623
 20
37.543311
 30
0.0
 11
29.853824
 21
37.361961
 31
0.0
  0
LINE
  5
66
  8
LAYER_1
 10
29.853824
 20
37.361961
 30
0.0
 11
30.932624
 21
37.412556
 31
0.0
  0
LINE
  5
67
  8
LAYER_1
 10
30.932624
 20
37.412556
 30
0.0
 11
31.769875
 21
37.760356
 31
0.0
  0
LINE
  5
68
  8
LAYER_1
 10
31.769875
 20
37.760356
 30
0.0
 11
32.679428
 21
38.470617
 31
0.0
  0
LINE
  5
69
  8
LAYER_1
 10
32.679428
 20
38.470617
 30
0.0
 11
33.330525
 21
39.263913
 31
0.0
  0
LINE
  5
6A
  8
LAYER_1
 10
33.330525
 20
39.263913
 30
0.0
 11
33.227916
 21
39.460549
 31
0.0
  0
LINE
  5
57E
  8
LAYER_1
 10
33.227916
 20
39.460549
 30
0.0
 11
32.840162
 21
39.525773
 31
0.0
  0
LINE
  5
57F
  8
LAYER_1
 10
32.840162
 20
39.525773
 30
0.0
 11
32.322363
 21
39.691578
 31
0.0
  0
LINE
  5
6D
  8
LAYER_1
 10
32.322363
 20
39.691578
 30
0.0
 11
31.808643
 21
40.090217
 31
0.0
  0
LINE
  5
6E
  8
LAYER_1
 10
31.808643
 20
40.090217
 30
0.0
 11
31.448438
 21
40.385328
 31
0.0
  0
LINE
  5
6F
  8
LAYER_1
 10
31.448438
 20
40.385328
 30
0.0
 11
30.910535
 21
40.556365
 31
0.0
  0
LINE
  5
70
  8
LAYER_1
 10
30.910535
 20
40.556365
 30
0.0
 11
28.563087
 21
40.654661
 31
0.0
  0
LINE
  5
71
  8
LAYER_1
 10
28.563087
 20
40.654661
 30
0.0
 11
26.249804
 21
40.750582
 31
0.0
  0
LINE
  5
72
  8
LAYER_1
 10
26.249804
 20
40.750582
 30
0.0
 11
25.704463
 21
40.907729
 31
0.0
  0
LINE
  5
580
  8
LAYER_1
 10
25.704463
 20
40.907729
 30
0.0
 11
25.361273
 21
41.170773
 31
0.0
  0
LINE
  5
581
  8
LAYER_1
 10
25.361273
 20
41.170773
 30
0.0
 11
25.031402
 21
41.668079
 31
0.0
  0
LINE
  5
582
  8
LAYER_1
 10
25.031402
 20
41.668079
 30
0.0
 11
24.894199
 21
42.138981
 31
0.0
  0
LINE
  5
583
  8
LAYER_1
 10
24.894199
 20
42.138981
 30
0.0
 11
25.093498
 21
42.81146
 31
0.0
  0
LINE
  5
77
  8
LAYER_1
 10
25.093498
 20
42.81146
 30
0.0
 11
25.590293
 21
43.625348
 31
0.0
  0
LINE
  5
78
  8
LAYER_1
 10
25.590293
 20
43.625348
 30
0.0
 11
26.23293
 21
44.37283
 31
0.0
  0
LINE
  5
79
  8
LAYER_1
 10
26.23293
 20
44.37283
 30
0.0
 11
26.869754
 21
44.846096
 31
0.0
  0
LINE
  5
7A
  8
LAYER_1
 10
26.869754
 20
44.846096
 30
0.0
 11
28.787019
 21
46.29844
 31
0.0
  0
LINE
  5
7B
  8
LAYER_1
 10
28.787019
 20
46.29844
 30
0.0
 11
29.881001
 21
47.136291
 31
0.0
  0
LINE
  5
7C
  8
LAYER_1
 10
29.881001
 20
47.136291
 30
0.0
 11
30.762575
 21
47.447832
 31
0.0
  0
LINE
  5
7D
  8
LAYER_1
 10
30.762575
 20
47.447832
 30
0.0
 11
31.29838
 21
47.50265
 31
0.0
  0
LINE
  5
7E
  8
LAYER_1
 10
31.29838
 20
47.50265
 30
0.0
 11
30.961976
 21
47.691271
 31
0.0
  0
LINE
  5
7F
  8
LAYER_1
 10
30.961976
 20
47.691271
 30
0.0
 11
30.154207
 21
47.854753
 31
0.0
  0
LINE
  5
80
  8
LAYER_1
 10
30.154207
 20
47.854753
 30
0.0
 11
29.338839
 21
47.724011
 31
0.0
  0
LINE
  5
81
  8
LAYER_1
 10
29.338839
 20
47.724011
 30
0.0
 11
28.548109
 21
47.30998
 31
0.0
  0
LINE
  5
82
  8
LAYER_1
 10
28.548109
 20
47.30998
 30
0.0
 11
27.814256
 21
46.623597
 31
0.0
  0
LINE
  5
83
  8
LAYER_1
 10
27.814256
 20
46.623597
 30
0.0
 11
26.771633
 21
45.688702
 31
0.0
  0
LINE
  5
84
  8
LAYER_1
 10
26.771633
 20
45.688702
 30
0.0
 11
25.514605
 21
44.914205
 31
0.0
  0
LINE
  5
85
  8
LAYER_1
 10
25.514605
 20
44.914205
 30
0.0
 11
24.197594
 21
44.409613
 31
0.0
  0
LINE
  5
86
  8
LAYER_1
 10
24.197594
 20
44.409613
 30
0.0
 11
23.829327
 21
44.492295
 31
0.0
  0
LINE
  5
87
  8
LAYER_1
 10
23.829327
 20
44.492295
 30
0.0
 11
23.403159
 21
44.78263
 31
0.0
  0
LINE
  5
88
  8
LAYER_1
 10
23.403159
 20
44.78263
 30
0.0
 11
22.814527
 21
45.519478
 31
0.0
  0
LINE
  5
89
  8
LAYER_1
 10
22.814527
 20
45.519478
 30
0.0
 11
22.543302
 21
46.84049
 31
0.0
  0
LINE
  5
8A
  8
LAYER_1
 10
22.543302
 20
46.84049
 30
0.0
 11
22.50998
 21
48.066865
 31
0.0
  0
LINE
  5
8B
  8
LAYER_1
 10
22.50998
 20
48.066865
 30
0.0
 11
22.651912
 21
48.868048
 31
0.0
  0
LINE
  5
8C
  8
LAYER_1
 10
22.651912
 20
48.868048
 30
0.0
 11
22.918643
 21
50.073896
 31
0.0
  0
LINE
  5
8D
  8
LAYER_1
 10
22.918643
 20
50.073896
 30
0.0
 11
23.001546
 21
50.624772
 31
0.0
  0
LINE
  5
8E
  8
LAYER_1
 10
23.001546
 20
50.624772
 30
0.0
 11
23.200865
 21
50.955773
 31
0.0
  0
LINE
  5
8F
  8
LAYER_1
 10
23.200865
 20
50.955773
 30
0.0
 11
23.400185
 21
51.24509
 31
0.0
  0
LINE
  5
90
  8
LAYER_1
 10
23.400185
 20
51.24509
 30
0.0
 11
23.483087
 21
51.695751
 31
0.0
  0
LINE
  5
91
  8
LAYER_1
 10
23.483087
 20
51.695751
 30
0.0
 11
23.749657
 21
52.788876
 31
0.0
  0
LINE
  5
584
  8
LAYER_1
 10
23.749657
 20
52.788876
 30
0.0
 11
24.458695
 21
54.170004
 31
0.0
  0
LINE
  5
585
  8
LAYER_1
 10
24.458695
 20
54.170004
 30
0.0
 11
25.474198
 21
55.616165
 31
0.0
  0
LINE
  5
94
  8
LAYER_1
 10
25.474198
 20
55.616165
 30
0.0
 11
26.660162
 21
56.904388
 31
0.0
  0
LINE
  5
95
  8
LAYER_1
 10
26.660162
 20
56.904388
 30
0.0
 11
28.510281
 21
58.434661
 31
0.0
  0
LINE
  5
96
  8
LAYER_1
 10
28.510281
 20
58.434661
 30
0.0
 11
29.080011
 21
59.276172
 31
0.0
  0
LINE
  5
586
  8
LAYER_1
 10
29.080011
 20
59.276172
 30
0.0
 11
29.538108
 21
59.975631
 31
0.0
  0
LINE
  5
587
  8
LAYER_1
 10
29.538108
 20
59.975631
 30
0.0
 11
30.116416
 21
60.475616
 31
0.0
  0
LINE
  5
99
  8
LAYER_1
 10
30.116416
 20
60.475616
 30
0.0
 11
33.928143
 21
62.768205
 31
0.0
  0
LINE
  5
9A
  8
LAYER_1
 10
33.928143
 20
62.768205
 30
0.0
 11
36.751226
 21
64.95530100000001
 31
0.0
  0
LINE
  5
9B
  8
LAYER_1
 10
36.751226
 20
64.95530100000001
 30
0.0
 11
38.160906
 21
66.457605
 31
0.0
  0
LINE
  5
9C
  8
LAYER_1
 10
38.160906
 20
66.457605
 30
0.0
 11
38.388682
 21
67.00367300000001
 31
0.0
  0
LINE
  5
9D
  8
LAYER_1
 10
38.388682
 20
67.00367300000001
 30
0.0
 11
38.440865
 21
67.639303
 31
0.0
  0
LINE
  5
9E
  8
LAYER_1
 10
38.440865
 20
67.639303
 30
0.0
 11
38.440865
 21
68.74155
 31
0.0
  0
LINE
  5
9F
  8
LAYER_1
 10
38.440865
 20
68.74155
 30
0.0
 11
35.272221
 21
68.800308
 31
0.0
  0
LINE
  5
A0
  8
LAYER_1
 10
35.272221
 20
68.800308
 30
0.0
 11
32.506746
 21
68.737503
 31
0.0
  0
LINE
  5
A1
  8
LAYER_1
 10
32.506746
 20
68.737503
 30
0.0
 11
30.504263
 21
68.444641
 31
0.0
  0
LINE
  5
A2
  8
LAYER_1
 10
30.504263
 20
68.444641
 30
0.0
 11
28.199294
 21
68.03021699999999
 31
0.0
  0
LINE
  5
A3
  8
LAYER_1
 10
28.199294
 20
68.03021699999999
 30
0.0
 11
27.811511
 21
68.054069
 31
0.0
  0
LINE
  5
A4
  8
LAYER_1
 10
27.811511
 20
68.054069
 30
0.0
 11
27.630107
 21
68.182018
 31
0.0
  0
LINE
  5
A5
  8
LAYER_1
 10
27.630107
 20
68.182018
 30
0.0
 11
27.739411
 21
69.08855
 31
0.0
  0
LINE
  5
A6
  8
LAYER_1
 10
27.739411
 20
69.08855
 30
0.0
 11
27.971881
 21
70.515725
 31
0.0
  0
LINE
  5
A7
  8
LAYER_1
 10
27.971881
 20
70.515725
 30
0.0
 11
27.875397
 21
70.78129300000001
 31
0.0
  0
LINE
  5
A8
  8
LAYER_1
 10
27.875397
 20
70.78129300000001
 30
0.0
 11
27.630673
 21
70.852439
 31
0.0
  0
LINE
  5
A9
  8
LAYER_1
 10
27.630673
 20
70.852439
 30
0.0
 11
27.080917
 21
71.135398
 31
0.0
  0
LINE
  5
AA
  8
LAYER_1
 10
27.080917
 20
71.135398
 30
0.0
 11
26.358099
 21
71.79626399999999
 31
0.0
  0
LINE
  5
AB
  8
LAYER_1
 10
26.358099
 20
71.79626399999999
 30
0.0
 11
25.730805
 21
72.553021
 31
0.0
  0
LINE
  5
AC
  8
LAYER_1
 10
25.730805
 20
72.553021
 30
0.0
 11
25.46762
 21
73.123654
 31
0.0
  0
LINE
  5
AD
  8
LAYER_1
 10
25.46762
 20
73.123654
 30
0.0
 11
25.679134
 21
73.806348
 31
0.0
  0
LINE
  5
AE
  8
LAYER_1
 10
25.679134
 20
73.806348
 30
0.0
 11
26.252081
 21
74.400903
 31
0.0
  0
LINE
  5
AF
  8
LAYER_1
 10
26.252081
 20
74.400903
 30
0.0
 11
27.141088
 21
74.87417499999999
 31
0.0
  0
LINE
  5
B0
  8
LAYER_1
 10
27.141088
 20
74.87417499999999
 30
0.0
 11
28.300779
 21
75.193023
 31
0.0
  0
LINE
  5
B1
  8
LAYER_1
 10
28.300779
 20
75.193023
 30
0.0
 11
29.208464
 21
75.541382
 31
0.0
  0
LINE
  5
B2
  8
LAYER_1
 10
29.208464
 20
75.541382
 30
0.0
 11
29.925035
 21
76.208523
 31
0.0
  0
LINE
  5
B3
  8
LAYER_1
 10
29.925035
 20
76.208523
 30
0.0
 11
30.480968
 21
76.76628100000001
 31
0.0
  0
LINE
  5
B4
  8
LAYER_1
 10
30.480968
 20
76.76628100000001
 30
0.0
 11
30.941402
 21
76.88906
 31
0.0
  0
LINE
  5
B5
  8
LAYER_1
 10
30.941402
 20
76.88906
 30
0.0
 11
31.416771
 21
76.88363800000001
 31
0.0
  0
LINE
  5
B6
  8
LAYER_1
 10
31.416771
 20
76.88363800000001
 30
0.0
 11
31.998257
 21
77.086039
 31
0.0
  0
LINE
  5
B7
  8
LAYER_1
 10
31.998257
 20
77.086039
 30
0.0
 11
33.213993
 21
77.90252200000001
 31
0.0
  0
LINE
  5
B8
  8
LAYER_1
 10
33.213993
 20
77.90252200000001
 30
0.0
 11
34.672807
 21
79.07638300000001
 31
0.0
  0
LINE
  5
B9
  8
LAYER_1
 10
34.672807
 20
79.07638300000001
 30
0.0
 11
35.86995
 21
80.17563199999999
 31
0.0
  0
LINE
  5
BA
  8
LAYER_1
 10
35.86995
 20
80.17563199999999
 30
0.0
 11
36.300675
 21
80.76828
 31
0.0
  0
LINE
  5
BB
  8
LAYER_1
 10
36.300675
 20
80.76828
 30
0.0
 11
36.380075
 21
81.119726
 31
0.0
  0
LINE
  5
BC
  8
LAYER_1
 10
36.380075
 20
81.119726
 30
0.0
 11
36.796559
 21
81.599684
 31
0.0
  0
LINE
  5
BD
  8
LAYER_1
 10
36.796559
 20
81.599684
 30
0.0
 11
37.453087
 21
82.171162
 31
0.0
  0
LINE
  5
BE
  8
LAYER_1
 10
37.453087
 20
82.171162
 30
0.0
 11
36.806618
 21
81.992476
 31
0.0
  0
LINE
  5
BF
  8
LAYER_1
 10
36.806618
 20
81.992476
 30
0.0
 11
35.893584
 21
82.00985300000001
 31
0.0
  0
LINE
  5
C0
  8
LAYER_1
 10
35.893584
 20
82.00985300000001
 30
0.0
 11
34.606233
 21
82.302553
 31
0.0
  0
LINE
  5
C1
  8
LAYER_1
 10
34.606233
 20
82.302553
 30
0.0
 11
33.411778
 21
82.80517399999999
 31
0.0
  0
LINE
  5
C2
  8
LAYER_1
 10
33.411778
 20
82.80517399999999
 30
0.0
 11
32.570349
 21
83.433323
 31
0.0
  0
LINE
  5
C3
  8
LAYER_1
 10
32.570349
 20
83.433323
 30
0.0
 11
32.117688
 21
84.14985900000001
 31
0.0
  0
LINE
  5
C4
  8
LAYER_1
 10
32.117688
 20
84.14985900000001
 30
0.0
 11
32.089542
 21
84.917641
 31
0.0
  0
LINE
  5
C5
  8
LAYER_1
 10
32.089542
 20
84.917641
 30
0.0
 11
32.734123
 21
86.23811499999999
 31
0.0
  0
LINE
  5
C6
  8
LAYER_1
 10
32.734123
 20
86.23811499999999
 30
0.0
 11
33.156239
 21
86.730249
 31
0.0
  0
LINE
  5
C7
  8
LAYER_1
 10
33.156239
 20
86.730249
 30
0.0
 11
33.517168
 21
86.930238
 31
0.0
  0
LINE
  5
C8
  8
LAYER_1
 10
33.517168
 20
86.930238
 30
0.0
 11
34.012685
 21
87.24738600000001
 31
0.0
  0
LINE
  5
C9
  8
LAYER_1
 10
34.012685
 20
87.24738600000001
 30
0.0
 11
34.786387
 21
87.997439
 31
0.0
  0
LINE
  5
CA
  8
LAYER_1
 10
34.786387
 20
87.997439
 30
0.0
 11
35.356622
 21
88.645139
 31
0.0
  0
LINE
  5
CB
  8
LAYER_1
 10
35.356622
 20
88.645139
 30
0.0
 11
35.439737
 21
88.76454200000001
 31
0.0
  0
LINE
  5
CC
  8
LAYER_1
 10
35.439737
 20
88.76454200000001
 30
0.0
 11
35.362958
 21
88.71620299999999
 31
0.0
  0
LINE
  5
CD
  8
LAYER_1
 10
35.362958
 20
88.71620299999999
 30
0.0
 11
34.935662
 21
88.553063
 31
0.0
  0
LINE
  5
CE
  8
LAYER_1
 10
34.935662
 20
88.553063
 30
0.0
 11
34.463989
 21
88.643355
 31
0.0
  0
LINE
  5
CF
  8
LAYER_1
 10
34.463989
 20
88.643355
 30
0.0
 11
34.082388
 21
88.92800200000001
 31
0.0
  0
LINE
  5
D0
  8
LAYER_1
 10
34.082388
 20
88.92800200000001
 30
0.0
 11
33.92531
 21
89.34792299999999
 31
0.0
  0
LINE
  5
D1
  8
LAYER_1
 10
33.92531
 20
89.34792299999999
 30
0.0
 11
33.852249
 21
89.64900400000001
 31
0.0
  0
LINE
  5
D2
  8
LAYER_1
 10
33.852249
 20
89.64900400000001
 30
0.0
 11
33.649636
 21
89.74337199999999
 31
0.0
  0
LINE
  5
D3
  8
LAYER_1
 10
33.649636
 20
89.74337199999999
 30
0.0
 11
32.955171
 21
89.315315
 31
0.0
  0
LINE
  5
D4
  8
LAYER_1
 10
32.955171
 20
89.315315
 30
0.0
 11
32.537286
 21
89.03653
 31
0.0
  0
LINE
  5
D5
  8
LAYER_1
 10
32.537286
 20
89.03653
 30
0.0
 11
32.1589
 21
88.992572
 31
0.0
  0
LINE
  5
D6
  8
LAYER_1
 10
32.1589
 20
88.992572
 30
0.0
 11
31.201922
 21
88.891875
 31
0.0
  0
LINE
  5
D7
  8
LAYER_1
 10
31.201922
 20
88.891875
 30
0.0
 11
30.68335
 21
88.835995
 31
0.0
  0
LINE
  5
D8
  8
LAYER_1
 10
30.68335
 20
88.835995
 30
0.0
 11
30.429663
 21
89.285177
 31
0.0
  0
LINE
  5
D9
  8
LAYER_1
 10
30.429663
 20
89.285177
 30
0.0
 11
30.289852
 21
90.04542100000001
 31
0.0
  0
LINE
  5
DA
  8
LAYER_1
 10
30.289852
 20
90.04542100000001
 30
0.0
 11
30.332498
 21
90.772553
 31
0.0
  0
LINE
  5
DB
  8
LAYER_1
 10
30.332498
 20
90.772553
 30
0.0
 11
31.07767
 21
92.724661
 31
0.0
  0
LINE
  5
DC
  8
LAYER_1
 10
31.07767
 20
92.724661
 30
0.0
 11
31.891591
 21
94.41799500000001
 31
0.0
  0
LINE
  5
DD
  8
LAYER_1
 10
31.891591
 20
94.41799500000001
 30
0.0
 11
30.727983
 21
94.586555
 31
0.0
  0
LINE
  5
DE
  8
LAYER_1
 10
30.727983
 20
94.586555
 30
0.0
 11
29.099693
 21
94.63359800000001
 31
0.0
  0
LINE
  5
DF
  8
LAYER_1
 10
29.099693
 20
94.63359800000001
 30
0.0
 11
28.598196
 21
94.773748
 31
0.0
  0
LINE
  5
E0
  8
LAYER_1
 10
28.598196
 20
94.773748
 30
0.0
 11
28.034604
 21
95.355272
 31
0.0
  0
LINE
  5
E1
  8
LAYER_1
 10
28.034604
 20
95.355272
 30
0.0
 11
27.463814
 21
96.427331
 31
0.0
  0
LINE
  5
E2
  8
LAYER_1
 10
27.463814
 20
96.427331
 30
0.0
 11
27.485222
 21
96.716477
 31
0.0
  0
LINE
  5
E3
  8
LAYER_1
 10
27.485222
 20
96.716477
 30
0.0
 11
27.716421
 21
96.816884
 31
0.0
  0
LINE
  5
E4
  8
LAYER_1
 10
27.716421
 20
96.816884
 30
0.0
 11
27.91574
 21
96.94682400000001
 31
0.0
  0
LINE
  5
E5
  8
LAYER_1
 10
27.91574
 20
96.94682400000001
 30
0.0
 11
27.998643
 21
97.259236
 31
0.0
  0
LINE
  5
E6
  8
LAYER_1
 10
27.998643
 20
97.259236
 30
0.0
 11
28.124107
 21
97.551202
 31
0.0
  0
LINE
  5
E7
  8
LAYER_1
 10
28.124107
 20
97.551202
 30
0.0
 11
28.492532
 21
97.551946
 31
0.0
  0
LINE
  5
E8
  8
LAYER_1
 10
28.492532
 20
97.551946
 30
0.0
 11
29.848248
 21
97.182351
 31
0.0
  0
LINE
  5
E9
  8
LAYER_1
 10
29.848248
 20
97.182351
 30
0.0
 11
30.750944
 21
97.06115800000001
 31
0.0
  0
LINE
  5
EA
  8
LAYER_1
 10
30.750944
 20
97.06115800000001
 30
0.0
 11
31.341136
 21
97.188991
 31
0.0
  0
LINE
  5
EB
  8
LAYER_1
 10
31.341136
 20
97.188991
 30
0.0
 11
31.759342
 21
97.56647700000001
 31
0.0
  0
LINE
  5
EC
  8
LAYER_1
 10
31.759342
 20
97.56647700000001
 30
0.0
 11
32.248815
 21
98.03367400000001
 31
0.0
  0
LINE
  5
ED
  8
LAYER_1
 10
32.248815
 20
98.03367400000001
 30
0.0
 11
32.724928
 21
98.22799500000001
 31
0.0
  0
LINE
  5
EE
  8
LAYER_1
 10
32.724928
 20
98.22799500000001
 30
0.0
 11
33.023767
 21
98.298551
 31
0.0
  0
LINE
  5
EF
  8
LAYER_1
 10
33.023767
 20
98.298551
 30
0.0
 11
32.852865
 21
98.566661
 31
0.0
  0
LINE
  5
F0
  8
LAYER_1
 10
32.852865
 20
98.566661
 30
0.0
 11
32.589667
 21
98.97941
 31
0.0
  0
LINE
  5
F1
  8
LAYER_1
 10
32.589667
 20
98.97941
 30
0.0
 11
32.532361
 21
99.433426
 31
0.0
  0
LINE
  5
F2
  8
LAYER_1
 10
32.532361
 20
99.433426
 30
0.0
 11
32.674113
 21
99.85763
 31
0.0
  0
LINE
  5
F3
  8
LAYER_1
 10
32.674113
 20
99.85763
 30
0.0
 11
33.008087
 21
100.180944
 31
0.0
  0
LINE
  5
F4
  8
LAYER_1
 10
33.008087
 20
100.180944
 30
0.0
 11
33.284569
 21
100.386629
 31
0.0
  0
LINE
  5
F5
  8
LAYER_1
 10
33.284569
 20
100.386629
 30
0.0
 11
33.255754
 21
100.47719
 31
0.0
  0
LINE
  5
F6
  8
LAYER_1
 10
33.255754
 20
100.47719
 30
0.0
 11
33.174619
 21
100.595022
 31
0.0
  0
LINE
  5
F7
  8
LAYER_1
 10
33.174619
 20
100.595022
 30
0.0
 11
33.325311
 21
100.866267
 31
0.0
  0
LINE
  5
F8
  8
LAYER_1
 10
33.325311
 20
100.866267
 30
0.0
 11
33.453033
 21
101.274444
 31
0.0
  0
LINE
  5
F9
  8
LAYER_1
 10
33.453033
 20
101.274444
 30
0.0
 11
33.077647
 21
101.756676
 31
0.0
  0
LINE
  5
FA
  8
LAYER_1
 10
33.077647
 20
101.756676
 30
0.0
 11
32.679711
 21
102.264864
 31
0.0
  0
LINE
  5
FB
  8
LAYER_1
 10
32.679711
 20
102.264864
 30
0.0
 11
32.514199
 21
102.770635
 31
0.0
  0
LINE
  5
FC
  8
LAYER_1
 10
32.514199
 20
102.770635
 30
0.0
 11
32.431296
 21
103.177856
 31
0.0
  0
LINE
  5
FD
  8
LAYER_1
 10
32.431296
 20
103.177856
 30
0.0
 11
32.231976
 21
103.449106
 31
0.0
  0
LINE
  5
FE
  8
LAYER_1
 10
32.231976
 20
103.449106
 30
0.0
 11
31.959878
 21
103.849473
 31
0.0
  0
LINE
  5
FF
  8
LAYER_1
 10
31.959878
 20
103.849473
 30
0.0
 11
32.035736
 21
104.366315
 31
0.0
  0
LINE
  5
100
  8
LAYER_1
 10
32.035736
 20
104.366315
 30
0.0
 11
32.391288
 21
104.842502
 31
0.0
  0
LINE
  5
101
  8
LAYER_1
 10
32.391288
 20
104.842502
 30
0.0
 11
32.958272
 21
105.120908
 31
0.0
  0
LINE
  5
102
  8
LAYER_1
 10
32.958272
 20
105.120908
 30
0.0
 11
34.929925
 21
105.967482
 31
0.0
  0
LINE
  5
103
  8
LAYER_1
 10
34.929925
 20
105.967482
 30
0.0
 11
35.720814
 21
106.46418
 31
0.0
  0
LINE
  5
104
  8
LAYER_1
 10
35.720814
 20
106.46418
 30
0.0
 11
35.875784
 21
106.625089
 31
0.0
  0
LINE
  5
105
  8
LAYER_1
 10
35.875784
 20
106.625089
 30
0.0
 11
35.797394
 21
106.687402
 31
0.0
  0
LINE
  5
106
  8
LAYER_1
 10
35.797394
 20
106.687402
 30
0.0
 11
35.422908
 21
106.81918
 31
0.0
  0
LINE
  5
107
  8
LAYER_1
 10
35.422908
 20
106.81918
 30
0.0
 11
35.416242
 21
107.251641
 31
0.0
  0
LINE
  5
108
  8
LAYER_1
 10
35.416242
 20
107.251641
 30
0.0
 11
35.446468
 21
107.586441
 31
0.0
  0
LINE
  5
109
  8
LAYER_1
 10
35.446468
 20
107.586441
 30
0.0
 11
35.198827
 21
107.80537
 31
0.0
  0
LINE
  5
10A
  8
LAYER_1
 10
35.198827
 20
107.80537
 30
0.0
 11
33.150782
 21
108.195121
 31
0.0
  0
LINE
  5
10B
  8
LAYER_1
 10
33.150782
 20
108.195121
 30
0.0
 11
32.965602
 21
108.409391
 31
0.0
  0
LINE
  5
10C
  8
LAYER_1
 10
32.965602
 20
108.409391
 30
0.0
 11
33.221337
 21
109.055255
 31
0.0
  0
LINE
  5
10D
  8
LAYER_1
 10
33.221337
 20
109.055255
 30
0.0
 11
33.521834
 21
109.886125
 31
0.0
  0
LINE
  5
10E
  8
LAYER_1
 10
33.521834
 20
109.886125
 30
0.0
 11
33.652062
 21
110.748589
 31
0.0
  0
LINE
  5
10F
  8
LAYER_1
 10
33.652062
 20
110.748589
 30
0.0
 11
33.765061
 21
111.663425
 31
0.0
  0
LINE
  5
110
  8
LAYER_1
 10
33.765061
 20
111.663425
 30
0.0
 11
34.195465
 21
112.187474
 31
0.0
  0
LINE
  5
111
  8
LAYER_1
 10
34.195465
 20
112.187474
 30
0.0
 11
35.115136
 21
112.416616
 31
0.0
  0
LINE
  5
112
  8
LAYER_1
 10
35.115136
 20
112.416616
 30
0.0
 11
36.695936
 21
112.44673
 31
0.0
  0
LINE
  5
113
  8
LAYER_1
 10
36.695936
 20
112.44673
 30
0.0
 11
38.743934
 21
112.50496
 31
0.0
  0
LINE
  5
114
  8
LAYER_1
 10
38.743934
 20
112.50496
 30
0.0
 11
39.103935
 21
112.701212
 31
0.0
  0
LINE
  5
115
  8
LAYER_1
 10
39.103935
 20
112.701212
 30
0.0
 11
39.299507
 21
113.076153
 31
0.0
  0
LINE
  5
116
  8
LAYER_1
 10
39.299507
 20
113.076153
 30
0.0
 11
39.604306
 21
113.55221
 31
0.0
  0
LINE
  5
117
  8
LAYER_1
 10
39.604306
 20
113.55221
 30
0.0
 11
39.977243
 21
113.750216
 31
0.0
  0
LINE
  5
118
  8
LAYER_1
 10
39.977243
 20
113.750216
 30
0.0
 11
40.236407
 21
113.86097
 31
0.0
  0
LINE
  5
119
  8
LAYER_1
 10
40.236407
 20
113.86097
 30
0.0
 11
40.249184
 21
114.13986
 31
0.0
  0
LINE
  5
11A
  8
LAYER_1
 10
40.249184
 20
114.13986
 30
0.0
 11
40.416905
 21
114.594797
 31
0.0
  0
LINE
  5
11B
  8
LAYER_1
 10
40.416905
 20
114.594797
 30
0.0
 11
41.119555
 21
115.159831
 31
0.0
  0
LINE
  5
11C
  8
LAYER_1
 10
41.119555
 20
115.159831
 30
0.0
 11
41.788322
 21
115.626209
 31
0.0
  0
LINE
  5
11D
  8
LAYER_1
 10
41.788322
 20
115.626209
 30
0.0
 11
41.97095
 21
115.890603
 31
0.0
  0
LINE
  5
11E
  8
LAYER_1
 10
41.97095
 20
115.890603
 30
0.0
 11
41.670891
 21
115.94368
 31
0.0
  0
LINE
  5
11F
  8
LAYER_1
 10
41.670891
 20
115.94368
 30
0.0
 11
40.891598
 21
115.776102
 31
0.0
  0
LINE
  5
120
  8
LAYER_1
 10
40.891598
 20
115.776102
 30
0.0
 11
39.896165
 21
115.677692
 31
0.0
  0
LINE
  5
121
  8
LAYER_1
 10
39.896165
 20
115.677692
 30
0.0
 11
38.876108
 21
116.233522
 31
0.0
  0
LINE
  5
122
  8
LAYER_1
 10
38.876108
 20
116.233522
 30
0.0
 11
38.083432
 21
116.962082
 31
0.0
  0
LINE
  5
123
  8
LAYER_1
 10
38.083432
 20
116.962082
 30
0.0
 11
37.933506
 21
117.685431
 31
0.0
  0
LINE
  5
124
  8
LAYER_1
 10
37.933506
 20
117.685431
 30
0.0
 11
38.055026
 21
118.174231
 31
0.0
  0
LINE
  5
125
  8
LAYER_1
 10
38.055026
 20
118.174231
 30
0.0
 11
38.229199
 21
118.336328
 31
0.0
  0
LINE
  5
126
  8
LAYER_1
 10
38.229199
 20
118.336328
 30
0.0
 11
38.535776
 21
118.436427
 31
0.0
  0
LINE
  5
127
  8
LAYER_1
 10
38.535776
 20
118.436427
 30
0.0
 11
38.957972
 21
118.791788
 31
0.0
  0
LINE
  5
128
  8
LAYER_1
 10
38.957972
 20
118.791788
 30
0.0
 11
39.653012
 21
119.768998
 31
0.0
  0
LINE
  5
129
  8
LAYER_1
 10
39.653012
 20
119.768998
 30
0.0
 11
39.896796
 21
120.102581
 31
0.0
  0
LINE
  5
12A
  8
LAYER_1
 10
39.896796
 20
120.102581
 30
0.0
 11
40.228393
 21
120.241328
 31
0.0
  0
LINE
  5
12B
  8
LAYER_1
 10
40.228393
 20
120.241328
 30
0.0
 11
40.836354
 21
120.441828
 31
0.0
  0
LINE
  5
12C
  8
LAYER_1
 10
40.836354
 20
120.441828
 30
0.0
 11
41.507497
 21
120.983073
 31
0.0
  0
LINE
  5
12D
  8
LAYER_1
 10
41.507497
 20
120.983073
 30
0.0
 11
42.152564
 21
121.774676
 31
0.0
  0
LINE
  5
12E
  8
LAYER_1
 10
42.152564
 20
121.774676
 30
0.0
 11
42.682298
 21
122.726255
 31
0.0
  0
LINE
  5
12F
  8
LAYER_1
 10
42.682298
 20
122.726255
 30
0.0
 11
43.335408
 21
123.910796
 31
0.0
  0
LINE
  5
130
  8
LAYER_1
 10
43.335408
 20
123.910796
 30
0.0
 11
44.0838
 21
124.897994
 31
0.0
  0
LINE
  5
131
  8
LAYER_1
 10
44.0838
 20
124.897994
 30
0.0
 11
44.749208
 21
125.759371
 31
0.0
  0
LINE
  5
132
  8
LAYER_1
 10
44.749208
 20
125.759371
 30
0.0
 11
45.384301
 21
126.853914
 31
0.0
  0
LINE
  5
133
  8
LAYER_1
 10
45.384301
 20
126.853914
 30
0.0
 11
45.86186
 21
127.933088
 31
0.0
  0
LINE
  5
134
  8
LAYER_1
 10
45.86186
 20
127.933088
 30
0.0
 11
46.054668
 21
128.748355
 31
0.0
  0
LINE
  5
135
  8
LAYER_1
 10
46.054668
 20
128.748355
 30
0.0
 11
46.190179
 21
129.12616
 31
0.0
  0
LINE
  5
136
  8
LAYER_1
 10
46.190179
 20
129.12616
 30
0.0
 11
46.507281
 21
129.383355
 31
0.0
  0
LINE
  5
137
  8
LAYER_1
 10
46.507281
 20
129.383355
 30
0.0
 11
47.238946
 21
129.556518
 31
0.0
  0
LINE
  5
138
  8
LAYER_1
 10
47.238946
 20
129.556518
 30
0.0
 11
47.855691
 21
129.37368
 31
0.0
  0
LINE
  5
139
  8
LAYER_1
 10
47.855691
 20
129.37368
 30
0.0
 11
48.498478
 21
128.743896
 31
0.0
  0
LINE
  5
13A
  8
LAYER_1
 10
48.498478
 20
128.743896
 30
0.0
 11
49.308272
 21
127.576218
 31
0.0
  0
LINE
  5
13B
  8
LAYER_1
 10
49.308272
 20
127.576218
 30
0.0
 11
50.576421
 21
125.447751
 31
0.0
  0
LINE
  5
13C
  8
LAYER_1
 10
50.576421
 20
125.447751
 30
0.0
 11
51.028669
 21
124.812188
 31
0.0
  0
LINE
  5
13D
  8
LAYER_1
 10
51.028669
 20
124.812188
 30
0.0
 11
52.074836
 21
123.919931
 31
0.0
  0
LINE
  5
13E
  8
LAYER_1
 10
52.074836
 20
123.919931
 30
0.0
 11
53.249057
 21
123.124978
 31
0.0
  0
LINE
  5
13F
  8
LAYER_1
 10
53.249057
 20
123.124978
 30
0.0
 11
54.085467
 21
122.781328
 31
0.0
  0
LINE
  5
140
  8
LAYER_1
 10
54.085467
 20
122.781328
 30
0.0
 11
54.767189
 21
122.514294
 31
0.0
  0
LINE
  5
141
  8
LAYER_1
 10
54.767189
 20
122.514294
 30
0.0
 11
55.347846
 21
121.857571
 31
0.0
  0
LINE
  5
142
  8
LAYER_1
 10
55.347846
 20
121.857571
 30
0.0
 11
55.692619
 21
121.027726
 31
0.0
  0
LINE
  5
143
  8
LAYER_1
 10
55.692619
 20
121.027726
 30
0.0
 11
55.666688
 21
120.241328
 31
0.0
  0
LINE
  5
144
  8
LAYER_1
 10
55.666688
 20
120.241328
 30
0.0
 11
55.506714
 21
119.231585
 31
0.0
  0
LINE
  5
145
  8
LAYER_1
 10
55.506714
 20
119.231585
 30
0.0
 11
55.599612
 21
118.828567
 31
0.0
  0
LINE
  5
146
  8
LAYER_1
 10
55.599612
 20
118.828567
 30
0.0
 11
55.803783
 21
118.542805
 31
0.0
  0
LINE
  5
147
  8
LAYER_1
 10
55.803783
 20
118.542805
 30
0.0
 11
56.098348
 21
118.172917
 31
0.0
  0
LINE
  5
148
  8
LAYER_1
 10
56.098348
 20
118.172917
 30
0.0
 11
56.220865
 21
117.769689
 31
0.0
  0
LINE
  5
149
  8
LAYER_1
 10
56.220865
 20
117.769689
 30
0.0
 11
56.407396
 21
117.276751
 31
0.0
  0
LINE
  5
14A
  8
LAYER_1
 10
56.407396
 20
117.276751
 30
0.0
 11
56.855865
 21
116.691176
 31
0.0
  0
LINE
  5
14B
  8
LAYER_1
 10
56.855865
 20
116.691176
 30
0.0
 11
58.170521
 21
115.272709
 31
0.0
  0
LINE
  5
14C
  8
LAYER_1
 10
58.170521
 20
115.272709
 30
0.0
 11
58.478643
 21
114.659767
 31
0.0
  0
LINE
  5
14D
  8
LAYER_1
 10
58.478643
 20
114.659767
 30
0.0
 11
58.29742
 21
114.295844
 31
0.0
  0
LINE
  5
14E
  8
LAYER_1
 10
58.29742
 20
114.295844
 30
0.0
 11
57.867871
 21
113.928444
 31
0.0
  0
LINE
  5
14F
  8
LAYER_1
 10
57.867871
 20
113.928444
 30
0.0
 11
57.361174
 21
113.671683
 31
0.0
  0
LINE
  5
150
  8
LAYER_1
 10
57.361174
 20
113.671683
 30
0.0
 11
56.948507
 21
113.639682
 31
0.0
  0
LINE
  5
151
  8
LAYER_1
 10
56.948507
 20
113.639682
 30
0.0
 11
56.411122
 21
113.612149
 31
0.0
  0
LINE
  5
152
  8
LAYER_1
 10
56.411122
 20
113.612149
 30
0.0
 11
55.681468
 21
113.371941
 31
0.0
  0
LINE
  5
153
  8
LAYER_1
 10
55.681468
 20
113.371941
 30
0.0
 11
55.097557
 21
113.060905
 31
0.0
  0
LINE
  5
154
  8
LAYER_1
 10
55.097557
 20
113.060905
 30
0.0
 11
54.997401
 21
112.82089
 31
0.0
  0
LINE
  5
155
  8
LAYER_1
 10
54.997401
 20
112.82089
 30
0.0
 11
56.061303
 21
112.331847
 31
0.0
  0
LINE
  5
156
  8
LAYER_1
 10
56.061303
 20
112.331847
 30
0.0
 11
57.555086
 21
111.826865
 31
0.0
  0
LINE
  5
157
  8
LAYER_1
 10
57.555086
 20
111.826865
 30
0.0
 11
59.067091
 21
111.429521
 31
0.0
  0
LINE
  5
158
  8
LAYER_1
 10
59.067091
 20
111.429521
 30
0.0
 11
60.185658
 21
111.263396
 31
0.0
  0
LINE
  5
159
  8
LAYER_1
 10
60.185658
 20
111.263396
 30
0.0
 11
62.701971
 21
111.14054
 31
0.0
  0
LINE
  5
15A
  8
LAYER_1
 10
62.701971
 20
111.14054
 30
0.0
 11
64.557625
 21
110.847053
 31
0.0
  0
LINE
  5
15B
  8
LAYER_1
 10
64.557625
 20
110.847053
 30
0.0
 11
65.70554199999999
 21
110.394625
 31
0.0
  0
LINE
  5
15C
  8
LAYER_1
 10
65.70554199999999
 20
110.394625
 30
0.0
 11
65.999387
 21
110.112462
 31
0.0
  0
LINE
  5
15D
  8
LAYER_1
 10
65.999387
 20
110.112462
 30
0.0
 11
66.098643
 21
109.794948
 31
0.0
  0
LINE
  5
15E
  8
LAYER_1
 10
66.098643
 20
109.794948
 30
0.0
 11
65.91000200000001
 21
109.454768
 31
0.0
  0
LINE
  5
15F
  8
LAYER_1
 10
65.91000200000001
 20
109.454768
 30
0.0
 11
65.463548
 21
109.115741
 31
0.0
  0
LINE
  5
160
  8
LAYER_1
 10
65.463548
 20
109.115741
 30
0.0
 11
64.938486
 21
108.883285
 31
0.0
  0
LINE
  5
161
  8
LAYER_1
 10
64.938486
 20
108.883285
 30
0.0
 11
64.514022
 21
108.862814
 31
0.0
  0
LINE
  5
162
  8
LAYER_1
 10
64.514022
 20
108.862814
 30
0.0
 11
64.23792400000001
 21
108.868119
 31
0.0
  0
LINE
  5
163
  8
LAYER_1
 10
64.23792400000001
 20
108.868119
 30
0.0
 11
64.123087
 21
108.670217
 31
0.0
  0
LINE
  5
164
  8
LAYER_1
 10
64.123087
 20
108.670217
 30
0.0
 11
64.00138800000001
 21
108.474947
 31
0.0
  0
LINE
  5
165
  8
LAYER_1
 10
64.00138800000001
 20
108.474947
 30
0.0
 11
63.708794
 21
108.486586
 31
0.0
  0
LINE
  5
166
  8
LAYER_1
 10
63.708794
 20
108.486586
 30
0.0
 11
63.35301
 21
108.514419
 31
0.0
  0
LINE
  5
167
  8
LAYER_1
 10
63.35301
 20
108.514419
 30
0.0
 11
63.122776
 21
108.344762
 31
0.0
  0
LINE
  5
168
  8
LAYER_1
 10
63.122776
 20
108.344762
 30
0.0
 11
63.069495
 21
108.059999
 31
0.0
  0
LINE
  5
169
  8
LAYER_1
 10
63.069495
 20
108.059999
 30
0.0
 11
63.244566
 21
107.742516
 31
0.0
  0
LINE
  5
16A
  8
LAYER_1
 10
63.244566
 20
107.742516
 30
0.0
 11
63.503082
 21
107.243857
 31
0.0
  0
LINE
  5
16B
  8
LAYER_1
 10
63.503082
 20
107.243857
 30
0.0
 11
63.534071
 21
106.574346
 31
0.0
  0
LINE
  5
16C
  8
LAYER_1
 10
63.534071
 20
106.574346
 30
0.0
 11
63.349672
 21
105.8447
 31
0.0
  0
LINE
  5
16D
  8
LAYER_1
 10
63.349672
 20
105.8447
 30
0.0
 11
62.962025
 21
105.165638
 31
0.0
  0
LINE
  5
16E
  8
LAYER_1
 10
62.962025
 20
105.165638
 30
0.0
 11
62.495564
 21
104.67506
 31
0.0
  0
LINE
  5
16F
  8
LAYER_1
 10
62.495564
 20
104.67506
 30
0.0
 11
62.211879
 21
104.560683
 31
0.0
  0
LINE
  5
170
  8
LAYER_1
 10
62.211879
 20
104.560683
 30
0.0
 11
61.958108
 21
104.593191
 31
0.0
  0
LINE
  5
171
  8
LAYER_1
 10
61.958108
 20
104.593191
 30
0.0
 11
61.657328
 21
104.365528
 31
0.0
  0
LINE
  5
172
  8
LAYER_1
 10
61.657328
 20
104.365528
 30
0.0
 11
61.406069
 21
103.984188
 31
0.0
  0
LINE
  5
173
  8
LAYER_1
 10
61.406069
 20
103.984188
 30
0.0
 11
61.300865
 21
103.555662
 31
0.0
  0
LINE
  5
174
  8
LAYER_1
 10
61.300865
 20
103.555662
 30
0.0
 11
61.161755
 21
103.169116
 31
0.0
  0
LINE
  5
175
  8
LAYER_1
 10
61.161755
 20
103.169116
 30
0.0
 11
60.806976
 21
103.004801
 31
0.0
  0
LINE
  5
176
  8
LAYER_1
 10
60.806976
 20
103.004801
 30
0.0
 11
59.533889
 21
102.859742
 31
0.0
  0
LINE
  5
177
  8
LAYER_1
 10
59.533889
 20
102.859742
 30
0.0
 11
58.839837
 21
102.588975
 31
0.0
  0
LINE
  5
178
  8
LAYER_1
 10
58.839837
 20
102.588975
 30
0.0
 11
58.72895
 21
102.422122
 31
0.0
  0
LINE
  5
179
  8
LAYER_1
 10
58.72895
 20
102.422122
 30
0.0
 11
58.785621
 21
102.242644
 31
0.0
  0
LINE
  5
17A
  8
LAYER_1
 10
58.785621
 20
102.242644
 30
0.0
 11
59.43204
 21
101.870888
 31
0.0
  0
LINE
  5
17B
  8
LAYER_1
 10
59.43204
 20
101.870888
 30
0.0
 11
60.295005
 21
101.369513
 31
0.0
  0
LINE
  5
17C
  8
LAYER_1
 10
60.295005
 20
101.369513
 30
0.0
 11
60.870902
 21
100.600993
 31
0.0
  0
LINE
  5
17D
  8
LAYER_1
 10
60.870902
 20
100.600993
 30
0.0
 11
61.464402
 21
99.67168599999999
 31
0.0
  0
LINE
  5
17E
  8
LAYER_1
 10
61.464402
 20
99.67168599999999
 30
0.0
 11
62.288355
 21
98.70806
 31
0.0
  0
LINE
  5
17F
  8
LAYER_1
 10
62.288355
 20
98.70806
 30
0.0
 11
63.046499
 21
97.746332
 31
0.0
  0
LINE
  5
180
  8
LAYER_1
 10
63.046499
 20
97.746332
 30
0.0
 11
63.276421
 21
96.845106
 31
0.0
  0
LINE
  5
181
  8
LAYER_1
 10
63.276421
 20
96.845106
 30
0.0
 11
63.359324
 21
96.227216
 31
0.0
  0
LINE
  5
182
  8
LAYER_1
 10
63.359324
 20
96.227216
 30
0.0
 11
63.558643
 21
95.97021700000001
 31
0.0
  0
LINE
  5
183
  8
LAYER_1
 10
63.558643
 20
95.97021700000001
 30
0.0
 11
63.757962
 21
95.636554
 31
0.0
  0
LINE
  5
184
  8
LAYER_1
 10
63.757962
 20
95.636554
 30
0.0
 11
63.840865
 21
94.834343
 31
0.0
  0
LINE
  5
185
  8
LAYER_1
 10
63.840865
 20
94.834343
 30
0.0
 11
63.704145
 21
93.84764
 31
0.0
  0
LINE
  5
186
  8
LAYER_1
 10
63.704145
 20
93.84764
 30
0.0
 11
63.468773
 21
93.59941499999999
 31
0.0
  0
LINE
  5
187
  8
LAYER_1
 10
63.468773
 20
93.59941499999999
 30
0.0
 11
63.064754
 21
93.409389
 31
0.0
  0
LINE
  5
188
  8
LAYER_1
 10
63.064754
 20
93.409389
 30
0.0
 11
61.516268
 21
92.78469
 31
0.0
  0
LINE
  5
189
  8
LAYER_1
 10
61.516268
 20
92.78469
 30
0.0
 11
60.743897
 21
92.449071
 31
0.0
  0
LINE
  5
18A
  8
LAYER_1
 10
60.743897
 20
92.449071
 30
0.0
 11
62.626689
 21
90.551739
 31
0.0
  0
LINE
  5
18B
  8
LAYER_1
 10
62.626689
 20
90.551739
 30
0.0
 11
64.21128899999999
 21
89.133747
 31
0.0
  0
LINE
  5
18C
  8
LAYER_1
 10
64.21128899999999
 20
89.133747
 30
0.0
 11
65.323133
 21
88.47569900000001
 31
0.0
  0
LINE
  5
18D
  8
LAYER_1
 10
65.323133
 20
88.47569900000001
 30
0.0
 11
65.942492
 21
88.23295
 31
0.0
  0
LINE
  5
18E
  8
LAYER_1
 10
65.942492
 20
88.23295
 30
0.0
 11
66.289019
 21
87.90027000000001
 31
0.0
  0
LINE
  5
18F
  8
LAYER_1
 10
66.289019
 20
87.90027000000001
 30
0.0
 11
66.499171
 21
87.620087
 31
0.0
  0
LINE
  5
190
  8
LAYER_1
 10
66.499171
 20
87.620087
 30
0.0
 11
66.79065199999999
 21
87.50355
 31
0.0
  0
LINE
  5
191
  8
LAYER_1
 10
66.79065199999999
 20
87.50355
 30
0.0
 11
67.185048
 21
87.356565
 31
0.0
  0
LINE
  5
192
  8
LAYER_1
 10
67.185048
 20
87.356565
 30
0.0
 11
67.58879399999999
 21
86.9679
 31
0.0
  0
LINE
  5
193
  8
LAYER_1
 10
67.58879399999999
 20
86.9679
 30
0.0
 11
68.17284100000001
 21
85.77927099999999
 31
0.0
  0
LINE
  5
194
  8
LAYER_1
 10
68.17284100000001
 20
85.77927099999999
 30
0.0
 11
68.17546900000001
 21
85.08935
 31
0.0
  0
LINE
  5
195
  8
LAYER_1
 10
68.17546900000001
 20
85.08935
 30
0.0
 11
67.76127099999999
 21
84.512429
 31
0.0
  0
LINE
  5
196
  8
LAYER_1
 10
67.76127099999999
 20
84.512429
 30
0.0
 11
67.16619
 21
83.89313
 31
0.0
  0
LINE
  5
197
  8
LAYER_1
 10
67.16619
 20
83.89313
 30
0.0
 11
66.868156
 21
83.35481299999999
 31
0.0
  0
LINE
  5
198
  8
LAYER_1
 10
66.868156
 20
83.35481299999999
 30
0.0
 11
66.850883
 21
82.84325699999999
 31
0.0
  0
LINE
  5
199
  8
LAYER_1
 10
66.850883
 20
82.84325699999999
 30
0.0
 11
67.098088
 21
82.30424100000001
 31
0.0
  0
LINE
  5
19A
  8
LAYER_1
 10
67.098088
 20
82.30424100000001
 30
0.0
 11
67.39325100000001
 21
81.631514
 31
0.0
  0
LINE
  5
19B
  8
LAYER_1
 10
67.39325100000001
 20
81.631514
 30
0.0
 11
67.22536700000001
 21
81.008398
 31
0.0
  0
LINE
  5
19C
  8
LAYER_1
 10
67.22536700000001
 20
81.008398
 30
0.0
 11
66.717848
 21
80.43195
 31
0.0
  0
LINE
  5
19D
  8
LAYER_1
 10
66.717848
 20
80.43195
 30
0.0
 11
65.999297
 21
80.014614
 31
0.0
  0
LINE
  5
19E
  8
LAYER_1
 10
65.999297
 20
80.014614
 30
0.0
 11
65.26541
 21
79.83660399999999
 31
0.0
  0
LINE
  5
19F
  8
LAYER_1
 10
65.26541
 20
79.83660399999999
 30
0.0
 11
64.711882
 21
79.978134
 31
0.0
  0
LINE
  5
1A0
  8
LAYER_1
 10
64.711882
 20
79.978134
 30
0.0
 11
64.44597
 21
80.141659
 31
0.0
  0
LINE
  5
1A1
  8
LAYER_1
 10
64.44597
 20
80.141659
 30
0.0
 11
64.633297
 21
79.74243900000001
 31
0.0
  0
LINE
  5
1A2
  8
LAYER_1
 10
64.633297
 20
79.74243900000001
 30
0.0
 11
65.413676
 21
78.670675
 31
0.0
  0
LINE
  5
1A3
  8
LAYER_1
 10
65.413676
 20
78.670675
 30
0.0
 11
66.382154
 21
77.736591
 31
0.0
  0
LINE
  5
1A4
  8
LAYER_1
 10
66.382154
 20
77.736591
 30
0.0
 11
67.321817
 21
77.11682399999999
 31
0.0
  0
LINE
  5
1A5
  8
LAYER_1
 10
67.321817
 20
77.11682399999999
 30
0.0
 11
68.015753
 21
76.988012
 31
0.0
  0
LINE
  5
1A6
  8
LAYER_1
 10
68.015753
 20
76.988012
 30
0.0
 11
68.472624
 21
77.06563300000001
 31
0.0
  0
LINE
  5
1A7
  8
LAYER_1
 10
68.472624
 20
77.06563300000001
 30
0.0
 11
68.923081
 21
76.988702
 31
0.0
  0
LINE
  5
1A8
  8
LAYER_1
 10
68.923081
 20
76.988702
 30
0.0
 11
69.745256
 21
76.434635
 31
0.0
  0
LINE
  5
1A9
  8
LAYER_1
 10
69.745256
 20
76.434635
 30
0.0
 11
70.363293
 21
75.452713
 31
0.0
  0
LINE
  5
1AA
  8
LAYER_1
 10
70.363293
 20
75.452713
 30
0.0
 11
70.658203
 21
74.169837
 31
0.0
  0
LINE
  5
1AB
  8
LAYER_1
 10
70.658203
 20
74.169837
 30
0.0
 11
70.533372
 21
73.18713700000001
 31
0.0
  0
LINE
  5
1AC
  8
LAYER_1
 10
70.533372
 20
73.18713700000001
 30
0.0
 11
69.798946
 21
72.292896
 31
0.0
  0
LINE
  5
1AD
  8
LAYER_1
 10
69.798946
 20
72.292896
 30
0.0
 11
68.869276
 21
71.623223
 31
0.0
  0
LINE
  5
1AE
  8
LAYER_1
 10
68.869276
 20
71.623223
 30
0.0
 11
67.932523
 21
71.546881
 31
0.0
  0
LINE
  5
1AF
  8
LAYER_1
 10
67.932523
 20
71.546881
 30
0.0
 11
67.185519
 21
71.53916200000001
 31
0.0
  0
LINE
  5
1B0
  8
LAYER_1
 10
67.185519
 20
71.53916200000001
 30
0.0
 11
66.83899700000001
 21
71.264684
 31
0.0
  0
LINE
  5
1B1
  8
LAYER_1
 10
66.83899700000001
 20
71.264684
 30
0.0
 11
66.51865700000001
 21
70.997704
 31
0.0
  0
LINE
  5
1B2
  8
LAYER_1
 10
66.51865700000001
 20
70.997704
 30
0.0
 11
65.827162
 21
71.03373600000001
 31
0.0
  0
LINE
  5
1B3
  8
LAYER_1
 10
65.827162
 20
71.03373600000001
 30
0.0
 11
65.20575
 21
71.077501
 31
0.0
  0
LINE
  5
1B4
  8
LAYER_1
 10
65.20575
 20
71.077501
 30
0.0
 11
64.969754
 21
70.912688
 31
0.0
  0
LINE
  5
1B5
  8
LAYER_1
 10
64.969754
 20
70.912688
 30
0.0
 11
64.905553
 21
70.74915300000001
 31
0.0
  0
LINE
  5
1B6
  8
LAYER_1
 10
64.905553
 20
70.74915300000001
 30
0.0
 11
64.704478
 21
70.697084
 31
0.0
  0
LINE
  5
1B7
  8
LAYER_1
 10
64.704478
 20
70.697084
 30
0.0
 11
63.840865
 21
70.92803499999999
 31
0.0
  0
LINE
  5
1B8
  8
LAYER_1
 10
63.840865
 20
70.92803499999999
 30
0.0
 11
62.576735
 21
71.217371
 31
0.0
  0
LINE
  5
1B9
  8
LAYER_1
 10
62.576735
 20
71.217371
 30
0.0
 11
61.86531
 21
71.148327
 31
0.0
  0
LINE
  5
1BA
  8
LAYER_1
 10
61.86531
 20
71.148327
 30
0.0
 11
62.608067
 21
70.280464
 31
0.0
  0
LINE
  5
1BB
  8
LAYER_1
 10
62.608067
 20
70.280464
 30
0.0
 11
64.375163
 21
68.89241199999999
 31
0.0
  0
LINE
  5
1BC
  8
LAYER_1
 10
64.375163
 20
68.89241199999999
 30
0.0
 11
66.47483200000001
 21
67.48438899999999
 31
0.0
  0
LINE
  5
1BD
  8
LAYER_1
 10
66.47483200000001
 20
67.48438899999999
 30
0.0
 11
68.21531
 21
66.556613
 31
0.0
  0
LINE
  5
1BE
  8
LAYER_1
 10
68.21531
 20
66.556613
 30
0.0
 11
69.143935
 21
66.040346
 31
0.0
  0
LINE
  5
1BF
  8
LAYER_1
 10
69.143935
 20
66.040346
 30
0.0
 11
69.311561
 21
65.717332
 31
0.0
  0
LINE
  5
1C0
  8
LAYER_1
 10
69.311561
 20
65.717332
 30
0.0
 11
69.361451
 21
65.260536
 31
0.0
  0
LINE
  5
1C1
  8
LAYER_1
 10
69.361451
 20
65.260536
 30
0.0
 11
69.481453
 21
64.527464
 31
0.0
  0
LINE
  5
1C2
  8
LAYER_1
 10
69.481453
 20
64.527464
 30
0.0
 11
69.745744
 21
63.964247
 31
0.0
  0
LINE
  5
1C3
  8
LAYER_1
 10
69.745744
 20
63.964247
 30
0.0
 11
69.95966799999999
 21
63.451291
 31
0.0
  0
LINE
  5
1C4
  8
LAYER_1
 10
69.95966799999999
 20
63.451291
 30
0.0
 11
69.939123
 21
62.830067
 31
0.0
  0
LINE
  5
1C5
  8
LAYER_1
 10
69.939123
 20
62.830067
 30
0.0
 11
69.89968
 21
62.28997
 31
0.0
  0
LINE
  5
1C6
  8
LAYER_1
 10
69.89968
 20
62.28997
 30
0.0
 11
70.04871799999999
 21
61.96308
 31
0.0
  0
LINE
  5
1C7
  8
LAYER_1
 10
70.04871799999999
 20
61.96308
 30
0.0
 11
70.261719
 21
61.729506
 31
0.0
  0
LINE
  5
1C8
  8
LAYER_1
 10
70.261719
 20
61.729506
 30
0.0
 11
70.316565
 21
61.404973
 31
0.0
  0
LINE
  5
1C9
  8
LAYER_1
 10
70.316565
 20
61.404973
 30
0.0
 11
69.95751799999999
 21
60.570443
 31
0.0
  0
LINE
  5
1CA
  8
LAYER_1
 10
69.95751799999999
 20
60.570443
 30
0.0
 11
69.71806100000001
 21
60.295806
 31
0.0
  0
LINE
  5
1CB
  8
LAYER_1
 10
69.71806100000001
 20
60.295806
 30
0.0
 11
69.442581
 21
60.215209
 31
0.0
  0
LINE
  5
1CC
  8
LAYER_1
 10
69.442581
 20
60.215209
 30
0.0
 11
68.203504
 21
60.668586
 31
0.0
  0
LINE
  5
1CD
  8
LAYER_1
 10
68.203504
 20
60.668586
 30
0.0
 11
66.602407
 21
61.620634
 31
0.0
  0
LINE
  5
1CE
  8
LAYER_1
 10
66.602407
 20
61.620634
 30
0.0
 11
66.368335
 21
61.796316
 31
0.0
  0
LINE
  5
1CF
  8
LAYER_1
 10
66.368335
 20
61.796316
 30
0.0
 11
66.101606
 21
61.539106
 31
0.0
  0
LINE
  5
1D0
  8
LAYER_1
 10
66.101606
 20
61.539106
 30
0.0
 11
65.932338
 21
60.813295
 31
0.0
  0
LINE
  5
1D1
  8
LAYER_1
 10
65.932338
 20
60.813295
 30
0.0
 11
65.84777800000001
 21
60.446291
 31
0.0
  0
LINE
  5
1D2
  8
LAYER_1
 10
65.84777800000001
 20
60.446291
 30
0.0
 11
65.419484
 21
60.141278
 31
0.0
  0
LINE
  5
1D3
  8
LAYER_1
 10
65.419484
 20
60.141278
 30
0.0
 11
64.79517199999999
 21
59.965699
 31
0.0
  0
LINE
  5
1D4
  8
LAYER_1
 10
64.79517199999999
 20
59.965699
 30
0.0
 11
64.12255999999999
 21
59.986999
 31
0.0
  0
LINE
  5
1D5
  8
LAYER_1
 10
64.12255999999999
 20
59.986999
 30
0.0
 11
63.372443
 21
60.271769
 31
0.0
  0
LINE
  5
1D6
  8
LAYER_1
 10
63.372443
 20
60.271769
 30
0.0
 11
62.691998
 21
60.709768
 31
0.0
  0
LINE
  5
1D7
  8
LAYER_1
 10
62.691998
 20
60.709768
 30
0.0
 11
61.881554
 21
61.230382
 31
0.0
  0
LINE
  5
1D8
  8
LAYER_1
 10
61.881554
 20
61.230382
 30
0.0
 11
61.660359
 21
61.208968
 31
0.0
  0
LINE
  5
1D9
  8
LAYER_1
 10
61.660359
 20
61.208968
 30
0.0
 11
61.583087
 21
60.99429
 31
0.0
  0
LINE
  5
1DA
  8
LAYER_1
 10
61.583087
 20
60.99429
 30
0.0
 11
61.396556
 21
60.778693
 31
0.0
  0
LINE
  5
1DB
  8
LAYER_1
 10
61.396556
 20
60.778693
 30
0.0
 11
60.948087
 21
60.629092
 31
0.0
  0
LINE
  5
1DC
  8
LAYER_1
 10
60.948087
 20
60.629092
 30
0.0
 11
60.70419
 21
60.554662
 31
0.0
  0
LINE
  5
1DD
  8
LAYER_1
 10
60.70419
 20
60.554662
 30
0.0
 11
60.735305
 21
60.438061
 31
0.0
  0
LINE
  5
1DE
  8
LAYER_1
 10
60.735305
 20
60.438061
 30
0.0
 11
61.724199
 21
59.995356
 31
0.0
  0
LINE
  5
1DF
  8
LAYER_1
 10
61.724199
 20
59.995356
 30
0.0
 11
63.067352
 21
59.269196
 31
0.0
  0
LINE
  5
1E0
  8
LAYER_1
 10
63.067352
 20
59.269196
 30
0.0
 11
64.26419900000001
 21
58.12315
 31
0.0
  0
LINE
  5
1E1
  8
LAYER_1
 10
64.26419900000001
 20
58.12315
 30
0.0
 11
65.15781800000001
 21
57.170029
 31
0.0
  0
LINE
  5
1E2
  8
LAYER_1
 10
65.15781800000001
 20
57.170029
 30
0.0
 11
65.721058
 21
56.761699
 31
0.0
  0
LINE
  5
1E3
  8
LAYER_1
 10
65.721058
 20
56.761699
 30
0.0
 11
66.01071
 21
56.381344
 31
0.0
  0
LINE
  5
1E4
  8
LAYER_1
 10
66.01071
 20
56.381344
 30
0.0
 11
66.242634
 21
55.558612
 31
0.0
  0
LINE
  5
1E5
  8
LAYER_1
 10
66.242634
 20
55.558612
 30
0.0
 11
66.334497
 21
54.716766
 31
0.0
  0
LINE
  5
1E6
  8
LAYER_1
 10
66.334497
 20
54.716766
 30
0.0
 11
66.203968
 21
54.279069
 31
0.0
  0
LINE
  5
1E7
  8
LAYER_1
 10
66.203968
 20
54.279069
 30
0.0
 11
65.08973
 21
53.728456
 31
0.0
  0
LINE
  5
1E8
  8
LAYER_1
 10
65.08973
 20
53.728456
 30
0.0
 11
64.619708
 21
53.21355
 31
0.0
  0
LINE
  5
1E9
  8
LAYER_1
 10
64.619708
 20
53.21355
 30
0.0
 11
64.900161
 21
52.962629
 31
0.0
  0
LINE
  5
1EA
  8
LAYER_1
 10
64.900161
 20
52.962629
 30
0.0
 11
65.518473
 21
52.755662
 31
0.0
  0
LINE
  5
1EB
  8
LAYER_1
 10
65.518473
 20
52.755662
 30
0.0
 11
66.75787200000001
 21
52.264223
 31
0.0
  0
LINE
  5
1EC
  8
LAYER_1
 10
66.75787200000001
 20
52.264223
 30
0.0
 11
67.06405599999999
 21
52.095798
 31
0.0
  0
LINE
  5
1ED
  8
LAYER_1
 10
67.06405599999999
 20
52.095798
 30
0.0
 11
67.301548
 21
52.139872
 31
0.0
  0
LINE
  5
1EE
  8
LAYER_1
 10
67.301548
 20
52.139872
 30
0.0
 11
67.455173
 21
52.385216
 31
0.0
  0
LINE
  5
1EF
  8
LAYER_1
 10
67.455173
 20
52.385216
 30
0.0
 11
67.509754
 21
52.820598
 31
0.0
  0
LINE
  5
1F0
  8
LAYER_1
 10
67.509754
 20
52.820598
 30
0.0
 11
67.59531800000001
 21
53.269935
 31
0.0
  0
LINE
  5
1F1
  8
LAYER_1
 10
67.59531800000001
 20
53.269935
 30
0.0
 11
67.853336
 21
53.487074
 31
0.0
  0
LINE
  5
1F2
  8
LAYER_1
 10
67.853336
 20
53.487074
 30
0.0
 11
68.285794
 21
53.472598
 31
0.0
  0
LINE
  5
1F3
  8
LAYER_1
 10
68.285794
 20
53.472598
 30
0.0
 11
68.89468100000001
 21
53.227091
 31
0.0
  0
LINE
  5
1F4
  8
LAYER_1
 10
68.89468100000001
 20
53.227091
 30
0.0
 11
69.885554
 21
52.503593
 31
0.0
  0
LINE
  5
1F5
  8
LAYER_1
 10
69.885554
 20
52.503593
 30
0.0
 11
69.98347
 21
52.183775
 31
0.0
  0
LINE
  5
1F6
  8
LAYER_1
 10
69.98347
 20
52.183775
 30
0.0
 11
69.821439
 21
51.884569
 31
0.0
  0
LINE
  5
1F7
  8
LAYER_1
 10
69.821439
 20
51.884569
 30
0.0
 11
69.658221
 21
51.562049
 31
0.0
  0
LINE
  5
1F8
  8
LAYER_1
 10
69.658221
 20
51.562049
 30
0.0
 11
69.70487
 21
51.140996
 31
0.0
  0
LINE
  5
1F9
  8
LAYER_1
 10
69.70487
 20
51.140996
 30
0.0
 11
70.412847
 21
50.049599
 31
0.0
  0
LINE
  5
1FA
  8
LAYER_1
 10
70.412847
 20
50.049599
 30
0.0
 11
70.818831
 21
49.386056
 31
0.0
  0
LINE
  5
1FB
  8
LAYER_1
 10
70.818831
 20
49.386056
 30
0.0
 11
70.618776
 21
48.567933
 31
0.0
  0
LINE
  5
1FC
  8
LAYER_1
 10
70.618776
 20
48.567933
 30
0.0
 11
70.267572
 21
47.962171
 31
0.0
  0
LINE
  5
1FD
  8
LAYER_1
 10
70.267572
 20
47.962171
 30
0.0
 11
69.922094
 21
47.710217
 31
0.0
  0
LINE
  5
1FE
  8
LAYER_1
 10
69.922094
 20
47.710217
 30
0.0
 11
69.57005599999999
 21
47.50296
 31
0.0
  0
LINE
  5
1FF
  8
LAYER_1
 10
69.57005599999999
 20
47.50296
 30
0.0
 11
69.203087
 21
47.004661
 31
0.0
  0
LINE
  5
200
  8
LAYER_1
 10
69.203087
 20
47.004661
 30
0.0
 11
68.599812
 21
46.299106
 31
0.0
  0
LINE
  5
201
  8
LAYER_1
 10
68.599812
 20
46.299106
 30
0.0
 11
68.483442
 21
46.187014
 31
0.0
  0
LINE
  5
202
  8
LAYER_1
 10
68.483442
 20
46.187014
 30
0.0
 11
68.52056399999999
 21
45.917519
 31
0.0
  0
LINE
  5
203
  8
LAYER_1
 10
68.52056399999999
 20
45.917519
 30
0.0
 11
68.40627000000001
 21
45.479007
 31
0.0
  0
LINE
  5
204
  8
LAYER_1
 10
68.40627000000001
 20
45.479007
 30
0.0
 11
67.900485
 21
45.045124
 31
0.0
  0
LINE
  5
205
  8
LAYER_1
 10
67.900485
 20
45.045124
 30
0.0
 11
67.216086
 21
44.746826
 31
0.0
  0
LINE
  5
206
  8
LAYER_1
 10
67.216086
 20
44.746826
 30
0.0
 11
66.565949
 21
44.715072
 31
0.0
  0
LINE
  5
207
  8
LAYER_1
 10
66.565949
 20
44.715072
 30
0.0
 11
65.99284299999999
 21
45.080893
 31
0.0
  0
LINE
  5
208
  8
LAYER_1
 10
65.99284299999999
 20
45.080893
 30
0.0
 11
65.469324
 21
45.739744
 31
0.0
  0
LINE
  5
209
  8
LAYER_1
 10
65.469324
 20
45.739744
 30
0.0
 11
64.971402
 21
46.392296
 31
0.0
  0
LINE
  5
20A
  8
LAYER_1
 10
64.971402
 20
46.392296
 30
0.0
 11
64.73487299999999
 21
46.432093
 31
0.0
  0
LINE
  5
20B
  8
LAYER_1
 10
64.73487299999999
 20
46.432093
 30
0.0
 11
64.44062700000001
 21
46.318006
 31
0.0
  0
LINE
  5
20C
  8
LAYER_1
 10
64.44062700000001
 20
46.318006
 30
0.0
 11
63.942796
 21
46.184079
 31
0.0
  0
LINE
  5
20D
  8
LAYER_1
 10
63.942796
 20
46.184079
 30
0.0
 11
63.553721
 21
46.446146
 31
0.0
  0
LINE
  5
20E
  8
LAYER_1
 10
63.553721
 20
46.446146
 30
0.0
 11
63.2257
 21
46.755817
 31
0.0
  0
LINE
  5
20F
  8
LAYER_1
 10
63.2257
 20
46.755817
 30
0.0
 11
62.958212
 21
46.844662
 31
0.0
  0
LINE
  5
210
  8
LAYER_1
 10
62.958212
 20
46.844662
 30
0.0
 11
62.778168
 21
46.715128
 31
0.0
  0
LINE
  5
211
  8
LAYER_1
 10
62.778168
 20
46.715128
 30
0.0
 11
62.712481
 21
46.369661
 31
0.0
  0
LINE
  5
212
  8
LAYER_1
 10
62.712481
 20
46.369661
 30
0.0
 11
63.083294
 21
45.784093
 31
0.0
  0
LINE
  5
213
  8
LAYER_1
 10
63.083294
 20
45.784093
 30
0.0
 11
63.99815
 21
45.063833
 31
0.0
  0
LINE
  5
214
  8
LAYER_1
 10
63.99815
 20
45.063833
 30
0.0
 11
65.62804
 21
43.934944
 31
0.0
  0
LINE
  5
215
  8
LAYER_1
 10
65.62804
 20
43.934944
 30
0.0
 11
67.037982
 21
42.843785
 31
0.0
  0
LINE
  5
216
  8
LAYER_1
 10
67.037982
 20
42.843785
 30
0.0
 11
68.50149399999999
 21
42.174466
 31
0.0
  0
LINE
  5
217
  8
LAYER_1
 10
68.50149399999999
 20
42.174466
 30
0.0
 11
70.167483
 21
41.881189
 31
0.0
  0
LINE
  5
218
  8
LAYER_1
 10
70.167483
 20
41.881189
 30
0.0
 11
72.184853
 21
41.918151
 31
0.0
  0
LINE
  5
219
  8
LAYER_1
 10
72.184853
 20
41.918151
 30
0.0
 11
74.05266500000001
 21
41.949537
 31
0.0
  0
LINE
  5
21A
  8
LAYER_1
 10
74.05266500000001
 20
41.949537
 30
0.0
 11
75.51431100000001
 21
41.694589
 31
0.0
  0
LINE
  5
21B
  8
LAYER_1
 10
75.51431100000001
 20
41.694589
 30
0.0
 11
76.58518100000001
 21
41.148437
 31
0.0
  0
LINE
  5
21C
  8
LAYER_1
 10
76.58518100000001
 20
41.148437
 30
0.0
 11
77.280666
 21
40.306213
 31
0.0
  0
LINE
  5
21D
  8
LAYER_1
 10
77.280666
 20
40.306213
 30
0.0
 11
77.636805
 21
39.755028
 31
0.0
  0
LINE
  5
21E
  8
LAYER_1
 10
77.636805
 20
39.755028
 30
0.0
 11
77.926322
 21
39.525773
 31
0.0
  0
LINE
  5
21F
  8
LAYER_1
 10
77.926322
 20
39.525773
 30
0.0
 11
78.137154
 21
39.317226
 31
0.0
  0
LINE
  5
220
  8
LAYER_1
 10
78.137154
 20
39.317226
 30
0.0
 11
78.30411100000001
 21
38.815828
 31
0.0
  0
LINE
  5
221
  8
LAYER_1
 10
78.30411100000001
 20
38.815828
 30
0.0
 11
78.209045
 21
38.077993
 31
0.0
  0
LINE
  5
222
  8
LAYER_1
 10
78.209045
 20
38.077993
 30
0.0
 11
77.480527
 21
37.263606
 31
0.0
  0
LINE
  5
223
  8
LAYER_1
 10
77.480527
 20
37.263606
 30
0.0
 11
76.28796
 21
36.421328
 31
0.0
  0
LINE
  5
224
  8
LAYER_1
 10
76.28796
 20
36.421328
 30
0.0
 11
76.162835
 21
36.214071
 31
0.0
  0
LINE
  5
225
  8
LAYER_1
 10
76.162835
 20
36.214071
 30
0.0
 11
76.18956900000001
 21
35.715773
 31
0.0
  0
LINE
  5
226
  8
LAYER_1
 10
76.18956900000001
 20
35.715773
 30
0.0
 11
76.185384
 21
35.154869
 31
0.0
  0
LINE
  5
227
  8
LAYER_1
 10
76.185384
 20
35.154869
 30
0.0
 11
75.781041
 21
35.010217
 31
0.0
  0
LINE
  5
228
  8
LAYER_1
 10
75.781041
 20
35.010217
 30
0.0
 11
75.245349
 21
34.899136
 31
0.0
  0
LINE
  5
229
  8
LAYER_1
 10
75.245349
 20
34.899136
 30
0.0
 11
74.72049
 21
34.63207
 31
0.0
  0
LINE
  5
22A
  8
LAYER_1
 10
74.72049
 20
34.63207
 30
0.0
 11
74.05954199999999
 21
34.39483
 31
0.0
  0
LINE
  5
22B
  8
LAYER_1
 10
74.05954199999999
 20
34.39483
 30
0.0
 11
73.04377100000001
 21
34.505273
 31
0.0
  0
LINE
  5
22C
  8
LAYER_1
 10
73.04377100000001
 20
34.505273
 30
0.0
 11
69.906791
 21
35.086572
 31
0.0
  0
LINE
  5
22D
  8
LAYER_1
 10
69.906791
 20
35.086572
 30
0.0
 11
68.021513
 21
35.112683
 31
0.0
  0
LINE
  5
22E
  8
LAYER_1
 10
68.021513
 20
35.112683
 30
0.0
 11
66.05743
 21
34.977742
 31
0.0
  0
LINE
  5
22F
  8
LAYER_1
 10
66.05743
 20
34.977742
 30
0.0
 11
65.48984900000001
 21
34.886034
 31
0.0
  0
LINE
  5
230
  8
LAYER_1
 10
65.48984900000001
 20
34.886034
 30
0.0
 11
65.20753000000001
 21
34.62558
 31
0.0
  0
LINE
  5
231
  8
LAYER_1
 10
65.20753000000001
 20
34.62558
 30
0.0
 11
65.187201
 21
34.233233
 31
0.0
  0
LINE
  5
232
  8
LAYER_1
 10
65.187201
 20
34.233233
 30
0.0
 11
65.405593
 21
33.745847
 31
0.0
  0
LINE
  5
233
  8
LAYER_1
 10
65.405593
 20
33.745847
 30
0.0
 11
66.46545999999999
 21
32.633368
 31
0.0
  0
LINE
  5
234
  8
LAYER_1
 10
66.46545999999999
 20
32.633368
 30
0.0
 11
68.20097
 21
31.58297
 31
0.0
  0
LINE
  5
235
  8
LAYER_1
 10
68.20097
 20
31.58297
 30
0.0
 11
69.166016
 21
31.100427
 31
0.0
  0
LINE
  5
236
  8
LAYER_1
 10
69.166016
 20
31.100427
 30
0.0
 11
69.834566
 21
30.630343
 31
0.0
  0
LINE
  5
237
  8
LAYER_1
 10
69.834566
 20
30.630343
 30
0.0
 11
70.352413
 21
30.042744
 31
0.0
  0
LINE
  5
238
  8
LAYER_1
 10
70.352413
 20
30.042744
 30
0.0
 11
70.865348
 21
29.207652
 31
0.0
  0
LINE
  5
239
  8
LAYER_1
 10
70.865348
 20
29.207652
 30
0.0
 11
71.315344
 21
28.107054
 31
0.0
  0
LINE
  5
23A
  8
LAYER_1
 10
71.315344
 20
28.107054
 30
0.0
 11
71.41218499999999
 21
27.090985
 31
0.0
  0
LINE
  5
23B
  8
LAYER_1
 10
71.41218499999999
 20
27.090985
 30
0.0
 11
71.319754
 21
26.120217
 31
0.0
  0
LINE
  5
23C
  8
LAYER_1
 10
71.319754
 20
26.120217
 30
0.0
 11
69.62642099999999
 21
26.068294
 31
0.0
  0
LINE
  5
23D
  8
LAYER_1
 10
69.62642099999999
 20
26.068294
 30
0.0
 11
67.72142100000001
 21
25.997738
 31
0.0
  0
LINE
  5
23E
  8
LAYER_1
 10
67.72142100000001
 20
25.997738
 30
0.0
 11
67.330416
 21
26.049661
 31
0.0
  0
LINE
  5
23F
  8
LAYER_1
 10
67.330416
 20
26.049661
 30
0.0
 11
67.13139200000001
 21
25.903864
 31
0.0
  0
LINE
  5
240
  8
LAYER_1
 10
67.13139200000001
 20
25.903864
 30
0.0
 11
66.904723
 21
25.454252
 31
0.0
  0
LINE
  5
241
  8
LAYER_1
 10
66.904723
 20
25.454252
 30
0.0
 11
66.53636899999999
 21
24.937333
 31
0.0
  0
LINE
  5
242
  8
LAYER_1
 10
66.53636899999999
 20
24.937333
 30
0.0
 11
65.72332400000001
 21
24.963701
 31
0.0
  0
LINE
  5
243
  8
LAYER_1
 10
65.72332400000001
 20
24.963701
 30
0.0
 11
65.00501199999999
 21
25.02965
 31
0.0
  0
LINE
  5
244
  8
LAYER_1
 10
65.00501199999999
 20
25.02965
 30
0.0
 11
64.59104600000001
 21
24.94188
 31
0.0
  0
LINE
  5
245
  8
LAYER_1
 10
64.59104600000001
 20
24.94188
 30
0.0
 11
64.196733
 21
24.74331
 31
0.0
  0
LINE
  5
246
  8
LAYER_1
 10
64.196733
 20
24.74331
 30
0.0
 11
63.675936
 21
24.712179
 31
0.0
  0
LINE
  5
247
  8
LAYER_1
 10
63.675936
 20
24.712179
 30
0.0
 11
63.16291
 21
24.836399
 31
0.0
  0
LINE
  5
248
  8
LAYER_1
 10
63.16291
 20
24.836399
 30
0.0
 11
62.791913
 21
25.103881
 31
0.0
  0
LINE
  5
249
  8
LAYER_1
 10
62.791913
 20
25.103881
 30
0.0
 11
62.501406
 21
25.404268
 31
0.0
  0
LINE
  5
24A
  8
LAYER_1
 10
62.501406
 20
25.404268
 30
0.0
 11
62.438729
 21
25.061884
 31
0.0
  0
LINE
  5
24B
  8
LAYER_1
 10
62.438729
 20
25.061884
 30
0.0
 11
62.363938
 21
24.713075
 31
0.0
  0
LINE
  5
24C
  8
LAYER_1
 10
62.363938
 20
24.713075
 30
0.0
 11
62.196726
 21
24.567995
 31
0.0
  0
LINE
  5
24D
  8
LAYER_1
 10
62.196726
 20
24.567995
 30
0.0
 11
61.797295
 21
24.776779
 31
0.0
  0
LINE
  5
24E
  8
LAYER_1
 10
61.797295
 20
24.776779
 30
0.0
 11
61.314344
 21
25.27326
 31
0.0
  0
LINE
  5
24F
  8
LAYER_1
 10
61.314344
 20
25.27326
 30
0.0
 11
60.907507
 21
25.862628
 31
0.0
  0
LINE
  5
250
  8
LAYER_1
 10
60.907507
 20
25.862628
 30
0.0
 11
60.736421
 21
26.350073
 31
0.0
  0
LINE
  5
251
  8
LAYER_1
 10
60.736421
 20
26.350073
 30
0.0
 11
60.653518
 21
26.686036
 31
0.0
  0
LINE
  5
252
  8
LAYER_1
 10
60.653518
 20
26.686036
 30
0.0
 11
60.454199
 21
26.825773
 31
0.0
  0
LINE
  5
253
  8
LAYER_1
 10
60.454199
 20
26.825773
 30
0.0
 11
60.214892
 21
26.621052
 31
0.0
  0
LINE
  5
254
  8
LAYER_1
 10
60.214892
 20
26.621052
 30
0.0
 11
60.195036
 21
26.103461
 31
0.0
  0
LINE
  5
255
  8
LAYER_1
 10
60.195036
 20
26.103461
 30
0.0
 11
60.375318
 21
25.41786
 31
0.0
  0
LINE
  5
256
  8
LAYER_1
 10
60.375318
 20
25.41786
 30
0.0
 11
60.736421
 21
24.709106
 31
0.0
  0
LINE
  5
257
  8
LAYER_1
 10
60.736421
 20
24.709106
 30
0.0
 11
61.134111
 21
23.862439
 31
0.0
  0
LINE
  5
258
  8
LAYER_1
 10
61.134111
 20
23.862439
 30
0.0
 11
61.30286
 21
23.015773
 31
0.0
  0
LINE
  5
259
  8
LAYER_1
 10
61.30286
 20
23.015773
 30
0.0
 11
61.377876
 21
22.019469
 31
0.0
  0
LINE
  5
25A
  8
LAYER_1
 10
61.377876
 20
22.019469
 30
0.0
 11
61.643806
 21
21.306062
 31
0.0
  0
LINE
  5
25B
  8
LAYER_1
 10
61.643806
 20
21.306062
 30
0.0
 11
62.185912
 21
20.740609
 31
0.0
  0
LINE
  5
25C
  8
LAYER_1
 10
62.185912
 20
20.740609
 30
0.0
 11
63.089457
 21
20.188166
 31
0.0
  0
LINE
  5
25D
  8
LAYER_1
 10
63.089457
 20
20.188166
 30
0.0
 11
65.46253299999999
 21
18.861787
 31
0.0
  0
LINE
  5
25E
  8
LAYER_1
 10
65.46253299999999
 20
18.861787
 30
0.0
 11
67.10081700000001
 21
17.786838
 31
0.0
  0
LINE
  5
25F
  8
LAYER_1
 10
67.10081700000001
 20
17.786838
 30
0.0
 11
68.050162
 21
16.929071
 31
0.0
  0
LINE
  5
260
  8
LAYER_1
 10
68.050162
 20
16.929071
 30
0.0
 11
68.356421
 21
16.254239
 31
0.0
  0
LINE
  5
261
  8
LAYER_1
 10
68.356421
 20
16.254239
 30
0.0
 11
68.439324
 21
15.946927
 31
0.0
  0
LINE
  5
262
  8
LAYER_1
 10
68.439324
 20
15.946927
 30
0.0
 11
68.638643
 21
15.819106
 31
0.0
  0
LINE
  5
263
  8
LAYER_1
 10
68.638643
 20
15.819106
 30
0.0
 11
68.868139
 21
15.609804
 31
0.0
  0
LINE
  5
264
  8
LAYER_1
 10
68.868139
 20
15.609804
 30
0.0
 11
68.91036
 21
15.120071
 31
0.0
  0
LINE
  5
265
  8
LAYER_1
 10
68.91036
 20
15.120071
 30
0.0
 11
68.78222100000001
 21
14.557167
 31
0.0
  0
LINE
  5
266
  8
LAYER_1
 10
68.78222100000001
 20
14.557167
 30
0.0
 11
68.50063900000001
 21
14.128352
 31
0.0
  0
LINE
  5
267
  8
LAYER_1
 10
68.50063900000001
 20
14.128352
 30
0.0
 11
68.245745
 21
13.814263
 31
0.0
  0
LINE
  5
268
  8
LAYER_1
 10
68.245745
 20
13.814263
 30
0.0
 11
68.223017
 21
13.548857
 31
0.0
  0
LINE
  5
269
  8
LAYER_1
 10
68.223017
 20
13.548857
 30
0.0
 11
68.11097700000001
 21
13.15633
 31
0.0
  0
LINE
  5
26A
  8
LAYER_1
 10
68.11097700000001
 20
13.15633
 30
0.0
 11
67.64134900000001
 21
12.53661
 31
0.0
  0
LINE
  5
26B
  8
LAYER_1
 10
67.64134900000001
 20
12.53661
 30
0.0
 11
66.84711
 21
11.927399
 31
0.0
  0
LINE
  5
26C
  8
LAYER_1
 10
66.84711
 20
11.927399
 30
0.0
 11
65.87286
 21
11.761493
 31
0.0
  0
LINE
  5
26D
  8
LAYER_1
 10
65.87286
 20
11.761493
 30
0.0
 11
65.081025
 21
11.684842
 31
0.0
  0
LINE
  5
26E
  8
LAYER_1
 10
65.081025
 20
11.684842
 30
0.0
 11
64.643601
 21
11.491584
 31
0.0
  0
LINE
  5
26F
  8
LAYER_1
 10
64.643601
 20
11.491584
 30
0.0
 11
64.127922
 21
11.420691
 31
0.0
  0
LINE
  5
270
  8
LAYER_1
 10
64.127922
 20
11.420691
 30
0.0
 11
63.181948
 21
11.571128
 31
0.0
  0
LINE
  5
271
  8
LAYER_1
 10
63.181948
 20
11.571128
 30
0.0
 11
62.272227
 21
11.837982
 31
0.0
  0
LINE
  5
272
  8
LAYER_1
 10
62.272227
 20
11.837982
 30
0.0
 11
61.86531
 21
12.116339
 31
0.0
  0
LINE
  5
273
  8
LAYER_1
 10
61.86531
 20
12.116339
 30
0.0
 11
60.59531
 21
12.328957
 31
0.0
  0
LINE
  5
274
  8
LAYER_1
 10
60.59531
 20
12.328957
 30
0.0
 11
57.846535
 21
12.519917
 31
0.0
  0
LINE
  5
275
  8
LAYER_1
 10
57.846535
 20
12.519917
 30
0.0
 11
57.151961
 21
12.730113
 31
0.0
  0
LINE
  5
276
  8
LAYER_1
 10
57.151961
 20
12.730113
 30
0.0
 11
56.61218
 21
13.072491
 31
0.0
  0
LINE
  5
277
  8
LAYER_1
 10
56.61218
 20
13.072491
 30
0.0
 11
55.971538
 21
13.763847
 31
0.0
  0
LINE
  5
278
  8
LAYER_1
 10
55.971538
 20
13.763847
 30
0.0
 11
55.473137
 21
14.606507
 31
0.0
  0
LINE
  5
279
  8
LAYER_1
 10
55.473137
 20
14.606507
 30
0.0
 11
55.003362
 21
15.349714
 31
0.0
  0
LINE
  5
27A
  8
LAYER_1
 10
55.003362
 20
15.349714
 30
0.0
 11
54.43154
 21
15.801952
 31
0.0
  0
LINE
  5
27B
  8
LAYER_1
 10
54.43154
 20
15.801952
 30
0.0
 11
53.699303
 21
16.293874
 31
0.0
  0
LINE
  5
27C
  8
LAYER_1
 10
53.699303
 20
16.293874
 30
0.0
 11
52.843848
 21
17.132492
 31
0.0
  0
LINE
  5
27D
  8
LAYER_1
 10
52.843848
 20
17.132492
 30
0.0
 11
51.907559
 21
18.148774
 31
0.0
  0
LINE
  5
27E
  8
LAYER_1
 10
51.907559
 20
18.148774
 30
0.0
 11
51.614765
 21
18.354378
 31
0.0
  0
LINE
  5
27F
  8
LAYER_1
 10
51.614765
 20
18.354378
 30
0.0
 11
51.414231
 21
18.337952
 31
0.0
  0
LINE
  5
280
  8
LAYER_1
 10
51.414231
 20
18.337952
 30
0.0
 11
51.216013
 21
17.577992
 31
0.0
  0
LINE
  5
281
  8
LAYER_1
 10
51.216013
 20
17.577992
 30
0.0
 11
51.165057
 21
15.746863
 31
0.0
  0
LINE
  5
282
  8
LAYER_1
 10
51.165057
 20
15.746863
 30
0.0
 11
51.416991
 21
7.440309
 31
0.0
  0
LINE
  5
283
  8
LAYER_1
 10
51.416991
 20
7.440309
 30
0.0
 11
51.564822
 21
3.478387
 31
0.0
  0
LINE
  5
284
  8
LAYER_1
 10
51.564822
 20
3.478387
 30
0.0
 11
51.521586
 21
1.557604
 31
0.0
  0
LINE
  5
285
  8
LAYER_1
 10
51.521586
 20
1.557604
 30
0.0
 11
51.310724
 21
1.315987
 31
0.0
  0
LINE
  5
286
  8
LAYER_1
 10
51.310724
 20
1.315987
 30
0.0
 11
50.771967
 21
1.188011
 31
0.0
  0
LINE
  5
287
  8
LAYER_1
 10
50.771967
 20
1.188011
 30
0.0
 11
47.86667
 21
1.187512
 31
0.0
  0
LINE
  5
288
  8
LAYER_1
 10
47.86667
 20
1.187512
 30
0.0
 11
43.673736
 21
1.519846
 31
0.0
  0
LINE
  5
289
  8
LAYER_1
 10
43.673736
 20
1.519846
 30
0.0
 11
43.673736
 21
1.519846
 31
0.0
  0
LINE
  5
28A
  8
LAYER_1
 10
50.465643
 20
4.603874
 30
0.0
 11
50.137845
 21
12.832317
 31
0.0
  0
LINE
  5
28B
  8
LAYER_1
 10
50.137845
 20
12.832317
 30
0.0
 11
49.870182
 21
18.924657
 31
0.0
  0
LINE
  5
28C
  8
LAYER_1
 10
49.870182
 20
18.924657
 30
0.0
 11
49.913281
 21
19.253302
 31
0.0
  0
LINE
  5
28D
  8
LAYER_1
 10
49.913281
 20
19.253302
 30
0.0
 11
50.188579
 21
19.725955
 31
0.0
  0
LINE
  5
28E
  8
LAYER_1
 10
50.188579
 20
19.725955
 30
0.0
 11
50.55799
 21
20.150459
 31
0.0
  0
LINE
  5
28F
  8
LAYER_1
 10
50.55799
 20
20.150459
 30
0.0
 11
50.883431
 21
20.334661
 31
0.0
  0
LINE
  5
290
  8
LAYER_1
 10
50.883431
 20
20.334661
 30
0.0
 11
51.569252
 21
19.824408
 31
0.0
  0
LINE
  5
291
  8
LAYER_1
 10
51.569252
 20
19.824408
 30
0.0
 11
52.831969
 21
18.597629
 31
0.0
  0
LINE
  5
292
  8
LAYER_1
 10
52.831969
 20
18.597629
 30
0.0
 11
54.278682
 21
17.242903
 31
0.0
  0
LINE
  5
293
  8
LAYER_1
 10
54.278682
 20
17.242903
 30
0.0
 11
54.652886
 21
17.099186
 31
0.0
  0
LINE
  5
294
  8
LAYER_1
 10
54.652886
 20
17.099186
 30
0.0
 11
54.936322
 21
17.218146
 31
0.0
  0
LINE
  5
295
  8
LAYER_1
 10
54.936322
 20
17.218146
 30
0.0
 11
55.179524
 21
17.355368
 31
0.0
  0
LINE
  5
296
  8
LAYER_1
 10
55.179524
 20
17.355368
 30
0.0
 11
55.391728
 21
17.274084
 31
0.0
  0
LINE
  5
297
  8
LAYER_1
 10
55.391728
 20
17.274084
 30
0.0
 11
55.935115
 21
16.250669
 31
0.0
  0
LINE
  5
298
  8
LAYER_1
 10
55.935115
 20
16.250669
 30
0.0
 11
56.503087
 21
14.71056
 31
0.0
  0
LINE
  5
299
  8
LAYER_1
 10
56.503087
 20
14.71056
 30
0.0
 11
56.70194
 21
14.302617
 31
0.0
  0
LINE
  5
29A
  8
LAYER_1
 10
56.70194
 20
14.302617
 30
0.0
 11
57.247566
 21
13.92571
 31
0.0
  0
LINE
  5
29B
  8
LAYER_1
 10
57.247566
 20
13.92571
 30
0.0
 11
58.063563
 21
13.618239
 31
0.0
  0
LINE
  5
29C
  8
LAYER_1
 10
58.063563
 20
13.618239
 30
0.0
 11
59.073534
 21
13.418603
 31
0.0
  0
LINE
  5
29D
  8
LAYER_1
 10
59.073534
 20
13.418603
 30
0.0
 11
60.44596
 21
13.347684
 31
0.0
  0
LINE
  5
29E
  8
LAYER_1
 10
60.44596
 20
13.347684
 30
0.0
 11
60.692306
 21
13.514781
 31
0.0
  0
LINE
  5
29F
  8
LAYER_1
 10
60.692306
 20
13.514781
 30
0.0
 11
60.822998
 21
13.861915
 31
0.0
  0
LINE
  5
2A0
  8
LAYER_1
 10
60.822998
 20
13.861915
 30
0.0
 11
60.940101
 21
14.203675
 31
0.0
  0
LINE
  5
2A1
  8
LAYER_1
 10
60.940101
 20
14.203675
 30
0.0
 11
61.124881
 21
14.27175
 31
0.0
  0
LINE
  5
2A2
  8
LAYER_1
 10
61.124881
 20
14.27175
 30
0.0
 11
62.161993
 21
13.440729
 31
0.0
  0
LINE
  5
2A3
  8
LAYER_1
 10
62.161993
 20
13.440729
 30
0.0
 11
63.213796
 21
12.649285
 31
0.0
  0
LINE
  5
2A4
  8
LAYER_1
 10
63.213796
 20
12.649285
 30
0.0
 11
63.592827
 21
12.536699
 31
0.0
  0
LINE
  5
2A5
  8
LAYER_1
 10
63.592827
 20
12.536699
 30
0.0
 11
63.940306
 21
12.580778
 31
0.0
  0
LINE
  5
2A6
  8
LAYER_1
 10
63.940306
 20
12.580778
 30
0.0
 11
65.251976
 21
12.810572
 31
0.0
  0
LINE
  5
2A7
  8
LAYER_1
 10
65.251976
 20
12.810572
 30
0.0
 11
65.82075500000001
 21
12.940067
 31
0.0
  0
LINE
  5
2A8
  8
LAYER_1
 10
65.82075500000001
 20
12.940067
 30
0.0
 11
66.26075899999999
 21
13.255918
 31
0.0
  0
LINE
  5
2A9
  8
LAYER_1
 10
66.26075899999999
 20
13.255918
 30
0.0
 11
66.54690600000001
 21
13.730813
 31
0.0
  0
LINE
  5
2AA
  8
LAYER_1
 10
66.54690600000001
 20
13.730813
 30
0.0
 11
66.654113
 21
14.337439
 31
0.0
  0
LINE
  5
2AB
  8
LAYER_1
 10
66.654113
 20
14.337439
 30
0.0
 11
66.87219399999999
 21
14.916451
 31
0.0
  0
LINE
  5
2AC
  8
LAYER_1
 10
66.87219399999999
 20
14.916451
 30
0.0
 11
67.55226500000001
 21
15.015207
 31
0.0
  0
LINE
  5
2AD
  8
LAYER_1
 10
67.55226500000001
 20
15.015207
 30
0.0
 11
67.594613
 21
15.229589
 31
0.0
  0
LINE
  5
2AE
  8
LAYER_1
 10
67.594613
 20
15.229589
 30
0.0
 11
67.43857199999999
 21
15.778821
 31
0.0
  0
LINE
  5
2AF
  8
LAYER_1
 10
67.43857199999999
 20
15.778821
 30
0.0
 11
66.931871
 21
16.467694
 31
0.0
  0
LINE
  5
2B0
  8
LAYER_1
 10
66.931871
 20
16.467694
 30
0.0
 11
65.92264
 21
17.312696
 31
0.0
  0
LINE
  5
2B1
  8
LAYER_1
 10
65.92264
 20
17.312696
 30
0.0
 11
64.514034
 21
18.238286
 31
0.0
  0
LINE
  5
2B2
  8
LAYER_1
 10
64.514034
 20
18.238286
 30
0.0
 11
62.80921
 21
19.16892
 31
0.0
  0
LINE
  5
2B3
  8
LAYER_1
 10
62.80921
 20
19.16892
 30
0.0
 11
61.806434
 21
19.78487
 31
0.0
  0
LINE
  5
2B4
  8
LAYER_1
 10
61.806434
 20
19.78487
 30
0.0
 11
61.080278
 21
20.511804
 31
0.0
  0
LINE
  5
2B5
  8
LAYER_1
 10
61.080278
 20
20.511804
 30
0.0
 11
60.597295
 21
21.394243
 31
0.0
  0
LINE
  5
2B6
  8
LAYER_1
 10
60.597295
 20
21.394243
 30
0.0
 11
60.324035
 21
22.476708
 31
0.0
  0
LINE
  5
2B7
  8
LAYER_1
 10
60.324035
 20
22.476708
 30
0.0
 11
60.026989
 21
23.65725
 31
0.0
  0
LINE
  5
2B8
  8
LAYER_1
 10
60.026989
 20
23.65725
 30
0.0
 11
59.586992
 21
24.667238
 31
0.0
  0
LINE
  5
2B9
  8
LAYER_1
 10
59.586992
 20
24.667238
 30
0.0
 11
59.210809
 21
25.463202
 31
0.0
  0
LINE
  5
2BA
  8
LAYER_1
 10
59.210809
 20
25.463202
 30
0.0
 11
59.067692
 21
26.227205
 31
0.0
  0
LINE
  5
2BB
  8
LAYER_1
 10
59.067692
 20
26.227205
 30
0.0
 11
59.158083
 21
26.946825
 31
0.0
  0
LINE
  5
2BC
  8
LAYER_1
 10
59.158083
 20
26.946825
 30
0.0
 11
59.482423
 21
27.609642
 31
0.0
  0
LINE
  5
2BD
  8
LAYER_1
 10
59.482423
 20
27.609642
 30
0.0
 11
59.919922
 21
28.075732
 31
0.0
  0
LINE
  5
2BE
  8
LAYER_1
 10
59.919922
 20
28.075732
 30
0.0
 11
60.357778
 21
28.196702
 31
0.0
  0
LINE
  5
2BF
  8
LAYER_1
 10
60.357778
 20
28.196702
 30
0.0
 11
60.823723
 21
27.969286
 31
0.0
  0
LINE
  5
2C0
  8
LAYER_1
 10
60.823723
 20
27.969286
 30
0.0
 11
61.34549
 21
27.390217
 31
0.0
  0
LINE
  5
2C1
  8
LAYER_1
 10
61.34549
 20
27.390217
 30
0.0
 11
61.978654
 21
26.773348
 31
0.0
  0
LINE
  5
2C2
  8
LAYER_1
 10
61.978654
 20
26.773348
 30
0.0
 11
62.62394
 21
26.54355
 31
0.0
  0
LINE
  5
2C3
  8
LAYER_1
 10
62.62394
 20
26.54355
 30
0.0
 11
63.084755
 21
26.460648
 31
0.0
  0
LINE
  5
2C4
  8
LAYER_1
 10
63.084755
 20
26.460648
 30
0.0
 11
63.276421
 21
26.261328
 31
0.0
  0
LINE
  5
2C5
  8
LAYER_1
 10
63.276421
 20
26.261328
 30
0.0
 11
63.400215
 21
26.022389
 31
0.0
  0
LINE
  5
2C6
  8
LAYER_1
 10
63.400215
 20
26.022389
 30
0.0
 11
63.687108
 21
25.990582
 31
0.0
  0
LINE
  5
2C7
  8
LAYER_1
 10
63.687108
 20
25.990582
 30
0.0
 11
64.01036600000001
 21
26.141224
 31
0.0
  0
LINE
  5
2C8
  8
LAYER_1
 10
64.01036600000001
 20
26.141224
 30
0.0
 11
64.24325500000001
 21
26.449632
 31
0.0
  0
LINE
  5
2C9
  8
LAYER_1
 10
64.24325500000001
 20
26.449632
 30
0.0
 11
64.455696
 21
26.748823
 31
0.0
  0
LINE
  5
2CA
  8
LAYER_1
 10
64.455696
 20
26.748823
 30
0.0
 11
64.75322799999999
 21
26.590744
 31
0.0
  0
LINE
  5
2CB
  8
LAYER_1
 10
64.75322799999999
 20
26.590744
 30
0.0
 11
65.169293
 21
26.326726
 31
0.0
  0
LINE
  5
2CC
  8
LAYER_1
 10
65.169293
 20
26.326726
 30
0.0
 11
65.60901
 21
26.280702
 31
0.0
  0
LINE
  5
2CD
  8
LAYER_1
 10
65.60901
 20
26.280702
 30
0.0
 11
65.990166
 21
26.441207
 31
0.0
  0
LINE
  5
2CE
  8
LAYER_1
 10
65.990166
 20
26.441207
 30
0.0
 11
66.23055100000001
 21
26.796774
 31
0.0
  0
LINE
  5
2CF
  8
LAYER_1
 10
66.23055100000001
 20
26.796774
 30
0.0
 11
66.572997
 21
27.201551
 31
0.0
  0
LINE
  5
2D0
  8
LAYER_1
 10
66.572997
 20
27.201551
 30
0.0
 11
67.44901400000001
 21
27.202161
 31
0.0
  0
LINE
  5
2D1
  8
LAYER_1
 10
67.44901400000001
 20
27.202161
 30
0.0
 11
69.83016000000001
 21
27.013271
 31
0.0
  0
LINE
  5
2D2
  8
LAYER_1
 10
69.83016000000001
 20
27.013271
 30
0.0
 11
70.23388799999999
 21
27.148522
 31
0.0
  0
LINE
  5
2D3
  8
LAYER_1
 10
70.23388799999999
 20
27.148522
 30
0.0
 11
70.331976
 21
27.456195
 31
0.0
  0
LINE
  5
2D4
  8
LAYER_1
 10
70.331976
 20
27.456195
 30
0.0
 11
70.115178
 21
28.184924
 31
0.0
  0
LINE
  5
2D5
  8
LAYER_1
 10
70.115178
 20
28.184924
 30
0.0
 11
69.594094
 21
29.118259
 31
0.0
  0
LINE
  5
2D6
  8
LAYER_1
 10
69.594094
 20
29.118259
 30
0.0
 11
68.962688
 21
29.957823
 31
0.0
  0
LINE
  5
2D7
  8
LAYER_1
 10
68.962688
 20
29.957823
 30
0.0
 11
68.414925
 21
30.405234
 31
0.0
  0
LINE
  5
2D8
  8
LAYER_1
 10
68.414925
 20
30.405234
 30
0.0
 11
67.374871
 21
30.921529
 31
0.0
  0
LINE
  5
2D9
  8
LAYER_1
 10
67.374871
 20
30.921529
 30
0.0
 11
66.109443
 21
31.745525
 31
0.0
  0
LINE
  5
2DA
  8
LAYER_1
 10
66.109443
 20
31.745525
 30
0.0
 11
64.97396500000001
 21
32.6251
 31
0.0
  0
LINE
  5
2DB
  8
LAYER_1
 10
64.97396500000001
 20
32.6251
 30
0.0
 11
64.323764
 21
33.308132
 31
0.0
  0
LINE
  5
2DC
  8
LAYER_1
 10
64.323764
 20
33.308132
 30
0.0
 11
64.07078199999999
 21
33.969489
 31
0.0
  0
LINE
  5
2DD
  8
LAYER_1
 10
64.07078199999999
 20
33.969489
 30
0.0
 11
64.036569
 21
34.658677
 31
0.0
  0
LINE
  5
2DE
  8
LAYER_1
 10
64.036569
 20
34.658677
 30
0.0
 11
64.21574699999999
 21
35.325394
 31
0.0
  0
LINE
  5
2DF
  8
LAYER_1
 10
64.21574699999999
 20
35.325394
 30
0.0
 11
64.60293900000001
 21
35.919337
 31
0.0
  0
LINE
  5
2E0
  8
LAYER_1
 10
64.60293900000001
 20
35.919337
 30
0.0
 11
65.025961
 21
36.238251
 31
0.0
  0
LINE
  5
2E1
  8
LAYER_1
 10
65.025961
 20
36.238251
 30
0.0
 11
65.35819600000001
 21
36.145775
 31
0.0
  0
LINE
  5
2E2
  8
LAYER_1
 10
65.35819600000001
 20
36.145775
 30
0.0
 11
65.698643
 21
35.917992
 31
0.0
  0
LINE
  5
2E3
  8
LAYER_1
 10
65.698643
 20
35.917992
 30
0.0
 11
66.030113
 21
35.870721
 31
0.0
  0
LINE
  5
2E4
  8
LAYER_1
 10
66.030113
 20
35.870721
 30
0.0
 11
66.281291
 21
35.994588
 31
0.0
  0
LINE
  5
2E5
  8
LAYER_1
 10
66.281291
 20
35.994588
 30
0.0
 11
66.380865
 21
36.280217
 31
0.0
  0
LINE
  5
2E6
  8
LAYER_1
 10
66.380865
 20
36.280217
 30
0.0
 11
66.44260199999999
 21
36.570678
 31
0.0
  0
LINE
  5
2E7
  8
LAYER_1
 10
66.44260199999999
 20
36.570678
 30
0.0
 11
66.64952700000001
 21
36.682368
 31
0.0
  0
LINE
  5
2E8
  8
LAYER_1
 10
66.64952700000001
 20
36.682368
 30
0.0
 11
67.629227
 21
36.379836
 31
0.0
  0
LINE
  5
2E9
  8
LAYER_1
 10
67.629227
 20
36.379836
 30
0.0
 11
68.284019
 21
36.200525
 31
0.0
  0
LINE
  5
2EA
  8
LAYER_1
 10
68.284019
 20
36.200525
 30
0.0
 11
68.78335800000001
 21
36.42432
 31
0.0
  0
LINE
  5
2EB
  8
LAYER_1
 10
68.78335800000001
 20
36.42432
 30
0.0
 11
69.20175399999999
 21
36.642445
 31
0.0
  0
LINE
  5
2EC
  8
LAYER_1
 10
69.20175399999999
 20
36.642445
 30
0.0
 11
69.553715
 21
36.465812
 31
0.0
  0
LINE
  5
2ED
  8
LAYER_1
 10
69.553715
 20
36.465812
 30
0.0
 11
70.09356
 21
36.235076
 31
0.0
  0
LINE
  5
2EE
  8
LAYER_1
 10
70.09356
 20
36.235076
 30
0.0
 11
70.932706
 21
36.139106
 31
0.0
  0
LINE
  5
2EF
  8
LAYER_1
 10
70.932706
 20
36.139106
 30
0.0
 11
71.815512
 21
36.006645
 31
0.0
  0
LINE
  5
2F0
  8
LAYER_1
 10
71.815512
 20
36.006645
 30
0.0
 11
72.446628
 21
35.677472
 31
0.0
  0
LINE
  5
2F1
  8
LAYER_1
 10
72.446628
 20
35.677472
 30
0.0
 11
72.8772
 21
35.38801
 31
0.0
  0
LINE
  5
2F2
  8
LAYER_1
 10
72.8772
 20
35.38801
 30
0.0
 11
73.228787
 21
35.536361
 31
0.0
  0
LINE
  5
2F3
  8
LAYER_1
 10
73.228787
 20
35.536361
 30
0.0
 11
73.658681
 21
35.76273
 31
0.0
  0
LINE
  5
2F4
  8
LAYER_1
 10
73.658681
 20
35.76273
 30
0.0
 11
74.24216199999999
 21
35.856884
 31
0.0
  0
LINE
  5
2F5
  8
LAYER_1
 10
74.24216199999999
 20
35.856884
 30
0.0
 11
74.76522199999999
 21
35.932433
 31
0.0
  0
LINE
  5
2F6
  8
LAYER_1
 10
74.76522199999999
 20
35.932433
 30
0.0
 11
74.46794
 21
36.372995
 31
0.0
  0
LINE
  5
2F7
  8
LAYER_1
 10
74.46794
 20
36.372995
 30
0.0
 11
74.081417
 21
36.907101
 31
0.0
  0
LINE
  5
2F8
  8
LAYER_1
 10
74.081417
 20
36.907101
 30
0.0
 11
74.053128
 21
37.272864
 31
0.0
  0
LINE
  5
2F9
  8
LAYER_1
 10
74.053128
 20
37.272864
 30
0.0
 11
74.389882
 21
37.482998
 31
0.0
  0
LINE
  5
2FA
  8
LAYER_1
 10
74.389882
 20
37.482998
 30
0.0
 11
75.098489
 21
37.550217
 31
0.0
  0
LINE
  5
2FB
  8
LAYER_1
 10
75.098489
 20
37.550217
 30
0.0
 11
76.064092
 21
37.694012
 31
0.0
  0
LINE
  5
2FC
  8
LAYER_1
 10
76.064092
 20
37.694012
 30
0.0
 11
76.825684
 21
38.060015
 31
0.0
  0
LINE
  5
2FD
  8
LAYER_1
 10
76.825684
 20
38.060015
 30
0.0
 11
77.45526
 21
38.569813
 31
0.0
  0
LINE
  5
2FE
  8
LAYER_1
 10
77.45526
 20
38.569813
 30
0.0
 11
76.71584
 21
39.054298
 31
0.0
  0
LINE
  5
2FF
  8
LAYER_1
 10
76.71584
 20
39.054298
 30
0.0
 11
76.19297899999999
 21
39.498184
 31
0.0
  0
LINE
  5
300
  8
LAYER_1
 10
76.19297899999999
 20
39.498184
 30
0.0
 11
75.97421900000001
 21
39.885056
 31
0.0
  0
LINE
  5
301
  8
LAYER_1
 10
75.97421900000001
 20
39.885056
 30
0.0
 11
75.836686
 21
40.216978
 31
0.0
  0
LINE
  5
302
  8
LAYER_1
 10
75.836686
 20
40.216978
 30
0.0
 11
75.47353200000001
 21
40.494626
 31
0.0
  0
LINE
  5
303
  8
LAYER_1
 10
75.47353200000001
 20
40.494626
 30
0.0
 11
74.33990300000001
 21
40.845831
 31
0.0
  0
LINE
  5
304
  8
LAYER_1
 10
74.33990300000001
 20
40.845831
 30
0.0
 11
73.11241099999999
 21
40.856133
 31
0.0
  0
LINE
  5
305
  8
LAYER_1
 10
73.11241099999999
 20
40.856133
 30
0.0
 11
72.63193
 21
40.707653
 31
0.0
  0
LINE
  5
306
  8
LAYER_1
 10
72.63193
 20
40.707653
 30
0.0
 11
72.33013800000001
 21
40.442995
 31
0.0
  0
LINE
  5
307
  8
LAYER_1
 10
72.33013800000001
 20
40.442995
 30
0.0
 11
72.124453
 21
40.187106
 31
0.0
  0
LINE
  5
308
  8
LAYER_1
 10
72.124453
 20
40.187106
 30
0.0
 11
72.03389199999999
 21
40.265429
 31
0.0
  0
LINE
  5
309
  8
LAYER_1
 10
72.03389199999999
 20
40.265429
 30
0.0
 11
71.52151499999999
 21
40.547047
 31
0.0
  0
LINE
  5
30A
  8
LAYER_1
 10
71.52151499999999
 20
40.547047
 30
0.0
 11
70.28429199999999
 21
40.778729
 31
0.0
  0
LINE
  5
30B
  8
LAYER_1
 10
70.28429199999999
 20
40.778729
 30
0.0
 11
68.89097200000001
 21
41.044951
 31
0.0
  0
LINE
  5
30C
  8
LAYER_1
 10
68.89097200000001
 20
41.044951
 30
0.0
 11
67.50061
 21
41.570745
 31
0.0
  0
LINE
  5
30D
  8
LAYER_1
 10
67.50061
 20
41.570745
 30
0.0
 11
65.934584
 21
42.440425
 31
0.0
  0
LINE
  5
30E
  8
LAYER_1
 10
65.934584
 20
42.440425
 30
0.0
 11
64.01427700000001
 21
43.7383
 31
0.0
  0
LINE
  5
30F
  8
LAYER_1
 10
64.01427700000001
 20
43.7383
 30
0.0
 11
61.627646
 21
45.58773
 31
0.0
  0
LINE
  5
310
  8
LAYER_1
 10
61.627646
 20
45.58773
 30
0.0
 11
61.382685
 21
46.034909
 31
0.0
  0
LINE
  5
311
  8
LAYER_1
 10
61.382685
 20
46.034909
 30
0.0
 11
61.550479
 21
46.400926
 31
0.0
  0
LINE
  5
312
  8
LAYER_1
 10
61.550479
 20
46.400926
 30
0.0
 11
61.736252
 21
46.757034
 31
0.0
  0
LINE
  5
313
  8
LAYER_1
 10
61.736252
 20
46.757034
 30
0.0
 11
61.596792
 21
46.996192
 31
0.0
  0
LINE
  5
314
  8
LAYER_1
 10
61.596792
 20
46.996192
 30
0.0
 11
61.373039
 21
47.214247
 31
0.0
  0
LINE
  5
315
  8
LAYER_1
 10
61.373039
 20
47.214247
 30
0.0
 11
61.311245
 21
47.447961
 31
0.0
  0
LINE
  5
316
  8
LAYER_1
 10
61.311245
 20
47.447961
 30
0.0
 11
61.406437
 21
47.63473
 31
0.0
  0
LINE
  5
317
  8
LAYER_1
 10
61.406437
 20
47.63473
 30
0.0
 11
61.653643
 21
47.711955
 31
0.0
  0
LINE
  5
318
  8
LAYER_1
 10
61.653643
 20
47.711955
 30
0.0
 11
62.757403
 21
48.105514
 31
0.0
  0
LINE
  5
319
  8
LAYER_1
 10
62.757403
 20
48.105514
 30
0.0
 11
63.410704
 21
48.349259
 31
0.0
  0
LINE
  5
31A
  8
LAYER_1
 10
63.410704
 20
48.349259
 30
0.0
 11
63.648203
 21
47.962665
 31
0.0
  0
LINE
  5
31B
  8
LAYER_1
 10
63.648203
 20
47.962665
 30
0.0
 11
63.956496
 21
47.554364
 31
0.0
  0
LINE
  5
31C
  8
LAYER_1
 10
63.956496
 20
47.554364
 30
0.0
 11
64.640655
 21
47.427995
 31
0.0
  0
LINE
  5
31D
  8
LAYER_1
 10
64.640655
 20
47.427995
 30
0.0
 11
65.465009
 21
47.221372
 31
0.0
  0
LINE
  5
31E
  8
LAYER_1
 10
65.465009
 20
47.221372
 30
0.0
 11
66.220382
 21
46.510773
 31
0.0
  0
LINE
  5
31F
  8
LAYER_1
 10
66.220382
 20
46.510773
 30
0.0
 11
66.94747700000001
 21
45.59355
 31
0.0
  0
LINE
  5
320
  8
LAYER_1
 10
66.94747700000001
 20
45.59355
 30
0.0
 11
66.770004
 21
46.510773
 31
0.0
  0
LINE
  5
321
  8
LAYER_1
 10
66.770004
 20
46.510773
 30
0.0
 11
66.724957
 21
47.266926
 31
0.0
  0
LINE
  5
322
  8
LAYER_1
 10
66.724957
 20
47.266926
 30
0.0
 11
66.87477
 21
47.396257
 31
0.0
  0
LINE
  5
323
  8
LAYER_1
 10
66.87477
 20
47.396257
 30
0.0
 11
67.16917100000001
 21
47.427995
 31
0.0
  0
LINE
  5
324
  8
LAYER_1
 10
67.16917100000001
 20
47.427995
 30
0.0
 11
67.84727100000001
 21
47.491181
 31
0.0
  0
LINE
  5
325
  8
LAYER_1
 10
67.84727100000001
 20
47.491181
 30
0.0
 11
68.30257
 21
47.693082
 31
0.0
  0
LINE
  5
326
  8
LAYER_1
 10
68.30257
 20
47.693082
 30
0.0
 11
68.558536
 21
48.05221
 31
0.0
  0
LINE
  5
327
  8
LAYER_1
 10
68.558536
 20
48.05221
 30
0.0
 11
68.638643
 21
48.587079
 31
0.0
  0
LINE
  5
328
  8
LAYER_1
 10
68.638643
 20
48.587079
 30
0.0
 11
68.753529
 21
49.21807
 31
0.0
  0
LINE
  5
329
  8
LAYER_1
 10
68.753529
 20
49.21807
 30
0.0
 11
69.132532
 21
49.422651
 31
0.0
  0
LINE
  5
32A
  8
LAYER_1
 10
69.132532
 20
49.422651
 30
0.0
 11
69.407602
 21
49.49685
 31
0.0
  0
LINE
  5
32B
  8
LAYER_1
 10
69.407602
 20
49.49685
 30
0.0
 11
69.006311
 21
49.741356
 31
0.0
  0
LINE
  5
32C
  8
LAYER_1
 10
69.006311
 20
49.741356
 30
0.0
 11
68.48168200000001
 21
50.201594
 31
0.0
  0
LINE
  5
32D
  8
LAYER_1
 10
68.48168200000001
 20
50.201594
 30
0.0
 11
68.091132
 21
50.887399
 31
0.0
  0
LINE
  5
32E
  8
LAYER_1
 10
68.091132
 20
50.887399
 30
0.0
 11
67.770785
 21
51.515705
 31
0.0
  0
LINE
  5
32F
  8
LAYER_1
 10
67.770785
 20
51.515705
 30
0.0
 11
67.596082
 21
51.528037
 31
0.0
  0
LINE
  5
330
  8
LAYER_1
 10
67.596082
 20
51.528037
 30
0.0
 11
67.361065
 21
51.372818
 31
0.0
  0
LINE
  5
331
  8
LAYER_1
 10
67.361065
 20
51.372818
 30
0.0
 11
66.884038
 21
51.158352
 31
0.0
  0
LINE
  5
332
  8
LAYER_1
 10
66.884038
 20
51.158352
 30
0.0
 11
66.30068900000001
 21
51.31461
 31
0.0
  0
LINE
  5
333
  8
LAYER_1
 10
66.30068900000001
 20
51.31461
 30
0.0
 11
64.828643
 21
51.799597
 31
0.0
  0
LINE
  5
334
  8
LAYER_1
 10
64.828643
 20
51.799597
 30
0.0
 11
63.899441
 21
52.08191
 31
0.0
  0
LINE
  5
335
  8
LAYER_1
 10
63.899441
 20
52.08191
 30
0.0
 11
63.258526
 21
52.468049
 31
0.0
  0
LINE
  5
336
  8
LAYER_1
 10
63.258526
 20
52.468049
 30
0.0
 11
62.903401
 21
52.960217
 31
0.0
  0
LINE
  5
337
  8
LAYER_1
 10
62.903401
 20
52.960217
 30
0.0
 11
62.831568
 21
53.560619
 31
0.0
  0
LINE
  5
338
  8
LAYER_1
 10
62.831568
 20
53.560619
 30
0.0
 11
62.916602
 21
53.972985
 31
0.0
  0
LINE
  5
339
  8
LAYER_1
 10
62.916602
 20
53.972985
 30
0.0
 11
63.110007
 21
54.246776
 31
0.0
  0
LINE
  5
33A
  8
LAYER_1
 10
63.110007
 20
54.246776
 30
0.0
 11
64.08292400000001
 21
54.594204
 31
0.0
  0
LINE
  5
33B
  8
LAYER_1
 10
64.08292400000001
 20
54.594204
 30
0.0
 11
64.90856700000001
 21
54.878926
 31
0.0
  0
LINE
  5
33C
  8
LAYER_1
 10
64.90856700000001
 20
54.878926
 30
0.0
 11
65.251976
 21
55.209925
 31
0.0
  0
LINE
  5
33D
  8
LAYER_1
 10
65.251976
 20
55.209925
 30
0.0
 11
64.888446
 21
55.999831
 31
0.0
  0
LINE
  5
33E
  8
LAYER_1
 10
64.888446
 20
55.999831
 30
0.0
 11
63.970942
 21
57.058956
 31
0.0
  0
LINE
  5
33F
  8
LAYER_1
 10
63.970942
 20
57.058956
 30
0.0
 11
62.759094
 21
58.127835
 31
0.0
  0
LINE
  5
340
  8
LAYER_1
 10
62.759094
 20
58.127835
 30
0.0
 11
61.512532
 21
58.947005
 31
0.0
  0
LINE
  5
341
  8
LAYER_1
 10
61.512532
 20
58.947005
 30
0.0
 11
60.366445
 21
59.468156
 31
0.0
  0
LINE
  5
342
  8
LAYER_1
 10
60.366445
 20
59.468156
 30
0.0
 11
59.889754
 21
59.544698
 31
0.0
  0
LINE
  5
343
  8
LAYER_1
 10
59.889754
 20
59.544698
 30
0.0
 11
59.483926
 21
59.578979
 31
0.0
  0
LINE
  5
344
  8
LAYER_1
 10
59.483926
 20
59.578979
 30
0.0
 11
58.508211
 21
59.998531
 31
0.0
  0
LINE
  5
345
  8
LAYER_1
 10
58.508211
 20
59.998531
 30
0.0
 11
56.672745
 21
60.692439
 31
0.0
  0
LINE
  5
346
  8
LAYER_1
 10
56.672745
 20
60.692439
 30
0.0
 11
55.937462
 21
60.873026
 31
0.0
  0
LINE
  5
347
  8
LAYER_1
 10
55.937462
 20
60.873026
 30
0.0
 11
55.065633
 21
61.333228
 31
0.0
  0
LINE
  5
348
  8
LAYER_1
 10
55.065633
 20
61.333228
 30
0.0
 11
54.248936
 21
61.95071
 31
0.0
  0
LINE
  5
349
  8
LAYER_1
 10
54.248936
 20
61.95071
 30
0.0
 11
53.679048
 21
62.603134
 31
0.0
  0
LINE
  5
34A
  8
LAYER_1
 10
53.679048
 20
62.603134
 30
0.0
 11
53.332205
 21
63.435889
 31
0.0
  0
LINE
  5
34B
  8
LAYER_1
 10
53.332205
 20
63.435889
 30
0.0
 11
53.569929
 21
64.337751
 31
0.0
  0
LINE
  5
34C
  8
LAYER_1
 10
53.569929
 20
64.337751
 30
0.0
 11
53.886988
 21
64.941247
 31
0.0
  0
LINE
  5
34D
  8
LAYER_1
 10
53.886988
 20
64.941247
 30
0.0
 11
54.20337
 21
65.110736
 31
0.0
  0
LINE
  5
34E
  8
LAYER_1
 10
54.20337
 20
65.110736
 30
0.0
 11
54.596944
 21
64.83451
 31
0.0
  0
LINE
  5
34F
  8
LAYER_1
 10
54.596944
 20
64.83451
 30
0.0
 11
55.145576
 21
64.10086200000001
 31
0.0
  0
LINE
  5
350
  8
LAYER_1
 10
55.145576
 20
64.10086200000001
 30
0.0
 11
55.743794
 21
63.329499
 31
0.0
  0
LINE
  5
351
  8
LAYER_1
 10
55.743794
 20
63.329499
 30
0.0
 11
56.1213
 21
63.047081
 31
0.0
  0
LINE
  5
352
  8
LAYER_1
 10
56.1213
 20
63.047081
 30
0.0
 11
56.201788
 21
63.264447
 31
0.0
  0
LINE
  5
353
  8
LAYER_1
 10
56.201788
 20
63.264447
 30
0.0
 11
55.90895
 21
63.992435
 31
0.0
  0
LINE
  5
354
  8
LAYER_1
 10
55.90895
 20
63.992435
 30
0.0
 11
55.525375
 21
64.904707
 31
0.0
  0
LINE
  5
355
  8
LAYER_1
 10
55.525375
 20
64.904707
 30
0.0
 11
55.588105
 21
65.078389
 31
0.0
  0
LINE
  5
356
  8
LAYER_1
 10
55.588105
 20
65.078389
 30
0.0
 11
55.812368
 21
65.16243299999999
 31
0.0
  0
LINE
  5
357
  8
LAYER_1
 10
55.812368
 20
65.16243299999999
 30
0.0
 11
56.435458
 21
65.190376
 31
0.0
  0
LINE
  5
358
  8
LAYER_1
 10
56.435458
 20
65.190376
 30
0.0
 11
57.028706
 21
65.041521
 31
0.0
  0
LINE
  5
359
  8
LAYER_1
 10
57.028706
 20
65.041521
 30
0.0
 11
57.504263
 21
64.751908
 31
0.0
  0
LINE
  5
35A
  8
LAYER_1
 10
57.504263
 20
64.751908
 30
0.0
 11
57.774278
 21
64.35757700000001
 31
0.0
  0
LINE
  5
35B
  8
LAYER_1
 10
57.774278
 20
64.35757700000001
 30
0.0
 11
58.144181
 21
63.83164
 31
0.0
  0
LINE
  5
35C
  8
LAYER_1
 10
58.144181
 20
63.83164
 30
0.0
 11
58.780866
 21
63.363207
 31
0.0
  0
LINE
  5
35D
  8
LAYER_1
 10
58.780866
 20
63.363207
 30
0.0
 11
59.364699
 21
62.915608
 31
0.0
  0
LINE
  5
35E
  8
LAYER_1
 10
59.364699
 20
62.915608
 30
0.0
 11
59.607532
 21
62.439762
 31
0.0
  0
LINE
  5
35F
  8
LAYER_1
 10
59.607532
 20
62.439762
 30
0.0
 11
59.746248
 21
62.133535
 31
0.0
  0
LINE
  5
360
  8
LAYER_1
 10
59.746248
 20
62.133535
 30
0.0
 11
60.122595
 21
61.991726
 31
0.0
  0
LINE
  5
361
  8
LAYER_1
 10
60.122595
 20
61.991726
 30
0.0
 11
60.676869
 21
62.021519
 31
0.0
  0
LINE
  5
362
  8
LAYER_1
 10
60.676869
 20
62.021519
 30
0.0
 11
61.349368
 21
62.230102
 31
0.0
  0
LINE
  5
363
  8
LAYER_1
 10
61.349368
 20
62.230102
 30
0.0
 11
61.790579
 21
62.264315
 31
0.0
  0
LINE
  5
364
  8
LAYER_1
 10
61.790579
 20
62.264315
 30
0.0
 11
62.357129
 21
62.124388
 31
0.0
  0
LINE
  5
365
  8
LAYER_1
 10
62.357129
 20
62.124388
 30
0.0
 11
62.901562
 21
61.863516
 31
0.0
  0
LINE
  5
366
  8
LAYER_1
 10
62.901562
 20
61.863516
 30
0.0
 11
63.276421
 21
61.534895
 31
0.0
  0
LINE
  5
367
  8
LAYER_1
 10
63.276421
 20
61.534895
 30
0.0
 11
64.123087
 21
61.139197
 31
0.0
  0
LINE
  5
368
  8
LAYER_1
 10
64.123087
 20
61.139197
 30
0.0
 11
64.646646
 21
61.036296
 31
0.0
  0
LINE
  5
369
  8
LAYER_1
 10
64.646646
 20
61.036296
 30
0.0
 11
64.30649200000001
 21
61.364605
 31
0.0
  0
LINE
  5
36A
  8
LAYER_1
 10
64.30649200000001
 20
61.364605
 30
0.0
 11
63.973805
 21
61.750445
 31
0.0
  0
LINE
  5
36B
  8
LAYER_1
 10
63.973805
 20
61.750445
 30
0.0
 11
64.01575200000001
 21
62.087647
 31
0.0
  0
LINE
  5
36C
  8
LAYER_1
 10
64.01575200000001
 20
62.087647
 30
0.0
 11
64.442419
 21
62.389979
 31
0.0
  0
LINE
  5
36D
  8
LAYER_1
 10
64.442419
 20
62.389979
 30
0.0
 11
65.263892
 21
62.671204
 31
0.0
  0
LINE
  5
36E
  8
LAYER_1
 10
65.263892
 20
62.671204
 30
0.0
 11
66.129609
 21
63.028838
 31
0.0
  0
LINE
  5
36F
  8
LAYER_1
 10
66.129609
 20
63.028838
 30
0.0
 11
66.380865
 21
63.525538
 31
0.0
  0
LINE
  5
370
  8
LAYER_1
 10
66.380865
 20
63.525538
 30
0.0
 11
66.508697
 21
63.921635
 31
0.0
  0
LINE
  5
371
  8
LAYER_1
 10
66.508697
 20
63.921635
 30
0.0
 11
66.83023900000001
 21
64.079106
 31
0.0
  0
LINE
  5
372
  8
LAYER_1
 10
66.83023900000001
 20
64.079106
 30
0.0
 11
67.351664
 21
64.239615
 31
0.0
  0
LINE
  5
373
  8
LAYER_1
 10
67.351664
 20
64.239615
 30
0.0
 11
67.974266
 21
64.625519
 31
0.0
  0
LINE
  5
374
  8
LAYER_1
 10
67.974266
 20
64.625519
 30
0.0
 11
68.50032
 21
65.138882
 31
0.0
  0
LINE
  5
375
  8
LAYER_1
 10
68.50032
 20
65.138882
 30
0.0
 11
68.10789
 21
65.47218599999999
 31
0.0
  0
LINE
  5
376
  8
LAYER_1
 10
68.10789
 20
65.47218599999999
 30
0.0
 11
67.251351
 21
65.77243900000001
 31
0.0
  0
LINE
  5
377
  8
LAYER_1
 10
67.251351
 20
65.77243900000001
 30
0.0
 11
66.180207
 21
66.357338
 31
0.0
  0
LINE
  5
378
  8
LAYER_1
 10
66.180207
 20
66.357338
 30
0.0
 11
64.29853900000001
 21
67.729017
 31
0.0
  0
LINE
  5
379
  8
LAYER_1
 10
64.29853900000001
 20
67.729017
 30
0.0
 11
62.350734
 21
69.31295400000001
 31
0.0
  0
LINE
  5
37A
  8
LAYER_1
 10
62.350734
 20
69.31295400000001
 30
0.0
 11
61.081181
 21
70.534626
 31
0.0
  0
LINE
  5
37B
  8
LAYER_1
 10
61.081181
 20
70.534626
 30
0.0
 11
60.303772
 21
71.664644
 31
0.0
  0
LINE
  5
37C
  8
LAYER_1
 10
60.303772
 20
71.664644
 30
0.0
 11
60.172626
 21
72.044398
 31
0.0
  0
LINE
  5
37D
  8
LAYER_1
 10
60.172626
 20
72.044398
 30
0.0
 11
60.217423
 21
72.307169
 31
0.0
  0
LINE
  5
37E
  8
LAYER_1
 10
60.217423
 20
72.307169
 30
0.0
 11
60.44134
 21
72.45784500000001
 31
0.0
  0
LINE
  5
37F
  8
LAYER_1
 10
60.44134
 20
72.45784500000001
 30
0.0
 11
60.847556
 21
72.501316
 31
0.0
  0
LINE
  5
380
  8
LAYER_1
 10
60.847556
 20
72.501316
 30
0.0
 11
62.219592
 21
72.286199
 31
0.0
  0
LINE
  5
381
  8
LAYER_1
 10
62.219592
 20
72.286199
 30
0.0
 11
63.036024
 21
72.179496
 31
0.0
  0
LINE
  5
382
  8
LAYER_1
 10
63.036024
 20
72.179496
 30
0.0
 11
63.44416
 21
72.306637
 31
0.0
  0
LINE
  5
383
  8
LAYER_1
 10
63.44416
 20
72.306637
 30
0.0
 11
63.652541
 21
72.43134499999999
 31
0.0
  0
LINE
  5
384
  8
LAYER_1
 10
63.652541
 20
72.43134499999999
 30
0.0
 11
63.936547
 21
72.31030300000001
 31
0.0
  0
LINE
  5
385
  8
LAYER_1
 10
63.936547
 20
72.31030300000001
 30
0.0
 11
64.446474
 21
72.158188
 31
0.0
  0
LINE
  5
386
  8
LAYER_1
 10
64.446474
 20
72.158188
 30
0.0
 11
65.177566
 21
72.19670499999999
 31
0.0
  0
LINE
  5
387
  8
LAYER_1
 10
65.177566
 20
72.19670499999999
 30
0.0
 11
65.90211600000001
 21
72.389647
 31
0.0
  0
LINE
  5
388
  8
LAYER_1
 10
65.90211600000001
 20
72.389647
 30
0.0
 11
66.392422
 21
72.70080900000001
 31
0.0
  0
LINE
  5
389
  8
LAYER_1
 10
66.392422
 20
72.70080900000001
 30
0.0
 11
66.739385
 21
72.917654
 31
0.0
  0
LINE
  5
38A
  8
LAYER_1
 10
66.739385
 20
72.917654
 30
0.0
 11
67.13553899999999
 21
72.911205
 31
0.0
  0
LINE
  5
38B
  8
LAYER_1
 10
67.13553899999999
 20
72.911205
 30
0.0
 11
67.51332600000001
 21
72.91005800000001
 31
0.0
  0
LINE
  5
38C
  8
LAYER_1
 10
67.51332600000001
 20
72.91005800000001
 30
0.0
 11
67.816137
 21
73.139647
 31
0.0
  0
LINE
  5
38D
  8
LAYER_1
 10
67.816137
 20
73.139647
 30
0.0
 11
67.99713800000001
 21
73.333546
 31
0.0
  0
LINE
  5
38E
  8
LAYER_1
 10
67.99713800000001
 20
73.333546
 30
0.0
 11
68.069878
 21
73.21096799999999
 31
0.0
  0
LINE
  5
38F
  8
LAYER_1
 10
68.069878
 20
73.21096799999999
 30
0.0
 11
68.208653
 21
72.86153400000001
 31
0.0
  0
LINE
  5
390
  8
LAYER_1
 10
68.208653
 20
72.86153400000001
 30
0.0
 11
68.529563
 21
72.72779
 31
0.0
  0
LINE
  5
391
  8
LAYER_1
 10
68.529563
 20
72.72779
 30
0.0
 11
68.907753
 21
72.81758499999999
 31
0.0
  0
LINE
  5
392
  8
LAYER_1
 10
68.907753
 20
72.81758499999999
 30
0.0
 11
69.218367
 21
73.138767
 31
0.0
  0
LINE
  5
393
  8
LAYER_1
 10
69.218367
 20
73.138767
 30
0.0
 11
69.380309
 21
73.67289599999999
 31
0.0
  0
LINE
  5
394
  8
LAYER_1
 10
69.380309
 20
73.67289599999999
 30
0.0
 11
69.18946200000001
 21
74.114414
 31
0.0
  0
LINE
  5
395
  8
LAYER_1
 10
69.18946200000001
 20
74.114414
 30
0.0
 11
68.99294399999999
 21
74.609218
 31
0.0
  0
LINE
  5
396
  8
LAYER_1
 10
68.99294399999999
 20
74.609218
 30
0.0
 11
68.990916
 21
75.231998
 31
0.0
  0
LINE
  5
397
  8
LAYER_1
 10
68.990916
 20
75.231998
 30
0.0
 11
69.02059300000001
 21
75.786654
 31
0.0
  0
LINE
  5
398
  8
LAYER_1
 10
69.02059300000001
 20
75.786654
 30
0.0
 11
68.83904800000001
 21
76.08346400000001
 31
0.0
  0
LINE
  5
399
  8
LAYER_1
 10
68.83904800000001
 20
76.08346400000001
 30
0.0
 11
68.43383300000001
 21
76.129705
 31
0.0
  0
LINE
  5
39A
  8
LAYER_1
 10
68.43383300000001
 20
76.129705
 30
0.0
 11
67.792501
 21
75.93265700000001
 31
0.0
  0
LINE
  5
39B
  8
LAYER_1
 10
67.792501
 20
75.93265700000001
 30
0.0
 11
67.324552
 21
75.773937
 31
0.0
  0
LINE
  5
39C
  8
LAYER_1
 10
67.324552
 20
75.773937
 30
0.0
 11
66.961573
 21
75.793055
 31
0.0
  0
LINE
  5
39D
  8
LAYER_1
 10
66.961573
 20
75.793055
 30
0.0
 11
66.045647
 21
76.54047300000001
 31
0.0
  0
LINE
  5
39E
  8
LAYER_1
 10
66.045647
 20
76.54047300000001
 30
0.0
 11
64.131128
 21
78.754661
 31
0.0
  0
LINE
  5
39F
  8
LAYER_1
 10
64.131128
 20
78.754661
 30
0.0
 11
62.387292
 21
80.843367
 31
0.0
  0
LINE
  5
3A0
  8
LAYER_1
 10
62.387292
 20
80.843367
 30
0.0
 11
61.805239
 21
81.390473
 31
0.0
  0
LINE
  5
3A1
  8
LAYER_1
 10
61.805239
 20
81.390473
 30
0.0
 11
61.442894
 21
81.57828600000001
 31
0.0
  0
LINE
  5
3A2
  8
LAYER_1
 10
61.442894
 20
81.57828600000001
 30
0.0
 11
60.366035
 21
82.21487000000001
 31
0.0
  0
LINE
  5
3A3
  8
LAYER_1
 10
60.366035
 20
82.21487000000001
 30
0.0
 11
59.807461
 21
82.815862
 31
0.0
  0
LINE
  5
3A4
  8
LAYER_1
 10
59.807461
 20
82.815862
 30
0.0
 11
59.76123
 21
83.342359
 31
0.0
  0
LINE
  5
3A5
  8
LAYER_1
 10
59.76123
 20
83.342359
 30
0.0
 11
60.08408
 21
83.659638
 31
0.0
  0
LINE
  5
3A6
  8
LAYER_1
 10
60.08408
 20
83.659638
 30
0.0
 11
60.604187
 21
83.826132
 31
0.0
  0
LINE
  5
3A7
  8
LAYER_1
 10
60.604187
 20
83.826132
 30
0.0
 11
61.087724
 21
83.807411
 31
0.0
  0
LINE
  5
3A8
  8
LAYER_1
 10
61.087724
 20
83.807411
 30
0.0
 11
61.300865
 21
83.569048
 31
0.0
  0
LINE
  5
3A9
  8
LAYER_1
 10
61.300865
 20
83.569048
 30
0.0
 11
61.652546
 21
83.311911
 31
0.0
  0
LINE
  5
3AA
  8
LAYER_1
 10
61.652546
 20
83.311911
 30
0.0
 11
62.498077
 21
83.066676
 31
0.0
  0
LINE
  5
3AB
  8
LAYER_1
 10
62.498077
 20
83.066676
 30
0.0
 11
63.440847
 21
82.757144
 31
0.0
  0
LINE
  5
3AC
  8
LAYER_1
 10
63.440847
 20
82.757144
 30
0.0
 11
63.801004
 21
82.280991
 31
0.0
  0
LINE
  5
3AD
  8
LAYER_1
 10
63.801004
 20
82.280991
 30
0.0
 11
64.003333
 21
81.79087199999999
 31
0.0
  0
LINE
  5
3AE
  8
LAYER_1
 10
64.003333
 20
81.79087199999999
 30
0.0
 11
64.376738
 21
81.39336400000001
 31
0.0
  0
LINE
  5
3AF
  8
LAYER_1
 10
64.376738
 20
81.39336400000001
 30
0.0
 11
64.87377100000001
 21
81.124775
 31
0.0
  0
LINE
  5
3B0
  8
LAYER_1
 10
64.87377100000001
 20
81.124775
 30
0.0
 11
65.446986
 21
81.02141399999999
 31
0.0
  0
LINE
  5
3B1
  8
LAYER_1
 10
65.446986
 20
81.02141399999999
 30
0.0
 11
65.95406800000001
 21
81.094495
 31
0.0
  0
LINE
  5
3B2
  8
LAYER_1
 10
65.95406800000001
 20
81.094495
 30
0.0
 11
66.224028
 21
81.319069
 31
0.0
  0
LINE
  5
3B3
  8
LAYER_1
 10
66.224028
 20
81.319069
 30
0.0
 11
66.247236
 21
81.676029
 31
0.0
  0
LINE
  5
3B4
  8
LAYER_1
 10
66.247236
 20
81.676029
 30
0.0
 11
66.01405800000001
 21
82.14627
 31
0.0
  0
LINE
  5
3B5
  8
LAYER_1
 10
66.01405800000001
 20
82.14627
 30
0.0
 11
65.79776200000001
 21
82.699331
 31
0.0
  0
LINE
  5
3B6
  8
LAYER_1
 10
65.79776200000001
 20
82.699331
 30
0.0
 11
65.751721
 21
83.349491
 31
0.0
  0
LINE
  5
3B7
  8
LAYER_1
 10
65.751721
 20
83.349491
 30
0.0
 11
65.864408
 21
83.890693
 31
0.0
  0
LINE
  5
3B8
  8
LAYER_1
 10
65.864408
 20
83.890693
 30
0.0
 11
66.124297
 21
84.116884
 31
0.0
  0
LINE
  5
3B9
  8
LAYER_1
 10
66.124297
 20
84.116884
 30
0.0
 11
66.429203
 21
84.37589800000001
 31
0.0
  0
LINE
  5
3BA
  8
LAYER_1
 10
66.429203
 20
84.37589800000001
 30
0.0
 11
66.822343
 21
84.99863600000001
 31
0.0
  0
LINE
  5
3BB
  8
LAYER_1
 10
66.822343
 20
84.99863600000001
 30
0.0
 11
67.083235
 21
85.65844900000001
 31
0.0
  0
LINE
  5
3BC
  8
LAYER_1
 10
67.083235
 20
85.65844900000001
 30
0.0
 11
66.958906
 21
86.167821
 31
0.0
  0
LINE
  5
3BD
  8
LAYER_1
 10
66.958906
 20
86.167821
 30
0.0
 11
66.32044999999999
 21
86.703326
 31
0.0
  0
LINE
  5
3BE
  8
LAYER_1
 10
66.32044999999999
 20
86.703326
 30
0.0
 11
65.038966
 21
87.44153799999999
 31
0.0
  0
LINE
  5
3BF
  8
LAYER_1
 10
65.038966
 20
87.44153799999999
 30
0.0
 11
63.415147
 21
88.56666800000001
 31
0.0
  0
LINE
  5
3C0
  8
LAYER_1
 10
63.415147
 20
88.56666800000001
 30
0.0
 11
61.593597
 21
90.135058
 31
0.0
  0
LINE
  5
3C1
  8
LAYER_1
 10
61.593597
 20
90.135058
 30
0.0
 11
60.086754
 21
91.465667
 31
0.0
  0
LINE
  5
3C2
  8
LAYER_1
 10
60.086754
 20
91.465667
 30
0.0
 11
59.219569
 21
92.01910599999999
 31
0.0
  0
LINE
  5
3C3
  8
LAYER_1
 10
59.219569
 20
92.01910599999999
 30
0.0
 11
58.713827
 21
92.240966
 31
0.0
  0
LINE
  5
3C4
  8
LAYER_1
 10
58.713827
 20
92.240966
 30
0.0
 11
57.702532
 21
93.106852
 31
0.0
  0
LINE
  5
3C5
  8
LAYER_1
 10
57.702532
 20
93.106852
 30
0.0
 11
57.117543
 21
93.593448
 31
0.0
  0
LINE
  5
3C6
  8
LAYER_1
 10
57.117543
 20
93.593448
 30
0.0
 11
56.83722
 21
94.027146
 31
0.0
  0
LINE
  5
3C7
  8
LAYER_1
 10
56.83722
 20
94.027146
 30
0.0
 11
56.855925
 21
94.425887
 31
0.0
  0
LINE
  5
3C8
  8
LAYER_1
 10
56.855925
 20
94.425887
 30
0.0
 11
57.16802
 21
94.807614
 31
0.0
  0
LINE
  5
3C9
  8
LAYER_1
 10
57.16802
 20
94.807614
 30
0.0
 11
57.402009
 21
94.925579
 31
0.0
  0
LINE
  5
3CA
  8
LAYER_1
 10
57.402009
 20
94.925579
 30
0.0
 11
57.690789
 21
94.90733899999999
 31
0.0
  0
LINE
  5
3CB
  8
LAYER_1
 10
57.690789
 20
94.90733899999999
 30
0.0
 11
58.591664
 21
94.418836
 31
0.0
  0
LINE
  5
3CC
  8
LAYER_1
 10
58.591664
 20
94.418836
 30
0.0
 11
59.775376
 21
93.895552
 31
0.0
  0
LINE
  5
3CD
  8
LAYER_1
 10
59.775376
 20
93.895552
 30
0.0
 11
61.029829
 21
93.73204200000001
 31
0.0
  0
LINE
  5
3CE
  8
LAYER_1
 10
61.029829
 20
93.73204200000001
 30
0.0
 11
62.024723
 21
93.924111
 31
0.0
  0
LINE
  5
3CF
  8
LAYER_1
 10
62.024723
 20
93.924111
 30
0.0
 11
62.321615
 21
94.15217800000001
 31
0.0
  0
LINE
  5
3D0
  8
LAYER_1
 10
62.321615
 20
94.15217800000001
 30
0.0
 11
62.429754
 21
94.467567
 31
0.0
  0
LINE
  5
3D1
  8
LAYER_1
 10
62.429754
 20
94.467567
 30
0.0
 11
62.512657
 21
94.70382600000001
 31
0.0
  0
LINE
  5
3D2
  8
LAYER_1
 10
62.512657
 20
94.70382600000001
 30
0.0
 11
62.711976
 21
94.700217
 31
0.0
  0
LINE
  5
3D3
  8
LAYER_1
 10
62.711976
 20
94.700217
 30
0.0
 11
62.911296
 21
94.666878
 31
0.0
  0
LINE
  5
3D4
  8
LAYER_1
 10
62.911296
 20
94.666878
 30
0.0
 11
62.994199
 21
94.831656
 31
0.0
  0
LINE
  5
3D5
  8
LAYER_1
 10
62.994199
 20
94.831656
 30
0.0
 11
62.800759
 21
95.121219
 31
0.0
  0
LINE
  5
3D6
  8
LAYER_1
 10
62.800759
 20
95.121219
 30
0.0
 11
62.335681
 21
95.387888
 31
0.0
  0
LINE
  5
3D7
  8
LAYER_1
 10
62.335681
 20
95.387888
 30
0.0
 11
61.920114
 21
95.66724499999999
 31
0.0
  0
LINE
  5
3D8
  8
LAYER_1
 10
61.920114
 20
95.66724499999999
 30
0.0
 11
61.701354
 21
96.074641
 31
0.0
  0
LINE
  5
3D9
  8
LAYER_1
 10
61.701354
 20
96.074641
 30
0.0
 11
61.696306
 21
96.54386599999999
 31
0.0
  0
LINE
  5
3DA
  8
LAYER_1
 10
61.696306
 20
96.54386599999999
 30
0.0
 11
61.921873
 21
97.008713
 31
0.0
  0
LINE
  5
3DB
  8
LAYER_1
 10
61.921873
 20
97.008713
 30
0.0
 11
61.871549
 21
97.522268
 31
0.0
  0
LINE
  5
3DC
  8
LAYER_1
 10
61.871549
 20
97.522268
 30
0.0
 11
61.177847
 21
98.408067
 31
0.0
  0
LINE
  5
3DD
  8
LAYER_1
 10
61.177847
 20
98.408067
 30
0.0
 11
60.171976
 21
99.654721
 31
0.0
  0
LINE
  5
3DE
  8
LAYER_1
 10
60.171976
 20
99.654721
 30
0.0
 11
59.991651
 21
100.053737
 31
0.0
  0
LINE
  5
3DF
  8
LAYER_1
 10
59.991651
 20
100.053737
 30
0.0
 11
59.542726
 21
100.524835
 31
0.0
  0
LINE
  5
3E0
  8
LAYER_1
 10
59.542726
 20
100.524835
 30
0.0
 11
58.963273
 21
100.947954
 31
0.0
  0
LINE
  5
3E1
  8
LAYER_1
 10
58.963273
 20
100.947954
 30
0.0
 11
58.391366
 21
101.203035
 31
0.0
  0
LINE
  5
3E2
  8
LAYER_1
 10
58.391366
 20
101.203035
 30
0.0
 11
57.804716
 21
101.499483
 31
0.0
  0
LINE
  5
3E3
  8
LAYER_1
 10
57.804716
 20
101.499483
 30
0.0
 11
57.631976
 21
102.049572
 31
0.0
  0
LINE
  5
3E4
  8
LAYER_1
 10
57.631976
 20
102.049572
 30
0.0
 11
57.481437
 21
102.578352
 31
0.0
  0
LINE
  5
3E5
  8
LAYER_1
 10
57.481437
 20
102.578352
 30
0.0
 11
57.067532
 21
102.884661
 31
0.0
  0
LINE
  5
3E6
  8
LAYER_1
 10
57.067532
 20
102.884661
 30
0.0
 11
56.544953
 21
103.226882
 31
0.0
  0
LINE
  5
3E7
  8
LAYER_1
 10
56.544953
 20
103.226882
 30
0.0
 11
56.630584
 21
103.61447
 31
0.0
  0
LINE
  5
3E8
  8
LAYER_1
 10
56.630584
 20
103.61447
 30
0.0
 11
57.199273
 21
103.915679
 31
0.0
  0
LINE
  5
3E9
  8
LAYER_1
 10
57.199273
 20
103.915679
 30
0.0
 11
58.125865
 21
103.998759
 31
0.0
  0
LINE
  5
3EA
  8
LAYER_1
 10
58.125865
 20
103.998759
 30
0.0
 11
58.773653
 21
104.032311
 31
0.0
  0
LINE
  5
3EB
  8
LAYER_1
 10
58.773653
 20
104.032311
 30
0.0
 11
59.043087
 21
104.197616
 31
0.0
  0
LINE
  5
3EC
  8
LAYER_1
 10
59.043087
 20
104.197616
 30
0.0
 11
59.208471
 21
104.292308
 31
0.0
  0
LINE
  5
3ED
  8
LAYER_1
 10
59.208471
 20
104.292308
 30
0.0
 11
59.607532
 21
104.154661
 31
0.0
  0
LINE
  5
3EE
  8
LAYER_1
 10
59.607532
 20
104.154661
 30
0.0
 11
60.059552
 21
104.000808
 31
0.0
  0
LINE
  5
3EF
  8
LAYER_1
 10
60.059552
 20
104.000808
 30
0.0
 11
60.171976
 21
104.2947
 31
0.0
  0
LINE
  5
3F0
  8
LAYER_1
 10
60.171976
 20
104.2947
 30
0.0
 11
60.298801
 21
104.655615
 31
0.0
  0
LINE
  5
3F1
  8
LAYER_1
 10
60.298801
 20
104.655615
 30
0.0
 11
60.60372
 21
104.902497
 31
0.0
  0
LINE
  5
3F2
  8
LAYER_1
 10
60.60372
 20
104.902497
 30
0.0
 11
60.88079
 21
105.16976
 31
0.0
  0
LINE
  5
3F3
  8
LAYER_1
 10
60.88079
 20
105.16976
 30
0.0
 11
60.855332
 21
105.635718
 31
0.0
  0
LINE
  5
3F4
  8
LAYER_1
 10
60.855332
 20
105.635718
 30
0.0
 11
60.854586
 21
106.085882
 31
0.0
  0
LINE
  5
3F5
  8
LAYER_1
 10
60.854586
 20
106.085882
 30
0.0
 11
61.561105
 21
106.073242
 31
0.0
  0
LINE
  5
3F6
  8
LAYER_1
 10
61.561105
 20
106.073242
 30
0.0
 11
62.447009
 21
105.943219
 31
0.0
  0
LINE
  5
3F7
  8
LAYER_1
 10
62.447009
 20
105.943219
 30
0.0
 11
62.273064
 21
107.518386
 31
0.0
  0
LINE
  5
3F8
  8
LAYER_1
 10
62.273064
 20
107.518386
 30
0.0
 11
62.234337
 21
108.932189
 31
0.0
  0
LINE
  5
3F9
  8
LAYER_1
 10
62.234337
 20
108.932189
 30
0.0
 11
62.442171
 21
109.259247
 31
0.0
  0
LINE
  5
3FA
  8
LAYER_1
 10
62.442171
 20
109.259247
 30
0.0
 11
62.864117
 21
109.548221
 31
0.0
  0
LINE
  5
3FB
  8
LAYER_1
 10
62.864117
 20
109.548221
 30
0.0
 11
63.259507
 21
109.808225
 31
0.0
  0
LINE
  5
3FC
  8
LAYER_1
 10
63.259507
 20
109.808225
 30
0.0
 11
63.234261
 21
109.948668
 31
0.0
  0
LINE
  5
3FD
  8
LAYER_1
 10
63.234261
 20
109.948668
 30
0.0
 11
61.406653
 21
110.047289
 31
0.0
  0
LINE
  5
3FE
  8
LAYER_1
 10
61.406653
 20
110.047289
 30
0.0
 11
59.375627
 21
110.258648
 31
0.0
  0
LINE
  5
3FF
  8
LAYER_1
 10
59.375627
 20
110.258648
 30
0.0
 11
57.305435
 21
110.754477
 31
0.0
  0
LINE
  5
400
  8
LAYER_1
 10
57.305435
 20
110.754477
 30
0.0
 11
55.500356
 21
111.441872
 31
0.0
  0
LINE
  5
401
  8
LAYER_1
 10
55.500356
 20
111.441872
 30
0.0
 11
54.264667
 21
112.22793
 31
0.0
  0
LINE
  5
402
  8
LAYER_1
 10
54.264667
 20
112.22793
 30
0.0
 11
53.753474
 21
112.889537
 31
0.0
  0
LINE
  5
403
  8
LAYER_1
 10
53.753474
 20
112.889537
 30
0.0
 11
53.905839
 21
113.596162
 31
0.0
  0
LINE
  5
404
  8
LAYER_1
 10
53.905839
 20
113.596162
 30
0.0
 11
54.288099
 21
114.103602
 31
0.0
  0
LINE
  5
405
  8
LAYER_1
 10
54.288099
 20
114.103602
 30
0.0
 11
54.747439
 21
114.314661
 31
0.0
  0
LINE
  5
406
  8
LAYER_1
 10
54.747439
 20
114.314661
 30
0.0
 11
55.997934
 21
114.663178
 31
0.0
  0
LINE
  5
407
  8
LAYER_1
 10
55.997934
 20
114.663178
 30
0.0
 11
56.551421
 21
114.96162
 31
0.0
  0
LINE
  5
408
  8
LAYER_1
 10
56.551421
 20
114.96162
 30
0.0
 11
56.783108
 21
115.220889
 31
0.0
  0
LINE
  5
409
  8
LAYER_1
 10
56.783108
 20
115.220889
 30
0.0
 11
56.162402
 21
115.996647
 31
0.0
  0
LINE
  5
40A
  8
LAYER_1
 10
56.162402
 20
115.996647
 30
0.0
 11
55.320983
 21
116.572439
 31
0.0
  0
LINE
  5
40B
  8
LAYER_1
 10
55.320983
 20
116.572439
 30
0.0
 11
55.159247
 21
116.769545
 31
0.0
  0
LINE
  5
40C
  8
LAYER_1
 10
55.159247
 20
116.769545
 30
0.0
 11
55.091976
 21
117.243438
 31
0.0
  0
LINE
  5
40D
  8
LAYER_1
 10
55.091976
 20
117.243438
 30
0.0
 11
54.967622
 21
117.820535
 31
0.0
  0
LINE
  5
40E
  8
LAYER_1
 10
54.967622
 20
117.820535
 30
0.0
 11
54.668643
 21
118.265772
 31
0.0
  0
LINE
  5
40F
  8
LAYER_1
 10
54.668643
 20
118.265772
 30
0.0
 11
54.384815
 21
118.725743
 31
0.0
  0
LINE
  5
410
  8
LAYER_1
 10
54.384815
 20
118.725743
 30
0.0
 11
54.257331
 21
119.372199
 31
0.0
  0
LINE
  5
411
  8
LAYER_1
 10
54.257331
 20
119.372199
 30
0.0
 11
54.300224
 21
119.994609
 31
0.0
  0
LINE
  5
412
  8
LAYER_1
 10
54.300224
 20
119.994609
 30
0.0
 11
54.527532
 21
120.382439
 31
0.0
  0
LINE
  5
413
  8
LAYER_1
 10
54.527532
 20
120.382439
 30
0.0
 11
54.792339
 21
120.681552
 31
0.0
  0
LINE
  5
414
  8
LAYER_1
 10
54.792339
 20
120.681552
 30
0.0
 11
54.740232
 21
121.02941
 31
0.0
  0
LINE
  5
415
  8
LAYER_1
 10
54.740232
 20
121.02941
 30
0.0
 11
54.387747
 21
121.39678
 31
0.0
  0
LINE
  5
416
  8
LAYER_1
 10
54.387747
 20
121.39678
 30
0.0
 11
53.751421
 21
121.754432
 31
0.0
  0
LINE
  5
417
  8
LAYER_1
 10
53.751421
 20
121.754432
 30
0.0
 11
52.292846
 21
122.475826
 31
0.0
  0
LINE
  5
418
  8
LAYER_1
 10
52.292846
 20
122.475826
 30
0.0
 11
51.197727
 21
123.200939
 31
0.0
  0
LINE
  5
419
  8
LAYER_1
 10
51.197727
 20
123.200939
 30
0.0
 11
50.392248
 21
123.988522
 31
0.0
  0
LINE
  5
41A
  8
LAYER_1
 10
50.392248
 20
123.988522
 30
0.0
 11
49.802593
 21
124.897328
 31
0.0
  0
LINE
  5
41B
  8
LAYER_1
 10
49.802593
 20
124.897328
 30
0.0
 11
49.172055
 21
125.885772
 31
0.0
  0
LINE
  5
41C
  8
LAYER_1
 10
49.172055
 20
125.885772
 30
0.0
 11
48.168077
 21
127.416518
 31
0.0
  0
LINE
  5
41D
  8
LAYER_1
 10
48.168077
 20
127.416518
 30
0.0
 11
47.360817
 21
128.806153
 31
0.0
  0
LINE
  5
41E
  8
LAYER_1
 10
47.360817
 20
128.806153
 30
0.0
 11
46.584266
 21
127.067099
 31
0.0
  0
LINE
  5
41F
  8
LAYER_1
 10
46.584266
 20
127.067099
 30
0.0
 11
45.821705
 21
125.609923
 31
0.0
  0
LINE
  5
420
  8
LAYER_1
 10
45.821705
 20
125.609923
 30
0.0
 11
45.078791
 21
124.548575
 31
0.0
  0
LINE
  5
421
  8
LAYER_1
 10
45.078791
 20
124.548575
 30
0.0
 11
44.362123
 21
123.573877
 31
0.0
  0
LINE
  5
422
  8
LAYER_1
 10
44.362123
 20
123.573877
 30
0.0
 11
43.662659
 21
122.325029
 31
0.0
  0
LINE
  5
423
  8
LAYER_1
 10
43.662659
 20
122.325029
 30
0.0
 11
42.864075
 21
121.030118
 31
0.0
  0
LINE
  5
424
  8
LAYER_1
 10
42.864075
 20
121.030118
 30
0.0
 11
41.909088
 21
119.944673
 31
0.0
  0
LINE
  5
425
  8
LAYER_1
 10
41.909088
 20
119.944673
 30
0.0
 11
41.156381
 21
119.122992
 31
0.0
  0
LINE
  5
426
  8
LAYER_1
 10
41.156381
 20
119.122992
 30
0.0
 11
40.929938
 21
118.493589
 31
0.0
  0
LINE
  5
427
  8
LAYER_1
 10
40.929938
 20
118.493589
 30
0.0
 11
40.821833
 21
118.045492
 31
0.0
  0
LINE
  5
428
  8
LAYER_1
 10
40.821833
 20
118.045492
 30
0.0
 11
40.364009
 21
117.716834
 31
0.0
  0
LINE
  5
429
  8
LAYER_1
 10
40.364009
 20
117.716834
 30
0.0
 11
40.003753
 21
117.526576
 31
0.0
  0
LINE
  5
42A
  8
LAYER_1
 10
40.003753
 20
117.526576
 30
0.0
 11
40.054787
 21
117.436994
 31
0.0
  0
LINE
  5
42B
  8
LAYER_1
 10
40.054787
 20
117.436994
 30
0.0
 11
40.24996
 21
117.300006
 31
0.0
  0
LINE
  5
42C
  8
LAYER_1
 10
40.24996
 20
117.300006
 30
0.0
 11
40.236259
 21
116.995772
 31
0.0
  0
LINE
  5
42D
  8
LAYER_1
 10
40.236259
 20
116.995772
 30
0.0
 11
40.205345
 21
116.730954
 31
0.0
  0
LINE
  5
42E
  8
LAYER_1
 10
40.205345
 20
116.730954
 30
0.0
 11
40.32179
 21
116.587517
 31
0.0
  0
LINE
  5
42F
  8
LAYER_1
 10
40.32179
 20
116.587517
 30
0.0
 11
40.533365
 21
116.588192
 31
0.0
  0
LINE
  5
430
  8
LAYER_1
 10
40.533365
 20
116.588192
 30
0.0
 11
40.787842
 21
116.755711
 31
0.0
  0
LINE
  5
431
  8
LAYER_1
 10
40.787842
 20
116.755711
 30
0.0
 11
41.305804
 21
116.949323
 31
0.0
  0
LINE
  5
432
  8
LAYER_1
 10
41.305804
 20
116.949323
 30
0.0
 11
42.095667
 21
116.959676
 31
0.0
  0
LINE
  5
433
  8
LAYER_1
 10
42.095667
 20
116.959676
 30
0.0
 11
42.890556
 21
116.810197
 31
0.0
  0
LINE
  5
434
  8
LAYER_1
 10
42.890556
 20
116.810197
 30
0.0
 11
43.423597
 21
116.524316
 31
0.0
  0
LINE
  5
435
  8
LAYER_1
 10
43.423597
 20
116.524316
 30
0.0
 11
43.62057
 21
116.23878
 31
0.0
  0
LINE
  5
436
  8
LAYER_1
 10
43.62057
 20
116.23878
 30
0.0
 11
43.600369
 21
115.952474
 31
0.0
  0
LINE
  5
437
  8
LAYER_1
 10
43.600369
 20
115.952474
 30
0.0
 11
42.718569
 21
114.954879
 31
0.0
  0
LINE
  5
438
  8
LAYER_1
 10
42.718569
 20
114.954879
 30
0.0
 11
41.908027
 21
114.01975
 31
0.0
  0
LINE
  5
439
  8
LAYER_1
 10
41.908027
 20
114.01975
 30
0.0
 11
41.784471
 21
113.7019
 31
0.0
  0
LINE
  5
43A
  8
LAYER_1
 10
41.784471
 20
113.7019
 30
0.0
 11
41.833569
 21
113.458228
 31
0.0
  0
LINE
  5
43B
  8
LAYER_1
 10
41.833569
 20
113.458228
 30
0.0
 11
41.919915
 21
113.127809
 31
0.0
  0
LINE
  5
43C
  8
LAYER_1
 10
41.919915
 20
113.127809
 30
0.0
 11
41.754062
 21
112.865421
 31
0.0
  0
LINE
  5
43D
  8
LAYER_1
 10
41.754062
 20
112.865421
 30
0.0
 11
41.361871
 21
112.691292
 31
0.0
  0
LINE
  5
43E
  8
LAYER_1
 10
41.361871
 20
112.691292
 30
0.0
 11
40.769199
 21
112.625649
 31
0.0
  0
LINE
  5
43F
  8
LAYER_1
 10
40.769199
 20
112.625649
 30
0.0
 11
40.320684
 21
112.508328
 31
0.0
  0
LINE
  5
440
  8
LAYER_1
 10
40.320684
 20
112.508328
 30
0.0
 11
40.134199
 21
112.232233
 31
0.0
  0
LINE
  5
441
  8
LAYER_1
 10
40.134199
 20
112.232233
 30
0.0
 11
39.881874
 21
111.810563
 31
0.0
  0
LINE
  5
442
  8
LAYER_1
 10
39.881874
 20
111.810563
 30
0.0
 11
39.173202
 21
111.499449
 31
0.0
  0
LINE
  5
443
  8
LAYER_1
 10
39.173202
 20
111.499449
 30
0.0
 11
38.080632
 21
111.318676
 31
0.0
  0
LINE
  5
444
  8
LAYER_1
 10
38.080632
 20
111.318676
 30
0.0
 11
36.676618
 21
111.288031
 31
0.0
  0
LINE
  5
445
  8
LAYER_1
 10
36.676618
 20
111.288031
 30
0.0
 11
34.771262
 21
111.351328
 31
0.0
  0
LINE
  5
446
  8
LAYER_1
 10
34.771262
 20
111.351328
 30
0.0
 11
34.771618
 21
110.276338
 31
0.0
  0
LINE
  5
447
  8
LAYER_1
 10
34.771618
 20
110.276338
 30
0.0
 11
34.850316
 21
109.518517
 31
0.0
  0
LINE
  5
448
  8
LAYER_1
 10
34.850316
 20
109.518517
 30
0.0
 11
34.948436
 21
109.377589
 31
0.0
  0
LINE
  5
449
  8
LAYER_1
 10
34.948436
 20
109.377589
 30
0.0
 11
35.085751
 21
109.395274
 31
0.0
  0
LINE
  5
44A
  8
LAYER_1
 10
35.085751
 20
109.395274
 30
0.0
 11
35.36203
 21
109.443767
 31
0.0
  0
LINE
  5
44B
  8
LAYER_1
 10
35.36203
 20
109.443767
 30
0.0
 11
35.585651
 21
109.288041
 31
0.0
  0
LINE
  5
44C
  8
LAYER_1
 10
35.585651
 20
109.288041
 30
0.0
 11
35.964045
 21
109.031282
 31
0.0
  0
LINE
  5
44D
  8
LAYER_1
 10
35.964045
 20
109.031282
 30
0.0
 11
36.612432
 21
108.836863
 31
0.0
  0
LINE
  5
44E
  8
LAYER_1
 10
36.612432
 20
108.836863
 30
0.0
 11
37.353919
 21
108.550148
 31
0.0
  0
LINE
  5
44F
  8
LAYER_1
 10
37.353919
 20
108.550148
 30
0.0
 11
37.956151
 21
108.071485
 31
0.0
  0
LINE
  5
450
  8
LAYER_1
 10
37.956151
 20
108.071485
 30
0.0
 11
38.301731
 21
107.445092
 31
0.0
  0
LINE
  5
451
  8
LAYER_1
 10
38.301731
 20
107.445092
 30
0.0
 11
37.81504
 21
106.76036
 31
0.0
  0
LINE
  5
452
  8
LAYER_1
 10
37.81504
 20
106.76036
 30
0.0
 11
36.767914
 21
105.986189
 31
0.0
  0
LINE
  5
453
  8
LAYER_1
 10
36.767914
 20
105.986189
 30
0.0
 11
35.154941
 21
105.101923
 31
0.0
  0
LINE
  5
454
  8
LAYER_1
 10
35.154941
 20
105.101923
 30
0.0
 11
33.461918
 21
104.176154
 31
0.0
  0
LINE
  5
455
  8
LAYER_1
 10
33.461918
 20
104.176154
 30
0.0
 11
33.321244
 21
103.855395
 31
0.0
  0
LINE
  5
456
  8
LAYER_1
 10
33.321244
 20
103.855395
 30
0.0
 11
33.461607
 21
103.443809
 31
0.0
  0
LINE
  5
457
  8
LAYER_1
 10
33.461607
 20
103.443809
 30
0.0
 11
33.77234
 21
102.982191
 31
0.0
  0
LINE
  5
458
  8
LAYER_1
 10
33.77234
 20
102.982191
 30
0.0
 11
34.066421
 21
102.848932
 31
0.0
  0
LINE
  5
459
  8
LAYER_1
 10
34.066421
 20
102.848932
 30
0.0
 11
34.422461
 21
102.84716
 31
0.0
  0
LINE
  5
45A
  8
LAYER_1
 10
34.422461
 20
102.84716
 30
0.0
 11
34.841512
 21
102.688763
 31
0.0
  0
LINE
  5
45B
  8
LAYER_1
 10
34.841512
 20
102.688763
 30
0.0
 11
35.190518
 21
102.443646
 31
0.0
  0
LINE
  5
45C
  8
LAYER_1
 10
35.190518
 20
102.443646
 30
0.0
 11
35.336421
 21
102.181711
 31
0.0
  0
LINE
  5
45D
  8
LAYER_1
 10
35.336421
 20
102.181711
 30
0.0
 11
34.630865
 21
100.882255
 31
0.0
  0
LINE
  5
45E
  8
LAYER_1
 10
34.630865
 20
100.882255
 30
0.0
 11
34.103378
 21
100.006012
 31
0.0
  0
LINE
  5
45F
  8
LAYER_1
 10
34.103378
 20
100.006012
 30
0.0
 11
33.958337
 21
99.45039800000001
 31
0.0
  0
LINE
  5
460
  8
LAYER_1
 10
33.958337
 20
99.45039800000001
 30
0.0
 11
34.202477
 21
99.157774
 31
0.0
  0
LINE
  5
461
  8
LAYER_1
 10
34.202477
 20
99.157774
 30
0.0
 11
34.842532
 21
99.07050099999999
 31
0.0
  0
LINE
  5
462
  8
LAYER_1
 10
34.842532
 20
99.07050099999999
 30
0.0
 11
35.686508
 21
98.96993999999999
 31
0.0
  0
LINE
  5
463
  8
LAYER_1
 10
35.686508
 20
98.96993999999999
 30
0.0
 11
36.434607
 21
98.70769
 31
0.0
  0
LINE
  5
464
  8
LAYER_1
 10
36.434607
 20
98.70769
 30
0.0
 11
36.989985
 21
98.331208
 31
0.0
  0
LINE
  5
465
  8
LAYER_1
 10
36.989985
 20
98.331208
 30
0.0
 11
37.255797
 21
97.887951
 31
0.0
  0
LINE
  5
466
  8
LAYER_1
 10
37.255797
 20
97.887951
 30
0.0
 11
37.238236
 21
97.65535800000001
 31
0.0
  0
LINE
  5
467
  8
LAYER_1
 10
37.238236
 20
97.65535800000001
 30
0.0
 11
37.061413
 21
97.480893
 31
0.0
  0
LINE
  5
468
  8
LAYER_1
 10
37.061413
 20
97.480893
 30
0.0
 11
36.103642
 21
97.234714
 31
0.0
  0
LINE
  5
469
  8
LAYER_1
 10
36.103642
 20
97.234714
 30
0.0
 11
34.322876
 21
97.10627700000001
 31
0.0
  0
LINE
  5
46A
  8
LAYER_1
 10
34.322876
 20
97.10627700000001
 30
0.0
 11
33.344439
 21
97.09270600000001
 31
0.0
  0
LINE
  5
46B
  8
LAYER_1
 10
33.344439
 20
97.09270600000001
 30
0.0
 11
33.139434
 21
96.943733
 31
0.0
  0
LINE
  5
46C
  8
LAYER_1
 10
33.139434
 20
96.943733
 30
0.0
 11
33.078643
 21
96.684629
 31
0.0
  0
LINE
  5
46D
  8
LAYER_1
 10
33.078643
 20
96.684629
 30
0.0
 11
32.968421
 21
96.43326999999999
 31
0.0
  0
LINE
  5
46E
  8
LAYER_1
 10
32.968421
 20
96.43326999999999
 30
0.0
 11
32.700524
 21
96.41525
 31
0.0
  0
LINE
  5
46F
  8
LAYER_1
 10
32.700524
 20
96.41525
 30
0.0
 11
32.330276
 21
96.39337399999999
 31
0.0
  0
LINE
  5
470
  8
LAYER_1
 10
32.330276
 20
96.39337399999999
 30
0.0
 11
31.971076
 21
96.137019
 31
0.0
  0
LINE
  5
471
  8
LAYER_1
 10
31.971076
 20
96.137019
 30
0.0
 11
31.837834
 21
95.832161
 31
0.0
  0
LINE
  5
472
  8
LAYER_1
 10
31.837834
 20
95.832161
 30
0.0
 11
32.526351
 21
95.973702
 31
0.0
  0
LINE
  5
473
  8
LAYER_1
 10
32.526351
 20
95.973702
 30
0.0
 11
33.350742
 21
96.090625
 31
0.0
  0
LINE
  5
474
  8
LAYER_1
 10
33.350742
 20
96.090625
 30
0.0
 11
34.012079
 21
95.92377999999999
 31
0.0
  0
LINE
  5
475
  8
LAYER_1
 10
34.012079
 20
95.92377999999999
 30
0.0
 11
34.326611
 21
95.736833
 31
0.0
  0
LINE
  5
476
  8
LAYER_1
 10
34.326611
 20
95.736833
 30
0.0
 11
34.409351
 21
95.579076
 31
0.0
  0
LINE
  5
477
  8
LAYER_1
 10
34.409351
 20
95.579076
 30
0.0
 11
33.808196
 21
95.04347
 31
0.0
  0
LINE
  5
478
  8
LAYER_1
 10
33.808196
 20
95.04347
 30
0.0
 11
32.97482
 21
94.037815
 31
0.0
  0
LINE
  5
479
  8
LAYER_1
 10
32.97482
 20
94.037815
 30
0.0
 11
32.064142
 21
92.364199
 31
0.0
  0
LINE
  5
47A
  8
LAYER_1
 10
32.064142
 20
92.364199
 30
0.0
 11
31.103087
 21
90.188565
 31
0.0
  0
LINE
  5
47B
  8
LAYER_1
 10
31.103087
 20
90.188565
 30
0.0
 11
31.373054
 21
90.147454
 31
0.0
  0
LINE
  5
47C
  8
LAYER_1
 10
31.373054
 20
90.147454
 30
0.0
 11
32.011146
 21
90.304838
 31
0.0
  0
LINE
  5
47D
  8
LAYER_1
 10
32.011146
 20
90.304838
 30
0.0
 11
33.360865
 21
90.893316
 31
0.0
  0
LINE
  5
47E
  8
LAYER_1
 10
33.360865
 20
90.893316
 30
0.0
 11
34.48326
 21
91.50426400000001
 31
0.0
  0
LINE
  5
47F
  8
LAYER_1
 10
34.48326
 20
91.50426400000001
 30
0.0
 11
35.322115
 21
91.674041
 31
0.0
  0
LINE
  5
480
  8
LAYER_1
 10
35.322115
 20
91.674041
 30
0.0
 11
35.584184
 21
91.59721
 31
0.0
  0
LINE
  5
481
  8
LAYER_1
 10
35.584184
 20
91.59721
 30
0.0
 11
35.71413
 21
91.41454899999999
 31
0.0
  0
LINE
  5
482
  8
LAYER_1
 10
35.71413
 20
91.41454899999999
 30
0.0
 11
35.496003
 21
90.73769
 31
0.0
  0
LINE
  5
483
  8
LAYER_1
 10
35.496003
 20
90.73769
 30
0.0
 11
35.263003
 21
90.219911
 31
0.0
  0
LINE
  5
484
  8
LAYER_1
 10
35.263003
 20
90.219911
 30
0.0
 11
35.320057
 21
89.912554
 31
0.0
  0
LINE
  5
485
  8
LAYER_1
 10
35.320057
 20
89.912554
 30
0.0
 11
35.563223
 21
89.896062
 31
0.0
  0
LINE
  5
486
  8
LAYER_1
 10
35.563223
 20
89.896062
 30
0.0
 11
35.783331
 21
90.081701
 31
0.0
  0
LINE
  5
487
  8
LAYER_1
 10
35.783331
 20
90.081701
 30
0.0
 11
36.037368
 21
90.165329
 31
0.0
  0
LINE
  5
488
  8
LAYER_1
 10
36.037368
 20
90.165329
 30
0.0
 11
36.357382
 21
89.91183100000001
 31
0.0
  0
LINE
  5
489
  8
LAYER_1
 10
36.357382
 20
89.91183100000001
 30
0.0
 11
36.630919
 21
89.455662
 31
0.0
  0
LINE
  5
48A
  8
LAYER_1
 10
36.630919
 20
89.455662
 30
0.0
 11
36.745522
 21
88.931276
 31
0.0
  0
LINE
  5
48B
  8
LAYER_1
 10
36.745522
 20
88.931276
 30
0.0
 11
36.535116
 21
88.46426099999999
 31
0.0
  0
LINE
  5
48C
  8
LAYER_1
 10
36.535116
 20
88.46426099999999
 30
0.0
 11
35.944967
 21
87.730259
 31
0.0
  0
LINE
  5
48D
  8
LAYER_1
 10
35.944967
 20
87.730259
 30
0.0
 11
33.854754
 21
85.71632200000001
 31
0.0
  0
LINE
  5
48E
  8
LAYER_1
 10
33.854754
 20
85.71632200000001
 30
0.0
 11
33.24305
 21
85.029166
 31
0.0
  0
LINE
  5
48F
  8
LAYER_1
 10
33.24305
 20
85.029166
 30
0.0
 11
33.091611
 21
84.438568
 31
0.0
  0
LINE
  5
490
  8
LAYER_1
 10
33.091611
 20
84.438568
 30
0.0
 11
33.399755
 21
83.949237
 31
0.0
  0
LINE
  5
491
  8
LAYER_1
 10
33.399755
 20
83.949237
 30
0.0
 11
34.166799
 21
83.56588100000001
 31
0.0
  0
LINE
  5
492
  8
LAYER_1
 10
34.166799
 20
83.56588100000001
 30
0.0
 11
35.151572
 21
83.352958
 31
0.0
  0
LINE
  5
493
  8
LAYER_1
 10
35.151572
 20
83.352958
 30
0.0
 11
35.860132
 21
83.53064000000001
 31
0.0
  0
LINE
  5
494
  8
LAYER_1
 10
35.860132
 20
83.53064000000001
 30
0.0
 11
36.348946
 21
83.70893599999999
 31
0.0
  0
LINE
  5
495
  8
LAYER_1
 10
36.348946
 20
83.70893599999999
 30
0.0
 11
36.46531
 21
83.421257
 31
0.0
  0
LINE
  5
496
  8
LAYER_1
 10
36.46531
 20
83.421257
 30
0.0
 11
36.579614
 21
83.14740500000001
 31
0.0
  0
LINE
  5
497
  8
LAYER_1
 10
36.579614
 20
83.14740500000001
 30
0.0
 11
36.899472
 21
83.02597400000001
 31
0.0
  0
LINE
  5
498
  8
LAYER_1
 10
36.899472
 20
83.02597400000001
 30
0.0
 11
38.017532
 21
83.25517499999999
 31
0.0
  0
LINE
  5
499
  8
LAYER_1
 10
38.017532
 20
83.25517499999999
 30
0.0
 11
38.522532
 21
83.33649800000001
 31
0.0
  0
LINE
  5
49A
  8
LAYER_1
 10
38.522532
 20
83.33649800000001
 30
0.0
 11
38.938135
 21
83.197977
 31
0.0
  0
LINE
  5
49B
  8
LAYER_1
 10
38.938135
 20
83.197977
 30
0.0
 11
39.062355
 21
83.003056
 31
0.0
  0
LINE
  5
49C
  8
LAYER_1
 10
39.062355
 20
83.003056
 30
0.0
 11
39.010403
 21
82.718391
 31
0.0
  0
LINE
  5
49D
  8
LAYER_1
 10
39.010403
 20
82.718391
 30
0.0
 11
38.303135
 21
81.703692
 31
0.0
  0
LINE
  5
49E
  8
LAYER_1
 10
38.303135
 20
81.703692
 30
0.0
 11
37.311976
 21
80.21511099999999
 31
0.0
  0
LINE
  5
49F
  8
LAYER_1
 10
37.311976
 20
80.21511099999999
 30
0.0
 11
36.876737
 21
79.65801
 31
0.0
  0
LINE
  5
4A0
  8
LAYER_1
 10
36.876737
 20
79.65801
 30
0.0
 11
35.83031
 21
78.710386
 31
0.0
  0
LINE
  5
4A1
  8
LAYER_1
 10
35.83031
 20
78.710386
 30
0.0
 11
34.252052
 21
77.26544800000001
 31
0.0
  0
LINE
  5
4A2
  8
LAYER_1
 10
34.252052
 20
77.26544800000001
 30
0.0
 11
33.043824
 21
76.484121
 31
0.0
  0
LINE
  5
4A3
  8
LAYER_1
 10
33.043824
 20
76.484121
 30
0.0
 11
31.577142
 21
75.932439
 31
0.0
  0
LINE
  5
4A4
  8
LAYER_1
 10
31.577142
 20
75.932439
 30
0.0
 11
30.987497
 21
75.639501
 31
0.0
  0
LINE
  5
4A5
  8
LAYER_1
 10
30.987497
 20
75.639501
 30
0.0
 11
30.124665
 21
74.935204
 31
0.0
  0
LINE
  5
4A6
  8
LAYER_1
 10
30.124665
 20
74.935204
 30
0.0
 11
29.186733
 21
74.21268600000001
 31
0.0
  0
LINE
  5
4A7
  8
LAYER_1
 10
29.186733
 20
74.21268600000001
 30
0.0
 11
28.519145
 21
74.111942
 31
0.0
  0
LINE
  5
4A8
  8
LAYER_1
 10
28.519145
 20
74.111942
 30
0.0
 11
27.928838
 21
74.103421
 31
0.0
  0
LINE
  5
4A9
  8
LAYER_1
 10
27.928838
 20
74.103421
 30
0.0
 11
27.277701
 21
73.831642
 31
0.0
  0
LINE
  5
4AA
  8
LAYER_1
 10
27.277701
 20
73.831642
 30
0.0
 11
26.747331
 21
73.342854
 31
0.0
  0
LINE
  5
4AB
  8
LAYER_1
 10
26.747331
 20
73.342854
 30
0.0
 11
27.041754
 21
72.67934800000001
 31
0.0
  0
LINE
  5
4AC
  8
LAYER_1
 10
27.041754
 20
72.67934800000001
 30
0.0
 11
27.473665
 21
72.18637200000001
 31
0.0
  0
LINE
  5
4AD
  8
LAYER_1
 10
27.473665
 20
72.18637200000001
 30
0.0
 11
27.869831
 21
71.98132800000001
 31
0.0
  0
LINE
  5
4AE
  8
LAYER_1
 10
27.869831
 20
71.98132800000001
 30
0.0
 11
28.386637
 21
71.82668200000001
 31
0.0
  0
LINE
  5
4AF
  8
LAYER_1
 10
28.386637
 20
71.82668200000001
 30
0.0
 11
28.785201
 21
71.41981199999999
 31
0.0
  0
LINE
  5
4B0
  8
LAYER_1
 10
28.785201
 20
71.41981199999999
 30
0.0
 11
29.011001
 21
70.846324
 31
0.0
  0
LINE
  5
4B1
  8
LAYER_1
 10
29.011001
 20
70.846324
 30
0.0
 11
29.009521
 21
70.191822
 31
0.0
  0
LINE
  5
4B2
  8
LAYER_1
 10
29.009521
 20
70.191822
 30
0.0
 11
28.942609
 21
69.644409
 31
0.0
  0
LINE
  5
4B3
  8
LAYER_1
 10
28.942609
 20
69.644409
 30
0.0
 11
29.020589
 21
69.522532
 31
0.0
  0
LINE
  5
4B4
  8
LAYER_1
 10
29.020589
 20
69.522532
 30
0.0
 11
29.296749
 21
69.571152
 31
0.0
  0
LINE
  5
4B5
  8
LAYER_1
 10
29.296749
 20
69.571152
 30
0.0
 11
29.706319
 21
69.433654
 31
0.0
  0
LINE
  5
4B6
  8
LAYER_1
 10
29.706319
 20
69.433654
 30
0.0
 11
30.118556
 21
69.310954
 31
0.0
  0
LINE
  5
4B7
  8
LAYER_1
 10
30.118556
 20
69.310954
 30
0.0
 11
30.327326
 21
69.512934
 31
0.0
  0
LINE
  5
4B8
  8
LAYER_1
 10
30.327326
 20
69.512934
 30
0.0
 11
30.568585
 21
69.67432100000001
 31
0.0
  0
LINE
  5
4B9
  8
LAYER_1
 10
30.568585
 20
69.67432100000001
 30
0.0
 11
31.198361
 21
69.787896
 31
0.0
  0
LINE
  5
4BA
  8
LAYER_1
 10
31.198361
 20
69.787896
 30
0.0
 11
33.807315
 21
69.891614
 31
0.0
  0
LINE
  5
4BB
  8
LAYER_1
 10
33.807315
 20
69.891614
 30
0.0
 11
38.390469
 21
70.143782
 31
0.0
  0
LINE
  5
4BC
  8
LAYER_1
 10
38.390469
 20
70.143782
 30
0.0
 11
39.610075
 21
70.36658199999999
 31
0.0
  0
LINE
  5
4BD
  8
LAYER_1
 10
39.610075
 20
70.36658199999999
 30
0.0
 11
39.423459
 21
69.371831
 31
0.0
  0
LINE
  5
4BE
  8
LAYER_1
 10
39.423459
 20
69.371831
 30
0.0
 11
39.370641
 21
68.61905299999999
 31
0.0
  0
LINE
  5
4BF
  8
LAYER_1
 10
39.370641
 20
68.61905299999999
 30
0.0
 11
39.507705
 21
68.209676
 31
0.0
  0
LINE
  5
4C0
  8
LAYER_1
 10
39.507705
 20
68.209676
 30
0.0
 11
39.649134
 21
67.988562
 31
0.0
  0
LINE
  5
4C1
  8
LAYER_1
 10
39.649134
 20
67.988562
 30
0.0
 11
39.648993
 21
67.620488
 31
0.0
  0
LINE
  5
4C2
  8
LAYER_1
 10
39.648993
 20
67.620488
 30
0.0
 11
39.297374
 21
66.595879
 31
0.0
  0
LINE
  5
4C3
  8
LAYER_1
 10
39.297374
 20
66.595879
 30
0.0
 11
38.599596
 21
65.440676
 31
0.0
  0
LINE
  5
4C4
  8
LAYER_1
 10
38.599596
 20
65.440676
 30
0.0
 11
37.702408
 21
64.459705
 31
0.0
  0
LINE
  5
4C5
  8
LAYER_1
 10
37.702408
 20
64.459705
 30
0.0
 11
36.828707
 21
63.615624
 31
0.0
  0
LINE
  5
4C6
  8
LAYER_1
 10
36.828707
 20
63.615624
 30
0.0
 11
36.46531
 21
63.038059
 31
0.0
  0
LINE
  5
4C7
  8
LAYER_1
 10
36.46531
 20
63.038059
 30
0.0
 11
36.32023
 21
62.715218
 31
0.0
  0
LINE
  5
4C8
  8
LAYER_1
 10
36.32023
 20
62.715218
 30
0.0
 11
35.971421
 21
62.483565
 31
0.0
  0
LINE
  5
4C9
  8
LAYER_1
 10
35.971421
 20
62.483565
 30
0.0
 11
34.1823
 21
61.759825
 31
0.0
  0
LINE
  5
4CA
  8
LAYER_1
 10
34.1823
 20
61.759825
 30
0.0
 11
33.360865
 21
61.221589
 31
0.0
  0
LINE
  5
4CB
  8
LAYER_1
 10
33.360865
 20
61.221589
 30
0.0
 11
32.747543
 21
60.818037
 31
0.0
  0
LINE
  5
4CC
  8
LAYER_1
 10
32.747543
 20
60.818037
 30
0.0
 11
31.83032
 21
60.372614
 31
0.0
  0
LINE
  5
4CD
  8
LAYER_1
 10
31.83032
 20
60.372614
 30
0.0
 11
30.75031
 21
59.539996
 31
0.0
  0
LINE
  5
4CE
  8
LAYER_1
 10
30.75031
 20
59.539996
 30
0.0
 11
30.202181
 21
59.016366
 31
0.0
  0
LINE
  5
4CF
  8
LAYER_1
 10
30.202181
 20
59.016366
 30
0.0
 11
29.974199
 21
58.574505
 31
0.0
  0
LINE
  5
4D0
  8
LAYER_1
 10
29.974199
 20
58.574505
 30
0.0
 11
29.704764
 21
58.113759
 31
0.0
  0
LINE
  5
4D1
  8
LAYER_1
 10
29.704764
 20
58.113759
 30
0.0
 11
29.056976
 21
57.544724
 31
0.0
  0
LINE
  5
4D2
  8
LAYER_1
 10
29.056976
 20
57.544724
 30
0.0
 11
27.28449
 21
56.076233
 31
0.0
  0
LINE
  5
4D3
  8
LAYER_1
 10
27.28449
 20
56.076233
 30
0.0
 11
25.87924
 21
54.475629
 31
0.0
  0
LINE
  5
4D4
  8
LAYER_1
 10
25.87924
 20
54.475629
 30
0.0
 11
24.952297
 21
52.894445
 31
0.0
  0
LINE
  5
4D5
  8
LAYER_1
 10
24.952297
 20
52.894445
 30
0.0
 11
24.614734
 21
51.484217
 31
0.0
  0
LINE
  5
4D6
  8
LAYER_1
 10
24.614734
 20
51.484217
 30
0.0
 11
24.499184
 21
50.965873
 31
0.0
  0
LINE
  5
4D7
  8
LAYER_1
 10
24.499184
 20
50.965873
 30
0.0
 11
24.225242
 21
50.562815
 31
0.0
  0
LINE
  5
4D8
  8
LAYER_1
 10
24.225242
 20
50.562815
 30
0.0
 11
23.877284
 21
49.954515
 31
0.0
  0
LINE
  5
4D9
  8
LAYER_1
 10
23.877284
 20
49.954515
 30
0.0
 11
23.683857
 21
48.962571
 31
0.0
  0
LINE
  5
4DA
  8
LAYER_1
 10
23.683857
 20
48.962571
 30
0.0
 11
23.665335
 21
47.794612
 31
0.0
  0
LINE
  5
4DB
  8
LAYER_1
 10
23.665335
 20
47.794612
 30
0.0
 11
23.842091
 21
46.658265
 31
0.0
  0
LINE
  5
4DC
  8
LAYER_1
 10
23.842091
 20
46.658265
 30
0.0
 11
24.317734
 21
45.457082
 31
0.0
  0
LINE
  5
4DD
  8
LAYER_1
 10
24.317734
 20
45.457082
 30
0.0
 11
24.952819
 21
45.699702
 31
0.0
  0
LINE
  5
4DE
  8
LAYER_1
 10
24.952819
 20
45.699702
 30
0.0
 11
25.839714
 21
46.271701
 31
0.0
  0
LINE
  5
4DF
  8
LAYER_1
 10
25.839714
 20
46.271701
 30
0.0
 11
26.709457
 21
46.977442
 31
0.0
  0
LINE
  5
4E0
  8
LAYER_1
 10
26.709457
 20
46.977442
 30
0.0
 11
27.293087
 21
47.621289
 31
0.0
  0
LINE
  5
4E1
  8
LAYER_1
 10
27.293087
 20
47.621289
 30
0.0
 11
27.925719
 21
48.305492
 31
0.0
  0
LINE
  5
4E2
  8
LAYER_1
 10
27.925719
 20
48.305492
 30
0.0
 11
28.668921
 21
48.670664
 31
0.0
  0
LINE
  5
4E3
  8
LAYER_1
 10
28.668921
 20
48.670664
 30
0.0
 11
30.920775
 21
48.829477
 31
0.0
  0
LINE
  5
4E4
  8
LAYER_1
 10
30.920775
 20
48.829477
 30
0.0
 11
33.008087
 21
48.661224
 31
0.0
  0
LINE
  5
4E5
  8
LAYER_1
 10
33.008087
 20
48.661224
 30
0.0
 11
33.499847
 21
48.377707
 31
0.0
  0
LINE
  5
4E6
  8
LAYER_1
 10
33.499847
 20
48.377707
 30
0.0
 11
33.622702
 21
47.958026
 31
0.0
  0
LINE
  5
4E7
  8
LAYER_1
 10
33.622702
 20
47.958026
 30
0.0
 11
33.389191
 21
47.50148
 31
0.0
  0
LINE
  5
4E8
  8
LAYER_1
 10
33.389191
 20
47.50148
 30
0.0
 11
32.811855
 21
47.107365
 31
0.0
  0
LINE
  5
4E9
  8
LAYER_1
 10
32.811855
 20
47.107365
 30
0.0
 11
32.142973
 21
46.679209
 31
0.0
  0
LINE
  5
4EA
  8
LAYER_1
 10
32.142973
 20
46.679209
 30
0.0
 11
31.702067
 21
46.16649
 31
0.0
  0
LINE
  5
4EB
  8
LAYER_1
 10
31.702067
 20
46.16649
 30
0.0
 11
31.499726
 21
45.865479
 31
0.0
  0
LINE
  5
4EC
  8
LAYER_1
 10
31.499726
 20
45.865479
 30
0.0
 11
31.40441
 21
45.946328
 31
0.0
  0
LINE
  5
4ED
  8
LAYER_1
 10
31.40441
 20
45.946328
 30
0.0
 11
31.161156
 21
46.294543
 31
0.0
  0
LINE
  5
4EE
  8
LAYER_1
 10
31.161156
 20
46.294543
 30
0.0
 11
30.584483
 21
46.251543
 31
0.0
  0
LINE
  5
4EF
  8
LAYER_1
 10
30.584483
 20
46.251543
 30
0.0
 11
29.813276
 21
45.861908
 31
0.0
  0
LINE
  5
4F0
  8
LAYER_1
 10
29.813276
 20
45.861908
 30
0.0
 11
28.986421
 21
45.170217
 31
0.0
  0
LINE
  5
4F1
  8
LAYER_1
 10
28.986421
 20
45.170217
 30
0.0
 11
28.106017
 21
44.372939
 31
0.0
  0
LINE
  5
4F2
  8
LAYER_1
 10
28.106017
 20
44.372939
 30
0.0
 11
27.537252
 21
44.041328
 31
0.0
  0
LINE
  5
4F3
  8
LAYER_1
 10
27.537252
 20
44.041328
 30
0.0
 11
27.082989
 21
43.778379
 31
0.0
  0
LINE
  5
4F4
  8
LAYER_1
 10
27.082989
 20
43.778379
 30
0.0
 11
26.576804
 21
43.165025
 31
0.0
  0
LINE
  5
4F5
  8
LAYER_1
 10
26.576804
 20
43.165025
 30
0.0
 11
26.19634
 21
42.464505
 31
0.0
  0
LINE
  5
4F6
  8
LAYER_1
 10
26.19634
 20
42.464505
 30
0.0
 11
26.119241
 21
41.940057
 31
0.0
  0
LINE
  5
4F7
  8
LAYER_1
 10
26.119241
 20
41.940057
 30
0.0
 11
26.295214
 21
41.759262
 31
0.0
  0
LINE
  5
4F8
  8
LAYER_1
 10
26.295214
 20
41.759262
 30
0.0
 11
26.69811
 21
41.663322
 31
0.0
  0
LINE
  5
4F9
  8
LAYER_1
 10
26.69811
 20
41.663322
 30
0.0
 11
28.473925
 21
41.696025
 31
0.0
  0
LINE
  5
4FA
  8
LAYER_1
 10
28.473925
 20
41.696025
 30
0.0
 11
29.830391
 21
41.746089
 31
0.0
  0
LINE
  5
4FB
  8
LAYER_1
 10
29.830391
 20
41.746089
 30
0.0
 11
30.829428
 21
41.648675
 31
0.0
  0
LINE
  5
4FC
  8
LAYER_1
 10
30.829428
 20
41.648675
 30
0.0
 11
31.730327
 21
41.349686
 31
0.0
  0
LINE
  5
4FD
  8
LAYER_1
 10
31.730327
 20
41.349686
 30
0.0
 11
32.792382
 21
40.795022
 31
0.0
  0
LINE
  5
4FE
  8
LAYER_1
 10
32.792382
 20
40.795022
 30
0.0
 11
33.535577
 21
40.55427
 31
0.0
  0
LINE
  5
4FF
  8
LAYER_1
 10
33.535577
 20
40.55427
 30
0.0
 11
34.447576
 21
40.957861
 31
0.0
  0
LINE
  5
500
  8
LAYER_1
 10
34.447576
 20
40.957861
 30
0.0
 11
35.314675
 21
41.367046
 31
0.0
  0
LINE
  5
501
  8
LAYER_1
 10
35.314675
 20
41.367046
 30
0.0
 11
35.538856
 21
41.28874
 31
0.0
  0
LINE
  5
502
  8
LAYER_1
 10
35.538856
 20
41.28874
 30
0.0
 11
35.760468
 21
41.029289
 31
0.0
  0
LINE
  5
503
  8
LAYER_1
 10
35.760468
 20
41.029289
 30
0.0
 11
35.96882
 21
40.507992
 31
0.0
  0
LINE
  5
504
  8
LAYER_1
 10
35.96882
 20
40.507992
 30
0.0
 11
35.695594
 21
39.890793
 31
0.0
  0
LINE
  5
505
  8
LAYER_1
 10
35.695594
 20
39.890793
 30
0.0
 11
35.313576
 21
39.433678
 31
0.0
  0
LINE
  5
506
  8
LAYER_1
 10
35.313576
 20
39.433678
 30
0.0
 11
34.990634
 21
39.24355
 31
0.0
  0
LINE
  5
507
  8
LAYER_1
 10
34.990634
 20
39.24355
 30
0.0
 11
33.483378
 21
37.999566
 31
0.0
  0
LINE
  5
508
  8
LAYER_1
 10
33.483378
 20
37.999566
 30
0.0
 11
32.357186
 21
37.01778
 31
0.0
  0
LINE
  5
509
  8
LAYER_1
 10
32.357186
 20
37.01778
 30
0.0
 11
31.274546
 21
36.447256
 31
0.0
  0
LINE
  5
50A
  8
LAYER_1
 10
31.274546
 20
36.447256
 30
0.0
 11
30.132644
 21
36.252628
 31
0.0
  0
LINE
  5
50B
  8
LAYER_1
 10
30.132644
 20
36.252628
 30
0.0
 11
28.828667
 21
36.398533
 31
0.0
  0
LINE
  5
50C
  8
LAYER_1
 10
28.828667
 20
36.398533
 30
0.0
 11
27.482336
 21
36.632507
 31
0.0
  0
LINE
  5
50D
  8
LAYER_1
 10
27.482336
 20
36.632507
 30
0.0
 11
26.440505
 21
36.6766
 31
0.0
  0
LINE
  5
50E
  8
LAYER_1
 10
26.440505
 20
36.6766
 30
0.0
 11
25.620029
 21
36.52606
 31
0.0
  0
LINE
  5
50F
  8
LAYER_1
 10
25.620029
 20
36.52606
 30
0.0
 11
24.937765
 21
36.176133
 31
0.0
  0
LINE
  5
510
  8
LAYER_1
 10
24.937765
 20
36.176133
 30
0.0
 11
23.489028
 21
35.43105
 31
0.0
  0
LINE
  5
511
  8
LAYER_1
 10
23.489028
 20
35.43105
 30
0.0
 11
21.923667
 21
34.512952
 31
0.0
  0
LINE
  5
512
  8
LAYER_1
 10
21.923667
 20
34.512952
 30
0.0
 11
21.231254
 21
33.92885
 31
0.0
  0
LINE
  5
513
  8
LAYER_1
 10
21.231254
 20
33.92885
 30
0.0
 11
20.943096
 21
33.519694
 31
0.0
  0
LINE
  5
514
  8
LAYER_1
 10
20.943096
 20
33.519694
 30
0.0
 11
21.436976
 21
33.12486
 31
0.0
  0
LINE
  5
515
  8
LAYER_1
 10
21.436976
 20
33.12486
 30
0.0
 11
22.49531
 21
32.474837
 31
0.0
  0
LINE
  5
516
  8
LAYER_1
 10
22.49531
 20
32.474837
 30
0.0
 11
23.432817
 21
32.044406
 31
0.0
  0
LINE
  5
517
  8
LAYER_1
 10
23.432817
 20
32.044406
 30
0.0
 11
24.894199
 21
31.677562
 31
0.0
  0
LINE
  5
518
  8
LAYER_1
 10
24.894199
 20
31.677562
 30
0.0
 11
26.448551
 21
31.273757
 31
0.0
  0
LINE
  5
519
  8
LAYER_1
 10
26.448551
 20
31.273757
 30
0.0
 11
27.293087
 21
30.661523
 31
0.0
  0
LINE
  5
51A
  8
LAYER_1
 10
27.293087
 20
30.661523
 30
0.0
 11
27.645866
 21
30.304294
 31
0.0
  0
LINE
  5
51B
  8
LAYER_1
 10
27.645866
 20
30.304294
 30
0.0
 11
28.065073
 21
30.086387
 31
0.0
  0
LINE
  5
51C
  8
LAYER_1
 10
28.065073
 20
30.086387
 30
0.0
 11
29.550865
 21
29.921716
 31
0.0
  0
LINE
  5
51D
  8
LAYER_1
 10
29.550865
 20
29.921716
 30
0.0
 11
31.88329
 21
29.991319
 31
0.0
  0
LINE
  5
51E
  8
LAYER_1
 10
31.88329
 20
29.991319
 30
0.0
 11
33.936627
 21
30.352664
 31
0.0
  0
LINE
  5
51F
  8
LAYER_1
 10
33.936627
 20
30.352664
 30
0.0
 11
34.592992
 21
30.355702
 31
0.0
  0
LINE
  5
520
  8
LAYER_1
 10
34.592992
 20
30.355702
 30
0.0
 11
35.057834
 21
29.782313
 31
0.0
  0
LINE
  5
521
  8
LAYER_1
 10
35.057834
 20
29.782313
 30
0.0
 11
35.309746
 21
29.081334
 31
0.0
  0
LINE
  5
522
  8
LAYER_1
 10
35.309746
 20
29.081334
 30
0.0
 11
34.905405
 21
28.615104
 31
0.0
  0
LINE
  5
523
  8
LAYER_1
 10
34.905405
 20
28.615104
 30
0.0
 11
33.104331
 21
27.867381
 31
0.0
  0
LINE
  5
524
  8
LAYER_1
 10
33.104331
 20
27.867381
 30
0.0
 11
32.170444
 21
27.491199
 31
0.0
  0
LINE
  5
525
  8
LAYER_1
 10
32.170444
 20
27.491199
 30
0.0
 11
31.734297
 21
27.050605
 31
0.0
  0
LINE
  5
526
  8
LAYER_1
 10
31.734297
 20
27.050605
 30
0.0
 11
31.446908
 21
26.580936
 31
0.0
  0
LINE
  5
527
  8
LAYER_1
 10
31.446908
 20
26.580936
 30
0.0
 11
30.932498
 21
26.126855
 31
0.0
  0
LINE
  5
528
  8
LAYER_1
 10
30.932498
 20
26.126855
 30
0.0
 11
30.443531
 21
25.618989
 31
0.0
  0
LINE
  5
529
  8
LAYER_1
 10
30.443531
 20
25.618989
 30
0.0
 11
30.256421
 21
25.006452
 31
0.0
  0
LINE
  5
52A
  8
LAYER_1
 10
30.256421
 20
25.006452
 30
0.0
 11
30.240054
 21
24.629715
 31
0.0
  0
LINE
  5
52B
  8
LAYER_1
 10
30.240054
 20
24.629715
 30
0.0
 11
30.140756
 21
24.477396
 31
0.0
  0
LINE
  5
52C
  8
LAYER_1
 10
30.140756
 20
24.477396
 30
0.0
 11
29.392163
 21
24.760182
 31
0.0
  0
LINE
  5
52D
  8
LAYER_1
 10
29.392163
 20
24.760182
 30
0.0
 11
28.444331
 21
25.091331
 31
0.0
  0
LINE
  5
52E
  8
LAYER_1
 10
28.444331
 20
25.091331
 30
0.0
 11
28.201386
 21
23.95728
 31
0.0
  0
LINE
  5
52F
  8
LAYER_1
 10
28.201386
 20
23.95728
 30
0.0
 11
28.165208
 21
23.157683
 31
0.0
  0
LINE
  5
530
  8
LAYER_1
 10
28.165208
 20
23.157683
 30
0.0
 11
28.369943
 21
22.569547
 31
0.0
  0
LINE
  5
531
  8
LAYER_1
 10
28.369943
 20
22.569547
 30
0.0
 11
28.857345
 21
22.13093
 31
0.0
  0
LINE
  5
532
  8
LAYER_1
 10
28.857345
 20
22.13093
 30
0.0
 11
29.66917
 21
21.77989
 31
0.0
  0
LINE
  5
533
  8
LAYER_1
 10
29.66917
 20
21.77989
 30
0.0
 11
30.55917
 21
21.61164
 31
0.0
  0
LINE
  5
534
  8
LAYER_1
 10
30.55917
 20
21.61164
 30
0.0
 11
31.161829
 21
22.026031
 31
0.0
  0
LINE
  5
535
  8
LAYER_1
 10
31.161829
 20
22.026031
 30
0.0
 11
31.676361
 21
22.432217
 31
0.0
  0
LINE
  5
536
  8
LAYER_1
 10
31.676361
 20
22.432217
 30
0.0
 11
32.172416
 21
22.613411
 31
0.0
  0
LINE
  5
537
  8
LAYER_1
 10
32.172416
 20
22.613411
 30
0.0
 11
33.291845
 21
22.752987
 31
0.0
  0
LINE
  5
538
  8
LAYER_1
 10
33.291845
 20
22.752987
 30
0.0
 11
33.908293
 21
22.685648
 31
0.0
  0
LINE
  5
539
  8
LAYER_1
 10
33.908293
 20
22.685648
 30
0.0
 11
34.491289
 21
22.308682
 31
0.0
  0
LINE
  5
53A
  8
LAYER_1
 10
34.491289
 20
22.308682
 30
0.0
 11
34.999935
 21
21.90937
 31
0.0
  0
LINE
  5
53B
  8
LAYER_1
 10
34.999935
 20
21.90937
 30
0.0
 11
35.473509
 21
21.77275
 31
0.0
  0
LINE
  5
53C
  8
LAYER_1
 10
35.473509
 20
21.77275
 30
0.0
 11
35.925592
 21
21.898665
 31
0.0
  0
LINE
  5
53D
  8
LAYER_1
 10
35.925592
 20
21.898665
 30
0.0
 11
36.369766
 21
22.286956
 31
0.0
  0
LINE
  5
53E
  8
LAYER_1
 10
36.369766
 20
22.286956
 30
0.0
 11
36.87502
 21
22.661545
 31
0.0
  0
LINE
  5
53F
  8
LAYER_1
 10
36.87502
 20
22.661545
 30
0.0
 11
37.495892
 21
22.576163
 31
0.0
  0
LINE
  5
540
  8
LAYER_1
 10
37.495892
 20
22.576163
 30
0.0
 11
37.993322
 21
22.463331
 31
0.0
  0
LINE
  5
541
  8
LAYER_1
 10
37.993322
 20
22.463331
 30
0.0
 11
38.158643
 21
22.63002
 31
0.0
  0
LINE
  5
542
  8
LAYER_1
 10
38.158643
 20
22.63002
 30
0.0
 11
38.352188
 21
22.80411
 31
0.0
  0
LINE
  5
543
  8
LAYER_1
 10
38.352188
 20
22.80411
 30
0.0
 11
38.870396
 21
22.757212
 31
0.0
  0
LINE
  5
544
  8
LAYER_1
 10
38.870396
 20
22.757212
 30
0.0
 11
39.467053
 21
22.728963
 31
0.0
  0
LINE
  5
545
  8
LAYER_1
 10
39.467053
 20
22.728963
 30
0.0
 11
39.773894
 21
23.079397
 31
0.0
  0
LINE
  5
546
  8
LAYER_1
 10
39.773894
 20
23.079397
 30
0.0
 11
40.259676
 21
23.803512
 31
0.0
  0
LINE
  5
547
  8
LAYER_1
 10
40.259676
 20
23.803512
 30
0.0
 11
40.947292
 21
24.341097
 31
0.0
  0
LINE
  5
548
  8
LAYER_1
 10
40.947292
 20
24.341097
 30
0.0
 11
41.561618
 21
24.537128
 31
0.0
  0
LINE
  5
549
  8
LAYER_1
 10
41.561618
 20
24.537128
 30
0.0
 11
41.755322
 21
24.458615
 31
0.0
  0
LINE
  5
54A
  8
LAYER_1
 10
41.755322
 20
24.458615
 30
0.0
 11
41.827532
 21
24.236578
 31
0.0
  0
LINE
  5
54B
  8
LAYER_1
 10
41.827532
 20
24.236578
 30
0.0
 11
42.028862
 21
24.191655
 31
0.0
  0
LINE
  5
54C
  8
LAYER_1
 10
42.028862
 20
24.191655
 30
0.0
 11
42.512914
 21
24.549044
 31
0.0
  0
LINE
  5
54D
  8
LAYER_1
 10
42.512914
 20
24.549044
 30
0.0
 11
43.284675
 21
25.103689
 31
0.0
  0
LINE
  5
54E
  8
LAYER_1
 10
43.284675
 20
25.103689
 30
0.0
 11
43.534934
 21
25.024682
 31
0.0
  0
LINE
  5
54F
  8
LAYER_1
 10
43.534934
 20
25.024682
 30
0.0
 11
43.713754
 21
24.636057
 31
0.0
  0
LINE
  5
550
  8
LAYER_1
 10
43.713754
 20
24.636057
 30
0.0
 11
43.914011
 21
22.713754
 31
0.0
  0
LINE
  5
551
  8
LAYER_1
 10
43.914011
 20
22.713754
 30
0.0
 11
43.999305
 21
18.904387
 31
0.0
  0
LINE
  5
552
  8
LAYER_1
 10
43.999305
 20
18.904387
 30
0.0
 11
44.11584
 21
12.57355
 31
0.0
  0
LINE
  5
553
  8
LAYER_1
 10
44.11584
 20
12.57355
 30
0.0
 11
43.936629
 21
7.732034
 31
0.0
  0
LINE
  5
554
  8
LAYER_1
 10
43.936629
 20
7.732034
 30
0.0
 11
43.88115
 21
2.758307
 31
0.0
  0
LINE
  5
555
  8
LAYER_1
 10
43.88115
 20
2.758307
 30
0.0
 11
44.106504
 21
2.553282
 31
0.0
  0
LINE
  5
556
  8
LAYER_1
 10
44.106504
 20
2.553282
 30
0.0
 11
44.675751
 21
2.421102
 31
0.0
  0
LINE
  5
557
  8
LAYER_1
 10
44.675751
 20
2.421102
 30
0.0
 11
47.341423
 21
2.311259
 31
0.0
  0
LINE
  5
558
  8
LAYER_1
 10
47.341423
 20
2.311259
 30
0.0
 11
50.642664
 21
2.278645
 31
0.0
  0
LINE
  5
559
  8
LAYER_1
 10
50.642664
 20
2.278645
 30
0.0
 11
50.465643
 21
4.603874
 31
0.0
  0
LINE
  5
55A
  8
LAYER_1
 10
50.465643
 20
4.603874
 30
0.0
 11
50.465643
 21
4.603874
 31
0.0
  0
LINE
  5
55B
  8
LAYER_1
 10
32.090865
 20
28.801328
 30
0.0
 11
32.131148
 21
29.000648
 31
0.0
  0
LINE
  5
55C
  8
LAYER_1
 10
32.131148
 20
29.000648
 30
0.0
 11
31.983065
 21
29.08355
 31
0.0
  0
LINE
  5
55D
  8
LAYER_1
 10
31.983065
 20
29.08355
 30
0.0
 11
31.526421
 21
28.801328
 31
0.0
  0
LINE
  5
55E
  8
LAYER_1
 10
31.526421
 20
28.801328
 30
0.0
 11
31.486138
 21
28.602009
 31
0.0
  0
LINE
  5
55F
  8
LAYER_1
 10
31.486138
 20
28.602009
 30
0.0
 11
31.634221
 21
28.519106
 31
0.0
  0
LINE
  5
560
  8
LAYER_1
 10
31.634221
 20
28.519106
 30
0.0
 11
32.090865
 21
28.801328
 31
0.0
  0
LINE
  5
561
  8
LAYER_1
 10
32.090865
 20
28.801328
 30
0.0
 11
32.090865
 21
28.801328
 31
0.0
  0
LINE
  5
562
  8
LAYER_1
 10
58.619754
 20
61.539106
 30
0.0
 11
58.329136
 21
61.937745
 31
0.0
  0
LINE
  5
563
  8
LAYER_1
 10
58.329136
 20
61.937745
 30
0.0
 11
58.347731
 21
62.10355
 31
0.0
  0
LINE
  5
564
  8
LAYER_1
 10
58.347731
 20
62.10355
 30
0.0
 11
58.358616
 21
62.21891
 31
0.0
  0
LINE
  5
565
  8
LAYER_1
 10
58.358616
 20
62.21891
 30
0.0
 11
58.049456
 21
62.496265
 31
0.0
  0
LINE
  5
566
  8
LAYER_1
 10
58.049456
 20
62.496265
 30
0.0
 11
57.551505
 21
62.722178
 31
0.0
  0
LINE
  5
567
  8
LAYER_1
 10
57.551505
 20
62.722178
 30
0.0
 11
57.209162
 21
62.284599
 31
0.0
  0
LINE
  5
568
  8
LAYER_1
 10
57.209162
 20
62.284599
 30
0.0
 11
57.076771
 21
61.955171
 31
0.0
  0
LINE
  5
569
  8
LAYER_1
 10
57.076771
 20
61.955171
 30
0.0
 11
57.102652
 21
61.728589
 31
0.0
  0
LINE
  5
56A
  8
LAYER_1
 10
57.102652
 20
61.728589
 30
0.0
 11
57.762846
 21
61.361111
 31
0.0
  0
LINE
  5
56B
  8
LAYER_1
 10
57.762846
 20
61.361111
 30
0.0
 11
58.880489
 21
61.03872
 31
0.0
  0
LINE
  5
56C
  8
LAYER_1
 10
58.880489
 20
61.03872
 30
0.0
 11
58.902725
 21
61.181974
 31
0.0
  0
LINE
  5
56D
  8
LAYER_1
 10
58.902725
 20
61.181974
 30
0.0
 11
58.619754
 21
61.539106
 31
0.0
  0
LINE
  5
56E
  8
LAYER_1
 10
58.619754
 20
61.539106
 30
0.0
 11
58.619754
 21
61.539106
 31
0.0
  0
ENDSEC
  0
EOF
