999
"DXF R12 Output" (www.mydxf.blogspot.com)
 0 
SECTION
 2 
HEADER
 9 
$ACADVER
 1 
AC1009
 9 
$EXTMIN
 10 
 0 
 20 
 0 
 9 
$EXTMAX
 10 
 8.5 
 20 
 11 
 0 
ENDSEC
 0 
SECTION
 2 
ENTITIES
0
LINE
8
Layer 1
10
28.924927
20
109.722706
11
27.476598
21
109.614479
0
LINE
8
Layer 1
10
27.476598
20
109.614479
11
25.869803
21
109.221878
0
LINE
8
Layer 1
10
25.869803
20
109.221878
11
24.209686
21
108.442486
0
LINE
8
Layer 1
10
24.209686
20
108.442486
11
22.601387
21
107.173886
0
LINE
8
Layer 1
10
22.601387
20
107.173886
11
21.332840
21
105.565810
0
LINE
8
Layer 1
10
21.332840
20
105.565810
11
20.553374
21
103.905896
0
LINE
8
Layer 1
10
20.553374
20
103.905896
11
20.160710
21
102.299092
0
LINE
8
Layer 1
10
20.160710
20
102.299092
11
20.052567
21
100.850345
0
LINE
8
Layer 1
10
20.052567
20
100.850345
11
20.096664
21
100.515206
0
LINE
8
Layer 1
10
20.096664
20
100.515206
11
19.673331
21
100.197706
0
LINE
8
Layer 1
10
19.673331
20
100.197706
11
18.279859
21
99.086456
0
LINE
8
Layer 1
10
18.279859
20
99.086456
11
17.203887
21
97.807636
0
LINE
8
Layer 1
10
17.203887
20
97.807636
11
16.703641
21
96.949806
0
LINE
8
Layer 1
10
16.703641
20
96.949806
11
16.288892
21
96.032552
0
LINE
8
Layer 1
10
16.288892
20
96.032552
11
15.942706
21
94.914859
0
LINE
8
Layer 1
10
15.942706
20
94.914859
11
15.933887
21
94.914859
0
LINE
8
Layer 1
10
15.933887
20
94.914859
11
15.916248
21
94.782567
0
LINE
8
Layer 1
10
15.916248
20
94.782567
11
15.828053
21
94.429789
0
LINE
8
Layer 1
10
15.828053
20
94.429789
11
15.863331
21
94.420970
0
LINE
8
Layer 1
10
15.863331
20
94.420970
11
15.677840
21
92.749467
0
LINE
8
Layer 1
10
15.677840
20
92.749467
11
15.732644
21
91.684708
0
LINE
8
Layer 1
10
15.732644
20
91.684708
11
15.960345
21
90.522775
0
LINE
8
Layer 1
10
15.960345
20
90.522775
11
16.483849
21
89.205323
0
LINE
8
Layer 1
10
16.483849
20
89.205323
11
17.247984
21
87.982775
0
LINE
8
Layer 1
10
17.247984
20
87.982775
11
17.874164
21
86.774511
0
LINE
8
Layer 1
10
17.874164
20
86.774511
11
19.549859
21
83.652428
0
LINE
8
Layer 1
10
19.549859
20
83.652428
11
21.172637
21
80.653817
0
LINE
8
Layer 1
10
21.172637
20
80.653817
11
21.860553
21
79.348539
0
LINE
8
Layer 1
10
21.860553
20
79.348539
11
22.019303
21
78.898747
0
LINE
8
Layer 1
10
22.019303
20
78.898747
11
22.768956
21
77.258331
0
LINE
8
Layer 1
10
22.768956
20
77.258331
11
22.980623
21
76.782081
0
LINE
8
Layer 1
10
22.980623
20
76.782081
11
23.077637
21
76.517497
0
LINE
8
Layer 1
10
23.077637
20
76.517497
11
23.104095
21
76.438122
0
LINE
8
Layer 1
10
23.104095
20
76.438122
11
23.104095
21
76.429303
0
LINE
8
Layer 1
10
23.104095
20
76.429303
11
23.112914
21
76.402844
0
LINE
8
Layer 1
10
23.112914
20
76.402844
11
23.139373
21
76.332289
0
LINE
8
Layer 1
10
23.139373
20
76.332289
11
23.139373
21
76.305831
0
LINE
8
Layer 1
10
23.139373
20
76.305831
11
23.148192
21
76.270553
0
LINE
8
Layer 1
10
23.148192
20
76.270553
11
23.157012
21
76.244094
0
LINE
8
Layer 1
10
23.157012
20
76.244094
11
23.174650
21
76.191178
0
LINE
8
Layer 1
10
23.174650
20
76.191178
11
23.174650
21
76.182358
0
LINE
8
Layer 1
10
23.174650
20
76.182358
11
23.192289
21
76.129442
0
LINE
8
Layer 1
10
23.192289
20
76.129442
11
23.201109
21
76.111803
0
LINE
8
Layer 1
10
23.201109
20
76.111803
11
23.236387
21
75.997150
0
LINE
8
Layer 1
10
23.236387
20
75.997150
11
23.430414
21
75.326872
0
LINE
8
Layer 1
10
23.430414
20
75.326872
11
24.038956
21
73.395414
0
LINE
8
Layer 1
10
24.038956
20
73.395414
11
24.594581
21
71.763817
0
LINE
8
Layer 1
10
24.594581
20
71.763817
11
24.933970
21
70.914345
0
LINE
8
Layer 1
10
24.933970
20
70.914345
11
25.608817
21
69.655969
0
LINE
8
Layer 1
10
25.608817
20
69.655969
11
26.163144
21
68.827439
0
LINE
8
Layer 1
10
26.163144
20
68.827439
11
27.504998
21
67.442289
0
LINE
8
Layer 1
10
27.504998
20
67.442289
11
28.486178
21
66.804077
0
LINE
8
Layer 1
10
28.486178
20
66.804077
11
29.667267
21
66.291954
0
LINE
8
Layer 1
10
29.667267
20
66.291954
11
31.015173
21
65.951508
0
LINE
8
Layer 1
10
31.015173
20
65.951508
11
32.496802
21
65.828331
0
LINE
8
Layer 1
10
32.496802
20
65.828331
11
34.313608
21
66.031178
0
LINE
8
Layer 1
10
34.313608
20
66.031178
11
31.721545
21
64.411022
0
LINE
8
Layer 1
10
31.721545
20
64.411022
11
29.365900
21
62.459303
0
LINE
8
Layer 1
10
29.365900
20
62.459303
11
27.781693
21
60.775850
0
LINE
8
Layer 1
10
27.781693
20
60.775850
11
26.384813
21
58.944310
0
LINE
8
Layer 1
10
26.384813
20
58.944310
11
25.179813
21
56.980700
0
LINE
8
Layer 1
10
25.179813
20
56.980700
11
24.171248
21
54.901039
0
LINE
8
Layer 1
10
24.171248
20
54.901039
11
23.337927
21
52.491844
0
LINE
8
Layer 1
10
23.337927
20
52.491844
11
22.786595
21
50.023886
0
LINE
8
Layer 1
10
22.786595
20
50.023886
11
19.735067
21
48.171803
0
LINE
8
Layer 1
10
19.735067
20
48.171803
11
19.249998
21
47.854303
0
LINE
8
Layer 1
10
19.249998
20
47.854303
11
19.232359
21
47.845483
0
LINE
8
Layer 1
10
19.232359
20
47.845483
11
18.392028
21
47.261614
0
LINE
8
Layer 1
10
18.392028
20
47.261614
11
17.580219
21
46.524050
0
LINE
8
Layer 1
10
17.580219
20
46.524050
11
16.683539
21
45.481872
0
LINE
8
Layer 1
10
16.683539
20
45.481872
11
15.572138
21
43.630633
0
LINE
8
Layer 1
10
15.572138
20
43.630633
11
15.016664
21
41.857081
0
LINE
8
Layer 1
10
15.016664
20
41.857081
11
14.925266
21
40.453885
0
LINE
8
Layer 1
10
14.925266
20
40.453885
11
14.972567
21
39.978539
0
LINE
8
Layer 1
10
14.972567
20
39.978539
11
15.225874
21
37.759463
0
LINE
8
Layer 1
10
15.225874
20
37.759463
11
15.977984
21
35.568817
0
LINE
8
Layer 1
10
15.977984
20
35.568817
11
15.257680
21
34.127805
0
LINE
8
Layer 1
10
15.257680
20
34.127805
11
14.840878
21
32.768130
0
LINE
8
Layer 1
10
14.840878
20
32.768130
11
14.602150
21
30.762219
0
LINE
8
Layer 1
10
14.602150
20
30.762219
11
14.877473
21
28.354340
0
LINE
8
Layer 1
10
14.877473
20
28.354340
11
15.700183
21
26.142108
0
LINE
8
Layer 1
10
15.700183
20
26.142108
11
16.315246
21
25.129324
0
LINE
8
Layer 1
10
16.315246
20
25.129324
11
17.065282
21
24.189411
0
LINE
8
Layer 1
10
17.065282
20
24.189411
11
17.949667
21
23.330353
0
LINE
8
Layer 1
10
17.949667
20
23.330353
11
18.967775
21
22.560136
0
LINE
8
Layer 1
10
18.967775
20
22.560136
11
19.214720
21
22.401386
0
LINE
8
Layer 1
10
19.214720
20
22.401386
11
19.232359
21
22.392567
0
LINE
8
Layer 1
10
19.232359
20
22.392567
11
20.916873
21
21.360692
0
LINE
8
Layer 1
10
20.916873
20
21.360692
11
21.115950
21
19.905803
0
LINE
8
Layer 1
10
21.115950
20
19.905803
11
21.472498
21
18.423817
0
LINE
8
Layer 1
10
21.472498
20
18.423817
11
22.237450
21
16.398413
0
LINE
8
Layer 1
10
22.237450
20
16.398413
11
23.201109
21
14.534442
0
LINE
8
Layer 1
10
23.201109
20
14.534442
11
24.185527
21
12.954010
0
LINE
8
Layer 1
10
24.185527
20
12.954010
11
25.329715
21
11.509581
0
LINE
8
Layer 1
10
25.329715
20
11.509581
11
26.637707
21
10.201749
0
LINE
8
Layer 1
10
26.637707
20
10.201749
11
28.113539
21
9.031108
0
LINE
8
Layer 1
10
28.113539
20
9.031108
11
30.798964
21
7.422594
0
LINE
8
Layer 1
10
30.798964
20
7.422594
11
33.652150
21
6.226525
0
LINE
8
Layer 1
10
33.652150
20
6.226525
11
36.172049
21
5.466733
0
LINE
8
Layer 1
10
36.172049
20
5.466733
11
38.793886
21
4.885969
0
LINE
8
Layer 1
10
38.793886
20
4.885969
11
42.780275
21
4.145136
0
LINE
8
Layer 1
10
42.780275
20
4.145136
11
43.106594
21
4.092219
0
LINE
8
Layer 1
10
43.106594
20
4.092219
11
43.133052
21
4.092219
0
LINE
8
Layer 1
10
43.133052
20
4.092219
11
45.964094
21
3.792358
0
LINE
8
Layer 1
10
45.964094
20
3.792358
11
49.535969
21
3.510136
0
LINE
8
Layer 1
10
49.535969
20
3.510136
11
53.231316
21
3.263192
0
LINE
8
Layer 1
10
53.231316
20
3.263192
11
56.018261
21
3.166178
0
LINE
8
Layer 1
10
56.018261
20
3.166178
11
64.211525
21
3.166178
0
LINE
8
Layer 1
10
64.211525
20
3.166178
11
72.264368
21
3.272808
0
LINE
8
Layer 1
10
72.264368
20
3.272808
11
80.007150
21
3.598331
0
LINE
8
Layer 1
10
80.007150
20
3.598331
11
87.926035
21
4.356593
0
LINE
8
Layer 1
10
87.926035
20
4.356593
11
95.987983
21
5.723817
0
LINE
8
Layer 1
10
95.987983
20
5.723817
11
96.093816
21
5.750275
0
LINE
8
Layer 1
10
96.093816
20
5.750275
11
95.998378
21
5.734150
0
LINE
8
Layer 1
10
95.998378
20
5.734150
11
96.146733
21
5.759094
0
LINE
8
Layer 1
10
96.146733
20
5.759094
11
98.623085
21
6.317853
0
LINE
8
Layer 1
10
98.623085
20
6.317853
11
101.059163
21
7.126108
0
LINE
8
Layer 1
10
101.059163
20
7.126108
11
103.777193
21
8.380871
0
LINE
8
Layer 1
10
103.777193
20
8.380871
11
106.297913
21
10.018886
0
LINE
8
Layer 1
10
106.297913
20
10.018886
11
107.530355
21
11.058822
0
LINE
8
Layer 1
10
107.530355
20
11.058822
11
108.666247
21
12.215329
0
LINE
8
Layer 1
10
108.666247
20
12.215329
11
109.693944
21
13.481879
0
LINE
8
Layer 1
10
109.693944
20
13.481879
11
110.601802
21
14.851942
0
LINE
8
Layer 1
10
110.601802
20
14.851942
11
111.308900
21
16.212534
0
LINE
8
Layer 1
10
111.308900
20
16.212534
11
111.850863
21
17.615522
0
LINE
8
Layer 1
10
111.850863
20
17.615522
11
112.480344
21
20.487567
0
LINE
8
Layer 1
10
112.480344
20
20.487567
11
112.568538
21
20.540483
0
LINE
8
Layer 1
10
112.568538
20
20.540483
11
113.969427
21
21.699514
0
LINE
8
Layer 1
10
113.969427
20
21.699514
11
115.488803
21
23.459375
0
LINE
8
Layer 1
10
115.488803
20
23.459375
11
116.162029
21
24.565014
0
LINE
8
Layer 1
10
116.162029
20
24.565014
11
116.707803
21
25.821336
0
LINE
8
Layer 1
10
116.707803
20
25.821336
11
117.073769
21
27.228500
0
LINE
8
Layer 1
10
117.073769
20
27.228500
11
117.207566
21
28.786664
0
LINE
8
Layer 1
10
117.207566
20
28.786664
11
117.207566
21
31.229650
0
LINE
8
Layer 1
10
117.207566
20
31.229650
11
117.104968
21
32.474912
0
LINE
8
Layer 1
10
117.104968
20
32.474912
11
116.810691
21
33.681456
0
LINE
8
Layer 1
10
116.810691
20
33.681456
11
117.435970
21
34.708287
0
LINE
8
Layer 1
10
117.435970
20
34.708287
11
117.984175
21
35.935444
0
LINE
8
Layer 1
10
117.984175
20
35.935444
11
118.373381
21
37.351909
0
LINE
8
Layer 1
10
118.373381
20
37.351909
11
118.521663
21
38.946664
0
LINE
8
Layer 1
10
118.521663
20
38.946664
11
118.477566
21
40.481247
0
LINE
8
Layer 1
10
118.477566
20
40.481247
11
118.420503
21
41.448724
0
LINE
8
Layer 1
10
118.420503
20
41.448724
11
118.221802
21
42.756664
0
LINE
8
Layer 1
10
118.221802
20
42.756664
11
118.168886
21
42.994789
0
LINE
8
Layer 1
10
118.168886
20
42.994789
11
117.930761
21
43.894372
0
LINE
8
Layer 1
10
117.930761
20
43.894372
11
117.622080
21
44.555831
0
LINE
8
Layer 1
10
117.622080
20
44.555831
11
116.748955
21
46.319719
0
LINE
8
Layer 1
10
116.748955
20
46.319719
11
116.828330
21
47.977775
0
LINE
8
Layer 1
10
116.828330
20
47.977775
11
116.675135
21
50.495900
0
LINE
8
Layer 1
10
116.675135
20
50.495900
11
116.200167
21
52.986361
0
LINE
8
Layer 1
10
116.200167
20
52.986361
11
115.380026
21
55.404491
0
LINE
8
Layer 1
10
115.380026
20
55.404491
11
114.191316
21
57.705622
0
LINE
8
Layer 1
10
114.191316
20
57.705622
11
112.807374
21
59.660056
0
LINE
8
Layer 1
10
112.807374
20
59.660056
11
111.210344
21
61.436247
0
LINE
8
Layer 1
10
111.210344
20
61.436247
11
113.803261
21
61.656733
0
LINE
8
Layer 1
10
113.803261
20
61.656733
11
117.525066
21
61.947775
0
LINE
8
Layer 1
10
117.525066
20
61.947775
11
118.750969
21
62.035969
0
LINE
8
Layer 1
10
118.750969
20
62.035969
11
119.094927
21
62.053608
0
LINE
8
Layer 1
10
119.094927
20
62.053608
11
119.191941
21
62.062428
0
LINE
8
Layer 1
10
119.191941
20
62.062428
11
119.288955
21
62.071247
0
LINE
8
Layer 1
10
119.288955
20
62.071247
11
119.791663
21
62.080067
0
LINE
8
Layer 1
10
119.791663
20
62.080067
11
120.497219
21
62.115344
0
LINE
8
Layer 1
10
120.497219
20
62.115344
11
121.599650
21
62.159442
0
LINE
8
Layer 1
10
121.599650
20
62.159442
11
126.225945
21
61.952600
0
LINE
8
Layer 1
10
126.225945
20
61.952600
11
130.577844
21
61.348053
0
LINE
8
Layer 1
10
130.577844
20
61.348053
11
134.841844
21
60.322073
0
LINE
8
Layer 1
10
134.841844
20
60.322073
11
139.229719
21
58.825692
0
LINE
8
Layer 1
10
139.229719
20
58.825692
11
139.247358
21
58.825692
0
LINE
8
Layer 1
10
139.247358
20
58.825692
11
140.664711
21
58.426697
0
LINE
8
Layer 1
10
140.664711
20
58.426697
11
142.131316
21
58.296525
0
LINE
8
Layer 1
10
142.131316
20
58.296525
11
142.298886
21
58.296525
0
LINE
8
Layer 1
10
142.298886
20
58.296525
11
143.669323
21
58.400274
0
LINE
8
Layer 1
10
143.669323
20
58.400274
11
145.181634
21
58.776231
0
LINE
8
Layer 1
10
145.181634
20
58.776231
11
146.745261
21
59.520877
0
LINE
8
Layer 1
10
146.745261
20
59.520877
11
148.269650
21
60.730692
0
LINE
8
Layer 1
10
148.269650
20
60.730692
11
149.479733
21
62.255913
0
LINE
8
Layer 1
10
149.479733
20
62.255913
11
150.224120
21
63.820276
0
LINE
8
Layer 1
10
150.224120
20
63.820276
11
150.599814
21
65.332538
0
LINE
8
Layer 1
10
150.599814
20
65.332538
11
150.703816
21
66.701456
0
LINE
8
Layer 1
10
150.703816
20
66.701456
11
150.703816
21
66.710275
0
LINE
8
Layer 1
10
150.703816
20
66.710275
11
150.694997
21
67.177706
0
LINE
8
Layer 1
10
150.694997
20
67.177706
11
150.304827
21
70.998890
0
LINE
8
Layer 1
10
150.304827
20
70.998890
11
149.592566
21
74.709511
0
LINE
8
Layer 1
10
149.592566
20
74.709511
11
148.816455
21
77.425900
0
LINE
8
Layer 1
10
148.816455
20
77.425900
11
152.749927
21
81.862081
0
LINE
8
Layer 1
10
152.749927
20
81.862081
11
153.596361
21
83.015918
0
LINE
8
Layer 1
10
153.596361
20
83.015918
11
154.208955
21
84.276141
0
LINE
8
Layer 1
10
154.208955
20
84.276141
11
154.587017
21
85.608671
0
LINE
8
Layer 1
10
154.587017
20
85.608671
11
154.729856
21
86.979430
0
LINE
8
Layer 1
10
154.729856
20
86.979430
11
154.636780
21
88.354340
0
LINE
8
Layer 1
10
154.636780
20
88.354340
11
154.307095
21
89.699323
0
LINE
8
Layer 1
10
154.307095
20
89.699323
11
153.740111
21
90.980299
0
LINE
8
Layer 1
10
153.740111
20
90.980299
11
152.935136
21
92.163192
0
LINE
8
Layer 1
10
152.935136
20
92.163192
11
151.409588
21
93.754588
0
LINE
8
Layer 1
10
151.409588
20
93.754588
11
149.705224
21
95.085444
0
LINE
8
Layer 1
10
149.705224
20
95.085444
11
147.865155
21
96.165643
0
LINE
8
Layer 1
10
147.865155
20
96.165643
11
145.932497
21
97.005067
0
LINE
8
Layer 1
10
145.932497
20
97.005067
11
143.392501
21
97.880430
0
LINE
8
Layer 1
10
143.392501
20
97.880430
11
140.931872
21
98.583747
0
LINE
8
Layer 1
10
140.931872
20
98.583747
11
140.314511
21
98.716039
0
LINE
8
Layer 1
10
140.314511
20
98.716039
11
140.288052
21
98.716039
0
LINE
8
Layer 1
10
140.288052
20
98.716039
11
139.300275
21
98.927706
0
LINE
8
Layer 1
10
139.300275
20
98.927706
11
136.963122
21
99.430414
0
LINE
8
Layer 1
10
136.963122
20
99.430414
11
135.507913
21
99.721456
0
LINE
8
Layer 1
10
135.507913
20
99.721456
11
134.784719
21
99.889025
0
LINE
8
Layer 1
10
134.784719
20
99.889025
11
134.678886
21
99.906664
0
LINE
8
Layer 1
10
134.678886
20
99.906664
11
134.352566
21
99.986039
0
LINE
8
Layer 1
10
134.352566
20
99.986039
11
134.085530
21
100.029405
0
LINE
8
Layer 1
10
134.085530
20
100.029405
11
134.105622
21
100.012497
0
LINE
8
Layer 1
10
134.105622
20
100.012497
11
134.264372
21
99.968400
0
LINE
8
Layer 1
10
134.264372
20
99.968400
11
134.105622
21
100.003678
0
LINE
8
Layer 1
10
134.105622
20
100.003678
11
133.858677
21
100.038956
0
LINE
8
Layer 1
10
133.858677
20
100.038956
11
133.867497
21
100.047775
0
LINE
8
Layer 1
10
133.867497
20
100.047775
11
133.841038
21
100.047775
0
LINE
8
Layer 1
10
133.841038
20
100.047775
11
132.359372
21
100.268261
0
LINE
8
Layer 1
10
132.359372
20
100.268261
11
130.383816
21
100.479928
0
LINE
8
Layer 1
10
130.383816
20
100.479928
11
128.593469
21
100.647497
0
LINE
8
Layer 1
10
128.593469
20
100.647497
11
126.591455
21
100.788609
0
LINE
8
Layer 1
10
126.591455
20
100.788609
11
126.115205
21
100.788609
0
LINE
8
Layer 1
10
126.115205
20
100.788609
11
125.630136
21
100.815067
0
LINE
8
Layer 1
10
125.630136
20
100.815067
11
123.769233
21
100.876803
0
LINE
8
Layer 1
10
123.769233
20
100.876803
11
122.728538
21
100.876803
0
LINE
8
Layer 1
10
122.728538
20
100.876803
11
118.160086
21
100.747293
0
LINE
8
Layer 1
10
118.160086
20
100.747293
11
113.785622
21
100.347636
0
LINE
8
Layer 1
10
113.785622
20
100.347636
11
106.315552
21
99.465692
0
LINE
8
Layer 1
10
106.315552
20
99.465692
11
105.512983
21
99.465692
0
LINE
8
Layer 1
10
105.512983
20
99.465692
11
103.652080
21
99.659720
0
LINE
8
Layer 1
10
103.652080
20
99.659720
11
103.078816
21
100.409372
0
LINE
8
Layer 1
10
103.078816
20
100.409372
11
101.436037
21
102.365917
0
LINE
8
Layer 1
10
101.436037
20
102.365917
11
99.542219
21
103.981247
0
LINE
8
Layer 1
10
99.542219
20
103.981247
11
98.099528
21
104.949634
0
LINE
8
Layer 1
10
98.099528
20
104.949634
11
96.623411
21
105.693110
0
LINE
8
Layer 1
10
96.623411
20
105.693110
11
95.122827
21
106.255342
0
LINE
8
Layer 1
10
95.122827
20
106.255342
11
93.606733
21
106.679997
0
LINE
8
Layer 1
10
93.606733
20
106.679997
11
91.092039
21
107.199345
0
LINE
8
Layer 1
10
91.092039
20
107.199345
11
88.491455
21
107.561942
0
LINE
8
Layer 1
10
88.491455
20
107.561942
11
83.631941
21
107.888261
0
LINE
8
Layer 1
10
83.631941
20
107.888261
11
80.112983
21
107.932359
0
LINE
8
Layer 1
10
80.112983
20
107.932359
11
76.541532
21
107.834372
0
LINE
8
Layer 1
10
76.541532
20
107.834372
11
72.942775
21
107.517845
0
LINE
8
Layer 1
10
72.942775
20
107.517845
11
66.381108
21
106.556525
0
LINE
8
Layer 1
10
66.381108
20
106.556525
11
60.524997
21
105.727497
0
LINE
8
Layer 1
10
60.524997
20
105.727497
11
57.881667
21
105.479362
0
LINE
8
Layer 1
10
57.881667
20
105.479362
11
55.268608
21
105.392359
0
LINE
8
Layer 1
10
55.268608
20
105.392359
11
49.430136
21
105.648122
0
LINE
8
Layer 1
10
49.430136
20
105.648122
11
45.818617
21
105.880734
0
LINE
8
Layer 1
10
45.818617
20
105.880734
11
42.189372
21
105.956803
0
LINE
8
Layer 1
10
42.189372
20
105.956803
11
39.301331
21
105.878338
0
LINE
8
Layer 1
10
39.301331
20
105.878338
11
36.421455
21
105.630484
0
LINE
8
Layer 1
10
36.421455
20
105.630484
11
36.359719
21
105.621664
0
LINE
8
Layer 1
10
36.359719
20
105.621664
11
36.192150
21
105.895067
0
LINE
8
Layer 1
10
36.192150
20
105.895067
11
35.019163
21
107.341456
0
LINE
8
Layer 1
10
35.019163
20
107.341456
11
34.635077
21
107.749175
0
LINE
8
Layer 1
10
34.635077
20
107.749175
11
33.396386
21
108.699650
0
LINE
8
Layer 1
10
33.396386
20
108.699650
11
31.580698
21
109.442526
0
LINE
8
Layer 1
10
31.580698
20
109.442526
11
29.321802
21
109.722706
0
LINE
8
Layer 1
10
29.321802
20
109.722706
11
29.304163
21
109.722706
0
LINE
8
Layer 1
10
29.304163
20
109.722706
11
28.924927
21
109.722706
0
LINE
8
Layer 1
10
28.924927
20
109.722706
11
28.924927
21
109.722706
0
LINE
8
Layer 1
10
28.924927
20
106.424234
11
29.304163
21
106.424234
0
LINE
8
Layer 1
10
29.304163
20
106.424234
11
29.312983
21
106.424234
0
LINE
8
Layer 1
10
29.312983
20
106.424234
11
30.749937
21
106.260095
0
LINE
8
Layer 1
10
30.749937
20
106.260095
11
31.704564
21
105.870534
0
LINE
8
Layer 1
10
31.704564
20
105.870534
11
32.307862
21
105.402841
0
LINE
8
Layer 1
10
32.307862
20
105.402841
11
32.690830
21
105.004303
0
LINE
8
Layer 1
10
32.690830
20
105.004303
11
33.458122
21
104.051803
0
LINE
8
Layer 1
10
33.458122
20
104.051803
11
33.678608
21
103.690206
0
LINE
8
Layer 1
10
33.678608
20
103.690206
11
34.560552
21
102.040970
0
LINE
8
Layer 1
10
34.560552
20
102.040970
11
36.809511
21
102.349650
0
LINE
8
Layer 1
10
36.809511
20
102.349650
11
39.489387
21
102.582681
0
LINE
8
Layer 1
10
39.489387
20
102.582681
11
42.189372
21
102.658331
0
LINE
8
Layer 1
10
42.189372
20
102.658331
11
45.674326
21
102.583497
0
LINE
8
Layer 1
10
45.674326
20
102.583497
11
49.139094
21
102.358470
0
LINE
8
Layer 1
10
49.139094
20
102.358470
11
55.268608
21
102.093886
0
LINE
8
Layer 1
10
55.268608
20
102.093886
11
58.089815
21
102.184294
0
LINE
8
Layer 1
10
58.089815
20
102.184294
11
60.921872
21
102.446664
0
LINE
8
Layer 1
10
60.921872
20
102.446664
11
66.927913
21
103.302150
0
LINE
8
Layer 1
10
66.927913
20
103.302150
11
73.339650
21
104.237011
0
LINE
8
Layer 1
10
73.339650
20
104.237011
11
76.730978
21
104.538179
0
LINE
8
Layer 1
10
76.730978
20
104.538179
11
80.112983
21
104.633886
0
LINE
8
Layer 1
10
80.112983
20
104.633886
11
83.552566
21
104.589789
0
LINE
8
Layer 1
10
83.552566
20
104.589789
11
88.138677
21
104.281109
0
LINE
8
Layer 1
10
88.138677
20
104.281109
11
90.528624
21
103.945742
0
LINE
8
Layer 1
10
90.528624
20
103.945742
11
92.821802
21
103.469720
0
LINE
8
Layer 1
10
92.821802
20
103.469720
11
95.328222
21
102.646970
0
LINE
8
Layer 1
10
95.328222
20
102.646970
11
96.491095
21
102.056936
0
LINE
8
Layer 1
10
96.491095
20
102.056936
11
97.601941
21
101.308956
0
LINE
8
Layer 1
10
97.601941
20
101.308956
11
99.099358
21
100.033822
0
LINE
8
Layer 1
10
99.099358
20
100.033822
11
100.371247
21
98.522011
0
LINE
8
Layer 1
10
100.371247
20
98.522011
11
101.535413
21
96.987428
0
LINE
8
Layer 1
10
101.535413
20
96.987428
11
101.927583
21
96.648277
0
LINE
8
Layer 1
10
101.927583
20
96.648277
11
102.373261
21
96.493539
0
LINE
8
Layer 1
10
102.373261
20
96.493539
11
103.933137
21
96.248842
0
LINE
8
Layer 1
10
103.933137
20
96.248842
11
105.512983
21
96.167220
0
LINE
8
Layer 1
10
105.512983
20
96.167220
11
106.536038
21
96.167220
0
LINE
8
Layer 1
10
106.536038
20
96.167220
11
114.200136
21
97.075622
0
LINE
8
Layer 1
10
114.200136
20
97.075622
11
118.353318
21
97.454636
0
LINE
8
Layer 1
10
118.353318
20
97.454636
11
122.728538
21
97.578331
0
LINE
8
Layer 1
10
122.728538
20
97.578331
11
123.769233
21
97.578331
0
LINE
8
Layer 1
10
123.769233
20
97.578331
11
125.383191
21
97.525414
0
LINE
8
Layer 1
10
125.383191
20
97.525414
11
126.115205
21
97.490136
0
LINE
8
Layer 1
10
126.115205
20
97.490136
11
126.591455
21
97.490136
0
LINE
8
Layer 1
10
126.591455
20
97.490136
11
128.249511
21
97.366664
0
LINE
8
Layer 1
10
128.249511
20
97.366664
11
130.075136
21
97.190275
0
LINE
8
Layer 1
10
130.075136
20
97.190275
11
132.015413
21
96.987428
0
LINE
8
Layer 1
10
132.015413
20
96.987428
11
133.470622
21
96.766942
0
LINE
8
Layer 1
10
133.470622
20
96.766942
11
133.744025
21
96.740484
0
LINE
8
Layer 1
10
133.744025
20
96.740484
11
133.929233
21
96.696386
0
LINE
8
Layer 1
10
133.929233
20
96.696386
11
134.070344
21
96.669928
0
LINE
8
Layer 1
10
134.070344
20
96.669928
11
134.749441
21
96.511178
0
LINE
8
Layer 1
10
134.749441
20
96.511178
11
136.345761
21
96.184859
0
LINE
8
Layer 1
10
136.345761
20
96.184859
11
138.532983
21
95.717428
0
LINE
8
Layer 1
10
138.532983
20
95.717428
11
139.758886
21
95.461664
0
LINE
8
Layer 1
10
139.758886
20
95.461664
11
140.129302
21
95.382289
0
LINE
8
Layer 1
10
140.129302
20
95.382289
11
144.794788
21
93.909442
0
LINE
8
Layer 1
10
144.794788
20
93.909442
11
146.370665
21
93.224322
0
LINE
8
Layer 1
10
146.370665
20
93.224322
11
147.849141
21
92.355425
0
LINE
8
Layer 1
10
147.849141
20
92.355425
11
149.198323
21
91.302218
0
LINE
8
Layer 1
10
149.198323
20
91.302218
11
150.386316
21
90.064164
0
LINE
8
Layer 1
10
150.386316
20
90.064164
11
150.859338
21
89.370833
0
LINE
8
Layer 1
10
150.859338
20
89.370833
11
151.192757
21
88.622459
0
LINE
8
Layer 1
10
151.192757
20
88.622459
11
151.442135
21
87.037226
0
LINE
8
Layer 1
10
151.442135
20
87.037226
11
151.137145
21
85.461746
0
LINE
8
Layer 1
10
151.137145
20
85.461746
11
150.777604
21
84.725565
0
LINE
8
Layer 1
10
150.777604
20
84.725565
11
150.280483
21
84.049303
0
LINE
8
Layer 1
10
150.280483
20
84.049303
11
145.147566
21
78.263747
0
LINE
8
Layer 1
10
145.147566
20
78.263747
11
146.382288
21
73.942219
0
LINE
8
Layer 1
10
146.382288
20
73.942219
11
147.037251
21
70.516509
0
LINE
8
Layer 1
10
147.037251
20
70.516509
11
147.396525
21
66.974858
0
LINE
8
Layer 1
10
147.396525
20
66.974858
11
147.405344
21
66.701456
0
LINE
8
Layer 1
10
147.405344
20
66.701456
11
147.337247
21
65.892926
0
LINE
8
Layer 1
10
147.337247
20
65.892926
11
147.101293
21
64.958961
0
LINE
8
Layer 1
10
147.101293
20
64.958961
11
146.649152
21
63.987840
0
LINE
8
Layer 1
10
146.649152
20
63.987840
11
145.932497
21
63.067844
0
LINE
8
Layer 1
10
145.932497
20
63.067844
11
145.012598
21
62.351126
0
LINE
8
Layer 1
10
145.012598
20
62.351126
11
144.041653
21
61.898863
0
LINE
8
Layer 1
10
144.041653
20
61.898863
11
143.107727
21
61.662879
0
LINE
8
Layer 1
10
143.107727
20
61.662879
11
142.298886
21
61.594997
0
LINE
8
Layer 1
10
142.298886
20
61.594997
11
142.113677
21
61.594997
0
LINE
8
Layer 1
10
142.113677
20
61.594997
11
141.257038
21
61.670843
0
LINE
8
Layer 1
10
141.257038
20
61.670843
11
140.429163
21
61.903678
0
LINE
8
Layer 1
10
140.429163
20
61.903678
11
135.763758
21
63.493300
0
LINE
8
Layer 1
10
135.763758
20
63.493300
11
131.186386
21
64.593608
0
LINE
8
Layer 1
10
131.186386
20
64.593608
11
126.522400
21
65.239654
0
LINE
8
Layer 1
10
126.522400
20
65.239654
11
121.599650
21
65.457914
0
LINE
8
Layer 1
10
121.599650
20
65.457914
11
120.329650
21
65.413817
0
LINE
8
Layer 1
10
120.329650
20
65.413817
11
119.615275
21
65.378539
0
LINE
8
Layer 1
10
119.615275
20
65.378539
11
119.059650
21
65.360900
0
LINE
8
Layer 1
10
119.059650
20
65.360900
11
117.242844
21
65.237428
0
LINE
8
Layer 1
10
117.242844
20
65.237428
11
113.565136
21
64.946386
0
LINE
8
Layer 1
10
113.565136
20
64.946386
11
109.949163
21
64.637706
0
LINE
8
Layer 1
10
109.949163
20
64.637706
11
107.329788
21
64.355483
0
LINE
8
Layer 1
10
107.329788
20
64.355483
11
106.827080
21
64.329025
0
LINE
8
Layer 1
10
106.827080
20
64.329025
11
107.216159
21
64.331364
0
LINE
8
Layer 1
10
107.216159
20
64.331364
11
106.844719
21
64.293747
0
LINE
8
Layer 1
10
106.844719
20
64.293747
11
105.821663
21
64.099719
0
LINE
8
Layer 1
10
105.821663
20
64.099719
11
104.763330
21
63.905692
0
LINE
8
Layer 1
10
104.763330
20
63.905692
11
104.183283
21
63.647827
0
LINE
8
Layer 1
10
104.183283
20
63.647827
11
103.752944
21
63.583619
0
LINE
8
Layer 1
10
103.752944
20
63.583619
11
103.175830
21
63.623469
0
LINE
8
Layer 1
10
103.175830
20
63.623469
11
102.126316
21
63.579372
0
LINE
8
Layer 1
10
102.126316
20
63.579372
11
101.482497
21
63.579372
0
LINE
8
Layer 1
10
101.482497
20
63.579372
11
103.972080
21
62.566082
0
LINE
8
Layer 1
10
103.972080
20
62.566082
11
106.289094
21
61.242219
0
LINE
8
Layer 1
10
106.289094
20
61.242219
11
107.767887
21
60.137250
0
LINE
8
Layer 1
10
107.767887
20
60.137250
11
109.118184
21
58.881686
0
LINE
8
Layer 1
10
109.118184
20
58.881686
11
110.328346
21
57.487882
0
LINE
8
Layer 1
10
110.328346
20
57.487882
11
111.386733
21
55.968192
0
LINE
8
Layer 1
10
111.386733
20
55.968192
11
112.340951
21
54.118609
0
LINE
8
Layer 1
10
112.340951
20
54.118609
11
113.008802
21
52.146602
0
LINE
8
Layer 1
10
113.008802
20
52.146602
11
113.401401
21
50.087786
0
LINE
8
Layer 1
10
113.401401
20
50.087786
11
113.529858
21
47.977775
0
LINE
8
Layer 1
10
113.529858
20
47.977775
11
113.282913
21
45.305483
0
LINE
8
Layer 1
10
113.282913
20
45.305483
11
113.468122
21
45.164372
0
LINE
8
Layer 1
10
113.468122
20
45.164372
11
114.323785
21
43.997873
0
LINE
8
Layer 1
10
114.323785
20
43.997873
11
114.764580
21
42.844858
0
LINE
8
Layer 1
10
114.764580
20
42.844858
11
114.799858
21
42.853678
0
LINE
8
Layer 1
10
114.799858
20
42.853678
11
114.967427
21
42.130483
0
LINE
8
Layer 1
10
114.967427
20
42.130483
11
114.993886
21
42.051108
0
LINE
8
Layer 1
10
114.993886
20
42.051108
11
115.179094
21
40.331317
0
LINE
8
Layer 1
10
115.179094
20
40.331317
11
115.223191
21
38.946664
0
LINE
8
Layer 1
10
115.223191
20
38.946664
11
115.061541
21
37.553388
0
LINE
8
Layer 1
10
115.061541
20
37.553388
11
114.647807
21
36.415483
0
LINE
8
Layer 1
10
114.647807
20
36.415483
11
114.087407
21
35.500269
0
LINE
8
Layer 1
10
114.087407
20
35.500269
11
113.485761
21
34.775067
0
LINE
8
Layer 1
10
113.485761
20
34.775067
11
112.886038
21
34.131247
0
LINE
8
Layer 1
10
112.886038
20
34.131247
11
113.645410
21
32.767833
0
LINE
8
Layer 1
10
113.645410
20
32.767833
11
113.909094
21
31.229650
0
LINE
8
Layer 1
10
113.909094
20
31.229650
11
113.909094
21
28.786664
0
LINE
8
Layer 1
10
113.909094
20
28.786664
11
113.826541
21
27.729479
0
LINE
8
Layer 1
10
113.826541
20
27.729479
11
113.597191
21
26.796823
0
LINE
8
Layer 1
10
113.597191
20
26.796823
11
112.805780
21
25.263274
0
LINE
8
Layer 1
10
112.805780
20
25.263274
11
111.750227
21
24.102357
0
LINE
8
Layer 1
10
111.750227
20
24.102357
11
110.645900
21
23.230414
0
LINE
8
Layer 1
10
110.645900
20
23.230414
11
109.296525
21
22.322011
0
LINE
8
Layer 1
10
109.296525
20
22.322011
11
109.199828
21
20.827029
0
LINE
8
Layer 1
10
109.199828
20
20.827029
11
108.918212
21
19.344361
0
LINE
8
Layer 1
10
108.918212
20
19.344361
11
108.442106
21
17.904130
0
LINE
8
Layer 1
10
108.442106
20
17.904130
11
107.761941
21
16.536456
0
LINE
8
Layer 1
10
107.761941
20
16.536456
11
106.202723
21
14.414720
0
LINE
8
Layer 1
10
106.202723
20
14.414720
11
104.287080
21
12.638261
0
LINE
8
Layer 1
10
104.287080
20
12.638261
11
102.187233
21
11.272158
0
LINE
8
Layer 1
10
102.187233
20
11.272158
11
99.877358
21
10.204094
0
LINE
8
Layer 1
10
99.877358
20
10.204094
11
97.716498
21
9.490464
0
LINE
8
Layer 1
10
97.716498
20
9.490464
11
95.538191
21
9.004650
0
LINE
8
Layer 1
10
95.538191
20
9.004650
11
95.476455
21
8.995831
0
LINE
8
Layer 1
10
95.476455
20
8.995831
11
95.326525
21
8.960553
0
LINE
8
Layer 1
10
95.326525
20
8.960553
11
87.490253
21
7.631867
0
LINE
8
Layer 1
10
87.490253
20
7.631867
11
79.813122
21
6.896803
0
LINE
8
Layer 1
10
79.813122
20
6.896803
11
72.171006
21
6.572759
0
LINE
8
Layer 1
10
72.171006
20
6.572759
11
64.211525
21
6.464650
0
LINE
8
Layer 1
10
64.211525
20
6.464650
11
56.018261
21
6.464650
0
LINE
8
Layer 1
10
56.018261
20
6.464650
11
53.416525
21
6.561664
0
LINE
8
Layer 1
10
53.416525
20
6.561664
11
49.791733
21
6.799789
0
LINE
8
Layer 1
10
49.791733
20
6.799789
11
46.237497
21
7.082011
0
LINE
8
Layer 1
10
46.237497
20
7.082011
11
43.600483
21
7.355414
0
LINE
8
Layer 1
10
43.600483
20
7.355414
11
43.397636
21
7.390692
0
LINE
8
Layer 1
10
43.397636
20
7.390692
11
39.384788
21
8.131525
0
LINE
8
Layer 1
10
39.384788
20
8.131525
11
37.008610
21
8.658106
0
LINE
8
Layer 1
10
37.008610
20
8.658106
11
34.719302
21
9.348608
0
LINE
8
Layer 1
10
34.719302
20
9.348608
11
32.286429
21
10.369898
0
LINE
8
Layer 1
10
32.286429
20
10.369898
11
30.018538
21
11.729858
0
LINE
8
Layer 1
10
30.018538
20
11.729858
11
28.828807
21
12.674732
0
LINE
8
Layer 1
10
28.828807
20
12.674732
11
27.774402
21
13.732637
0
LINE
8
Layer 1
10
27.774402
20
13.732637
11
26.849879
21
14.904812
0
LINE
8
Layer 1
10
26.849879
20
14.904812
11
26.049789
21
16.192497
0
LINE
8
Layer 1
10
26.049789
20
16.192497
11
25.247621
21
17.746890
0
LINE
8
Layer 1
10
25.247621
20
17.746890
11
24.629859
21
19.385136
0
LINE
8
Layer 1
10
24.629859
20
19.385136
11
24.227077
21
21.261632
0
LINE
8
Layer 1
10
24.227077
20
21.261632
11
24.109512
21
23.142219
0
LINE
8
Layer 1
10
24.109512
20
23.142219
11
24.109512
21
23.274511
0
LINE
8
Layer 1
10
24.109512
20
23.274511
11
20.952150
21
25.205969
0
LINE
8
Layer 1
10
20.952150
20
25.205969
11
20.802220
21
25.302983
0
LINE
8
Layer 1
10
20.802220
20
25.302983
11
19.637143
21
26.360340
0
LINE
8
Layer 1
10
19.637143
20
26.360340
11
18.718790
21
27.734090
0
LINE
8
Layer 1
10
18.718790
20
27.734090
11
18.116752
21
29.257096
0
LINE
8
Layer 1
10
18.116752
20
29.257096
11
17.900623
21
30.762219
0
LINE
8
Layer 1
10
17.900623
20
30.762219
11
17.934841
21
31.553321
0
LINE
8
Layer 1
10
17.934841
20
31.553321
11
18.120512
21
32.514770
0
LINE
8
Layer 1
10
18.120512
20
32.514770
11
18.582089
21
33.581107
0
LINE
8
Layer 1
10
18.582089
20
33.581107
11
19.444025
21
34.686872
0
LINE
8
Layer 1
10
19.444025
20
34.686872
11
20.061387
21
35.207219
0
LINE
8
Layer 1
10
20.061387
20
35.207219
11
19.276970
21
36.331621
0
LINE
8
Layer 1
10
19.276970
20
36.331621
11
18.717609
21
37.558367
0
LINE
8
Layer 1
10
18.717609
20
37.558367
11
18.382550
21
38.802369
0
LINE
8
Layer 1
10
18.382550
20
38.802369
11
18.271039
21
39.978539
0
LINE
8
Layer 1
10
18.271039
20
39.978539
11
18.276944
21
41.329677
0
LINE
8
Layer 1
10
18.276944
20
41.329677
11
18.575344
21
42.275680
0
LINE
8
Layer 1
10
18.575344
20
42.275680
11
19.329373
21
43.506317
0
LINE
8
Layer 1
10
19.329373
20
43.506317
11
20.437992
21
44.725633
0
LINE
8
Layer 1
10
20.437992
20
44.725633
11
21.146178
21
45.155553
0
LINE
8
Layer 1
10
21.146178
20
45.155553
11
21.446039
21
45.349581
0
LINE
8
Layer 1
10
21.446039
20
45.349581
11
25.767567
21
47.968956
0
LINE
8
Layer 1
10
25.767567
20
47.968956
11
26.282543
21
50.852143
0
LINE
8
Layer 1
10
26.282543
20
50.852143
11
27.205137
21
53.604581
0
LINE
8
Layer 1
10
27.205137
20
53.604581
11
28.073257
21
55.394375
0
LINE
8
Layer 1
10
28.073257
20
55.394375
11
29.107189
21
57.078874
0
LINE
8
Layer 1
10
29.107189
20
57.078874
11
30.301345
21
58.644595
0
LINE
8
Layer 1
10
30.301345
20
58.644595
11
31.650136
21
60.078053
0
LINE
8
Layer 1
10
31.650136
20
60.078053
11
33.130456
21
61.357179
0
LINE
8
Layer 1
10
33.130456
20
61.357179
11
34.732171
21
62.481816
0
LINE
8
Layer 1
10
34.732171
20
62.481816
11
36.444309
21
63.447470
0
LINE
8
Layer 1
10
36.444309
20
63.447470
11
38.255900
21
64.249650
0
LINE
8
Layer 1
10
38.255900
20
64.249650
11
39.569997
21
64.690622
0
LINE
8
Layer 1
10
39.569997
20
64.690622
11
36.897705
21
70.440900
0
LINE
8
Layer 1
10
36.897705
20
70.440900
11
36.024580
21
70.185136
0
LINE
8
Layer 1
10
36.024580
20
70.185136
11
35.610066
21
69.964650
0
LINE
8
Layer 1
10
35.610066
20
69.964650
11
34.295825
21
69.388633
0
LINE
8
Layer 1
10
34.295825
20
69.388633
11
33.472729
21
69.198721
0
LINE
8
Layer 1
10
33.472729
20
69.198721
11
32.496802
21
69.126803
0
LINE
8
Layer 1
10
32.496802
20
69.126803
11
31.538926
21
69.199298
0
LINE
8
Layer 1
10
31.538926
20
69.199298
11
30.739258
21
69.396574
0
LINE
8
Layer 1
10
30.739258
20
69.396574
11
29.551927
21
70.038901
0
LINE
8
Layer 1
10
29.551927
20
70.038901
11
28.809568
21
70.800647
0
LINE
8
Layer 1
10
28.809568
20
70.800647
11
28.386941
21
71.428678
0
LINE
8
Layer 1
10
28.386941
20
71.428678
11
27.707845
21
72.866247
0
LINE
8
Layer 1
10
27.707845
20
72.866247
11
27.169859
21
74.444928
0
LINE
8
Layer 1
10
27.169859
20
74.444928
11
26.596595
21
76.261733
0
LINE
8
Layer 1
10
26.596595
20
76.261733
11
26.323192
21
77.187775
0
LINE
8
Layer 1
10
26.323192
20
77.187775
11
26.217359
21
77.549372
0
LINE
8
Layer 1
10
26.217359
20
77.549372
11
26.202863
21
77.570444
0
LINE
8
Layer 1
10
26.202863
20
77.570444
11
26.058609
21
77.972706
0
LINE
8
Layer 1
10
26.058609
20
77.972706
11
25.723470
21
78.739997
0
LINE
8
Layer 1
10
25.723470
20
78.739997
11
25.088470
21
80.124650
0
LINE
8
Layer 1
10
25.088470
20
80.124650
11
24.894442
21
80.662636
0
LINE
8
Layer 1
10
24.894442
20
80.662636
11
24.083053
21
82.206039
0
LINE
8
Layer 1
10
24.083053
20
82.206039
11
22.451456
21
85.231109
0
LINE
8
Layer 1
10
22.451456
20
85.231109
11
20.784581
21
88.326734
0
LINE
8
Layer 1
10
20.784581
20
88.326734
11
20.123123
21
89.596734
0
LINE
8
Layer 1
10
20.123123
20
89.596734
11
19.508327
21
90.518478
0
LINE
8
Layer 1
10
19.508327
20
90.518478
11
19.144164
21
91.404720
0
LINE
8
Layer 1
10
19.144164
20
91.404720
11
18.920776
21
92.985648
0
LINE
8
Layer 1
10
18.920776
20
92.985648
11
19.100067
21
93.979997
0
LINE
8
Layer 1
10
19.100067
20
93.979997
11
19.475382
21
95.246461
0
LINE
8
Layer 1
10
19.475382
20
95.246461
11
19.911456
21
95.920275
0
LINE
8
Layer 1
10
19.911456
20
95.920275
11
20.617012
21
96.749303
0
LINE
8
Layer 1
10
20.617012
20
96.749303
11
21.860553
21
97.701803
0
LINE
8
Layer 1
10
21.860553
20
97.701803
11
21.851734
21
97.719442
0
LINE
8
Layer 1
10
21.851734
20
97.719442
11
23.765553
21
98.804234
0
LINE
8
Layer 1
10
23.765553
20
98.804234
11
23.686178
21
98.998261
0
LINE
8
Layer 1
10
23.686178
20
98.998261
11
23.597984
21
99.306942
0
LINE
8
Layer 1
10
23.597984
20
99.306942
11
23.500970
21
99.677359
0
LINE
8
Layer 1
10
23.500970
20
99.677359
11
23.351039
21
100.850345
0
LINE
8
Layer 1
10
23.351039
20
100.850345
11
23.423837
21
101.758191
0
LINE
8
Layer 1
10
23.423837
20
101.758191
11
23.677473
21
102.785310
0
LINE
8
Layer 1
10
23.677473
20
102.785310
11
24.164767
21
103.841543
0
LINE
8
Layer 1
10
24.164767
20
103.841543
11
24.938539
21
104.836734
0
LINE
8
Layer 1
10
24.938539
20
104.836734
11
25.933758
21
105.610483
0
LINE
8
Layer 1
10
25.933758
20
105.610483
11
26.990036
21
106.097738
0
LINE
8
Layer 1
10
26.990036
20
106.097738
11
28.017163
21
106.351366
0
LINE
8
Layer 1
10
28.017163
20
106.351366
11
28.924927
21
106.424234
0
LINE
8
Layer 1
10
28.924927
20
106.424234
11
28.924927
21
106.424234
0
LINE
8
Layer 1
10
28.924927
20
101.794025
11
28.217629
21
101.557571
0
LINE
8
Layer 1
10
28.217629
20
101.557571
11
27.981248
21
100.850345
0
LINE
8
Layer 1
10
27.981248
20
100.850345
11
28.078262
21
100.479928
0
LINE
8
Layer 1
10
28.078262
20
100.479928
11
28.413400
21
99.721456
0
LINE
8
Layer 1
10
28.413400
20
99.721456
11
28.836733
21
98.733678
0
LINE
8
Layer 1
10
28.836733
20
98.733678
11
29.251247
21
97.745900
0
LINE
8
Layer 1
10
29.251247
20
97.745900
11
29.586386
21
97.093261
0
LINE
8
Layer 1
10
29.586386
20
97.093261
11
29.771594
21
96.669928
0
LINE
8
Layer 1
10
29.771594
20
96.669928
11
29.868608
21
96.431803
0
LINE
8
Layer 1
10
29.868608
20
96.431803
11
29.674580
21
96.334789
0
LINE
8
Layer 1
10
29.674580
20
96.334789
11
29.392358
21
96.246595
0
LINE
8
Layer 1
10
29.392358
20
96.246595
11
26.808262
21
95.117706
0
LINE
8
Layer 1
10
26.808262
20
95.117706
11
24.312359
21
93.794789
0
LINE
8
Layer 1
10
24.312359
20
93.794789
11
23.889025
21
93.468470
0
LINE
8
Layer 1
10
23.889025
20
93.468470
11
23.659720
21
93.142150
0
LINE
8
Layer 1
10
23.659720
20
93.142150
11
23.610902
21
92.646981
0
LINE
8
Layer 1
10
23.610902
20
92.646981
11
23.844928
21
92.480692
0
LINE
8
Layer 1
10
23.844928
20
92.480692
11
24.876803
21
90.505136
0
LINE
8
Layer 1
10
24.876803
20
90.505136
11
26.526039
21
87.444789
0
LINE
8
Layer 1
10
26.526039
20
87.444789
11
28.175275
21
84.384442
0
LINE
8
Layer 1
10
28.175275
20
84.384442
11
29.207150
21
82.408886
0
LINE
8
Layer 1
10
29.207150
20
82.408886
11
29.392358
21
81.844442
0
LINE
8
Layer 1
10
29.392358
20
81.844442
11
29.868608
21
80.812567
0
LINE
8
Layer 1
10
29.868608
20
80.812567
11
30.380136
21
79.639581
0
LINE
8
Layer 1
10
30.380136
20
79.639581
11
30.715275
21
78.651803
0
LINE
8
Layer 1
10
30.715275
20
78.651803
11
31.041594
21
77.567011
0
LINE
8
Layer 1
10
31.041594
20
77.567011
11
31.561941
21
75.917775
0
LINE
8
Layer 1
10
31.561941
20
75.917775
11
32.073469
21
74.418469
0
LINE
8
Layer 1
10
32.073469
20
74.418469
11
32.296249
21
73.922957
0
LINE
8
Layer 1
10
32.296249
20
73.922957
11
32.496802
21
73.757011
0
LINE
8
Layer 1
10
32.496802
20
73.757011
11
33.396386
21
74.039233
0
LINE
8
Layer 1
10
33.396386
20
74.039233
11
34.287150
21
74.506664
0
LINE
8
Layer 1
10
34.287150
20
74.506664
11
36.589025
21
75.168122
0
LINE
8
Layer 1
10
36.589025
20
75.168122
11
37.661802
21
75.379897
0
LINE
8
Layer 1
10
37.661802
20
75.379897
11
38.899719
21
75.450344
0
LINE
8
Layer 1
10
38.899719
20
75.450344
11
39.323052
21
75.406247
0
LINE
8
Layer 1
10
39.323052
20
75.406247
11
39.561177
21
75.353331
0
LINE
8
Layer 1
10
39.561177
20
75.353331
11
40.028608
21
74.691872
0
LINE
8
Layer 1
10
40.028608
20
74.691872
11
46.237497
21
61.339233
0
LINE
8
Layer 1
10
46.237497
20
61.339233
11
46.237497
21
61.057011
0
LINE
8
Layer 1
10
46.237497
20
61.057011
11
42.966442
21
60.774644
0
LINE
8
Layer 1
10
42.966442
20
60.774644
11
41.419314
21
60.421859
0
LINE
8
Layer 1
10
41.419314
20
60.421859
11
39.931594
21
59.928122
0
LINE
8
Layer 1
10
39.931594
20
59.928122
11
37.203505
21
58.562812
0
LINE
8
Layer 1
10
37.203505
20
58.562812
11
35.980468
21
57.703329
0
LINE
8
Layer 1
10
35.980468
20
57.703329
11
34.851594
21
56.726664
0
LINE
8
Layer 1
10
34.851594
20
56.726664
11
33.828593
21
55.641743
0
LINE
8
Layer 1
10
33.828593
20
55.641743
11
32.923156
21
54.457108
0
LINE
8
Layer 1
10
32.923156
20
54.457108
11
32.135271
21
53.172529
0
LINE
8
Layer 1
10
32.135271
20
53.172529
11
31.464927
21
51.787775
0
LINE
8
Layer 1
10
31.464927
20
51.787775
11
30.930727
21
50.314667
0
LINE
8
Layer 1
10
30.930727
20
50.314667
11
30.550577
21
48.765289
0
LINE
8
Layer 1
10
30.550577
20
48.765289
11
30.323331
21
47.139654
0
LINE
8
Layer 1
10
30.323331
20
47.139654
11
30.247844
21
45.437775
0
LINE
8
Layer 1
10
30.247844
20
45.437775
11
30.053816
21
45.155553
0
LINE
8
Layer 1
10
30.053816
20
45.155553
11
23.844928
21
41.389650
0
LINE
8
Layer 1
10
23.844928
20
41.389650
11
23.042359
21
40.728192
0
LINE
8
Layer 1
10
23.042359
20
40.728192
11
22.901248
21
39.978539
0
LINE
8
Layer 1
10
22.901248
20
39.978539
11
23.127786
21
38.779701
0
LINE
8
Layer 1
10
23.127786
20
38.779701
11
23.409114
21
38.338569
0
LINE
8
Layer 1
10
23.409114
20
38.338569
11
23.800831
21
38.002983
0
LINE
8
Layer 1
10
23.800831
20
38.002983
11
24.751430
21
37.518773
0
LINE
8
Layer 1
10
24.751430
20
37.518773
11
25.820484
21
37.200414
0
LINE
8
Layer 1
10
25.820484
20
37.200414
11
27.840137
21
36.918192
0
LINE
8
Layer 1
10
27.840137
20
36.918192
11
28.513162
21
36.788706
0
LINE
8
Layer 1
10
28.513162
20
36.788706
11
28.739719
21
36.494858
0
LINE
8
Layer 1
10
28.739719
20
36.494858
11
28.739719
21
36.124442
0
LINE
8
Layer 1
10
28.739719
20
36.124442
11
28.316386
21
34.616317
0
LINE
8
Layer 1
10
28.316386
20
34.616317
11
28.078262
21
33.672636
0
LINE
8
Layer 1
10
28.078262
20
33.672636
11
27.610831
21
33.205206
0
LINE
8
Layer 1
10
27.610831
20
33.205206
11
22.716039
21
31.414858
0
LINE
8
Layer 1
10
22.716039
20
31.414858
11
22.530831
21
30.762219
0
LINE
8
Layer 1
10
22.530831
20
30.762219
11
22.738705
21
29.841198
0
LINE
8
Layer 1
10
22.738705
20
29.841198
11
23.368678
21
29.157081
0
LINE
8
Layer 1
10
23.368678
20
29.157081
11
28.739719
21
25.867428
0
LINE
8
Layer 1
10
28.739719
20
25.867428
11
28.880830
21
25.682219
0
LINE
8
Layer 1
10
28.880830
20
25.682219
11
28.924927
21
25.391178
0
LINE
8
Layer 1
10
28.924927
20
25.391178
11
28.827913
21
24.879650
0
LINE
8
Layer 1
10
28.827913
20
24.879650
11
28.739719
21
24.359303
0
LINE
8
Layer 1
10
28.739719
20
24.359303
11
28.739719
21
23.142219
0
LINE
8
Layer 1
10
28.739719
20
23.142219
11
28.820317
21
21.879499
0
LINE
8
Layer 1
10
28.820317
20
21.879499
11
29.066038
21
20.734511
0
LINE
8
Layer 1
10
29.066038
20
20.734511
11
30.053816
21
18.529650
0
LINE
8
Layer 1
10
30.053816
20
18.529650
11
31.230538
21
16.833812
0
LINE
8
Layer 1
10
31.230538
20
16.833812
11
32.690830
21
15.513400
0
LINE
8
Layer 1
10
32.690830
20
15.513400
11
34.372872
21
14.504916
0
LINE
8
Layer 1
10
34.372872
20
14.504916
11
36.218608
21
13.731872
0
LINE
8
Layer 1
10
36.218608
20
13.731872
11
38.180663
21
13.140822
0
LINE
8
Layer 1
10
38.180663
20
13.140822
11
40.213816
21
12.691178
0
LINE
8
Layer 1
10
40.213816
20
12.691178
11
44.261941
21
11.941525
0
LINE
8
Layer 1
10
44.261941
20
11.941525
11
46.616733
21
11.703400
0
LINE
8
Layer 1
10
46.616733
20
11.703400
11
50.144511
21
11.421178
0
LINE
8
Layer 1
10
50.144511
20
11.421178
11
53.672288
21
11.191872
0
LINE
8
Layer 1
10
53.672288
20
11.191872
11
56.018261
21
11.094858
0
LINE
8
Layer 1
10
56.018261
20
11.094858
11
64.211525
21
11.094858
0
LINE
8
Layer 1
10
64.211525
20
11.094858
11
72.044371
21
11.200652
0
LINE
8
Layer 1
10
72.044371
20
11.200652
11
79.548538
21
11.518192
0
LINE
8
Layer 1
10
79.548538
20
11.518192
11
86.977433
21
12.234070
0
LINE
8
Layer 1
10
86.977433
20
12.234070
11
94.594511
21
13.537844
0
LINE
8
Layer 1
10
94.594511
20
13.537844
11
96.394639
21
13.926575
0
LINE
8
Layer 1
10
96.394639
20
13.926575
11
98.219302
21
14.525622
0
LINE
8
Layer 1
10
98.219302
20
14.525622
11
99.947897
21
15.326404
0
LINE
8
Layer 1
10
99.947897
20
15.326404
11
101.464858
21
16.315969
0
LINE
8
Layer 1
10
101.464858
20
16.315969
11
102.749349
21
17.502498
0
LINE
8
Layer 1
10
102.749349
20
17.502498
11
103.775552
21
18.900067
0
LINE
8
Layer 1
10
103.775552
20
18.900067
11
104.444469
21
20.524181
0
LINE
8
Layer 1
10
104.444469
20
20.524181
11
104.666316
21
22.383747
0
LINE
8
Layer 1
10
104.666316
20
22.383747
11
104.428191
21
23.653747
0
LINE
8
Layer 1
10
104.428191
20
23.653747
11
104.198886
21
24.923747
0
LINE
8
Layer 1
10
104.198886
20
24.923747
11
105.512983
21
25.532289
0
LINE
8
Layer 1
10
105.512983
20
25.532289
11
107.955969
21
26.996317
0
LINE
8
Layer 1
10
107.955969
20
26.996317
11
108.946841
21
27.915173
0
LINE
8
Layer 1
10
108.946841
20
27.915173
11
109.195683
21
28.356981
0
LINE
8
Layer 1
10
109.195683
20
28.356981
11
109.278886
21
28.786664
0
LINE
8
Layer 1
10
109.278886
20
28.786664
11
109.278886
21
31.229650
0
LINE
8
Layer 1
10
109.278886
20
31.229650
11
109.084858
21
31.414858
0
LINE
8
Layer 1
10
109.084858
20
31.414858
11
108.996663
21
31.414858
0
LINE
8
Layer 1
10
108.996663
20
31.414858
11
108.802636
21
31.414858
0
LINE
8
Layer 1
10
108.802636
20
31.414858
11
108.379302
21
31.326664
0
LINE
8
Layer 1
10
108.379302
20
31.326664
11
107.955969
21
31.229650
0
LINE
8
Layer 1
10
107.955969
20
31.229650
11
107.109302
21
31.088539
0
LINE
8
Layer 1
10
107.109302
20
31.088539
11
106.174441
21
30.947428
0
LINE
8
Layer 1
10
106.174441
20
30.947428
11
106.077427
21
30.947428
0
LINE
8
Layer 1
10
106.077427
20
30.947428
11
105.980413
21
30.947428
0
LINE
8
Layer 1
10
105.980413
20
30.947428
11
105.698191
21
31.229650
0
LINE
8
Layer 1
10
105.698191
20
31.229650
11
105.698191
21
31.317844
0
LINE
8
Layer 1
10
105.698191
20
31.317844
11
105.698191
21
31.414858
0
LINE
8
Layer 1
10
105.698191
20
31.414858
11
105.892219
21
32.076317
0
LINE
8
Layer 1
10
105.892219
20
32.076317
11
105.980413
21
32.737775
0
LINE
8
Layer 1
10
105.980413
20
32.737775
11
105.980413
21
35.180761
0
LINE
8
Layer 1
10
105.980413
20
35.180761
11
109.278886
21
37.156317
0
LINE
8
Layer 1
10
109.278886
20
37.156317
11
110.072636
21
37.905969
0
LINE
8
Layer 1
10
110.072636
20
37.905969
11
110.461948
21
38.449632
0
LINE
8
Layer 1
10
110.461948
20
38.449632
11
110.592983
21
38.946664
0
LINE
8
Layer 1
10
110.592983
20
38.946664
11
110.548886
21
40.119650
0
LINE
8
Layer 1
10
110.548886
20
40.119650
11
110.407775
21
41.389650
0
LINE
8
Layer 1
10
110.407775
20
41.389650
11
110.193981
21
41.884746
0
LINE
8
Layer 1
10
110.193981
20
41.884746
11
109.746316
21
42.051108
0
LINE
8
Layer 1
10
109.746316
20
42.051108
11
108.617427
21
42.192219
0
LINE
8
Layer 1
10
108.617427
20
42.192219
11
107.488538
21
42.333331
0
LINE
8
Layer 1
10
107.488538
20
42.333331
11
108.520413
21
45.058539
0
LINE
8
Layer 1
10
108.520413
20
45.058539
11
108.804357
21
46.447428
0
LINE
8
Layer 1
10
108.804357
20
46.447428
11
108.899650
21
47.977775
0
LINE
8
Layer 1
10
108.899650
20
47.977775
11
108.808968
21
49.523568
0
LINE
8
Layer 1
10
108.808968
20
49.523568
11
108.536634
21
50.962869
0
LINE
8
Layer 1
10
108.536634
20
50.962869
11
108.082006
21
52.296481
0
LINE
8
Layer 1
10
108.082006
20
52.296481
11
107.444441
21
53.525206
0
LINE
8
Layer 1
10
107.444441
20
53.525206
11
105.783386
21
55.668756
0
LINE
8
Layer 1
10
105.783386
20
55.668756
11
103.722636
21
57.388122
0
LINE
8
Layer 1
10
103.722636
20
57.388122
11
101.313419
21
58.690080
0
LINE
8
Layer 1
10
101.313419
20
58.690080
11
98.598538
21
59.592983
0
LINE
8
Layer 1
10
98.598538
20
59.592983
11
95.737951
21
60.122316
0
LINE
8
Layer 1
10
95.737951
20
60.122316
11
92.901177
21
60.298539
0
LINE
8
Layer 1
10
92.901177
20
60.298539
11
91.315002
21
60.207336
0
LINE
8
Layer 1
10
91.315002
20
60.207336
11
89.752636
21
59.928122
0
LINE
8
Layer 1
10
89.752636
20
59.928122
11
86.604094
21
59.169650
0
LINE
8
Layer 1
10
86.604094
20
59.169650
11
86.507080
21
59.169650
0
LINE
8
Layer 1
10
86.507080
20
59.169650
11
86.410066
21
59.169650
0
LINE
8
Layer 1
10
86.410066
20
59.169650
11
84.212793
21
60.546779
0
LINE
8
Layer 1
10
84.212793
20
60.546779
11
82.132636
21
61.665553
0
LINE
8
Layer 1
10
82.132636
20
61.665553
11
80.098318
21
62.547512
0
LINE
8
Layer 1
10
80.098318
20
62.547512
11
78.040413
21
63.217775
0
LINE
8
Layer 1
10
78.040413
20
63.217775
11
75.922212
21
63.701218
0
LINE
8
Layer 1
10
75.922212
20
63.701218
11
73.710066
21
64.020344
0
LINE
8
Layer 1
10
73.710066
20
64.020344
11
68.630066
21
64.249650
0
LINE
8
Layer 1
10
68.630066
20
64.249650
11
64.830648
21
64.002661
0
LINE
8
Layer 1
10
64.830648
20
64.002661
11
61.336386
21
63.261872
0
LINE
8
Layer 1
10
61.336386
20
63.261872
11
54.421941
21
60.959997
0
LINE
8
Layer 1
10
54.421941
20
60.959997
11
54.324927
21
60.959997
0
LINE
8
Layer 1
10
54.324927
20
60.959997
11
52.997618
21
61.055188
0
LINE
8
Layer 1
10
52.997618
20
61.055188
11
51.458608
21
61.339233
0
LINE
8
Layer 1
10
51.458608
20
61.339233
11
48.495275
21
61.806664
0
LINE
8
Layer 1
10
48.495275
20
61.806664
11
42.471594
21
74.691872
0
LINE
8
Layer 1
10
42.471594
20
74.691872
11
42.471594
21
75.071108
0
LINE
8
Layer 1
10
42.471594
20
75.071108
11
46.388015
21
74.965281
0
LINE
8
Layer 1
10
46.388015
20
74.965281
11
50.232705
21
74.647775
0
LINE
8
Layer 1
10
50.232705
20
74.647775
11
54.102875
21
74.330186
0
LINE
8
Layer 1
10
54.102875
20
74.330186
11
58.090830
21
74.224442
0
LINE
8
Layer 1
10
58.090830
20
74.224442
11
62.421177
21
74.224442
0
LINE
8
Layer 1
10
62.421177
20
74.224442
11
81.047844
21
77.143678
0
LINE
8
Layer 1
10
81.047844
20
77.143678
11
82.838191
21
77.143678
0
LINE
8
Layer 1
10
82.838191
20
77.143678
11
86.180761
21
77.002567
0
LINE
8
Layer 1
10
86.180761
20
77.002567
11
87.355481
21
76.765830
0
LINE
8
Layer 1
10
87.355481
20
76.765830
11
88.341525
21
76.341108
0
LINE
8
Layer 1
10
88.341525
20
76.341108
11
90.078955
21
74.982914
0
LINE
8
Layer 1
10
90.078955
20
74.982914
11
92.151525
21
72.716317
0
LINE
8
Layer 1
10
92.151525
20
72.716317
11
94.125229
21
70.802827
0
LINE
8
Layer 1
10
94.125229
20
70.802827
11
96.287844
21
69.382567
0
LINE
8
Layer 1
10
96.287844
20
69.382567
11
97.447184
21
68.868565
0
LINE
8
Layer 1
10
97.447184
20
68.868565
11
98.666316
21
68.502087
0
LINE
8
Layer 1
10
98.666316
20
68.502087
11
99.944164
21
68.282602
0
LINE
8
Layer 1
10
99.944164
20
68.282602
11
101.279650
21
68.209581
0
LINE
8
Layer 1
10
101.279650
20
68.209581
11
102.126316
21
68.209581
0
LINE
8
Layer 1
10
102.126316
20
68.209581
11
102.875969
21
68.297775
0
LINE
8
Layer 1
10
102.875969
20
68.297775
11
103.581525
21
68.394789
0
LINE
8
Layer 1
10
103.581525
20
68.394789
11
104.851525
21
68.632914
0
LINE
8
Layer 1
10
104.851525
20
68.632914
11
106.077427
21
68.862219
0
LINE
8
Layer 1
10
106.077427
20
68.862219
11
106.827080
21
68.959233
0
LINE
8
Layer 1
10
106.827080
20
68.959233
11
109.464094
21
69.241456
0
LINE
8
Layer 1
10
109.464094
20
69.241456
11
113.229997
21
69.567775
0
LINE
8
Layer 1
10
113.229997
20
69.567775
11
116.845969
21
69.849997
0
LINE
8
Layer 1
10
116.845969
20
69.849997
11
119.059650
21
69.991108
0
LINE
8
Layer 1
10
119.059650
20
69.991108
11
120.100344
21
70.044025
0
LINE
8
Layer 1
10
120.100344
20
70.044025
11
121.599650
21
70.088122
0
LINE
8
Layer 1
10
121.599650
20
70.088122
11
126.938756
21
69.851333
0
LINE
8
Layer 1
10
126.938756
20
69.851333
11
132.041872
21
69.144442
0
LINE
8
Layer 1
10
132.041872
20
69.144442
11
137.053635
21
67.944284
0
LINE
8
Layer 1
10
137.053635
20
67.944284
11
142.113677
21
66.225206
0
LINE
8
Layer 1
10
142.113677
20
66.225206
11
142.298886
21
66.225206
0
LINE
8
Layer 1
10
142.298886
20
66.225206
11
142.654638
21
66.345570
0
LINE
8
Layer 1
10
142.654638
20
66.345570
11
142.775136
21
66.701456
0
LINE
8
Layer 1
10
142.775136
20
66.701456
11
142.455176
21
69.842316
0
LINE
8
Layer 1
10
142.455176
20
69.842316
11
141.875552
21
72.866247
0
LINE
8
Layer 1
10
141.875552
20
72.866247
11
141.088575
21
75.794515
0
LINE
8
Layer 1
10
141.088575
20
75.794515
11
140.138122
21
78.651803
0
LINE
8
Layer 1
10
140.138122
20
78.651803
11
140.138122
21
79.586664
0
LINE
8
Layer 1
10
140.138122
20
79.586664
11
146.814441
21
87.118470
0
LINE
8
Layer 1
10
146.814441
20
87.118470
11
146.094724
21
87.870549
0
LINE
8
Layer 1
10
146.094724
20
87.870549
11
145.252932
21
88.527983
0
LINE
8
Layer 1
10
145.252932
20
88.527983
11
143.198469
21
89.561456
0
LINE
8
Layer 1
10
143.198469
20
89.561456
11
139.009233
21
90.884372
0
LINE
8
Layer 1
10
139.009233
20
90.884372
11
137.457011
21
91.210692
0
LINE
8
Layer 1
10
137.457011
20
91.210692
11
135.481455
21
91.634025
0
LINE
8
Layer 1
10
135.481455
20
91.634025
11
133.691108
21
92.004442
0
LINE
8
Layer 1
10
133.691108
20
92.004442
11
132.800344
21
92.198470
0
LINE
8
Layer 1
10
132.800344
20
92.198470
11
131.530344
21
92.383678
0
LINE
8
Layer 1
10
131.530344
20
92.383678
11
129.642983
21
92.577706
0
LINE
8
Layer 1
10
129.642983
20
92.577706
11
127.764441
21
92.762914
0
LINE
8
Layer 1
10
127.764441
20
92.762914
11
126.591455
21
92.859928
0
LINE
8
Layer 1
10
126.591455
20
92.859928
11
126.115205
21
92.859928
0
LINE
8
Layer 1
10
126.115205
20
92.859928
11
125.039233
21
92.904025
0
LINE
8
Layer 1
10
125.039233
20
92.904025
11
123.769233
21
92.948122
0
LINE
8
Layer 1
10
123.769233
20
92.948122
11
122.728538
21
92.948122
0
LINE
8
Layer 1
10
122.728538
20
92.948122
11
118.625732
21
92.831717
0
LINE
8
Layer 1
10
118.625732
20
92.831717
11
114.782219
21
92.480692
0
LINE
8
Layer 1
10
114.782219
20
92.480692
11
106.827080
21
91.537011
0
LINE
8
Layer 1
10
106.827080
20
91.537011
11
105.512983
21
91.537011
0
LINE
8
Layer 1
10
105.512983
20
91.537011
11
103.454960
21
91.642745
0
LINE
8
Layer 1
10
103.454960
20
91.642745
11
101.420761
21
91.960345
0
LINE
8
Layer 1
10
101.420761
20
91.960345
11
100.447899
21
92.246431
0
LINE
8
Layer 1
10
100.447899
20
92.246431
11
99.552056
21
92.680574
0
LINE
8
Layer 1
10
99.552056
20
92.680574
11
98.732874
21
93.261720
0
LINE
8
Layer 1
10
98.732874
20
93.261720
11
97.989997
21
93.988817
0
LINE
8
Layer 1
10
97.989997
20
93.988817
11
96.570066
21
95.867359
0
LINE
8
Layer 1
10
96.570066
20
95.867359
11
95.818092
21
96.760985
0
LINE
8
Layer 1
10
95.818092
20
96.760985
11
94.876733
21
97.560692
0
LINE
8
Layer 1
10
94.876733
20
97.560692
11
93.478630
21
98.384272
0
LINE
8
Layer 1
10
93.478630
20
98.384272
11
91.728191
21
98.971803
0
LINE
8
Layer 1
10
91.728191
20
98.971803
11
87.635969
21
99.677359
0
LINE
8
Layer 1
10
87.635969
20
99.677359
11
83.446733
21
99.959581
0
LINE
8
Layer 1
10
83.446733
20
99.959581
11
80.112983
21
100.003678
0
LINE
8
Layer 1
10
80.112983
20
100.003678
11
77.003364
21
99.912443
0
LINE
8
Layer 1
10
77.003364
20
99.912443
11
73.895275
21
99.633261
0
LINE
8
Layer 1
10
73.895275
20
99.633261
11
67.686386
21
98.733678
0
LINE
8
Layer 1
10
67.686386
20
98.733678
11
61.477497
21
97.842914
0
LINE
8
Layer 1
10
61.477497
20
97.842914
11
58.372660
21
97.559202
0
LINE
8
Layer 1
10
58.372660
20
97.559202
11
55.268608
21
97.463678
0
LINE
8
Layer 1
10
55.268608
20
97.463678
11
48.733400
21
97.745900
0
LINE
8
Layer 1
10
48.733400
20
97.745900
11
42.189372
21
98.028122
0
LINE
8
Layer 1
10
42.189372
20
98.028122
11
37.347497
21
97.745900
0
LINE
8
Layer 1
10
37.347497
20
97.745900
11
32.496802
21
97.093261
0
LINE
8
Layer 1
10
32.496802
20
97.093261
11
32.223400
21
97.093261
0
LINE
8
Layer 1
10
32.223400
20
97.093261
11
31.844163
21
97.278470
0
LINE
8
Layer 1
10
31.844163
20
97.278470
11
29.586386
21
101.511803
0
LINE
8
Layer 1
10
29.586386
20
101.511803
11
29.304163
21
101.794025
0
LINE
8
Layer 1
10
29.304163
20
101.794025
11
28.924927
21
101.794025
0
LINE
8
Layer 1
10
28.924927
20
101.794025
11
28.924927
21
101.794025
0
LINE
8
Layer 1
10
29.207150
20
100.479928
11
29.392358
21
100.197706
0
LINE
8
Layer 1
10
29.392358
20
100.197706
11
32.029372
21
94.456247
0
LINE
8
Layer 1
10
32.029372
20
94.456247
11
32.029372
21
93.794789
0
LINE
8
Layer 1
10
32.029372
20
93.794789
11
31.650136
21
94.174025
0
LINE
8
Layer 1
10
31.650136
20
94.174025
11
30.759372
21
95.823261
0
LINE
8
Layer 1
10
30.759372
20
95.823261
11
29.586386
21
98.222150
0
LINE
8
Layer 1
10
29.586386
20
98.222150
11
29.207150
21
99.112914
0
LINE
8
Layer 1
10
29.207150
20
99.112914
11
29.110136
21
100.003678
0
LINE
8
Layer 1
10
29.110136
20
100.003678
11
29.163052
21
100.241803
0
LINE
8
Layer 1
10
29.163052
20
100.241803
11
29.207150
21
100.479928
0
LINE
8
Layer 1
10
29.207150
20
100.479928
11
29.207150
21
100.479928
0
LINE
8
Layer 1
10
79.918955
20
98.028122
11
83.120413
21
98.028122
0
LINE
8
Layer 1
10
83.120413
20
98.028122
11
85.940791
21
97.947094
0
LINE
8
Layer 1
10
85.940791
20
97.947094
11
88.950066
21
97.701803
0
LINE
8
Layer 1
10
88.950066
20
97.701803
11
91.701710
21
97.174773
0
LINE
8
Layer 1
10
91.701710
20
97.174773
11
92.812812
21
96.761283
0
LINE
8
Layer 1
10
92.812812
20
96.761283
11
93.747844
21
96.246595
0
LINE
8
Layer 1
10
93.747844
20
96.246595
11
95.538191
21
94.456247
0
LINE
8
Layer 1
10
95.538191
20
94.456247
11
97.231525
21
92.480692
0
LINE
8
Layer 1
10
97.231525
20
92.480692
11
99.065969
21
90.831456
0
LINE
8
Layer 1
10
99.065969
20
90.831456
11
100.159109
21
90.280910
0
LINE
8
Layer 1
10
100.159109
20
90.280910
11
101.464858
21
90.037706
0
LINE
8
Layer 1
10
101.464858
20
90.037706
11
102.875969
21
89.984789
0
LINE
8
Layer 1
10
102.875969
20
89.984789
11
104.198886
21
89.940692
0
LINE
8
Layer 1
10
104.198886
20
89.940692
11
108.629350
21
90.092012
0
LINE
8
Layer 1
10
108.629350
20
90.092012
11
112.894858
21
90.549234
0
LINE
8
Layer 1
10
112.894858
20
90.549234
11
117.164626
21
91.010757
0
LINE
8
Layer 1
10
117.164626
20
91.010757
11
121.599650
21
91.166595
0
LINE
8
Layer 1
10
121.599650
20
91.166595
11
126.599313
21
91.035935
0
LINE
8
Layer 1
10
126.599313
20
91.035935
11
131.433330
21
90.646247
0
LINE
8
Layer 1
10
131.433330
20
90.646247
11
136.197124
21
89.949298
0
LINE
8
Layer 1
10
136.197124
20
89.949298
11
140.984788
21
88.899997
0
LINE
8
Layer 1
10
140.984788
20
88.899997
11
142.395900
21
88.485484
0
LINE
8
Layer 1
10
142.395900
20
88.485484
11
143.895205
21
87.965136
0
LINE
8
Layer 1
10
143.895205
20
87.965136
11
144.327358
21
87.824025
0
LINE
8
Layer 1
10
144.327358
20
87.824025
11
144.750691
21
87.585900
0
LINE
8
Layer 1
10
144.750691
20
87.585900
11
138.162566
21
79.304442
0
LINE
8
Layer 1
10
138.162566
20
79.304442
11
138.162566
21
78.934025
0
LINE
8
Layer 1
10
138.162566
20
78.934025
11
141.267011
21
69.620692
0
LINE
8
Layer 1
10
141.267011
20
69.620692
11
141.408122
21
68.862219
0
LINE
8
Layer 1
10
141.408122
20
68.862219
11
141.452219
21
68.209581
0
LINE
8
Layer 1
10
141.452219
20
68.209581
11
140.420344
21
68.491803
0
LINE
8
Layer 1
10
140.420344
20
68.491803
11
139.476663
21
68.959233
0
LINE
8
Layer 1
10
139.476663
20
68.959233
11
135.186017
21
70.265949
0
LINE
8
Layer 1
10
135.186017
20
70.265949
11
130.965900
21
71.172914
0
LINE
8
Layer 1
10
130.965900
20
71.172914
11
126.695972
21
71.697468
0
LINE
8
Layer 1
10
126.695972
20
71.697468
11
122.261108
21
71.869650
0
LINE
8
Layer 1
10
122.261108
20
71.869650
11
121.414441
21
71.869650
0
LINE
8
Layer 1
10
121.414441
20
71.869650
11
120.285552
21
71.825553
0
LINE
8
Layer 1
10
120.285552
20
71.825553
11
119.244858
21
71.781456
0
LINE
8
Layer 1
10
119.244858
20
71.781456
11
118.777427
21
71.781456
0
LINE
8
Layer 1
10
118.777427
20
71.781456
11
102.408538
21
70.273331
0
LINE
8
Layer 1
10
102.408538
20
70.273331
11
101.941108
21
70.273331
0
LINE
8
Layer 1
10
101.941108
20
70.273331
11
100.448494
21
70.347591
0
LINE
8
Layer 1
10
100.448494
20
70.347591
11
99.078427
21
70.569882
0
LINE
8
Layer 1
10
99.078427
20
70.569882
11
97.832217
21
70.939349
0
LINE
8
Layer 1
10
97.832217
20
70.939349
11
96.711177
21
71.455136
0
LINE
8
Layer 1
10
96.711177
20
71.455136
11
94.584605
21
72.900572
0
LINE
8
Layer 1
10
94.584605
20
72.900572
11
92.433747
21
74.885900
0
LINE
8
Layer 1
10
92.433747
20
74.885900
11
90.361177
21
76.905553
0
LINE
8
Layer 1
10
90.361177
20
76.905553
11
89.411647
21
77.612496
0
LINE
8
Layer 1
10
89.411647
20
77.612496
11
88.438538
21
78.131456
0
LINE
8
Layer 1
10
88.438538
20
78.131456
11
87.380302
21
78.494543
0
LINE
8
Layer 1
10
87.380302
20
78.494543
11
86.180761
21
78.739997
0
LINE
8
Layer 1
10
86.180761
20
78.739997
11
83.120413
21
78.934025
0
LINE
8
Layer 1
10
83.120413
20
78.934025
11
80.959650
21
78.881108
0
LINE
8
Layer 1
10
80.959650
20
78.881108
11
78.693052
21
78.651803
0
LINE
8
Layer 1
10
78.693052
20
78.651803
11
75.218191
21
78.087358
0
LINE
8
Layer 1
10
75.218191
20
78.087358
11
69.997080
21
77.284789
0
LINE
8
Layer 1
10
69.997080
20
77.284789
11
64.767150
21
76.482219
0
LINE
8
Layer 1
10
64.767150
20
76.482219
11
61.389302
21
76.014789
0
LINE
8
Layer 1
10
61.389302
20
76.014789
11
60.392705
21
75.873678
0
LINE
8
Layer 1
10
60.392705
20
75.873678
11
59.598955
21
75.829581
0
LINE
8
Layer 1
10
59.598955
20
75.829581
11
58.090830
21
75.829581
0
LINE
8
Layer 1
10
58.090830
20
75.829581
11
56.873747
21
75.829581
0
LINE
8
Layer 1
10
56.873747
20
75.829581
11
54.474858
21
75.873678
0
LINE
8
Layer 1
10
54.474858
20
75.873678
11
51.317497
21
76.014789
0
LINE
8
Layer 1
10
51.317497
20
76.014789
11
48.451177
21
76.155900
0
LINE
8
Layer 1
10
48.451177
20
76.155900
11
46.898955
21
76.199997
0
LINE
8
Layer 1
10
46.898955
20
76.199997
11
45.858261
21
76.297011
0
LINE
8
Layer 1
10
45.858261
20
76.297011
11
44.023816
21
76.535136
0
LINE
8
Layer 1
10
44.023816
20
76.535136
11
42.189372
21
76.764442
0
LINE
8
Layer 1
10
42.189372
20
76.764442
11
41.157497
21
76.861456
0
LINE
8
Layer 1
10
41.157497
20
76.861456
11
40.690066
21
76.958469
0
LINE
8
Layer 1
10
40.690066
20
76.958469
11
40.116802
21
76.958469
0
LINE
8
Layer 1
10
40.116802
20
76.958469
11
38.194163
21
76.861456
0
LINE
8
Layer 1
10
38.194163
20
76.861456
11
36.077497
21
76.482219
0
LINE
8
Layer 1
10
36.077497
20
76.482219
11
34.948608
21
76.111803
0
LINE
8
Layer 1
10
34.948608
20
76.111803
11
33.819719
21
75.829581
0
LINE
8
Layer 1
10
33.819719
20
75.829581
11
33.722705
21
75.829581
0
LINE
8
Layer 1
10
33.722705
20
75.829581
11
33.476209
21
75.910506
0
LINE
8
Layer 1
10
33.476209
20
75.910506
11
33.299372
21
76.155900
0
LINE
8
Layer 1
10
33.299372
20
76.155900
11
33.158261
21
76.676247
0
LINE
8
Layer 1
10
33.158261
20
76.676247
11
25.820484
21
92.859928
0
LINE
8
Layer 1
10
25.820484
20
92.859928
11
25.820484
21
93.327359
0
LINE
8
Layer 1
10
25.820484
20
93.327359
11
27.134581
21
93.988817
0
LINE
8
Layer 1
10
27.134581
20
93.988817
11
28.598608
21
94.597359
0
LINE
8
Layer 1
10
28.598608
20
94.597359
11
29.386553
21
94.843013
0
LINE
8
Layer 1
10
29.386553
20
94.843013
11
30.150830
21
94.923678
0
LINE
8
Layer 1
10
30.150830
20
94.923678
11
30.711925
21
94.762044
0
LINE
8
Layer 1
10
30.711925
20
94.762044
11
31.085691
21
94.271039
0
LINE
8
Layer 1
10
31.085691
20
94.271039
11
31.367913
21
93.045136
0
LINE
8
Layer 1
10
31.367913
20
93.045136
11
31.367913
21
92.859928
0
LINE
8
Layer 1
10
31.367913
20
92.859928
11
30.053816
21
91.537011
0
LINE
8
Layer 1
10
30.053816
20
91.537011
11
30.053816
21
91.351803
0
LINE
8
Layer 1
10
30.053816
20
91.351803
11
31.674940
21
91.513325
0
LINE
8
Layer 1
10
31.674940
20
91.513325
11
33.343469
21
92.004442
0
LINE
8
Layer 1
10
33.343469
20
92.004442
11
35.041196
21
92.549496
0
LINE
8
Layer 1
10
35.041196
20
92.549496
11
36.738955
21
92.859928
0
LINE
8
Layer 1
10
36.738955
20
92.859928
11
36.827150
21
92.992220
0
LINE
8
Layer 1
10
36.827150
20
92.992220
11
36.924163
21
93.142150
0
LINE
8
Layer 1
10
36.924163
20
93.142150
11
36.924163
21
93.230345
0
LINE
8
Layer 1
10
36.924163
20
93.230345
11
36.924163
21
93.327359
0
LINE
8
Layer 1
10
36.924163
20
93.327359
11
36.589025
21
93.468470
0
LINE
8
Layer 1
10
36.589025
20
93.468470
11
36.262705
21
93.512567
0
LINE
8
Layer 1
10
36.262705
20
93.512567
11
34.948608
21
93.706595
0
LINE
8
Layer 1
10
34.948608
20
93.706595
11
33.625691
21
93.794789
0
LINE
8
Layer 1
10
33.625691
20
93.794789
11
33.134975
21
94.502135
0
LINE
8
Layer 1
10
33.134975
20
94.502135
11
32.973052
21
95.302914
0
LINE
8
Layer 1
10
32.973052
20
95.302914
11
32.973052
21
95.585136
0
LINE
8
Layer 1
10
32.973052
20
95.585136
11
35.066375
21
96.019277
0
LINE
8
Layer 1
10
35.066375
20
96.019277
11
37.206386
21
96.193678
0
LINE
8
Layer 1
10
37.206386
20
96.193678
11
41.439719
21
96.246595
0
LINE
8
Layer 1
10
41.439719
20
96.246595
11
45.180779
21
96.150954
0
LINE
8
Layer 1
10
45.180779
20
96.150954
11
48.874511
21
95.867359
0
LINE
8
Layer 1
10
48.874511
20
95.867359
11
52.564498
21
95.583647
0
LINE
8
Layer 1
10
52.564498
20
95.583647
11
56.300483
21
95.488122
0
LINE
8
Layer 1
10
56.300483
20
95.488122
11
58.849302
21
95.541039
0
LINE
8
Layer 1
10
58.849302
20
95.541039
11
61.574511
21
95.770345
0
LINE
8
Layer 1
10
61.574511
20
95.770345
11
64.017497
21
96.149581
0
LINE
8
Layer 1
10
64.017497
20
96.149581
11
67.783400
21
96.758122
0
LINE
8
Layer 1
10
67.783400
20
96.758122
11
71.496386
21
97.375484
0
LINE
8
Layer 1
10
71.496386
20
97.375484
11
73.992288
21
97.745900
0
LINE
8
Layer 1
10
73.992288
20
97.745900
11
76.955622
21
97.984025
0
LINE
8
Layer 1
10
76.955622
20
97.984025
11
79.918955
21
98.028122
0
LINE
8
Layer 1
10
79.918955
20
98.028122
11
79.918955
21
98.028122
0
LINE
8
Layer 1
10
76.250066
20
94.923678
11
75.174094
21
94.738470
0
LINE
8
Layer 1
10
75.174094
20
94.738470
11
73.762983
21
94.271039
0
LINE
8
Layer 1
10
73.762983
20
94.271039
11
72.537080
21
93.565484
0
LINE
8
Layer 1
10
72.537080
20
93.565484
11
72.147654
21
93.102661
0
LINE
8
Layer 1
10
72.147654
20
93.102661
11
72.016733
21
92.568886
0
LINE
8
Layer 1
10
72.016733
20
92.568886
11
72.016733
21
92.198470
0
LINE
8
Layer 1
10
72.016733
20
92.198470
11
72.440066
21
88.150345
0
LINE
8
Layer 1
10
72.440066
20
88.150345
11
72.863400
21
84.199233
0
LINE
8
Layer 1
10
72.863400
20
84.199233
11
73.807080
21
82.832219
0
LINE
8
Layer 1
10
73.807080
20
82.832219
11
74.463011
21
82.375002
0
LINE
8
Layer 1
10
74.463011
20
82.375002
11
75.306386
21
82.223678
0
LINE
8
Layer 1
10
75.306386
20
82.223678
11
77.154626
21
82.495403
0
LINE
8
Layer 1
10
77.154626
20
82.495403
11
78.931177
21
83.308469
0
LINE
8
Layer 1
10
78.931177
20
83.308469
11
79.691997
21
83.911028
0
LINE
8
Layer 1
10
79.691997
20
83.911028
11
80.234851
21
84.636475
0
LINE
8
Layer 1
10
80.234851
20
84.636475
11
80.560225
21
85.485054
0
LINE
8
Layer 1
10
80.560225
20
85.485054
11
80.668608
21
86.457011
0
LINE
8
Layer 1
10
80.668608
20
86.457011
11
80.552207
21
87.832932
0
LINE
8
Layer 1
10
80.552207
20
87.832932
11
80.201177
21
88.573678
0
LINE
8
Layer 1
10
80.201177
20
88.573678
11
79.804818
21
89.152380
0
LINE
8
Layer 1
10
79.804818
20
89.152380
11
79.548538
21
90.037706
0
LINE
8
Layer 1
10
79.548538
20
90.037706
11
79.310413
21
91.731039
0
LINE
8
Layer 1
10
79.310413
20
91.731039
11
78.984094
21
93.283261
0
LINE
8
Layer 1
10
78.984094
20
93.283261
11
78.616446
21
93.928560
0
LINE
8
Layer 1
10
78.616446
20
93.928560
11
78.084511
21
94.456247
0
LINE
8
Layer 1
10
78.084511
20
94.456247
11
77.320139
21
94.807630
0
LINE
8
Layer 1
10
77.320139
20
94.807630
11
76.250066
21
94.923678
0
LINE
8
Layer 1
10
76.250066
20
94.923678
11
76.250066
21
94.923678
0
LINE
8
Layer 1
10
83.120413
20
94.456247
11
82.534076
21
94.340199
0
LINE
8
Layer 1
10
82.534076
20
94.340199
11
82.088538
21
93.988817
0
LINE
8
Layer 1
10
82.088538
20
93.988817
11
81.804833
21
93.492100
0
LINE
8
Layer 1
10
81.804833
20
93.492100
11
81.709302
21
92.948122
0
LINE
8
Layer 1
10
81.709302
20
92.948122
11
81.753400
21
92.436595
0
LINE
8
Layer 1
10
81.753400
20
92.436595
11
81.797497
21
92.013261
0
LINE
8
Layer 1
10
81.797497
20
92.013261
11
81.850413
21
90.787359
0
LINE
8
Layer 1
10
81.850413
20
90.787359
11
81.894511
21
88.997011
0
LINE
8
Layer 1
10
81.894511
20
88.997011
11
81.947427
21
87.215484
0
LINE
8
Layer 1
10
81.947427
20
87.215484
11
81.991525
21
85.989581
0
LINE
8
Layer 1
10
81.991525
20
85.989581
11
82.520292
21
84.482953
0
LINE
8
Layer 1
10
82.520292
20
84.482953
11
82.970208
21
83.870623
0
LINE
8
Layer 1
10
82.970208
20
83.870623
11
83.543747
21
83.352567
0
LINE
8
Layer 1
10
83.543747
20
83.352567
11
84.894658
21
82.645229
0
LINE
8
Layer 1
10
84.894658
20
82.645229
11
86.410066
21
82.408886
0
LINE
8
Layer 1
10
86.410066
20
82.408886
11
87.521357
21
82.518440
0
LINE
8
Layer 1
10
87.521357
20
82.518440
11
88.409084
21
82.846599
0
LINE
8
Layer 1
10
88.409084
20
82.846599
11
89.073413
21
83.392464
0
LINE
8
Layer 1
10
89.073413
20
83.392464
11
89.514511
21
84.155136
0
LINE
8
Layer 1
10
89.514511
20
84.155136
11
90.009927
21
85.953076
0
LINE
8
Layer 1
10
90.009927
20
85.953076
11
90.175969
21
87.868122
0
LINE
8
Layer 1
10
90.175969
20
87.868122
11
90.220066
21
89.332150
0
LINE
8
Layer 1
10
90.220066
20
89.332150
11
90.131872
21
91.537011
0
LINE
8
Layer 1
10
90.131872
20
91.537011
11
89.655622
21
93.565484
0
LINE
8
Layer 1
10
89.655622
20
93.565484
11
89.223461
21
94.234412
0
LINE
8
Layer 1
10
89.223461
20
94.234412
11
88.579650
21
94.456247
0
LINE
8
Layer 1
10
88.579650
20
94.456247
11
88.060377
21
94.325585
0
LINE
8
Layer 1
10
88.060377
20
94.325585
11
87.635969
21
93.935900
0
LINE
8
Layer 1
10
87.635969
20
93.935900
11
87.352261
21
93.430111
0
LINE
8
Layer 1
10
87.352261
20
93.430111
11
87.256733
21
92.948122
0
LINE
8
Layer 1
10
87.256733
20
92.948122
11
87.494858
21
90.408122
0
LINE
8
Layer 1
10
87.494858
20
90.408122
11
87.732983
21
87.868122
0
LINE
8
Layer 1
10
87.732983
20
87.868122
11
87.538955
21
86.130692
0
LINE
8
Layer 1
10
87.538955
20
86.130692
11
87.393027
21
85.698512
0
LINE
8
Layer 1
10
87.393027
20
85.698512
11
87.142479
21
85.389818
0
LINE
8
Layer 1
10
87.142479
20
85.389818
11
86.321872
21
85.142914
0
LINE
8
Layer 1
10
86.321872
20
85.142914
11
85.675334
21
85.238447
0
LINE
8
Layer 1
10
85.675334
20
85.238447
11
85.051872
21
85.522150
0
LINE
8
Layer 1
10
85.051872
20
85.522150
11
84.590242
21
85.988097
0
LINE
8
Layer 1
10
84.590242
20
85.988097
11
84.434511
21
86.642220
0
LINE
8
Layer 1
10
84.434511
20
86.642220
11
84.390413
21
87.868122
0
LINE
8
Layer 1
10
84.390413
20
87.868122
11
84.346316
21
89.658470
0
LINE
8
Layer 1
10
84.346316
20
89.658470
11
84.293400
21
91.589928
0
LINE
8
Layer 1
10
84.293400
20
91.589928
11
84.249302
21
92.859928
0
LINE
8
Layer 1
10
84.249302
20
92.859928
11
83.967080
21
93.935900
0
LINE
8
Layer 1
10
83.967080
20
93.935900
11
83.661777
21
94.325586
0
LINE
8
Layer 1
10
83.661777
20
94.325586
11
83.120413
21
94.456247
0
LINE
8
Layer 1
10
83.120413
20
94.456247
11
83.120413
21
94.456247
0
LINE
8
Layer 1
10
69.009302
20
93.142150
11
68.124710
21
92.930520
0
LINE
8
Layer 1
10
68.124710
20
92.930520
11
67.545275
21
92.295484
0
LINE
8
Layer 1
10
67.545275
20
92.295484
11
66.839719
21
90.319928
0
LINE
8
Layer 1
10
66.839719
20
90.319928
11
66.275275
21
88.106247
0
LINE
8
Layer 1
10
66.275275
20
88.106247
11
65.901483
21
87.197595
0
LINE
8
Layer 1
10
65.901483
20
87.197595
11
65.340413
21
86.642220
0
LINE
8
Layer 1
10
65.340413
20
86.642220
11
64.199852
21
87.748496
0
LINE
8
Layer 1
10
64.199852
20
87.748496
11
63.223747
21
88.997011
0
LINE
8
Layer 1
10
63.223747
20
88.997011
11
62.243159
21
90.245418
0
LINE
8
Layer 1
10
62.243159
20
90.245418
11
61.098261
21
91.351803
0
LINE
8
Layer 1
10
61.098261
20
91.351803
11
60.445622
21
91.351803
0
LINE
8
Layer 1
10
60.445622
20
91.351803
11
59.746360
21
91.245729
0
LINE
8
Layer 1
10
59.746360
20
91.245729
11
59.247596
21
90.927884
0
LINE
8
Layer 1
10
59.247596
20
90.927884
11
58.948765
21
90.398665
0
LINE
8
Layer 1
10
58.948765
20
90.398665
11
58.849302
21
89.658470
0
LINE
8
Layer 1
10
58.849302
20
89.658470
11
58.893400
21
89.376247
0
LINE
8
Layer 1
10
58.893400
20
89.376247
11
58.937497
21
89.094025
0
LINE
8
Layer 1
10
58.937497
20
89.094025
11
59.034511
21
87.444789
0
LINE
8
Layer 1
10
59.034511
20
87.444789
11
59.272636
21
85.001803
0
LINE
8
Layer 1
10
59.272636
20
85.001803
11
59.554858
21
82.549997
0
LINE
8
Layer 1
10
59.554858
20
82.549997
11
59.784163
21
80.909581
0
LINE
8
Layer 1
10
59.784163
20
80.909581
11
60.347860
21
80.062983
0
LINE
8
Layer 1
10
60.347860
20
80.062983
11
61.098261
21
79.780692
0
LINE
8
Layer 1
10
61.098261
20
79.780692
11
61.594180
21
79.851257
0
LINE
8
Layer 1
10
61.594180
20
79.851257
11
61.949905
21
80.062983
0
LINE
8
Layer 1
10
61.949905
20
80.062983
11
62.164235
21
80.415786
0
LINE
8
Layer 1
10
62.164235
20
80.415786
11
62.235969
21
80.909581
0
LINE
8
Layer 1
10
62.235969
20
80.909581
11
62.235969
21
81.094789
0
LINE
8
Layer 1
10
62.235969
20
81.094789
11
62.138955
21
81.985553
0
LINE
8
Layer 1
10
62.138955
20
81.985553
11
61.997844
21
83.449581
0
LINE
8
Layer 1
10
61.997844
20
83.449581
11
61.856733
21
84.904789
0
LINE
8
Layer 1
10
61.856733
20
84.904789
11
61.759719
21
85.795553
0
LINE
8
Layer 1
10
61.759719
20
85.795553
11
61.759719
21
86.077775
0
LINE
8
Layer 1
10
61.759719
20
86.077775
11
61.759719
21
86.457011
0
LINE
8
Layer 1
10
61.759719
20
86.457011
11
62.659302
21
85.469234
0
LINE
8
Layer 1
10
62.659302
20
85.469234
11
63.735275
21
84.058122
0
LINE
8
Layer 1
10
63.735275
20
84.058122
11
64.864163
21
82.788122
0
LINE
8
Layer 1
10
64.864163
20
82.788122
11
65.407802
21
82.364799
0
LINE
8
Layer 1
10
65.407802
20
82.364799
11
65.904858
21
82.223678
0
LINE
8
Layer 1
10
65.904858
20
82.223678
11
66.538481
21
82.344029
0
LINE
8
Layer 1
10
66.538481
20
82.344029
11
66.936733
21
82.699928
0
LINE
8
Layer 1
10
66.936733
20
82.699928
11
67.360066
21
83.819997
0
LINE
8
Layer 1
10
67.360066
20
83.819997
11
67.642288
21
85.045900
0
LINE
8
Layer 1
10
67.642288
20
85.045900
11
67.863969
21
85.515430
0
LINE
8
Layer 1
10
67.863969
20
85.515430
11
68.250830
21
85.795553
0
LINE
8
Layer 1
10
68.250830
20
85.795553
11
68.391941
21
84.578469
0
LINE
8
Layer 1
10
68.391941
20
84.578469
11
68.585969
21
83.167358
0
LINE
8
Layer 1
10
68.585969
20
83.167358
11
69.053400
21
82.038469
0
LINE
8
Layer 1
10
69.053400
20
82.038469
11
69.489875
21
81.687341
0
LINE
8
Layer 1
10
69.489875
20
81.687341
11
70.138191
21
81.571039
0
LINE
8
Layer 1
10
70.138191
20
81.571039
11
70.702636
21
81.571039
0
LINE
8
Layer 1
10
70.702636
20
81.571039
11
71.073052
21
82.038469
0
LINE
8
Layer 1
10
71.073052
20
82.038469
11
71.125969
21
82.505900
0
LINE
8
Layer 1
10
71.125969
20
82.505900
11
71.170066
21
82.973331
0
LINE
8
Layer 1
10
71.170066
20
82.973331
11
71.074800
21
85.281771
0
LINE
8
Layer 1
10
71.074800
20
85.281771
11
70.790830
21
87.682914
0
LINE
8
Layer 1
10
70.790830
20
87.682914
11
70.226386
21
92.013261
0
LINE
8
Layer 1
10
70.226386
20
92.013261
11
70.079794
21
92.506979
0
LINE
8
Layer 1
10
70.079794
20
92.506979
11
69.828846
21
92.859757
0
LINE
8
Layer 1
10
69.828846
20
92.859757
11
69.472397
21
93.071509
0
LINE
8
Layer 1
10
69.472397
20
93.071509
11
69.009302
21
93.142150
0
LINE
8
Layer 1
10
69.009302
20
93.142150
11
69.009302
21
93.142150
0
LINE
8
Layer 1
10
76.250066
20
92.013261
11
76.533674
21
91.892805
0
LINE
8
Layer 1
10
76.533674
20
91.892805
11
76.629302
21
91.537011
0
LINE
8
Layer 1
10
76.629302
20
91.537011
11
76.523470
21
91.104549
0
LINE
8
Layer 1
10
76.523470
20
91.104549
11
76.205969
21
90.743261
0
LINE
8
Layer 1
10
76.205969
20
90.743261
11
75.767976
21
90.493447
0
LINE
8
Layer 1
10
75.767976
20
90.493447
11
75.306386
21
90.408122
0
LINE
8
Layer 1
10
75.306386
20
90.408122
11
74.955618
21
90.599233
0
LINE
8
Layer 1
10
74.955618
20
90.599233
11
74.838955
21
91.166595
0
LINE
8
Layer 1
10
74.838955
20
91.166595
11
74.955259
21
91.563566
0
LINE
8
Layer 1
10
74.955259
20
91.563566
11
75.306386
21
91.819234
0
LINE
8
Layer 1
10
75.306386
20
91.819234
11
76.250066
21
92.013261
0
LINE
8
Layer 1
10
76.250066
20
92.013261
11
76.250066
21
92.013261
0
LINE
8
Layer 1
10
38.714511
20
91.819234
11
38.194163
21
91.775136
0
LINE
8
Layer 1
10
38.194163
20
91.775136
11
37.948795
21
91.646683
0
LINE
8
Layer 1
10
37.948795
20
91.646683
11
37.867844
21
91.351803
0
LINE
8
Layer 1
10
37.867844
20
91.351803
11
37.867844
21
89.561456
0
LINE
8
Layer 1
10
37.867844
20
89.561456
11
39.367150
21
81.094789
0
LINE
8
Layer 1
10
39.367150
20
81.094789
11
39.887497
21
80.389233
0
LINE
8
Layer 1
10
39.887497
20
80.389233
11
40.593052
21
79.965900
0
LINE
8
Layer 1
10
40.593052
20
79.965900
11
40.690066
21
80.062914
0
LINE
8
Layer 1
10
40.690066
20
80.062914
11
41.016386
21
80.204025
0
LINE
8
Layer 1
10
41.016386
20
80.204025
11
41.342705
21
80.433331
0
LINE
8
Layer 1
10
41.342705
20
80.433331
11
41.624927
21
80.724372
0
LINE
8
Layer 1
10
41.624927
20
80.724372
11
41.624927
21
84.014025
0
LINE
8
Layer 1
10
41.624927
20
84.014025
11
42.286386
21
84.111039
0
LINE
8
Layer 1
10
42.286386
20
84.111039
11
43.415275
21
84.199233
0
LINE
8
Layer 1
10
43.415275
20
84.199233
11
43.882705
21
84.199233
0
LINE
8
Layer 1
10
43.882705
20
84.199233
11
44.423380
21
84.022634
0
LINE
8
Layer 1
10
44.423380
20
84.022634
11
44.729372
21
83.493678
0
LINE
8
Layer 1
10
44.729372
20
83.493678
11
45.011594
21
81.985553
0
LINE
8
Layer 1
10
45.011594
20
81.985553
11
45.346733
21
80.486247
0
LINE
8
Layer 1
10
45.346733
20
80.486247
11
45.731796
21
79.957198
0
LINE
8
Layer 1
10
45.731796
20
79.957198
11
46.422705
21
79.780692
0
LINE
8
Layer 1
10
46.422705
20
79.780692
11
46.943052
21
79.824789
0
LINE
8
Layer 1
10
46.943052
20
79.824789
11
47.260576
21
79.908991
0
LINE
8
Layer 1
10
47.260576
20
79.908991
11
47.366386
21
80.062914
0
LINE
8
Layer 1
10
47.366386
20
80.062914
11
47.366386
21
82.223678
0
LINE
8
Layer 1
10
47.366386
20
82.223678
11
46.052288
21
90.884372
0
LINE
8
Layer 1
10
46.052288
20
90.884372
11
45.909663
21
91.259859
0
LINE
8
Layer 1
10
45.909663
20
91.259859
11
45.673052
21
91.448817
0
LINE
8
Layer 1
10
45.673052
20
91.448817
11
45.108608
21
91.537011
0
LINE
8
Layer 1
10
45.108608
20
91.537011
11
44.532593
21
91.455201
0
LINE
8
Layer 1
10
44.532593
20
91.455201
11
44.122051
21
91.209395
0
LINE
8
Layer 1
10
44.122051
20
91.209395
11
43.876264
21
90.798873
0
LINE
8
Layer 1
10
43.876264
20
90.798873
11
43.794511
21
90.222914
0
LINE
8
Layer 1
10
43.794511
20
90.222914
11
43.935622
21
88.908817
0
LINE
8
Layer 1
10
43.935622
20
88.908817
11
44.067913
21
87.497706
0
LINE
8
Layer 1
10
44.067913
20
87.497706
11
44.001536
21
87.214000
0
LINE
8
Layer 1
10
44.001536
20
87.214000
11
43.794511
21
87.118470
0
LINE
8
Layer 1
10
43.794511
20
87.118470
11
40.972288
21
87.118470
0
LINE
8
Layer 1
10
40.972288
20
87.118470
11
40.818392
21
87.305172
0
LINE
8
Layer 1
10
40.818392
20
87.305172
11
40.734163
21
87.868122
0
LINE
8
Layer 1
10
40.734163
20
87.868122
11
40.496038
21
89.473261
0
LINE
8
Layer 1
10
40.496038
20
89.473261
11
39.931594
21
91.069581
0
LINE
8
Layer 1
10
39.931594
20
91.069581
11
39.440759
21
91.632424
0
LINE
8
Layer 1
10
39.440759
20
91.632424
11
38.714511
21
91.819234
0
LINE
8
Layer 1
10
38.714511
20
91.819234
11
38.714511
21
91.819234
0
LINE
8
Layer 1
10
91.966316
20
91.819234
11
91.304858
21
91.537011
0
LINE
8
Layer 1
10
91.304858
20
91.537011
11
91.304858
21
87.868122
0
LINE
8
Layer 1
10
91.304858
20
87.868122
11
91.304858
21
84.102219
0
LINE
8
Layer 1
10
91.304858
20
84.102219
11
91.348955
21
82.408886
0
LINE
8
Layer 1
10
91.348955
20
82.408886
11
91.498886
21
80.433331
0
LINE
8
Layer 1
10
91.498886
20
80.433331
11
91.913400
21
79.542567
0
LINE
8
Layer 1
10
91.913400
20
79.542567
11
92.279451
21
79.224971
0
LINE
8
Layer 1
10
92.279451
20
79.224971
11
92.715969
21
79.119233
0
LINE
8
Layer 1
10
92.715969
20
79.119233
11
93.377427
21
79.260344
0
LINE
8
Layer 1
10
93.377427
20
79.260344
11
93.728807
21
79.411973
0
LINE
8
Layer 1
10
93.728807
20
79.411973
11
93.844858
21
79.586664
0
LINE
8
Layer 1
10
93.844858
20
79.586664
11
93.844858
21
81.571039
0
LINE
8
Layer 1
10
93.844858
20
81.571039
11
94.082983
21
81.800344
0
LINE
8
Layer 1
10
94.082983
20
81.800344
11
94.409302
21
81.844442
0
LINE
8
Layer 1
10
94.409302
20
81.844442
11
94.722342
21
81.762634
0
LINE
8
Layer 1
10
94.722342
20
81.762634
11
95.000655
21
81.516829
0
LINE
8
Layer 1
10
95.000655
20
81.516829
11
95.449997
21
80.530344
0
LINE
8
Layer 1
10
95.449997
20
80.530344
11
96.146733
21
77.611108
0
LINE
8
Layer 1
10
96.146733
20
77.611108
11
96.905205
21
74.700692
0
LINE
8
Layer 1
10
96.905205
20
74.700692
11
97.434264
21
73.710066
0
LINE
8
Layer 1
10
97.434264
20
73.710066
11
97.778197
21
73.461026
0
LINE
8
Layer 1
10
97.778197
20
73.461026
11
98.175205
21
73.377775
0
LINE
8
Layer 1
10
98.175205
20
73.377775
11
98.668918
21
73.459784
0
LINE
8
Layer 1
10
98.668918
20
73.459784
11
99.021694
21
73.706015
0
LINE
8
Layer 1
10
99.021694
20
73.706015
11
99.233448
21
74.116651
0
LINE
8
Layer 1
10
99.233448
20
74.116651
11
99.304094
21
74.691872
0
LINE
8
Layer 1
10
99.304094
20
74.691872
11
99.304094
21
75.353331
0
LINE
8
Layer 1
10
99.304094
20
75.353331
11
97.698955
21
81.571039
0
LINE
8
Layer 1
10
97.698955
20
81.571039
11
97.698955
21
81.941456
0
LINE
8
Layer 1
10
97.698955
20
81.941456
11
97.819294
21
82.563073
0
LINE
8
Layer 1
10
97.819294
20
82.563073
11
98.175205
21
83.114442
0
LINE
8
Layer 1
10
98.175205
20
83.114442
11
98.526582
21
83.856157
0
LINE
8
Layer 1
10
98.526582
20
83.856157
11
98.642636
21
85.045900
0
LINE
8
Layer 1
10
98.642636
20
85.045900
11
98.561607
21
86.033568
0
LINE
8
Layer 1
10
98.561607
20
86.033568
11
98.316316
21
86.739234
0
LINE
8
Layer 1
10
98.316316
20
86.739234
11
97.930093
21
87.257682
0
LINE
8
Layer 1
10
97.930093
20
87.257682
11
97.425552
21
87.682914
0
LINE
8
Layer 1
10
97.425552
20
87.682914
11
96.199650
21
88.432567
0
LINE
8
Layer 1
10
96.199650
20
88.432567
11
94.876733
21
89.376247
0
LINE
8
Layer 1
10
94.876733
20
89.376247
11
94.453400
21
89.799581
0
LINE
8
Layer 1
10
94.453400
20
89.799581
11
93.747844
21
90.461039
0
LINE
8
Layer 1
10
93.747844
20
90.461039
11
93.051108
21
91.113678
0
LINE
8
Layer 1
10
93.051108
20
91.113678
11
92.618955
21
91.537011
0
LINE
8
Layer 1
10
92.618955
20
91.537011
11
91.966316
21
91.819234
0
LINE
8
Layer 1
10
91.966316
20
91.819234
11
91.966316
21
91.819234
0
LINE
8
Layer 1
10
52.543400
20
91.351803
11
51.825316
21
91.250896
0
LINE
8
Layer 1
10
51.825316
20
91.250896
11
51.270923
21
90.949011
0
LINE
8
Layer 1
10
51.270923
20
90.949011
11
50.880929
21
90.447238
0
LINE
8
Layer 1
10
50.880929
20
90.447238
11
50.656038
21
89.746664
0
LINE
8
Layer 1
10
50.656038
20
89.746664
11
49.624163
21
81.094789
0
LINE
8
Layer 1
10
49.624163
20
81.094789
11
49.580066
21
80.909581
0
LINE
8
Layer 1
10
49.580066
20
80.909581
11
49.527150
21
80.627358
0
LINE
8
Layer 1
10
49.527150
20
80.627358
11
49.622704
21
80.165676
0
LINE
8
Layer 1
10
49.622704
20
80.165676
11
49.906386
21
79.727775
0
LINE
8
Layer 1
10
49.906386
20
79.727775
11
50.306003
21
79.410183
0
LINE
8
Layer 1
10
50.306003
20
79.410183
11
50.753052
21
79.304442
0
LINE
8
Layer 1
10
50.753052
20
79.304442
11
51.531076
21
79.495559
0
LINE
8
Layer 1
10
51.531076
20
79.495559
11
51.978955
21
80.062914
0
LINE
8
Layer 1
10
51.978955
20
80.062914
11
52.446386
21
81.571039
0
LINE
8
Layer 1
10
52.446386
20
81.571039
11
55.833052
21
81.571039
0
LINE
8
Layer 1
10
55.833052
20
81.571039
11
56.080579
21
81.475768
0
LINE
8
Layer 1
10
56.080579
20
81.475768
11
56.256386
21
81.191803
0
LINE
8
Layer 1
10
56.256386
20
81.191803
11
56.635622
21
80.345136
0
LINE
8
Layer 1
10
56.635622
20
80.345136
11
57.200066
21
79.498469
0
LINE
8
Layer 1
10
57.200066
20
79.498469
11
57.586192
21
79.214769
0
LINE
8
Layer 1
10
57.586192
20
79.214769
11
58.090830
21
79.119233
0
LINE
8
Layer 1
10
58.090830
20
79.119233
11
58.542758
21
79.178623
0
LINE
8
Layer 1
10
58.542758
20
79.178623
11
58.865154
21
79.356294
0
LINE
8
Layer 1
10
58.865154
20
79.356294
11
59.058358
21
79.651355
0
LINE
8
Layer 1
10
59.058358
20
79.651355
11
59.122705
21
80.062914
0
LINE
8
Layer 1
10
59.122705
20
80.062914
11
58.849302
21
81.518122
0
LINE
8
Layer 1
10
58.849302
20
81.518122
11
58.276038
21
82.885136
0
LINE
8
Layer 1
10
58.276038
20
82.885136
11
57.764511
21
83.917011
0
LINE
8
Layer 1
10
57.764511
20
83.917011
11
57.103052
21
85.187011
0
LINE
8
Layer 1
10
57.103052
20
85.187011
11
56.538608
21
86.315900
0
LINE
8
Layer 1
10
56.538608
20
86.315900
11
56.212288
21
86.924442
0
LINE
8
Layer 1
10
56.212288
20
86.924442
11
55.788955
21
87.629997
0
LINE
8
Layer 1
10
55.788955
20
87.629997
11
55.083400
21
88.758886
0
LINE
8
Layer 1
10
55.083400
20
88.758886
11
54.324927
21
89.896595
0
LINE
8
Layer 1
10
54.324927
20
89.896595
11
53.769302
21
90.690345
0
LINE
8
Layer 1
10
53.769302
20
90.690345
11
53.248955
21
91.307706
0
LINE
8
Layer 1
10
53.248955
20
91.307706
11
52.543400
21
91.351803
0
LINE
8
Layer 1
10
52.543400
20
91.351803
11
52.543400
21
91.351803
0
LINE
8
Layer 1
10
76.814511
20
88.062150
11
77.431473
21
87.972687
0
LINE
8
Layer 1
10
77.431473
20
87.972687
11
77.872472
21
87.705306
0
LINE
8
Layer 1
10
77.872472
20
87.705306
11
78.137269
21
87.261364
0
LINE
8
Layer 1
10
78.137269
20
87.261364
11
78.225622
21
86.642220
0
LINE
8
Layer 1
10
78.225622
20
86.642220
11
78.003436
21
85.988098
0
LINE
8
Layer 1
10
78.003436
20
85.988098
11
77.334858
21
85.522150
0
LINE
8
Layer 1
10
77.334858
20
85.522150
11
76.500555
21
85.238446
0
LINE
8
Layer 1
10
76.500555
20
85.238446
11
75.782636
21
85.142914
0
LINE
8
Layer 1
10
75.782636
20
85.142914
11
75.597427
21
85.142914
0
LINE
8
Layer 1
10
75.597427
20
85.142914
11
75.359302
21
85.945484
0
LINE
8
Layer 1
10
75.359302
20
85.945484
11
75.306386
21
86.739234
0
LINE
8
Layer 1
10
75.306386
20
86.739234
11
75.306386
21
87.585900
0
LINE
8
Layer 1
10
75.306386
20
87.585900
11
75.566720
21
87.879708
0
LINE
8
Layer 1
10
75.566720
20
87.879708
11
75.967844
21
88.009234
0
LINE
8
Layer 1
10
75.967844
20
88.009234
11
76.814511
21
88.062150
0
LINE
8
Layer 1
10
76.814511
20
88.062150
11
76.814511
21
88.062150
0
LINE
8
Layer 1
10
122.075900
20
87.771109
11
120.849997
21
87.727011
0
LINE
8
Layer 1
10
120.849997
20
87.727011
11
119.385969
21
87.541803
0
LINE
8
Layer 1
10
119.385969
20
87.541803
11
118.729972
21
87.330235
0
LINE
8
Layer 1
10
118.729972
20
87.330235
11
118.168886
21
86.977359
0
LINE
8
Layer 1
10
118.168886
20
86.977359
11
117.779427
21
86.493416
0
LINE
8
Layer 1
10
117.779427
20
86.493416
11
117.648538
21
85.892567
0
LINE
8
Layer 1
10
117.648538
20
85.892567
11
117.930761
21
80.953678
0
LINE
8
Layer 1
10
117.930761
20
80.953678
11
118.398191
21
76.199997
0
LINE
8
Layer 1
10
118.398191
20
76.199997
11
118.777427
21
75.776664
0
LINE
8
Layer 1
10
118.777427
20
75.776664
11
119.244858
21
75.353331
0
LINE
8
Layer 1
10
119.244858
20
75.353331
11
119.438886
21
75.353331
0
LINE
8
Layer 1
10
119.438886
20
75.353331
11
120.232636
21
75.450344
0
LINE
8
Layer 1
10
120.232636
20
75.450344
11
120.621939
21
75.638130
0
LINE
8
Layer 1
10
120.621939
20
75.638130
11
120.752983
21
76.014789
0
LINE
8
Layer 1
10
120.752983
20
76.014789
11
120.752983
21
79.304442
0
LINE
8
Layer 1
10
120.752983
20
79.304442
11
121.035205
21
79.445553
0
LINE
8
Layer 1
10
121.035205
20
79.445553
11
121.511455
21
79.586664
0
LINE
8
Layer 1
10
121.511455
20
79.586664
11
121.696663
21
79.586664
0
LINE
8
Layer 1
10
121.696663
20
79.586664
11
122.180415
21
79.399861
0
LINE
8
Layer 1
10
122.180415
20
79.399861
11
122.499233
21
78.837011
0
LINE
8
Layer 1
10
122.499233
20
78.837011
11
123.010761
21
77.240692
0
LINE
8
Layer 1
10
123.010761
20
77.240692
11
123.672219
21
75.635553
0
LINE
8
Layer 1
10
123.672219
20
75.635553
11
124.167361
21
75.072614
0
LINE
8
Layer 1
10
124.167361
20
75.072614
11
124.898122
21
74.885900
0
LINE
8
Layer 1
10
124.898122
20
74.885900
11
125.530984
21
75.001848
0
LINE
8
Layer 1
10
125.530984
20
75.001848
11
125.929997
21
75.353331
0
LINE
8
Layer 1
10
125.929997
20
75.353331
11
125.929997
21
76.111803
0
LINE
8
Layer 1
10
125.929997
20
76.111803
11
125.763927
21
77.287665
0
LINE
8
Layer 1
10
125.763927
20
77.287665
11
125.268538
21
78.369581
0
LINE
8
Layer 1
10
125.268538
20
78.369581
11
124.777395
21
79.426588
0
LINE
8
Layer 1
10
124.777395
20
79.426588
11
124.615900
21
80.530344
0
LINE
8
Layer 1
10
124.615900
20
80.530344
11
124.756985
21
81.284001
0
LINE
8
Layer 1
10
124.756985
20
81.284001
11
125.180344
21
82.038469
0
LINE
8
Layer 1
10
125.180344
20
82.038469
11
125.603537
21
82.859195
0
LINE
8
Layer 1
10
125.603537
20
82.859195
11
125.744788
21
83.819997
0
LINE
8
Layer 1
10
125.744788
20
83.819997
11
125.497749
21
85.314889
0
LINE
8
Layer 1
10
125.497749
20
85.314889
11
124.757011
21
86.598122
0
LINE
8
Layer 1
10
124.757011
20
86.598122
11
124.219046
21
87.112058
0
LINE
8
Layer 1
10
124.219046
20
87.112058
11
123.592961
21
87.478515
0
LINE
8
Layer 1
10
123.592961
20
87.478515
11
122.878623
21
87.698022
0
LINE
8
Layer 1
10
122.878623
20
87.698022
11
122.075900
21
87.771109
0
LINE
8
Layer 1
10
122.075900
20
87.771109
11
122.075900
21
87.771109
0
LINE
8
Layer 1
10
115.302566
20
87.400692
11
113.935552
21
87.303678
0
LINE
8
Layer 1
10
113.935552
20
87.303678
11
112.145205
21
87.021456
0
LINE
8
Layer 1
10
112.145205
20
87.021456
11
110.548886
21
86.509928
0
LINE
8
Layer 1
10
110.548886
20
86.509928
11
109.993915
21
86.164174
0
LINE
8
Layer 1
10
109.993915
20
86.164174
11
109.746316
21
85.795553
0
LINE
8
Layer 1
10
109.746316
20
85.795553
11
109.702219
21
85.001803
0
LINE
8
Layer 1
10
109.702219
20
85.001803
11
109.649302
21
84.199233
0
LINE
8
Layer 1
10
109.649302
20
84.199233
11
109.702219
21
83.352567
0
LINE
8
Layer 1
10
109.702219
20
83.352567
11
109.746316
21
82.699928
0
LINE
8
Layer 1
10
109.746316
20
82.699928
11
109.887427
21
81.377011
0
LINE
8
Layer 1
10
109.887427
20
81.377011
11
110.213747
21
79.357358
0
LINE
8
Layer 1
10
110.213747
20
79.357358
11
110.592983
21
77.328886
0
LINE
8
Layer 1
10
110.592983
20
77.328886
11
110.875205
21
76.014789
0
LINE
8
Layer 1
10
110.875205
20
76.014789
11
111.086705
21
75.213311
0
LINE
8
Layer 1
10
111.086705
20
75.213311
11
111.721872
21
74.691872
0
LINE
8
Layer 1
10
111.721872
20
74.691872
11
112.947775
21
74.691872
0
LINE
8
Layer 1
10
112.947775
20
74.691872
11
114.164858
21
74.647775
0
LINE
8
Layer 1
10
114.164858
20
74.647775
11
115.628886
21
74.700692
0
LINE
8
Layer 1
10
115.628886
20
74.700692
11
116.273807
21
74.853097
0
LINE
8
Layer 1
10
116.273807
20
74.853097
11
116.801872
21
75.124025
0
LINE
8
Layer 1
10
116.801872
20
75.124025
11
117.153232
21
75.556448
0
LINE
8
Layer 1
10
117.153232
20
75.556448
11
117.269302
21
76.199997
0
LINE
8
Layer 1
10
117.269302
20
76.199997
11
117.181108
21
76.905553
0
LINE
8
Layer 1
10
117.181108
20
76.905553
11
117.038072
21
77.295252
0
LINE
8
Layer 1
10
117.038072
20
77.295252
11
116.801872
21
77.425900
0
LINE
8
Layer 1
10
116.801872
20
77.425900
11
113.229997
21
77.425900
0
LINE
8
Layer 1
10
113.229997
20
77.425900
11
113.035969
21
78.316664
0
LINE
8
Layer 1
10
113.035969
20
78.316664
11
112.850761
21
79.304442
0
LINE
8
Layer 1
10
112.850761
20
79.304442
11
113.064049
21
79.680654
0
LINE
8
Layer 1
10
113.064049
20
79.680654
11
113.512219
21
79.868886
0
LINE
8
Layer 1
10
113.512219
20
79.868886
11
114.738122
21
80.062914
0
LINE
8
Layer 1
10
114.738122
20
80.062914
11
115.911108
21
80.389233
0
LINE
8
Layer 1
10
115.911108
20
80.389233
11
116.296005
21
80.753867
0
LINE
8
Layer 1
10
116.296005
20
80.753867
11
116.422636
21
81.377011
0
LINE
8
Layer 1
10
116.422636
20
81.377011
11
116.334441
21
82.223678
0
LINE
8
Layer 1
10
116.334441
20
82.223678
11
116.121722
21
82.579479
0
LINE
8
Layer 1
10
116.121722
20
82.579479
11
115.672983
21
82.699928
0
LINE
8
Layer 1
10
115.672983
20
82.699928
11
112.383330
21
82.699928
0
LINE
8
Layer 1
10
112.383330
20
82.699928
11
112.286316
21
82.929233
0
LINE
8
Layer 1
10
112.286316
20
82.929233
11
112.189302
21
83.352567
0
LINE
8
Layer 1
10
112.189302
20
83.352567
11
112.189302
21
83.546594
0
LINE
8
Layer 1
10
112.189302
20
83.546594
11
112.383330
21
84.014025
0
LINE
8
Layer 1
10
112.383330
20
84.014025
11
113.512219
21
84.199233
0
LINE
8
Layer 1
10
113.512219
20
84.199233
11
114.923330
21
84.534372
0
LINE
8
Layer 1
10
114.923330
20
84.534372
11
116.096316
21
85.142914
0
LINE
8
Layer 1
10
116.096316
20
85.142914
11
116.485979
21
85.613273
0
LINE
8
Layer 1
10
116.485979
20
85.613273
11
116.616663
21
86.271803
0
LINE
8
Layer 1
10
116.616663
20
86.271803
11
116.510798
21
86.822655
0
LINE
8
Layer 1
10
116.510798
20
86.822655
11
116.193330
21
87.162567
0
LINE
8
Layer 1
10
116.193330
20
87.162567
11
115.302566
21
87.400692
0
LINE
8
Layer 1
10
115.302566
20
87.400692
11
115.302566
21
87.400692
0
LINE
8
Layer 1
10
130.824788
20
87.118470
11
129.494199
21
86.836440
0
LINE
8
Layer 1
10
129.494199
20
86.836440
11
128.328886
21
85.989581
0
LINE
8
Layer 1
10
128.328886
20
85.989581
11
127.515782
21
84.814337
0
LINE
8
Layer 1
10
127.515782
20
84.814337
11
127.244094
21
83.546594
0
LINE
8
Layer 1
10
127.244094
20
83.546594
11
127.374613
21
82.580309
0
LINE
8
Layer 1
10
127.374613
20
82.580309
11
127.764441
21
81.756247
0
LINE
8
Layer 1
10
127.764441
20
81.756247
11
128.351059
21
81.047725
0
LINE
8
Layer 1
10
128.351059
20
81.047725
11
129.078538
21
80.433331
0
LINE
8
Layer 1
10
129.078538
20
80.433331
11
130.727775
21
79.445553
0
LINE
8
Layer 1
10
130.727775
20
79.445553
11
132.324094
21
78.651803
0
LINE
8
Layer 1
10
132.324094
20
78.651803
11
132.421108
21
78.369581
0
LINE
8
Layer 1
10
132.421108
20
78.369581
11
132.421108
21
78.087358
0
LINE
8
Layer 1
10
132.421108
20
78.087358
11
132.269647
21
77.484626
0
LINE
8
Layer 1
10
132.269647
20
77.484626
11
131.812566
21
77.187775
0
LINE
8
Layer 1
10
131.812566
20
77.187775
11
130.542566
21
77.046664
0
LINE
8
Layer 1
10
130.542566
20
77.046664
11
130.207427
21
77.099581
0
LINE
8
Layer 1
10
130.207427
20
77.099581
11
129.881108
21
77.143678
0
LINE
8
Layer 1
10
129.881108
20
77.143678
11
128.372983
21
78.651803
0
LINE
8
Layer 1
10
128.372983
20
78.651803
11
128.284788
21
78.695900
0
LINE
8
Layer 1
10
128.284788
20
78.695900
11
128.090761
21
78.748817
0
LINE
8
Layer 1
10
128.090761
20
78.748817
11
127.515506
21
78.665634
0
LINE
8
Layer 1
10
127.515506
20
78.665634
11
127.104861
21
78.416798
0
LINE
8
Layer 1
10
127.104861
20
78.416798
11
126.858642
21
78.003242
0
LINE
8
Layer 1
10
126.858642
20
78.003242
11
126.776663
21
77.425900
0
LINE
8
Layer 1
10
126.776663
20
77.425900
11
126.853609
21
76.752597
0
LINE
8
Layer 1
10
126.853609
20
76.752597
11
127.084092
21
76.144993
0
LINE
8
Layer 1
10
127.084092
20
76.144993
11
127.467337
21
75.602374
0
LINE
8
Layer 1
10
127.467337
20
75.602374
11
128.002566
21
75.124025
0
LINE
8
Layer 1
10
128.002566
20
75.124025
11
129.248433
21
74.450947
0
LINE
8
Layer 1
10
129.248433
20
74.450947
11
130.542566
21
74.224442
0
LINE
8
Layer 1
10
130.542566
20
74.224442
11
131.486104
21
74.298835
0
LINE
8
Layer 1
10
131.486104
20
74.298835
11
132.341482
21
74.521350
0
LINE
8
Layer 1
10
132.341482
20
74.521350
11
133.108792
21
74.890862
0
LINE
8
Layer 1
10
133.108792
20
74.890862
11
133.788122
21
75.406247
0
LINE
8
Layer 1
10
133.788122
20
75.406247
11
134.343837
21
76.037394
0
LINE
8
Layer 1
10
134.343837
20
76.037394
11
134.740673
21
76.755739
0
LINE
8
Layer 1
10
134.740673
20
76.755739
11
134.978732
21
77.562221
0
LINE
8
Layer 1
10
134.978732
20
77.562221
11
135.058122
21
78.457775
0
LINE
8
Layer 1
10
135.058122
20
78.457775
11
134.856661
21
79.625224
0
LINE
8
Layer 1
10
134.856661
20
79.625224
11
134.255552
21
80.486247
0
LINE
8
Layer 1
10
134.255552
20
80.486247
11
132.562219
21
81.659233
0
LINE
8
Layer 1
10
132.562219
20
81.659233
11
130.868886
21
82.505900
0
LINE
8
Layer 1
10
130.868886
20
82.505900
11
130.267598
21
82.930314
0
LINE
8
Layer 1
10
130.267598
20
82.930314
11
130.066316
21
83.449581
0
LINE
8
Layer 1
10
130.066316
20
83.449581
11
130.302619
21
84.084626
0
LINE
8
Layer 1
10
130.302619
20
84.084626
11
131.009997
21
84.296247
0
LINE
8
Layer 1
10
131.009997
20
84.296247
11
131.930561
21
84.140415
0
LINE
8
Layer 1
10
131.930561
20
84.140415
11
132.615136
21
83.678886
0
LINE
8
Layer 1
10
132.615136
20
83.678886
11
133.225077
21
83.221668
0
LINE
8
Layer 1
10
133.225077
20
83.221668
11
133.929233
21
83.070344
0
LINE
8
Layer 1
10
133.929233
20
83.070344
11
134.722983
21
83.167358
0
LINE
8
Layer 1
10
134.722983
20
83.167358
11
135.112636
21
83.330320
0
LINE
8
Layer 1
10
135.112636
20
83.330320
11
135.243330
21
83.634789
0
LINE
8
Layer 1
10
135.243330
20
83.634789
11
135.155083
21
84.508468
0
LINE
8
Layer 1
10
135.155083
20
84.508468
11
134.890501
21
85.246277
0
LINE
8
Layer 1
10
134.890501
20
85.246277
11
134.449556
21
85.848621
0
LINE
8
Layer 1
10
134.449556
20
85.848621
11
133.832219
21
86.315900
0
LINE
8
Layer 1
10
133.832219
20
86.315900
11
132.375433
21
86.917050
0
LINE
8
Layer 1
10
132.375433
20
86.917050
11
130.824788
21
87.118470
0
LINE
8
Layer 1
10
130.824788
20
87.118470
11
130.824788
21
87.118470
0
LINE
8
Layer 1
10
53.196038
20
86.739234
11
53.337150
21
86.695136
0
LINE
8
Layer 1
10
53.337150
20
86.695136
11
53.390066
21
86.642220
0
LINE
8
Layer 1
10
53.390066
20
86.642220
11
53.954511
21
85.654442
0
LINE
8
Layer 1
10
53.954511
20
85.654442
11
54.421941
21
84.666664
0
LINE
8
Layer 1
10
54.421941
20
84.666664
11
52.825622
21
84.666664
0
LINE
8
Layer 1
10
52.825622
20
84.666664
11
53.107844
21
86.642220
0
LINE
8
Layer 1
10
53.107844
20
86.642220
11
53.196038
21
86.739234
0
LINE
8
Layer 1
10
53.196038
20
86.739234
11
53.196038
21
86.739234
0
LINE
8
Layer 1
10
94.030066
20
86.457011
11
95.300066
21
86.033678
0
LINE
8
Layer 1
10
95.300066
20
86.033678
11
95.973401
21
85.600448
0
LINE
8
Layer 1
10
95.973401
20
85.600448
11
96.199650
21
85.142914
0
LINE
8
Layer 1
10
96.199650
20
85.142914
11
96.012834
21
84.647033
0
LINE
8
Layer 1
10
96.012834
20
84.647033
11
95.449997
21
84.481456
0
LINE
8
Layer 1
10
95.449997
20
84.481456
11
94.880720
21
84.597397
0
LINE
8
Layer 1
10
94.880720
20
84.597397
11
94.312288
21
84.948886
0
LINE
8
Layer 1
10
94.312288
20
84.948886
11
93.888952
21
85.445495
0
LINE
8
Layer 1
10
93.888952
20
85.445495
11
93.747844
21
85.989581
0
LINE
8
Layer 1
10
93.747844
20
85.989581
11
93.818548
21
86.340252
0
LINE
8
Layer 1
10
93.818548
20
86.340252
11
94.030066
21
86.457011
0
LINE
8
Layer 1
10
94.030066
20
86.457011
11
94.030066
21
86.457011
0
LINE
8
Layer 1
10
104.287080
20
86.457011
11
103.258606
21
86.342218
0
LINE
8
Layer 1
10
103.258606
20
86.342218
11
102.337464
21
85.998075
0
LINE
8
Layer 1
10
102.337464
20
85.998075
11
101.522416
21
85.424790
0
LINE
8
Layer 1
10
101.522416
20
85.424790
11
100.812219
21
84.622567
0
LINE
8
Layer 1
10
100.812219
20
84.622567
11
100.235200
21
83.697060
0
LINE
8
Layer 1
10
100.235200
20
83.697060
11
99.821572
21
82.753769
0
LINE
8
Layer 1
10
99.821572
20
82.753769
11
99.572539
21
81.792377
0
LINE
8
Layer 1
10
99.572539
20
81.792377
11
99.489302
21
80.812567
0
LINE
8
Layer 1
10
99.489302
20
80.812567
11
99.595152
21
79.498505
0
LINE
8
Layer 1
10
99.595152
20
79.498505
11
99.912743
21
78.284272
0
LINE
8
Layer 1
10
99.912743
20
78.284272
11
100.441946
21
77.170019
0
LINE
8
Layer 1
10
100.441946
20
77.170019
11
101.182636
21
76.155900
0
LINE
8
Layer 1
10
101.182636
20
76.155900
11
102.088147
21
75.311801
0
LINE
8
Layer 1
10
102.088147
20
75.311801
11
103.111935
21
74.708104
0
LINE
8
Layer 1
10
103.111935
20
74.708104
11
104.253661
21
74.345441
0
LINE
8
Layer 1
10
104.253661
20
74.345441
11
105.512983
21
74.224442
0
LINE
8
Layer 1
10
105.512983
20
74.224442
11
106.617754
21
74.325276
0
LINE
8
Layer 1
10
106.617754
20
74.325276
11
107.580958
21
74.627138
0
LINE
8
Layer 1
10
107.580958
20
74.627138
11
108.403143
21
75.128936
0
LINE
8
Layer 1
10
108.403143
20
75.128936
11
109.084858
21
75.829581
0
LINE
8
Layer 1
10
109.084858
20
75.829581
11
109.084858
21
76.676247
0
LINE
8
Layer 1
10
109.084858
20
76.676247
11
109.137775
21
78.034442
0
LINE
8
Layer 1
10
109.137775
20
78.034442
11
109.040761
21
79.824789
0
LINE
8
Layer 1
10
109.040761
20
79.824789
11
108.839738
21
80.660076
0
LINE
8
Layer 1
10
108.839738
20
80.660076
11
108.520413
21
81.377011
0
LINE
8
Layer 1
10
108.520413
20
81.377011
11
108.049575
21
81.872075
0
LINE
8
Layer 1
10
108.049575
20
81.872075
11
107.391525
21
82.038469
0
LINE
8
Layer 1
10
107.391525
20
82.038469
11
106.359650
21
82.038469
0
LINE
8
Layer 1
10
106.359650
20
82.038469
11
104.710413
21
81.756247
0
LINE
8
Layer 1
10
104.710413
20
81.756247
11
104.113553
21
81.308350
0
LINE
8
Layer 1
10
104.113553
20
81.308350
11
103.916663
21
80.530344
0
LINE
8
Layer 1
10
103.916663
20
80.530344
11
104.103349
21
79.752244
0
LINE
8
Layer 1
10
104.103349
20
79.752244
11
104.666316
21
79.304442
0
LINE
8
Layer 1
10
104.666316
20
79.304442
11
105.420310
21
79.117754
0
LINE
8
Layer 1
10
105.420310
20
79.117754
11
106.174441
21
79.119233
0
LINE
8
Layer 1
10
106.174441
20
79.119233
11
106.403747
21
78.554789
0
LINE
8
Layer 1
10
106.403747
20
78.554789
11
106.456663
21
77.893331
0
LINE
8
Layer 1
10
106.456663
20
77.893331
11
106.403747
21
77.522914
0
LINE
8
Layer 1
10
106.403747
20
77.522914
11
106.359650
21
77.143678
0
LINE
8
Layer 1
10
106.359650
20
77.143678
11
105.415969
21
76.861456
0
LINE
8
Layer 1
10
105.415969
20
76.861456
11
104.182415
21
77.143390
0
LINE
8
Layer 1
10
104.182415
20
77.143390
11
103.114094
21
77.990344
0
LINE
8
Layer 1
10
103.114094
20
77.990344
11
102.373206
21
79.165492
0
LINE
8
Layer 1
10
102.373206
20
79.165492
11
102.126316
21
80.433331
0
LINE
8
Layer 1
10
102.126316
20
80.433331
11
102.312644
21
81.869457
0
LINE
8
Layer 1
10
102.312644
20
81.869457
11
102.875969
21
82.788122
0
LINE
8
Layer 1
10
102.875969
20
82.788122
11
103.655501
21
83.339335
0
LINE
8
Layer 1
10
103.655501
20
83.339335
11
104.481108
21
83.678886
0
LINE
8
Layer 1
10
104.481108
20
83.678886
11
106.077427
21
84.155136
0
LINE
8
Layer 1
10
106.077427
20
84.155136
11
106.640616
21
84.565711
0
LINE
8
Layer 1
10
106.640616
20
84.565711
11
106.827080
21
85.328122
0
LINE
8
Layer 1
10
106.827080
20
85.328122
11
106.595029
21
85.940966
0
LINE
8
Layer 1
10
106.595029
20
85.940966
11
105.892219
21
86.271803
0
LINE
8
Layer 1
10
105.892219
20
86.271803
11
104.287080
21
86.457011
0
LINE
8
Layer 1
10
104.287080
20
86.457011
11
104.287080
21
86.457011
0
LINE
8
Layer 1
10
120.567775
20
84.860692
11
122.640344
21
84.860692
0
LINE
8
Layer 1
10
122.640344
20
84.860692
11
123.063677
21
84.437358
0
LINE
8
Layer 1
10
123.063677
20
84.437358
11
123.292983
21
83.819997
0
LINE
8
Layer 1
10
123.292983
20
83.819997
11
123.034663
21
83.202155
0
LINE
8
Layer 1
10
123.034663
20
83.202155
11
122.635739
21
82.761220
0
LINE
8
Layer 1
10
122.635739
20
82.761220
11
122.095802
21
82.496896
0
LINE
8
Layer 1
10
122.095802
20
82.496896
11
121.414441
21
82.408886
0
LINE
8
Layer 1
10
121.414441
20
82.408886
11
120.947011
21
82.408886
0
LINE
8
Layer 1
10
120.947011
20
82.408886
11
120.663277
21
82.483293
0
LINE
8
Layer 1
10
120.663277
20
82.483293
11
120.567775
21
82.699928
0
LINE
8
Layer 1
10
120.567775
20
82.699928
11
120.567775
21
84.860692
0
LINE
8
Layer 1
10
120.567775
20
84.860692
11
120.567775
21
84.860692
0
LINE
8
Layer 1
10
41.157497
20
75.353331
11
49.624163
21
57.388122
0
LINE
8
Layer 1
10
49.624163
20
57.388122
11
49.624163
21
57.105900
0
LINE
8
Layer 1
10
49.624163
20
57.105900
11
49.366374
21
57.186838
0
LINE
8
Layer 1
10
49.366374
20
57.186838
11
49.156733
21
57.432219
0
LINE
8
Layer 1
10
49.156733
20
57.432219
11
48.962705
21
57.855553
0
LINE
8
Layer 1
10
48.962705
20
57.855553
11
47.692705
21
60.351456
0
LINE
8
Layer 1
10
47.692705
20
60.351456
11
45.814163
21
64.205553
0
LINE
8
Layer 1
10
45.814163
20
64.205553
11
43.935622
21
68.059650
0
LINE
8
Layer 1
10
43.935622
20
68.059650
11
42.665622
21
70.652567
0
LINE
8
Layer 1
10
42.665622
20
70.652567
11
41.721941
21
72.866247
0
LINE
8
Layer 1
10
41.721941
20
72.866247
11
41.157497
21
74.506664
0
LINE
8
Layer 1
10
41.157497
20
74.506664
11
41.157497
21
75.353331
0
LINE
8
Layer 1
10
41.157497
20
75.353331
11
41.157497
21
75.353331
0
LINE
8
Layer 1
10
66.654511
20
61.621456
11
68.727080
21
61.621456
0
LINE
8
Layer 1
10
68.727080
20
61.621456
11
72.874633
21
61.420053
0
LINE
8
Layer 1
10
72.874633
20
61.420053
11
76.858608
21
60.818886
0
LINE
8
Layer 1
10
76.858608
20
60.818886
11
78.785395
21
60.305014
0
LINE
8
Layer 1
10
78.785395
20
60.305014
11
80.660144
21
59.562527
0
LINE
8
Layer 1
10
80.660144
20
59.562527
11
82.481799
21
58.590528
0
LINE
8
Layer 1
10
82.481799
20
58.590528
11
84.249302
21
57.388122
0
LINE
8
Layer 1
10
84.249302
20
57.388122
11
86.224858
21
55.412567
0
LINE
8
Layer 1
10
86.224858
20
55.412567
11
86.789302
21
54.609997
0
LINE
8
Layer 1
10
86.789302
20
54.609997
11
87.591872
21
53.525206
0
LINE
8
Layer 1
10
87.591872
20
53.525206
11
88.385622
21
52.537428
0
LINE
8
Layer 1
10
88.385622
20
52.537428
11
88.739267
21
52.219857
0
LINE
8
Layer 1
10
88.739267
20
52.219857
11
89.047080
21
52.114094
0
LINE
8
Layer 1
10
89.047080
20
52.114094
11
88.860629
21
53.445285
0
LINE
8
Layer 1
10
88.860629
20
53.445285
11
88.297427
21
54.424789
0
LINE
8
Layer 1
10
88.297427
20
54.424789
11
87.613715
21
55.354605
0
LINE
8
Layer 1
10
87.613715
20
55.354605
11
87.071525
21
56.541456
0
LINE
8
Layer 1
10
87.071525
20
56.541456
11
88.495763
21
57.139345
0
LINE
8
Layer 1
10
88.495763
20
57.139345
11
90.131872
21
57.432219
0
LINE
8
Layer 1
10
90.131872
20
57.432219
11
93.377427
21
57.573331
0
LINE
8
Layer 1
10
93.377427
20
57.573331
11
95.308886
21
57.388122
0
LINE
8
Layer 1
10
95.308886
20
57.388122
11
98.316316
21
56.911872
0
LINE
8
Layer 1
10
98.316316
20
56.911872
11
101.041525
21
56.206317
0
LINE
8
Layer 1
10
101.041525
20
56.206317
11
101.926312
21
55.772751
0
LINE
8
Layer 1
10
101.926312
20
55.772751
11
102.223330
21
55.315553
0
LINE
8
Layer 1
10
102.223330
20
55.315553
11
102.082219
21
54.707011
0
LINE
8
Layer 1
10
102.082219
20
54.707011
11
101.941108
21
54.089650
0
LINE
8
Layer 1
10
101.941108
20
54.089650
11
102.022013
21
53.596302
0
LINE
8
Layer 1
10
102.022013
20
53.596302
11
102.267427
21
53.242983
0
LINE
8
Layer 1
10
102.267427
20
53.242983
11
103.114094
21
52.872567
0
LINE
8
Layer 1
10
103.114094
20
52.872567
11
104.145969
21
52.731456
0
LINE
8
Layer 1
10
104.145969
20
52.731456
11
105.045552
21
52.678539
0
LINE
8
Layer 1
10
105.045552
20
52.678539
11
105.839302
21
51.126317
0
LINE
8
Layer 1
10
105.839302
20
51.126317
11
106.359650
21
49.574094
0
LINE
8
Layer 1
10
106.359650
20
49.574094
11
106.403747
21
48.780344
0
LINE
8
Layer 1
10
106.403747
20
48.780344
11
106.456663
21
47.977775
0
LINE
8
Layer 1
10
106.456663
20
47.977775
11
106.350809
21
46.354113
0
LINE
8
Layer 1
10
106.350809
20
46.354113
11
106.033330
21
45.058539
0
LINE
8
Layer 1
10
106.033330
20
45.058539
11
105.408560
21
43.858508
0
LINE
8
Layer 1
10
105.408560
20
43.858508
11
104.384094
21
42.518539
0
LINE
8
Layer 1
10
104.384094
20
42.518539
11
103.863747
21
41.998192
0
LINE
8
Layer 1
10
103.863747
20
41.998192
11
103.537427
21
41.574858
0
LINE
8
Layer 1
10
103.537427
20
41.574858
11
102.646663
21
41.486664
0
LINE
8
Layer 1
10
102.646663
20
41.486664
11
101.747080
21
41.389650
0
LINE
8
Layer 1
10
101.747080
20
41.389650
11
100.221099
21
40.965882
0
LINE
8
Layer 1
10
100.221099
20
40.965882
11
98.836663
21
40.260761
0
LINE
8
Layer 1
10
98.836663
20
40.260761
11
97.447688
21
39.625651
0
LINE
8
Layer 1
10
97.447688
20
39.625651
11
95.917427
21
39.414094
0
LINE
8
Layer 1
10
95.917427
20
39.414094
11
95.232992
21
39.519867
0
LINE
8
Layer 1
10
95.232992
20
39.519867
11
94.691525
21
39.837428
0
LINE
8
Layer 1
10
94.691525
20
39.837428
11
94.153629
21
40.154958
0
LINE
8
Layer 1
10
94.153629
20
40.154958
11
93.474441
21
40.260761
0
LINE
8
Layer 1
10
93.474441
20
40.260761
11
91.474007
21
40.073990
0
LINE
8
Layer 1
10
91.474007
20
40.073990
11
89.426316
21
39.511108
0
LINE
8
Layer 1
10
89.426316
20
39.511108
11
85.757427
21
38.285206
0
LINE
8
Layer 1
10
85.757427
20
38.285206
11
84.813747
21
38.047081
0
LINE
8
Layer 1
10
84.813747
20
38.047081
11
83.402636
21
37.720761
0
LINE
8
Layer 1
10
83.402636
20
37.720761
11
81.991525
21
37.394442
0
LINE
8
Layer 1
10
81.991525
20
37.394442
11
81.047844
21
37.156317
0
LINE
8
Layer 1
10
81.047844
20
37.156317
11
80.580413
21
37.156317
0
LINE
8
Layer 1
10
80.580413
20
37.156317
11
79.344373
21
37.262088
0
LINE
8
Layer 1
10
79.344373
20
37.262088
11
78.648955
21
37.579650
0
LINE
8
Layer 1
10
78.648955
20
37.579650
11
78.321154
21
38.038348
0
LINE
8
Layer 1
10
78.321154
20
38.038348
11
78.181525
21
38.567428
0
LINE
8
Layer 1
10
78.181525
20
38.567428
11
78.040413
21
39.696317
0
LINE
8
Layer 1
10
78.040413
20
39.696317
11
77.756955
21
40.189622
0
LINE
8
Layer 1
10
77.756955
20
40.189622
11
77.096733
21
40.542983
0
LINE
8
Layer 1
10
77.096733
20
40.542983
11
76.629302
21
40.639997
0
LINE
8
Layer 1
10
76.629302
20
40.639997
11
76.250066
21
40.728192
0
LINE
8
Layer 1
10
76.250066
20
40.728192
11
74.177497
21
40.728192
0
LINE
8
Layer 1
10
74.177497
20
40.728192
11
73.730428
21
40.906156
0
LINE
8
Layer 1
10
73.730428
20
40.906156
11
73.330830
21
41.248539
0
LINE
8
Layer 1
10
73.330830
20
41.248539
11
72.839969
21
41.566068
0
LINE
8
Layer 1
10
72.839969
20
41.566068
11
72.113747
21
41.671872
0
LINE
8
Layer 1
10
72.113747
20
41.671872
11
70.226386
21
41.389650
0
LINE
8
Layer 1
10
70.226386
20
41.389650
11
63.029719
21
39.087775
0
LINE
8
Layer 1
10
63.029719
20
39.087775
11
61.197892
21
38.531982
0
LINE
8
Layer 1
10
61.197892
20
38.531982
11
59.324645
21
38.135121
0
LINE
8
Layer 1
10
59.324645
20
38.135121
11
57.409959
21
37.897088
0
LINE
8
Layer 1
10
57.409959
20
37.897088
11
55.453816
21
37.817775
0
LINE
8
Layer 1
10
55.453816
20
37.817775
11
54.186823
21
37.933752
0
LINE
8
Layer 1
10
54.186823
20
37.933752
11
53.390066
21
38.285206
0
LINE
8
Layer 1
10
53.390066
20
38.285206
11
52.402288
21
39.272983
0
LINE
8
Layer 1
10
52.402288
20
39.272983
11
51.220483
21
40.260761
0
LINE
8
Layer 1
10
51.220483
20
40.260761
11
50.209593
21
40.611825
0
LINE
8
Layer 1
10
50.209593
20
40.611825
11
48.680483
21
40.728192
0
LINE
8
Layer 1
10
48.680483
20
40.728192
11
46.564923
21
40.647204
0
LINE
8
Layer 1
10
46.564923
20
40.647204
11
44.544163
21
40.401872
0
LINE
8
Layer 1
10
44.544163
20
40.401872
11
42.522642
21
40.156505
0
LINE
8
Layer 1
10
42.522642
20
40.156505
11
40.407844
21
40.075553
0
LINE
8
Layer 1
10
40.407844
20
40.075553
11
38.756629
21
40.159896
0
LINE
8
Layer 1
10
38.756629
20
40.159896
11
37.286734
21
40.413666
0
LINE
8
Layer 1
10
37.286734
20
40.413666
11
35.999356
21
40.837927
0
LINE
8
Layer 1
10
35.999356
20
40.837927
11
34.895691
21
41.433747
0
LINE
8
Layer 1
10
34.895691
20
41.433747
11
34.011184
21
42.266439
0
LINE
8
Layer 1
10
34.011184
20
42.266439
11
33.380138
21
43.400081
0
LINE
8
Layer 1
10
33.380138
20
43.400081
11
33.001955
21
44.833784
0
LINE
8
Layer 1
10
33.001955
20
44.833784
11
32.876038
21
46.566664
0
LINE
8
Layer 1
10
32.876038
20
46.566664
11
33.014640
21
48.363468
0
LINE
8
Layer 1
10
33.014640
20
48.363468
11
33.430132
21
50.084156
0
LINE
8
Layer 1
10
33.430132
20
50.084156
11
34.121998
21
51.728407
0
LINE
8
Layer 1
10
34.121998
20
51.728407
11
35.089719
21
53.295900
0
LINE
8
Layer 1
10
35.089719
20
53.295900
11
36.286658
21
54.698433
0
LINE
8
Layer 1
10
36.286658
20
54.698433
11
37.666327
21
55.848053
0
LINE
8
Layer 1
10
37.666327
20
55.848053
11
39.228335
21
56.744652
0
LINE
8
Layer 1
10
39.228335
20
56.744652
11
40.972288
21
57.388122
0
LINE
8
Layer 1
10
40.972288
20
57.388122
11
41.581226
21
56.820785
0
LINE
8
Layer 1
10
41.581226
20
56.820785
11
42.471594
21
56.629650
0
LINE
8
Layer 1
10
42.471594
20
56.629650
11
43.306848
21
56.830990
0
LINE
8
Layer 1
10
43.306848
20
56.830990
11
43.741594
21
57.432219
0
LINE
8
Layer 1
10
43.741594
20
57.432219
11
44.106252
21
58.104153
0
LINE
8
Layer 1
10
44.106252
20
58.104153
11
44.729372
21
58.517011
0
LINE
8
Layer 1
10
44.729372
20
58.517011
11
45.955275
21
58.843331
0
LINE
8
Layer 1
10
45.955275
20
58.843331
11
46.380434
21
59.067280
0
LINE
8
Layer 1
10
46.380434
20
59.067280
11
46.898955
21
59.645900
0
LINE
8
Layer 1
10
46.898955
20
59.645900
11
47.391180
21
59.136741
0
LINE
8
Layer 1
10
47.391180
20
59.136741
11
47.930830
21
58.181872
0
LINE
8
Layer 1
10
47.930830
20
58.181872
11
48.354438
21
57.114644
0
LINE
8
Layer 1
10
48.354438
20
57.114644
11
48.495275
21
56.259233
0
LINE
8
Layer 1
10
48.495275
20
56.259233
11
48.495275
21
56.065206
0
LINE
8
Layer 1
10
48.495275
20
56.065206
11
46.193400
21
53.719233
0
LINE
8
Layer 1
10
46.193400
20
53.719233
11
45.028090
21
52.375162
0
LINE
8
Layer 1
10
45.028090
20
52.375162
11
44.261941
21
50.985206
0
LINE
8
Layer 1
10
44.261941
20
50.985206
11
44.261941
21
50.799997
0
LINE
8
Layer 1
10
44.261941
20
50.799997
11
44.261941
21
50.702983
0
LINE
8
Layer 1
10
44.261941
20
50.702983
11
45.011594
21
51.364442
0
LINE
8
Layer 1
10
45.011594
20
51.364442
11
46.237497
21
52.396317
0
LINE
8
Layer 1
10
46.237497
20
52.396317
11
47.463400
21
53.437011
0
LINE
8
Layer 1
10
47.463400
20
53.437011
11
48.213052
21
54.089650
0
LINE
8
Layer 1
10
48.213052
20
54.089650
11
50.285622
21
55.553678
0
LINE
8
Layer 1
10
50.285622
20
55.553678
11
52.446386
21
56.911872
0
LINE
8
Layer 1
10
52.446386
20
56.911872
11
52.966733
21
57.247011
0
LINE
8
Layer 1
10
52.966733
20
57.247011
11
53.390066
21
57.388122
0
LINE
8
Layer 1
10
53.390066
20
57.388122
11
53.716386
21
57.052983
0
LINE
8
Layer 1
10
53.716386
20
57.052983
11
54.042705
21
56.726664
0
LINE
8
Layer 1
10
54.042705
20
56.726664
11
54.421941
21
56.726664
0
LINE
8
Layer 1
10
54.421941
20
56.726664
11
55.070185
21
56.786835
0
LINE
8
Layer 1
10
55.070185
20
56.786835
11
55.506733
21
56.964789
0
LINE
8
Layer 1
10
55.506733
20
56.964789
11
56.018261
21
57.573331
0
LINE
8
Layer 1
10
56.018261
20
57.573331
11
56.353400
21
58.375900
0
LINE
8
Layer 1
10
56.353400
20
58.375900
11
56.873747
21
59.169650
0
LINE
8
Layer 1
10
56.873747
20
59.169650
11
57.905622
21
59.787011
0
LINE
8
Layer 1
10
57.905622
20
59.787011
11
59.546038
21
60.351456
0
LINE
8
Layer 1
10
59.546038
20
60.351456
11
61.248191
21
60.774789
0
LINE
8
Layer 1
10
61.248191
20
60.774789
11
62.518191
21
60.959997
0
LINE
8
Layer 1
10
62.518191
20
60.959997
11
62.447749
21
60.538838
0
LINE
8
Layer 1
10
62.447749
20
60.538838
11
62.235969
21
60.210344
0
LINE
8
Layer 1
10
62.235969
20
60.210344
11
62.019705
21
59.878095
0
LINE
8
Layer 1
10
62.019705
20
59.878095
11
61.944927
21
59.451872
0
LINE
8
Layer 1
10
61.944927
20
59.451872
11
62.019347
21
59.075582
0
LINE
8
Layer 1
10
62.019347
20
59.075582
11
62.235969
21
58.887428
0
LINE
8
Layer 1
10
62.235969
20
58.887428
11
62.985622
21
58.887428
0
LINE
8
Layer 1
10
62.985622
20
58.887428
11
63.737029
21
58.972416
0
LINE
8
Layer 1
10
63.737029
20
58.972416
11
64.299719
21
59.222567
0
LINE
8
Layer 1
10
64.299719
20
59.222567
11
64.961177
21
59.972219
0
LINE
8
Layer 1
10
64.961177
20
59.972219
11
65.243400
21
60.774789
0
LINE
8
Layer 1
10
65.243400
20
60.774789
11
65.525622
21
61.339233
0
LINE
8
Layer 1
10
65.525622
20
61.339233
11
66.045969
21
61.524442
0
LINE
8
Layer 1
10
66.045969
20
61.524442
11
66.654511
21
61.621456
0
LINE
8
Layer 1
10
66.654511
20
61.621456
11
66.654511
21
61.621456
0
LINE
8
Layer 1
10
64.767150
20
60.959997
11
64.615739
21
60.348863
0
LINE
8
Layer 1
10
64.615739
20
60.348863
11
64.158608
21
59.831108
0
LINE
8
Layer 1
10
64.158608
20
59.831108
11
63.535058
21
59.479639
0
LINE
8
Layer 1
10
63.535058
20
59.479639
11
62.888608
21
59.363678
0
LINE
8
Layer 1
10
62.888608
20
59.363678
11
62.584509
21
59.433693
0
LINE
8
Layer 1
10
62.584509
20
59.433693
11
62.421177
21
59.645900
0
LINE
8
Layer 1
10
62.421177
20
59.645900
11
63.453052
21
60.536664
0
LINE
8
Layer 1
10
63.453052
20
60.536664
11
64.063046
21
60.854178
0
LINE
8
Layer 1
10
64.063046
20
60.854178
11
64.767150
21
60.959997
0
LINE
8
Layer 1
10
64.767150
20
60.959997
11
64.767150
21
60.959997
0
LINE
8
Layer 1
10
56.115275
20
58.799233
11
55.939052
21
58.058324
0
LINE
8
Layer 1
10
55.939052
20
58.058324
11
55.409719
21
57.529233
0
LINE
8
Layer 1
10
55.409719
20
57.529233
11
54.713978
21
57.211657
0
LINE
8
Layer 1
10
54.713978
20
57.211657
11
54.042705
21
57.105900
0
LINE
8
Layer 1
10
54.042705
20
57.105900
11
54.042705
21
57.855553
0
LINE
8
Layer 1
10
54.042705
20
57.855553
11
54.704163
21
58.181872
0
LINE
8
Layer 1
10
54.704163
20
58.181872
11
55.833052
21
58.702219
0
LINE
8
Layer 1
10
55.833052
20
58.702219
11
56.115275
21
58.799233
0
LINE
8
Layer 1
10
56.115275
20
58.799233
11
56.115275
21
58.799233
0
LINE
8
Layer 1
10
43.512288
20
58.702219
11
43.346277
21
58.089296
0
LINE
8
Layer 1
10
43.346277
20
58.089296
11
42.850830
21
57.758539
0
LINE
8
Layer 1
10
42.850830
20
57.758539
11
41.624927
21
57.573331
0
LINE
8
Layer 1
10
41.624927
20
57.573331
11
41.790892
21
58.066623
0
LINE
8
Layer 1
10
41.790892
20
58.066623
11
42.286386
21
58.419997
0
LINE
8
Layer 1
10
42.286386
20
58.419997
11
43.512288
21
58.702219
0
LINE
8
Layer 1
10
43.512288
20
58.702219
11
43.512288
21
58.702219
0
LINE
8
Layer 1
10
50.188608
20
58.702219
11
51.784927
21
58.702219
0
LINE
8
Layer 1
10
51.784927
20
58.702219
11
51.784927
21
58.517011
0
LINE
8
Layer 1
10
51.784927
20
58.517011
11
51.458608
21
58.181872
0
LINE
8
Layer 1
10
51.458608
20
58.181872
11
50.947080
21
57.855553
0
LINE
8
Layer 1
10
50.947080
20
57.855553
11
50.850066
21
57.811456
0
LINE
8
Layer 1
10
50.850066
20
57.811456
11
50.656038
21
57.758539
0
LINE
8
Layer 1
10
50.656038
20
57.758539
11
50.424146
21
57.854091
0
LINE
8
Layer 1
10
50.424146
20
57.854091
11
50.285622
21
58.137775
0
LINE
8
Layer 1
10
50.285622
20
58.137775
11
50.188608
21
58.702219
0
LINE
8
Layer 1
10
50.188608
20
58.702219
11
50.188608
21
58.702219
0
LINE
8
Layer 1
10
68.162636
20
58.702219
11
67.398328
21
58.596403
0
LINE
8
Layer 1
10
67.398328
20
58.596403
11
66.610413
21
58.278886
0
LINE
8
Layer 1
10
66.610413
20
58.278886
11
66.009175
21
57.724918
0
LINE
8
Layer 1
10
66.009175
20
57.724918
11
65.807844
21
56.911872
0
LINE
8
Layer 1
10
65.807844
20
56.911872
11
65.948955
21
56.347428
0
LINE
8
Layer 1
10
65.948955
20
56.347428
11
66.557497
21
56.259233
0
LINE
8
Layer 1
10
66.557497
20
56.259233
11
67.346543
21
56.400374
0
LINE
8
Layer 1
10
67.346543
20
56.400374
11
68.206733
21
56.823678
0
LINE
8
Layer 1
10
68.206733
20
56.823678
11
68.875676
21
57.458497
0
LINE
8
Layer 1
10
68.875676
20
57.458497
11
69.097497
21
58.234789
0
LINE
8
Layer 1
10
69.097497
20
58.234789
11
69.027410
21
58.586197
0
LINE
8
Layer 1
10
69.027410
20
58.586197
11
68.815275
21
58.702219
0
LINE
8
Layer 1
10
68.815275
20
58.702219
11
68.162636
21
58.702219
0
LINE
8
Layer 1
10
68.162636
20
58.702219
11
68.162636
21
58.702219
0
LINE
8
Layer 1
10
77.290761
20
58.702219
11
76.435275
21
58.605206
0
LINE
8
Layer 1
10
76.435275
20
58.605206
11
75.597427
21
58.517011
0
LINE
8
Layer 1
10
75.597427
20
58.517011
11
75.306386
21
58.234789
0
LINE
8
Layer 1
10
75.306386
20
58.234789
11
75.306386
21
57.855553
0
LINE
8
Layer 1
10
75.306386
20
57.855553
11
75.462122
21
57.267807
0
LINE
8
Layer 1
10
75.462122
20
57.267807
11
75.923747
21
57.008886
0
LINE
8
Layer 1
10
75.923747
20
57.008886
11
77.193747
21
56.911872
0
LINE
8
Layer 1
10
77.193747
20
56.911872
11
78.366733
21
57.105900
0
LINE
8
Layer 1
10
78.366733
20
57.105900
11
78.990443
21
57.386302
0
LINE
8
Layer 1
10
78.990443
20
57.386302
11
79.072288
21
57.855553
0
LINE
8
Layer 1
10
79.072288
20
57.855553
11
78.510658
21
58.490614
0
LINE
8
Layer 1
10
78.510658
20
58.490614
11
77.572983
21
58.702219
0
LINE
8
Layer 1
10
77.572983
20
58.702219
11
77.290761
21
58.702219
0
LINE
8
Layer 1
10
77.290761
20
58.702219
11
77.290761
21
58.702219
0
LINE
8
Layer 1
10
67.968608
20
58.517011
11
68.444858
21
58.234789
0
LINE
8
Layer 1
10
68.444858
20
58.234789
11
68.444858
21
58.137775
0
LINE
8
Layer 1
10
68.444858
20
58.137775
11
68.183248
21
57.442091
0
LINE
8
Layer 1
10
68.183248
20
57.442091
11
67.404163
21
57.052983
0
LINE
8
Layer 1
10
67.404163
20
57.052983
11
65.904858
21
56.823678
0
LINE
8
Layer 1
10
65.904858
20
56.823678
11
66.101779
21
57.482130
0
LINE
8
Layer 1
10
66.101779
20
57.482130
11
66.698608
21
57.952567
0
LINE
8
Layer 1
10
66.698608
20
57.952567
11
67.968608
21
58.517011
0
LINE
8
Layer 1
10
67.968608
20
58.517011
11
67.968608
21
58.517011
0
LINE
8
Layer 1
10
76.911525
20
58.322983
11
77.846386
21
58.278886
0
LINE
8
Layer 1
10
77.846386
20
58.278886
11
78.202186
21
58.053799
0
LINE
8
Layer 1
10
78.202186
20
58.053799
11
78.322636
21
57.476317
0
LINE
8
Layer 1
10
78.322636
20
57.476317
11
77.281941
21
57.529233
0
LINE
8
Layer 1
10
77.281941
20
57.529233
11
76.250066
21
57.573331
0
LINE
8
Layer 1
10
76.250066
20
57.573331
11
75.782636
21
57.855553
0
LINE
8
Layer 1
10
75.782636
20
57.855553
11
75.782636
21
57.952567
0
LINE
8
Layer 1
10
75.782636
20
57.952567
11
75.782636
21
58.049581
0
LINE
8
Layer 1
10
75.782636
20
58.049581
11
75.967844
21
58.234789
0
LINE
8
Layer 1
10
75.967844
20
58.234789
11
76.435275
21
58.278886
0
LINE
8
Layer 1
10
76.435275
20
58.278886
11
76.911525
21
58.322983
0
LINE
8
Layer 1
10
76.911525
20
58.322983
11
76.911525
21
58.322983
0
LINE
8
Layer 1
10
60.348608
20
54.936317
11
59.584310
21
54.819942
0
LINE
8
Layer 1
10
59.584310
20
54.819942
11
58.796386
21
54.468886
0
LINE
8
Layer 1
10
58.796386
20
54.468886
11
58.195151
21
53.906207
0
LINE
8
Layer 1
10
58.195151
20
53.906207
11
57.993816
21
53.154789
0
LINE
8
Layer 1
10
57.993816
20
53.154789
11
58.209766
21
52.658932
0
LINE
8
Layer 1
10
58.209766
20
52.658932
11
58.849302
21
52.493331
0
LINE
8
Layer 1
10
58.849302
20
52.493331
11
59.541340
21
52.634474
0
LINE
8
Layer 1
10
59.541340
20
52.634474
11
60.304511
21
53.057775
0
LINE
8
Layer 1
10
60.304511
20
53.057775
11
60.901268
21
53.667062
0
LINE
8
Layer 1
10
60.901268
20
53.667062
11
61.098261
21
54.371872
0
LINE
8
Layer 1
10
61.098261
20
54.371872
11
60.957150
21
54.892219
0
LINE
8
Layer 1
10
60.957150
20
54.892219
11
60.348608
21
54.936317
0
LINE
8
Layer 1
10
60.348608
20
54.936317
11
60.348608
21
54.936317
0
LINE
8
Layer 1
10
80.668608
20
54.936317
11
80.411512
21
54.819942
0
LINE
8
Layer 1
10
80.411512
20
54.819942
11
80.201177
21
54.468886
0
LINE
8
Layer 1
10
80.201177
20
54.468886
11
80.015969
21
53.807428
0
LINE
8
Layer 1
10
80.015969
20
53.807428
11
80.131913
21
53.430784
0
LINE
8
Layer 1
10
80.131913
20
53.430784
11
80.483400
21
53.242983
0
LINE
8
Layer 1
10
80.483400
20
53.242983
11
81.330066
21
53.154789
0
LINE
8
Layer 1
10
81.330066
20
53.154789
11
82.741177
21
53.339997
0
LINE
8
Layer 1
10
82.741177
20
53.339997
11
83.376216
21
53.691169
0
LINE
8
Layer 1
10
83.376216
20
53.691169
11
83.587844
21
54.371872
0
LINE
8
Layer 1
10
83.587844
20
54.371872
11
83.499650
21
54.468886
0
LINE
8
Layer 1
10
83.499650
20
54.468886
11
83.305622
21
54.795206
0
LINE
8
Layer 1
10
83.305622
20
54.795206
11
83.120413
21
54.936317
0
LINE
8
Layer 1
10
83.120413
20
54.936317
11
80.668608
21
54.936317
0
LINE
8
Layer 1
10
80.668608
20
54.936317
11
80.668608
21
54.936317
0
LINE
8
Layer 1
10
41.157497
20
54.751108
11
40.321016
21
54.670472
0
LINE
8
Layer 1
10
40.321016
20
54.670472
11
39.508261
21
54.424789
0
LINE
8
Layer 1
10
39.508261
20
54.424789
11
38.911452
21
53.917125
0
LINE
8
Layer 1
10
38.911452
20
53.917125
11
38.714511
21
53.057775
0
LINE
8
Layer 1
10
38.714511
20
53.057775
11
38.758608
21
52.308122
0
LINE
8
Layer 1
10
38.758608
20
52.308122
11
38.908116
21
52.091869
0
LINE
8
Layer 1
10
38.908116
20
52.091869
11
39.270136
21
52.017081
0
LINE
8
Layer 1
10
39.270136
20
52.017081
11
40.094583
21
52.172836
0
LINE
8
Layer 1
10
40.094583
20
52.172836
11
41.060483
21
52.634442
0
LINE
8
Layer 1
10
41.060483
20
52.634442
11
41.835178
21
53.327975
0
LINE
8
Layer 1
10
41.835178
20
53.327975
11
42.092358
21
54.186664
0
LINE
8
Layer 1
10
42.092358
20
54.186664
11
42.036546
21
54.552689
0
LINE
8
Layer 1
10
42.036546
20
54.552689
11
41.863052
21
54.707011
0
LINE
8
Layer 1
10
41.863052
20
54.707011
11
41.157497
21
54.751108
0
LINE
8
Layer 1
10
41.157497
20
54.751108
11
41.157497
21
54.751108
0
LINE
8
Layer 1
10
81.894511
20
54.751108
11
82.511872
21
54.707011
0
LINE
8
Layer 1
10
82.511872
20
54.707011
11
82.829370
21
54.597918
0
LINE
8
Layer 1
10
82.829370
20
54.597918
11
82.935205
21
54.371872
0
LINE
8
Layer 1
10
82.935205
20
54.371872
11
82.769166
21
54.010203
0
LINE
8
Layer 1
10
82.769166
20
54.010203
11
82.273747
21
53.860344
0
LINE
8
Layer 1
10
82.273747
20
53.860344
11
81.427080
21
53.807428
0
LINE
8
Layer 1
10
81.427080
20
53.807428
11
80.765622
21
53.807428
0
LINE
8
Layer 1
10
80.765622
20
53.807428
11
80.389313
21
53.878165
0
LINE
8
Layer 1
10
80.389313
20
53.878165
11
80.201177
21
54.089650
0
LINE
8
Layer 1
10
80.201177
20
54.089650
11
80.812346
21
54.585455
0
LINE
8
Layer 1
10
80.812346
20
54.585455
11
81.894511
21
54.751108
0
LINE
8
Layer 1
10
81.894511
20
54.751108
11
81.894511
21
54.751108
0
LINE
8
Layer 1
10
102.972983
20
54.751108
11
103.430142
21
54.635091
0
LINE
8
Layer 1
10
103.430142
20
54.635091
11
103.863747
21
54.283678
0
LINE
8
Layer 1
10
103.863747
20
54.283678
11
104.181228
21
53.811812
0
LINE
8
Layer 1
10
104.181228
20
53.811812
11
104.287080
21
53.339997
0
LINE
8
Layer 1
10
104.287080
20
53.339997
11
103.114094
21
53.525206
0
LINE
8
Layer 1
10
103.114094
20
53.525206
11
102.585021
21
53.810021
0
LINE
8
Layer 1
10
102.585021
20
53.810021
11
102.408538
21
54.283678
0
LINE
8
Layer 1
10
102.408538
20
54.283678
11
102.550001
21
54.635091
0
LINE
8
Layer 1
10
102.550001
20
54.635091
11
102.972983
21
54.751108
0
LINE
8
Layer 1
10
102.972983
20
54.751108
11
102.972983
21
54.751108
0
LINE
8
Layer 1
10
59.881177
20
54.468886
11
60.304777
21
54.398097
0
LINE
8
Layer 1
10
60.304777
20
54.398097
11
60.445622
21
54.186664
0
LINE
8
Layer 1
10
60.445622
20
54.186664
11
60.198635
21
53.573744
0
LINE
8
Layer 1
10
60.198635
20
53.573744
11
59.457844
21
53.242983
0
LINE
8
Layer 1
10
59.457844
20
53.242983
11
58.090830
21
53.057775
0
LINE
8
Layer 1
10
58.090830
20
53.057775
11
58.256783
21
53.644033
0
LINE
8
Layer 1
10
58.256783
20
53.644033
11
58.752288
21
54.089650
0
LINE
8
Layer 1
10
58.752288
20
54.089650
11
59.881177
21
54.468886
0
LINE
8
Layer 1
10
59.881177
20
54.468886
11
59.881177
21
54.468886
0
LINE
8
Layer 1
10
41.439719
20
54.371872
11
41.252944
21
53.712648
0
LINE
8
Layer 1
10
41.252944
20
53.712648
11
40.690066
21
53.242983
0
LINE
8
Layer 1
10
40.690066
20
53.242983
11
39.957112
21
52.963712
0
LINE
8
Layer 1
10
39.957112
20
52.963712
11
39.270136
21
52.872567
0
LINE
8
Layer 1
10
39.270136
20
52.872567
11
39.481688
21
53.469746
0
LINE
8
Layer 1
10
39.481688
20
53.469746
11
40.116802
21
53.948539
0
LINE
8
Layer 1
10
40.116802
20
53.948539
11
41.439719
21
54.371872
0
LINE
8
Layer 1
10
41.439719
20
54.371872
11
41.439719
21
54.371872
0
LINE
8
Layer 1
10
95.070761
20
54.283678
11
93.747844
21
54.142567
0
LINE
8
Layer 1
10
93.747844
20
54.142567
11
93.257082
21
53.825237
0
LINE
8
Layer 1
10
93.257082
20
53.825237
11
93.095205
21
53.154789
0
LINE
8
Layer 1
10
93.095205
20
53.154789
11
93.221701
21
52.753328
0
LINE
8
Layer 1
10
93.221701
20
52.753328
11
93.606733
21
52.493331
0
LINE
8
Layer 1
10
93.606733
20
52.493331
11
94.506316
21
52.308122
0
LINE
8
Layer 1
10
94.506316
20
52.308122
11
95.961525
21
52.537428
0
LINE
8
Layer 1
10
95.961525
20
52.537428
11
96.630092
21
52.902079
0
LINE
8
Layer 1
10
96.630092
20
52.902079
11
96.852288
21
53.525206
0
LINE
8
Layer 1
10
96.852288
20
53.525206
11
96.690290
21
54.030495
0
LINE
8
Layer 1
10
96.690290
20
54.030495
11
96.199650
21
54.230761
0
LINE
8
Layer 1
10
96.199650
20
54.230761
11
95.070761
21
54.283678
0
LINE
8
Layer 1
10
95.070761
20
54.283678
11
95.070761
21
54.283678
0
LINE
8
Layer 1
10
95.070761
20
54.089650
11
95.820413
21
53.948539
0
LINE
8
Layer 1
10
95.820413
20
53.948539
11
96.104006
21
53.726793
0
LINE
8
Layer 1
10
96.104006
20
53.726793
11
96.199650
21
53.339997
0
LINE
8
Layer 1
10
96.199650
20
53.339997
11
96.199650
21
53.154789
0
LINE
8
Layer 1
10
96.199650
20
53.154789
11
95.723400
21
53.057775
0
LINE
8
Layer 1
10
95.723400
20
53.057775
11
95.255969
21
52.960761
0
LINE
8
Layer 1
10
95.255969
20
52.960761
11
95.070761
21
52.960761
0
LINE
8
Layer 1
10
95.070761
20
52.960761
11
94.127080
21
52.960761
0
LINE
8
Layer 1
10
94.127080
20
52.960761
11
93.750761
21
53.056317
0
LINE
8
Layer 1
10
93.750761
20
53.056317
11
93.562636
21
53.339997
0
LINE
8
Layer 1
10
93.562636
20
53.339997
11
93.808343
21
53.726793
0
LINE
8
Layer 1
10
93.808343
20
53.726793
11
94.171177
21
53.948539
0
LINE
8
Layer 1
10
94.171177
20
53.948539
11
95.070761
21
54.089650
0
LINE
8
Layer 1
10
95.070761
20
54.089650
11
95.070761
21
54.089650
0
LINE
8
Layer 1
10
69.855969
20
53.807428
11
68.674163
21
53.719233
0
LINE
8
Layer 1
10
68.674163
20
53.719233
11
68.145117
21
53.460257
0
LINE
8
Layer 1
10
68.145117
20
53.460257
11
67.968608
21
52.872567
0
LINE
8
Layer 1
10
67.968608
20
52.872567
11
68.124349
21
52.295028
0
LINE
8
Layer 1
10
68.124349
20
52.295028
11
68.585969
21
52.069997
0
LINE
8
Layer 1
10
68.585969
20
52.069997
11
69.661941
21
52.017081
0
LINE
8
Layer 1
10
69.661941
20
52.017081
11
70.702636
21
52.017081
0
LINE
8
Layer 1
10
70.702636
20
52.017081
11
71.193295
21
52.679231
0
LINE
8
Layer 1
10
71.193295
20
52.679231
11
71.355275
21
53.339997
0
LINE
8
Layer 1
10
71.355275
20
53.339997
11
71.218115
21
53.691410
0
LINE
8
Layer 1
10
71.218115
20
53.691410
11
70.799650
21
53.807428
0
LINE
8
Layer 1
10
70.799650
20
53.807428
11
69.855969
21
53.807428
0
LINE
8
Layer 1
10
69.855969
20
53.807428
11
69.855969
21
53.807428
0
LINE
8
Layer 1
10
68.912288
20
53.622219
11
69.476733
21
53.622219
0
LINE
8
Layer 1
10
69.476733
20
53.622219
11
70.323400
21
53.622219
0
LINE
8
Layer 1
10
70.323400
20
53.622219
11
70.791502
21
53.505485
0
LINE
8
Layer 1
10
70.791502
20
53.505485
11
71.073052
21
53.154789
0
LINE
8
Layer 1
10
71.073052
20
53.154789
11
70.702636
21
52.678539
0
LINE
8
Layer 1
10
70.702636
20
52.678539
11
68.912288
21
52.678539
0
LINE
8
Layer 1
10
68.912288
20
52.678539
11
68.444858
21
53.154789
0
LINE
8
Layer 1
10
68.444858
20
53.154789
11
68.655563
21
53.505485
0
LINE
8
Layer 1
10
68.655563
20
53.505485
11
68.912288
21
53.622219
0
LINE
8
Layer 1
10
68.912288
20
53.622219
11
68.912288
21
53.622219
0
LINE
8
Layer 1
10
75.782636
20
52.775553
11
75.782636
21
52.590344
0
LINE
8
Layer 1
10
75.782636
20
52.590344
11
76.532288
21
52.493331
0
LINE
8
Layer 1
10
76.532288
20
52.493331
11
76.955517
21
52.304400
0
LINE
8
Layer 1
10
76.955517
20
52.304400
11
77.096733
21
51.928886
0
LINE
8
Layer 1
10
77.096733
20
51.928886
11
76.970132
21
51.656484
0
LINE
8
Layer 1
10
76.970132
20
51.656484
11
76.585205
21
51.408539
0
LINE
8
Layer 1
10
76.585205
20
51.408539
11
75.967844
21
51.170414
0
LINE
8
Layer 1
10
75.967844
20
51.170414
11
75.077080
21
51.038122
0
LINE
8
Layer 1
10
75.077080
20
51.038122
11
74.177497
21
50.985206
0
LINE
8
Layer 1
10
74.177497
20
50.985206
11
74.402810
21
50.691321
0
LINE
8
Layer 1
10
74.402810
20
50.691321
11
74.697844
21
50.561872
0
LINE
8
Layer 1
10
74.697844
20
50.561872
11
75.306386
21
50.517775
0
LINE
8
Layer 1
10
75.306386
20
50.517775
11
76.858608
21
50.844094
0
LINE
8
Layer 1
10
76.858608
20
50.844094
11
77.531599
21
51.279868
0
LINE
8
Layer 1
10
77.531599
20
51.279868
11
77.758191
21
51.928886
0
LINE
8
Layer 1
10
77.758191
20
51.928886
11
77.566980
21
52.506373
0
LINE
8
Layer 1
10
77.566980
20
52.506373
11
76.999719
21
52.731456
0
LINE
8
Layer 1
10
76.999719
20
52.731456
11
75.782636
21
52.775553
0
LINE
8
Layer 1
10
75.782636
20
52.775553
11
75.782636
21
52.775553
0
LINE
8
Layer 1
10
74.653747
20
52.308122
11
74.514438
21
52.233640
0
LINE
8
Layer 1
10
74.514438
20
52.233640
11
74.468538
21
52.017081
0
LINE
8
Layer 1
10
74.468538
20
52.017081
11
74.653747
21
51.831872
0
LINE
8
Layer 1
10
74.653747
20
51.831872
11
74.838955
21
52.017081
0
LINE
8
Layer 1
10
74.838955
20
52.017081
11
74.793682
21
52.233641
0
LINE
8
Layer 1
10
74.793682
20
52.233641
11
74.653747
21
52.308122
0
LINE
8
Layer 1
10
74.653747
20
52.308122
11
74.653747
21
52.308122
0
LINE
8
Layer 1
10
54.898191
20
51.364442
11
54.139719
21
51.126317
0
LINE
8
Layer 1
10
54.139719
20
51.126317
11
53.860445
21
50.857193
0
LINE
8
Layer 1
10
53.860445
20
50.857193
11
53.769302
21
50.517775
0
LINE
8
Layer 1
10
53.769302
20
50.517775
11
53.769302
21
50.235553
0
LINE
8
Layer 1
10
53.769302
20
50.235553
11
54.236733
21
50.702983
0
LINE
8
Layer 1
10
54.236733
20
50.702983
11
54.704163
21
50.985206
0
LINE
8
Layer 1
10
54.704163
20
50.985206
11
54.848523
21
50.914417
0
LINE
8
Layer 1
10
54.848523
20
50.914417
11
54.898191
21
50.702983
0
LINE
8
Layer 1
10
54.898191
20
50.702983
11
54.898191
21
50.332567
0
LINE
8
Layer 1
10
54.898191
20
50.332567
11
54.682177
21
49.458909
0
LINE
8
Layer 1
10
54.682177
20
49.458909
11
54.042705
21
48.727428
0
LINE
8
Layer 1
10
54.042705
20
48.727428
11
53.810809
21
48.904669
0
LINE
8
Layer 1
10
53.810809
20
48.904669
11
53.672288
21
49.247775
0
LINE
8
Layer 1
10
53.672288
20
49.247775
11
53.575275
21
49.856317
0
LINE
8
Layer 1
10
53.575275
20
49.856317
11
53.575275
21
49.291872
0
LINE
8
Layer 1
10
53.575275
20
49.291872
11
53.619372
21
48.586317
0
LINE
8
Layer 1
10
53.619372
20
48.586317
11
53.773634
21
48.340941
0
LINE
8
Layer 1
10
53.773634
20
48.340941
11
54.139719
21
48.259997
0
LINE
8
Layer 1
10
54.139719
20
48.259997
11
54.845545
21
48.471546
0
LINE
8
Layer 1
10
54.845545
20
48.471546
11
55.268608
21
49.106664
0
LINE
8
Layer 1
10
55.268608
20
49.106664
11
55.550830
21
50.702983
0
LINE
8
Layer 1
10
55.550830
20
50.702983
11
55.388863
21
51.198073
0
LINE
8
Layer 1
10
55.388863
20
51.198073
11
54.898191
21
51.364442
0
LINE
8
Layer 1
10
54.898191
20
51.364442
11
54.898191
21
51.364442
0
LINE
8
Layer 1
10
65.146386
20
50.985206
11
63.029719
21
50.658886
0
LINE
8
Layer 1
10
63.029719
20
50.658886
11
62.473909
21
50.432267
0
LINE
8
Layer 1
10
62.473909
20
50.432267
11
62.077042
21
50.081538
0
LINE
8
Layer 1
10
62.077042
20
50.081538
11
61.839014
21
49.607174
0
LINE
8
Layer 1
10
61.839014
20
49.607174
11
61.759719
21
49.009650
0
LINE
8
Layer 1
10
61.759719
20
49.009650
11
61.819884
21
48.647984
0
LINE
8
Layer 1
10
61.819884
20
48.647984
11
61.997844
21
48.498122
0
LINE
8
Layer 1
10
61.997844
20
48.498122
11
62.703400
21
48.445206
0
LINE
8
Layer 1
10
62.703400
20
48.445206
11
63.654269
21
48.635987
0
LINE
8
Layer 1
10
63.654269
20
48.635987
11
64.440830
21
49.203678
0
LINE
8
Layer 1
10
64.440830
20
49.203678
11
64.969797
21
50.024428
0
LINE
8
Layer 1
10
64.969797
20
50.024428
11
65.146386
21
50.985206
0
LINE
8
Layer 1
10
65.146386
20
50.985206
11
65.146386
21
50.985206
0
LINE
8
Layer 1
10
63.973400
20
50.702983
11
64.114511
21
50.702983
0
LINE
8
Layer 1
10
64.114511
20
50.702983
11
64.211525
21
50.702983
0
LINE
8
Layer 1
10
64.211525
20
50.702983
11
64.352636
21
50.614789
0
LINE
8
Layer 1
10
64.352636
20
50.614789
11
64.493747
21
50.517775
0
LINE
8
Layer 1
10
64.493747
20
50.517775
11
64.493747
21
50.420761
0
LINE
8
Layer 1
10
64.493747
20
50.420761
11
64.327722
21
49.844659
0
LINE
8
Layer 1
10
64.327722
20
49.844659
11
63.832288
21
49.432983
0
LINE
8
Layer 1
10
63.832288
20
49.432983
11
62.703400
21
49.106664
0
LINE
8
Layer 1
10
62.703400
20
49.106664
11
62.377080
21
49.150761
0
LINE
8
Layer 1
10
62.377080
20
49.150761
11
62.041941
21
49.194858
0
LINE
8
Layer 1
10
62.041941
20
49.194858
11
62.348233
21
49.738871
0
LINE
8
Layer 1
10
62.348233
20
49.738871
11
62.888608
21
50.235553
0
LINE
8
Layer 1
10
62.888608
20
50.235553
11
63.448564
21
50.559384
0
LINE
8
Layer 1
10
63.448564
20
50.559384
11
63.973400
21
50.702983
0
LINE
8
Layer 1
10
63.973400
20
50.702983
11
63.973400
21
50.702983
0
LINE
8
Layer 1
10
87.450761
20
50.702983
11
85.942636
21
50.473678
0
LINE
8
Layer 1
10
85.942636
20
50.473678
11
85.447110
21
50.034519
0
LINE
8
Layer 1
10
85.447110
20
50.034519
11
85.281177
21
49.194858
0
LINE
8
Layer 1
10
85.281177
20
49.194858
11
85.563400
21
48.921456
0
LINE
8
Layer 1
10
85.563400
20
48.921456
11
85.898538
21
48.824442
0
LINE
8
Layer 1
10
85.898538
20
48.824442
11
86.410066
21
48.727428
0
LINE
8
Layer 1
10
86.410066
20
48.727428
11
86.507080
21
48.727428
0
LINE
8
Layer 1
10
86.507080
20
48.727428
11
87.918191
21
49.009650
0
LINE
8
Layer 1
10
87.918191
20
49.009650
11
88.625066
21
49.407839
0
LINE
8
Layer 1
10
88.625066
20
49.407839
11
88.861872
21
50.041525
0
LINE
8
Layer 1
10
88.861872
20
50.041525
11
88.741414
21
50.395200
0
LINE
8
Layer 1
10
88.741414
20
50.395200
11
88.385622
21
50.702983
0
LINE
8
Layer 1
10
88.385622
20
50.702983
11
87.450761
21
50.702983
0
LINE
8
Layer 1
10
87.450761
20
50.702983
11
87.450761
21
50.702983
0
LINE
8
Layer 1
10
87.353747
20
50.332567
11
87.732983
21
50.332567
0
LINE
8
Layer 1
10
87.732983
20
50.332567
11
88.200413
21
50.041525
0
LINE
8
Layer 1
10
88.200413
20
50.041525
11
87.589141
21
49.550799
0
LINE
8
Layer 1
10
87.589141
20
49.550799
11
86.507080
21
49.388886
0
LINE
8
Layer 1
10
86.507080
20
49.388886
11
86.127844
21
49.388886
0
LINE
8
Layer 1
10
86.127844
20
49.388886
11
85.757427
21
49.574094
0
LINE
8
Layer 1
10
85.757427
20
49.574094
11
86.462983
21
50.191456
0
LINE
8
Layer 1
10
86.462983
20
50.191456
11
87.353747
21
50.332567
0
LINE
8
Layer 1
10
87.353747
20
50.332567
11
87.353747
21
50.332567
0
LINE
8
Layer 1
10
49.244927
20
49.856317
11
48.298388
21
49.710203
0
LINE
8
Layer 1
10
48.298388
20
49.710203
11
47.623275
21
49.271209
0
LINE
8
Layer 1
10
47.623275
20
49.271209
11
47.218797
21
48.538276
0
LINE
8
Layer 1
10
47.218797
20
48.538276
11
47.084163
21
47.510344
0
LINE
8
Layer 1
10
47.084163
20
47.510344
11
48.962705
21
47.836664
0
LINE
8
Layer 1
10
48.962705
20
47.836664
11
49.814000
21
48.339512
0
LINE
8
Layer 1
10
49.814000
20
48.339512
11
50.028552
21
48.722724
0
LINE
8
Layer 1
10
50.028552
20
48.722724
11
50.100413
21
49.194858
0
LINE
8
Layer 1
10
50.100413
20
49.194858
11
49.884404
21
49.690664
0
LINE
8
Layer 1
10
49.884404
20
49.690664
11
49.244927
21
49.856317
0
LINE
8
Layer 1
10
49.244927
20
49.856317
11
49.244927
21
49.856317
0
LINE
8
Layer 1
10
49.244927
20
49.671108
11
49.528557
21
49.550683
0
LINE
8
Layer 1
10
49.528557
20
49.550683
11
49.624163
21
49.194858
0
LINE
8
Layer 1
10
49.624163
20
49.194858
11
49.458150
21
48.763508
0
LINE
8
Layer 1
10
49.458150
20
48.763508
11
48.962705
21
48.401108
0
LINE
8
Layer 1
10
48.962705
20
48.401108
11
47.930830
21
48.065969
0
LINE
8
Layer 1
10
47.930830
20
48.065969
11
47.833816
21
48.065969
0
LINE
8
Layer 1
10
47.833816
20
48.065969
11
47.604511
21
48.162983
0
LINE
8
Layer 1
10
47.604511
20
48.162983
11
47.366386
21
48.259997
0
LINE
8
Layer 1
10
47.366386
20
48.259997
11
48.213052
21
49.150761
0
LINE
8
Layer 1
10
48.213052
20
49.150761
11
48.752293
21
49.540119
0
LINE
8
Layer 1
10
48.752293
20
49.540119
11
49.244927
21
49.671108
0
LINE
8
Layer 1
10
49.244927
20
49.671108
11
49.244927
21
49.671108
0
LINE
8
Layer 1
10
72.581177
20
48.542219
11
72.721944
21
48.118562
0
LINE
8
Layer 1
10
72.721944
20
48.118562
11
73.145622
21
47.977775
0
LINE
8
Layer 1
10
73.145622
20
47.977775
11
73.004766
21
48.401388
0
LINE
8
Layer 1
10
73.004766
20
48.401388
11
72.581177
21
48.542219
0
LINE
8
Layer 1
10
72.581177
20
48.542219
11
72.581177
21
48.542219
0
LINE
8
Layer 1
10
94.876733
20
48.542219
11
94.665212
21
48.306633
0
LINE
8
Layer 1
10
94.665212
20
48.306633
11
94.594511
21
47.977775
0
LINE
8
Layer 1
10
94.594511
20
47.977775
11
94.594511
21
47.510344
0
LINE
8
Layer 1
10
94.594511
20
47.510344
11
94.770999
21
46.825233
0
LINE
8
Layer 1
10
94.770999
20
46.825233
11
95.300066
21
46.469650
0
LINE
8
Layer 1
10
95.300066
20
46.469650
11
96.764094
21
46.284442
0
LINE
8
Layer 1
10
96.764094
20
46.284442
11
97.795969
21
46.328539
0
LINE
8
Layer 1
10
97.795969
20
46.328539
11
98.291018
21
46.507270
0
LINE
8
Layer 1
10
98.291018
20
46.507270
11
98.457427
21
46.945900
0
LINE
8
Layer 1
10
98.457427
20
46.945900
11
98.210411
21
47.790638
0
LINE
8
Layer 1
10
98.210411
20
47.790638
11
97.469650
21
48.259997
0
LINE
8
Layer 1
10
97.469650
20
48.259997
11
95.723400
21
48.542219
0
LINE
8
Layer 1
10
95.723400
20
48.542219
11
94.876733
21
48.542219
0
LINE
8
Layer 1
10
94.876733
20
48.542219
11
94.876733
21
48.542219
0
LINE
8
Layer 1
10
95.494094
20
48.348192
11
95.635205
21
48.348192
0
LINE
8
Layer 1
10
95.635205
20
48.348192
11
96.210153
21
48.246433
0
LINE
8
Layer 1
10
96.210153
20
48.246433
11
96.808191
21
47.933678
0
LINE
8
Layer 1
10
96.808191
20
47.933678
11
97.269709
21
47.450842
0
LINE
8
Layer 1
10
97.269709
20
47.450842
11
97.425552
21
46.848886
0
LINE
8
Layer 1
10
97.425552
20
46.848886
11
96.014441
21
46.989997
0
LINE
8
Layer 1
10
96.014441
20
46.989997
11
95.398507
21
47.281742
0
LINE
8
Layer 1
10
95.398507
20
47.281742
11
94.876733
21
47.880761
0
LINE
8
Layer 1
10
94.876733
20
47.880761
11
95.113920
21
48.204042
0
LINE
8
Layer 1
10
95.113920
20
48.204042
11
95.494094
21
48.348192
0
LINE
8
Layer 1
10
95.494094
20
48.348192
11
95.494094
21
48.348192
0
LINE
8
Layer 1
10
39.367150
20
48.259997
11
37.911941
21
48.118886
0
LINE
8
Layer 1
10
37.911941
20
48.118886
11
37.310725
21
47.755257
0
LINE
8
Layer 1
10
37.310725
20
47.755257
11
37.109372
21
46.945900
0
LINE
8
Layer 1
10
37.109372
20
46.945900
11
37.204938
21
46.482452
0
LINE
8
Layer 1
10
37.204938
20
46.482452
11
37.488608
21
46.231525
0
LINE
8
Layer 1
10
37.488608
20
46.231525
11
38.335275
21
46.090414
0
LINE
8
Layer 1
10
38.335275
20
46.090414
11
39.099523
21
46.231560
0
LINE
8
Layer 1
10
39.099523
20
46.231560
11
39.887497
21
46.654858
0
LINE
8
Layer 1
10
39.887497
20
46.654858
11
40.488678
21
47.269277
0
LINE
8
Layer 1
10
40.488678
20
47.269277
11
40.690066
21
47.977775
0
LINE
8
Layer 1
10
40.690066
20
47.977775
11
40.690066
21
48.065969
0
LINE
8
Layer 1
10
40.690066
20
48.065969
11
40.496038
21
48.259997
0
LINE
8
Layer 1
10
40.496038
20
48.259997
11
39.367150
21
48.259997
0
LINE
8
Layer 1
10
39.367150
20
48.259997
11
39.367150
21
48.259997
0
LINE
8
Layer 1
10
76.726316
20
48.065969
11
75.972206
21
47.929190
0
LINE
8
Layer 1
10
75.972206
20
47.929190
11
75.218191
21
47.510344
0
LINE
8
Layer 1
10
75.218191
20
47.510344
11
74.655247
21
46.871064
0
LINE
8
Layer 1
10
74.655247
20
46.871064
11
74.468538
21
46.090414
0
LINE
8
Layer 1
10
74.468538
20
46.090414
11
74.655246
21
45.527496
0
LINE
8
Layer 1
10
74.655246
20
45.527496
11
75.218191
21
45.340761
0
LINE
8
Layer 1
10
75.218191
20
45.340761
11
76.039994
21
45.506729
0
LINE
8
Layer 1
10
76.039994
20
45.506729
11
76.814511
21
46.002219
0
LINE
8
Layer 1
10
76.814511
20
46.002219
11
77.381771
21
46.730370
0
LINE
8
Layer 1
10
77.381771
20
46.730370
11
77.572983
21
47.598539
0
LINE
8
Layer 1
10
77.572983
20
47.598539
11
77.498123
21
47.892377
0
LINE
8
Layer 1
10
77.498123
20
47.892377
11
77.281941
21
48.021872
0
LINE
8
Layer 1
10
77.281941
20
48.021872
11
76.726316
21
48.065969
0
LINE
8
Layer 1
10
76.726316
20
48.065969
11
76.726316
21
48.065969
0
LINE
8
Layer 1
10
39.367150
20
47.977775
11
39.843400
21
47.977775
0
LINE
8
Layer 1
10
39.843400
20
47.977775
11
39.712777
21
47.354655
0
LINE
8
Layer 1
10
39.712777
20
47.354655
11
39.323052
21
46.989997
0
LINE
8
Layer 1
10
39.323052
20
46.989997
11
38.150066
21
46.751872
0
LINE
8
Layer 1
10
38.150066
20
46.751872
11
37.576802
21
46.751872
0
LINE
8
Layer 1
10
37.576802
20
46.751872
11
37.437521
21
46.867842
0
LINE
8
Layer 1
10
37.437521
20
46.867842
11
37.391594
21
47.219303
0
LINE
8
Layer 1
10
37.391594
20
47.219303
11
37.582740
21
47.610511
0
LINE
8
Layer 1
10
37.582740
20
47.610511
11
38.150066
21
47.836664
0
LINE
8
Layer 1
10
38.150066
20
47.836664
11
39.367150
21
47.977775
0
LINE
8
Layer 1
10
39.367150
20
47.977775
11
39.367150
21
47.977775
0
LINE
8
Layer 1
10
76.444094
20
47.598539
11
76.794771
21
47.527755
0
LINE
8
Layer 1
10
76.794771
20
47.527755
11
76.911525
21
47.316317
0
LINE
8
Layer 1
10
76.911525
20
47.316317
11
76.674728
21
46.621000
0
LINE
8
Layer 1
10
76.674728
20
46.621000
11
75.967844
21
46.231525
0
LINE
8
Layer 1
10
75.967844
20
46.231525
11
74.556733
21
46.002219
0
LINE
8
Layer 1
10
74.556733
20
46.002219
11
74.708062
21
46.670883
0
LINE
8
Layer 1
10
74.708062
20
46.670883
11
75.165275
21
47.175206
0
LINE
8
Layer 1
10
75.165275
20
47.175206
11
75.792436
21
47.492732
0
LINE
8
Layer 1
10
75.792436
20
47.492732
11
76.444094
21
47.598539
0
LINE
8
Layer 1
10
76.444094
20
47.598539
11
76.444094
21
47.598539
0
LINE
8
Layer 1
10
31.182705
20
42.333331
11
32.229898
21
42.106768
0
LINE
8
Layer 1
10
32.229898
20
42.106768
11
33.299372
21
41.433747
0
LINE
8
Layer 1
10
33.299372
20
41.433747
11
35.133816
21
40.075553
0
LINE
8
Layer 1
10
35.133816
20
40.075553
11
36.180648
21
39.519148
0
LINE
8
Layer 1
10
36.180648
20
39.519148
11
37.250483
21
39.175969
0
LINE
8
Layer 1
10
37.250483
20
39.175969
11
39.649372
21
38.946664
0
LINE
8
Layer 1
10
39.649372
20
38.946664
11
42.051160
21
39.087818
0
LINE
8
Layer 1
10
42.051160
20
39.087818
11
44.358955
21
39.511108
0
LINE
8
Layer 1
10
44.358955
20
39.511108
11
46.662294
21
39.934369
0
LINE
8
Layer 1
10
46.662294
20
39.934369
11
49.059719
21
40.075553
0
LINE
8
Layer 1
10
49.059719
20
40.075553
11
50.471046
21
39.955136
0
LINE
8
Layer 1
10
50.471046
20
39.955136
11
51.317497
21
39.599303
0
LINE
8
Layer 1
10
51.317497
20
39.599303
11
52.261177
21
38.523331
0
LINE
8
Layer 1
10
52.261177
20
38.523331
11
53.054927
21
37.438539
0
LINE
8
Layer 1
10
53.054927
20
37.438539
11
53.729237
21
37.087445
0
LINE
8
Layer 1
10
53.729237
20
37.087445
11
54.898191
21
36.971108
0
LINE
8
Layer 1
10
54.898191
20
36.971108
11
59.047544
21
37.253430
0
LINE
8
Layer 1
10
59.047544
20
37.253430
11
60.989799
21
37.606225
0
LINE
8
Layer 1
10
60.989799
20
37.606225
11
62.844511
21
38.099997
0
LINE
8
Layer 1
10
62.844511
20
38.099997
11
70.702636
21
40.728192
0
LINE
8
Layer 1
10
70.702636
20
40.728192
11
72.298955
21
41.019233
0
LINE
8
Layer 1
10
72.298955
20
41.019233
11
72.537080
21
40.966317
0
LINE
8
Layer 1
10
72.537080
20
40.966317
11
72.678191
21
40.922219
0
LINE
8
Layer 1
10
72.678191
20
40.922219
11
73.242636
21
40.498886
0
LINE
8
Layer 1
10
73.242636
20
40.498886
11
73.807080
21
39.978539
0
LINE
8
Layer 1
10
73.807080
20
39.978539
11
77.096733
21
39.978539
0
LINE
8
Layer 1
10
77.096733
20
39.978539
11
77.334858
21
39.131872
0
LINE
8
Layer 1
10
77.334858
20
39.131872
11
78.137427
21
37.482636
0
LINE
8
Layer 1
10
78.137427
20
37.482636
11
78.772228
21
36.788101
0
LINE
8
Layer 1
10
78.772228
20
36.788101
11
79.548538
21
36.494858
0
LINE
8
Layer 1
10
79.548538
20
36.494858
11
80.483400
21
36.494858
0
LINE
8
Layer 1
10
80.483400
20
36.494858
11
82.647804
21
36.615607
0
LINE
8
Layer 1
10
82.647804
20
36.615607
11
84.813747
21
36.971108
0
LINE
8
Layer 1
10
84.813747
20
36.971108
11
89.047080
21
38.099997
0
LINE
8
Layer 1
10
89.047080
20
38.099997
11
91.304858
21
38.893747
0
LINE
8
Layer 1
10
91.304858
20
38.893747
11
92.458506
21
39.283115
0
LINE
8
Layer 1
10
92.458506
20
39.283115
11
93.659650
21
39.414094
0
LINE
8
Layer 1
10
93.659650
20
39.414094
11
94.328275
21
39.297730
0
LINE
8
Layer 1
10
94.328275
20
39.297730
11
94.832636
21
38.946664
0
LINE
8
Layer 1
10
94.832636
20
38.946664
11
95.361691
21
38.591157
0
LINE
8
Layer 1
10
95.361691
20
38.591157
11
96.102636
21
38.470414
0
LINE
8
Layer 1
10
96.102636
20
38.470414
11
97.011230
21
38.555775
0
LINE
8
Layer 1
10
97.011230
20
38.555775
11
97.848886
21
38.805553
0
LINE
8
Layer 1
10
97.848886
20
38.805553
11
99.445205
21
39.511108
0
LINE
8
Layer 1
10
99.445205
20
39.511108
11
101.041525
21
40.216664
0
LINE
8
Layer 1
10
101.041525
20
40.216664
11
101.879050
21
40.462357
0
LINE
8
Layer 1
10
101.879050
20
40.462357
11
102.787775
21
40.542983
0
LINE
8
Layer 1
10
102.787775
20
40.542983
11
103.819650
21
40.304858
0
LINE
8
Layer 1
10
103.819650
20
40.304858
11
104.851525
21
39.881525
0
LINE
8
Layer 1
10
104.851525
20
39.881525
11
106.285235
21
39.530069
0
LINE
8
Layer 1
10
106.285235
20
39.530069
11
107.955969
21
39.414094
0
LINE
8
Layer 1
10
107.955969
20
39.414094
11
107.955969
21
39.317081
0
LINE
8
Layer 1
10
107.955969
20
39.317081
11
107.829703
21
39.013714
0
LINE
8
Layer 1
10
107.829703
20
39.013714
11
107.444441
21
38.664442
0
LINE
8
Layer 1
10
107.444441
20
38.664442
11
106.262636
21
37.958886
0
LINE
8
Layer 1
10
106.262636
20
37.958886
11
104.904441
21
37.394442
0
LINE
8
Layer 1
10
104.904441
20
37.394442
11
103.916663
21
37.156317
0
LINE
8
Layer 1
10
103.916663
20
37.156317
11
103.537427
21
37.156317
0
LINE
8
Layer 1
10
103.537427
20
37.156317
11
102.408538
21
38.241108
0
LINE
8
Layer 1
10
102.408538
20
38.241108
11
101.798441
21
38.626067
0
LINE
8
Layer 1
10
101.798441
20
38.626067
11
101.094441
21
38.752636
0
LINE
8
Layer 1
10
101.094441
20
38.752636
11
99.703314
21
38.636630
0
LINE
8
Layer 1
10
99.703314
20
38.636630
11
98.360413
21
38.285206
0
LINE
8
Layer 1
10
98.360413
20
38.285206
11
95.723400
21
37.297428
0
LINE
8
Layer 1
10
95.723400
20
37.297428
11
93.095205
21
36.309650
0
LINE
8
Layer 1
10
93.095205
20
36.309650
11
91.752179
21
35.958195
0
LINE
8
Layer 1
10
91.752179
20
35.958195
11
90.361177
21
35.842219
0
LINE
8
Layer 1
10
90.361177
20
35.842219
11
89.750019
21
35.958195
0
LINE
8
Layer 1
10
89.750019
20
35.958195
11
89.232288
21
36.309650
0
LINE
8
Layer 1
10
89.232288
20
36.309650
11
88.714447
21
36.661074
0
LINE
8
Layer 1
10
88.714447
20
36.661074
11
88.103400
21
36.777081
0
LINE
8
Layer 1
10
88.103400
20
36.777081
11
87.732983
21
36.777081
0
LINE
8
Layer 1
10
87.732983
20
36.777081
11
79.354511
21
35.365969
0
LINE
8
Layer 1
10
79.354511
20
35.365969
11
77.290761
21
35.365969
0
LINE
8
Layer 1
10
77.290761
20
35.365969
11
77.055150
21
35.612552
0
LINE
8
Layer 1
10
77.055150
20
35.612552
11
76.726316
21
36.353747
0
LINE
8
Layer 1
10
76.726316
20
36.353747
11
76.255861
21
37.216036
0
LINE
8
Layer 1
10
76.255861
20
37.216036
11
75.597427
21
37.817775
0
LINE
8
Layer 1
10
75.597427
20
37.817775
11
74.468538
21
38.285206
0
LINE
8
Layer 1
10
74.468538
20
38.285206
11
72.298955
21
38.285206
0
LINE
8
Layer 1
10
72.298955
20
38.285206
11
68.171008
21
38.108641
0
LINE
8
Layer 1
10
68.171008
20
38.108641
11
64.255622
21
37.579650
0
LINE
8
Layer 1
10
64.255622
20
37.579650
11
56.212288
21
35.842219
0
LINE
8
Layer 1
10
56.212288
20
35.842219
11
54.898191
21
35.842219
0
LINE
8
Layer 1
10
54.898191
20
35.842219
11
53.716386
21
36.353747
0
LINE
8
Layer 1
10
53.716386
20
36.353747
11
51.784927
21
37.156317
0
LINE
8
Layer 1
10
51.784927
20
37.156317
11
51.258817
21
37.448370
0
LINE
8
Layer 1
10
51.258817
20
37.448370
11
50.991177
21
37.764858
0
LINE
8
Layer 1
10
50.991177
20
37.764858
11
50.656038
21
38.329303
0
LINE
8
Layer 1
10
50.656038
20
38.329303
11
50.047497
21
38.761456
0
LINE
8
Layer 1
10
50.047497
20
38.761456
11
48.398261
21
38.946664
0
LINE
8
Layer 1
10
48.398261
20
38.946664
11
45.790094
21
38.805840
0
LINE
8
Layer 1
10
45.790094
20
38.805840
11
43.230066
21
38.382219
0
LINE
8
Layer 1
10
43.230066
20
38.382219
11
40.665588
21
37.958571
0
LINE
8
Layer 1
10
40.665588
20
37.958571
11
38.053052
21
37.817775
0
LINE
8
Layer 1
10
38.053052
20
37.817775
11
36.262705
21
37.817775
0
LINE
8
Layer 1
10
36.262705
20
37.817775
11
34.652943
21
38.568130
0
LINE
8
Layer 1
10
34.652943
20
38.568130
11
33.396386
21
39.317081
0
LINE
8
Layer 1
10
33.396386
20
39.317081
11
32.114261
21
39.884373
0
LINE
8
Layer 1
10
32.114261
20
39.884373
11
30.433052
21
40.075553
0
LINE
8
Layer 1
10
30.433052
20
40.075553
11
28.924927
21
40.075553
0
LINE
8
Layer 1
10
28.924927
20
40.075553
11
29.654988
21
39.719688
0
LINE
8
Layer 1
10
29.654988
20
39.719688
11
30.715275
21
39.599303
0
LINE
8
Layer 1
10
30.715275
20
39.599303
11
31.770409
21
39.437355
0
LINE
8
Layer 1
10
31.770409
20
39.437355
11
32.496802
21
38.946664
0
LINE
8
Layer 1
10
32.496802
20
38.946664
11
31.981153
21
38.450820
0
LINE
8
Layer 1
10
31.981153
20
38.450820
11
31.182705
21
38.285206
0
LINE
8
Layer 1
10
31.182705
20
38.285206
11
30.900483
21
38.285206
0
LINE
8
Layer 1
10
30.900483
20
38.285206
11
26.287914
21
38.946664
0
LINE
8
Layer 1
10
26.287914
20
38.946664
11
25.936466
21
39.063357
0
LINE
8
Layer 1
10
25.936466
20
39.063357
11
25.820484
21
39.414094
0
LINE
8
Layer 1
10
25.820484
20
39.414094
11
25.820484
21
39.599303
0
LINE
8
Layer 1
10
25.820484
20
39.599303
11
26.481942
21
40.022636
0
LINE
8
Layer 1
10
26.481942
20
40.022636
11
27.469720
21
40.639997
0
LINE
8
Layer 1
10
27.469720
20
40.639997
11
28.457497
21
41.204442
0
LINE
8
Layer 1
10
28.457497
20
41.204442
11
29.207150
21
41.574858
0
LINE
8
Layer 1
10
29.207150
20
41.574858
11
30.194927
21
42.192219
0
LINE
8
Layer 1
10
30.194927
20
42.192219
11
31.182705
21
42.333331
0
LINE
8
Layer 1
10
31.182705
20
42.333331
11
31.182705
21
42.333331
0
LINE
8
Layer 1
10
101.094441
20
38.099997
11
101.586982
21
37.898615
0
LINE
8
Layer 1
10
101.586982
20
37.898615
11
102.126316
21
37.297428
0
LINE
8
Layer 1
10
102.126316
20
37.297428
11
102.524706
21
36.605042
0
LINE
8
Layer 1
10
102.524706
20
36.605042
11
102.593747
21
36.124442
0
LINE
8
Layer 1
10
102.593747
20
36.124442
11
102.440517
21
35.568396
0
LINE
8
Layer 1
10
102.440517
20
35.568396
11
102.170413
21
35.224858
0
LINE
8
Layer 1
10
102.170413
20
35.224858
11
101.924996
21
34.930213
0
LINE
8
Layer 1
10
101.924996
20
34.930213
11
101.844094
21
34.519303
0
LINE
8
Layer 1
10
101.844094
20
34.519303
11
102.593747
21
34.519303
0
LINE
8
Layer 1
10
102.593747
20
34.519303
11
102.593747
21
34.334094
0
LINE
8
Layer 1
10
102.593747
20
34.334094
11
102.427695
21
34.144105
0
LINE
8
Layer 1
10
102.427695
20
34.144105
11
101.932288
21
33.954858
0
LINE
8
Layer 1
10
101.932288
20
33.954858
11
101.094441
21
33.672636
0
LINE
8
Layer 1
10
101.094441
20
33.672636
11
101.041525
21
33.628539
0
LINE
8
Layer 1
10
101.041525
20
33.628539
11
100.997427
21
33.487428
0
LINE
8
Layer 1
10
100.997427
20
33.487428
11
101.094441
21
33.390414
0
LINE
8
Layer 1
10
101.094441
20
33.390414
11
101.420761
21
33.161108
0
LINE
8
Layer 1
10
101.420761
20
33.161108
11
101.747080
21
32.922983
0
LINE
8
Layer 1
10
101.747080
20
32.922983
11
101.593851
21
32.735613
0
LINE
8
Layer 1
10
101.593851
20
32.735613
11
101.323747
21
32.737775
0
LINE
8
Layer 1
10
101.323747
20
32.737775
11
100.812219
21
32.737775
0
LINE
8
Layer 1
10
100.812219
20
32.737775
11
100.150761
21
32.314442
0
LINE
8
Layer 1
10
100.150761
20
32.314442
11
99.489302
21
31.891108
0
LINE
8
Layer 1
10
99.489302
20
31.891108
11
99.630413
21
31.088539
0
LINE
8
Layer 1
10
99.630413
20
31.088539
11
99.547176
21
30.631360
0
LINE
8
Layer 1
10
99.547176
20
30.631360
11
99.207080
21
30.479997
0
LINE
8
Layer 1
10
99.207080
20
30.479997
11
99.118886
21
30.568192
0
LINE
8
Layer 1
10
99.118886
20
30.568192
11
98.924858
21
31.088539
0
LINE
8
Layer 1
10
98.924858
20
31.088539
11
98.901408
21
31.194616
0
LINE
8
Layer 1
10
98.901408
20
31.194616
11
98.642636
21
31.229650
0
LINE
8
Layer 1
10
98.642636
20
31.229650
11
97.981177
21
30.947428
0
LINE
8
Layer 1
10
97.981177
20
30.947428
11
97.425552
21
30.665206
0
LINE
8
Layer 1
10
97.425552
20
30.665206
11
97.209508
21
31.372484
0
LINE
8
Layer 1
10
97.209508
20
31.372484
11
96.570066
21
31.608886
0
LINE
8
Layer 1
10
96.570066
20
31.608886
11
95.723400
21
31.555969
0
LINE
8
Layer 1
10
95.723400
20
31.555969
11
94.876733
21
31.414858
0
LINE
8
Layer 1
10
94.876733
20
31.414858
11
94.876733
21
31.317844
0
LINE
8
Layer 1
10
94.876733
20
31.317844
11
94.876733
21
31.229650
0
LINE
8
Layer 1
10
94.876733
20
31.229650
11
95.158955
21
30.850414
0
LINE
8
Layer 1
10
95.158955
20
30.850414
11
95.538191
21
30.568192
0
LINE
8
Layer 1
10
95.538191
20
30.568192
11
95.635205
21
30.285969
0
LINE
8
Layer 1
10
95.635205
20
30.285969
11
95.635205
21
30.188956
0
LINE
8
Layer 1
10
95.635205
20
30.188956
11
94.224094
21
30.188956
0
LINE
8
Layer 1
10
94.224094
20
30.188956
11
94.171177
21
30.100761
0
LINE
8
Layer 1
10
94.171177
20
30.100761
11
94.224094
21
29.818539
0
LINE
8
Layer 1
10
94.224094
20
29.818539
11
94.268191
21
29.721525
0
LINE
8
Layer 1
10
94.268191
20
29.721525
11
94.409302
21
29.633331
0
LINE
8
Layer 1
10
94.409302
20
29.633331
11
94.973747
21
29.395206
0
LINE
8
Layer 1
10
94.973747
20
29.395206
11
95.538191
21
29.157081
0
LINE
8
Layer 1
10
95.538191
20
29.157081
11
95.538191
21
28.971872
0
LINE
8
Layer 1
10
95.538191
20
28.971872
11
94.409302
21
28.830761
0
LINE
8
Layer 1
10
94.409302
20
28.830761
11
93.474441
21
28.786664
0
LINE
8
Layer 1
10
93.474441
20
28.786664
11
91.587080
21
28.786664
0
LINE
8
Layer 1
10
91.587080
20
28.786664
11
90.563919
21
28.867625
0
LINE
8
Layer 1
10
90.563919
20
28.867625
11
89.752636
21
29.112983
0
LINE
8
Layer 1
10
89.752636
20
29.112983
11
88.482636
21
29.765622
0
LINE
8
Layer 1
10
88.482636
20
29.765622
11
87.397844
21
30.427081
0
LINE
8
Layer 1
10
87.397844
20
30.427081
11
86.846470
21
30.677191
0
LINE
8
Layer 1
10
86.846470
20
30.677191
11
86.224858
21
30.762219
0
LINE
8
Layer 1
10
86.224858
20
30.762219
11
85.237080
21
30.665206
0
LINE
8
Layer 1
10
85.237080
20
30.665206
11
84.249302
21
30.568192
0
LINE
8
Layer 1
10
84.249302
20
30.568192
11
82.652983
21
30.197775
0
LINE
8
Layer 1
10
82.652983
20
30.197775
11
80.245275
21
29.633331
0
LINE
8
Layer 1
10
80.245275
20
29.633331
11
77.802288
21
29.112983
0
LINE
8
Layer 1
10
77.802288
20
29.112983
11
76.250066
21
28.786664
0
LINE
8
Layer 1
10
76.250066
20
28.786664
11
76.064858
21
28.733747
0
LINE
8
Layer 1
10
76.064858
20
28.733747
11
75.870830
21
28.689650
0
LINE
8
Layer 1
10
75.870830
20
28.689650
11
75.401205
21
28.805632
0
LINE
8
Layer 1
10
75.401205
20
28.805632
11
75.121177
21
29.157081
0
LINE
8
Layer 1
10
75.121177
20
29.157081
11
73.524858
21
29.157081
0
LINE
8
Layer 1
10
73.524858
20
29.157081
11
73.330830
21
29.439303
0
LINE
8
Layer 1
10
73.330830
20
29.439303
11
73.723449
21
29.654449
0
LINE
8
Layer 1
10
73.723449
20
29.654449
11
73.762983
21
29.915553
0
LINE
8
Layer 1
10
73.762983
20
29.915553
11
73.621872
21
30.665206
0
LINE
8
Layer 1
10
73.621872
20
30.665206
11
73.048608
21
30.568192
0
LINE
8
Layer 1
10
73.048608
20
30.568192
11
72.484163
21
30.568192
0
LINE
8
Layer 1
10
72.484163
20
30.568192
11
72.154881
21
30.770984
0
LINE
8
Layer 1
10
72.154881
20
30.770984
11
71.919719
21
31.185553
0
LINE
8
Layer 1
10
71.919719
20
31.185553
11
71.568480
21
31.666456
0
LINE
8
Layer 1
10
71.568480
20
31.666456
11
70.887844
21
32.076317
0
LINE
8
Layer 1
10
70.887844
20
32.076317
11
70.420413
21
32.358539
0
LINE
8
Layer 1
10
70.420413
20
32.358539
11
70.041177
21
32.737775
0
LINE
8
Layer 1
10
70.041177
20
32.737775
11
69.997080
21
32.499650
0
LINE
8
Layer 1
10
69.997080
20
32.499650
11
69.944163
21
32.261525
0
LINE
8
Layer 1
10
69.944163
20
32.261525
11
70.099902
21
31.402853
0
LINE
8
Layer 1
10
70.099902
20
31.402853
11
70.561525
21
30.709303
0
LINE
8
Layer 1
10
70.561525
20
30.709303
11
71.018649
21
30.060960
0
LINE
8
Layer 1
10
71.018649
20
30.060960
11
71.170066
21
29.342289
0
LINE
8
Layer 1
10
71.170066
20
29.342289
11
70.583020
21
29.448066
0
LINE
8
Layer 1
10
70.583020
20
29.448066
11
70.138191
21
29.765622
0
LINE
8
Layer 1
10
70.138191
20
29.765622
11
69.688149
21
30.107979
0
LINE
8
Layer 1
10
69.688149
20
30.107979
11
69.097497
21
30.285969
0
LINE
8
Layer 1
10
69.097497
20
30.285969
11
69.110164
21
31.182509
0
LINE
8
Layer 1
10
69.110164
20
31.182509
11
68.771177
21
31.608886
0
LINE
8
Layer 1
10
68.771177
20
31.608886
11
67.218955
21
31.794094
0
LINE
8
Layer 1
10
67.218955
20
31.794094
11
67.404163
21
31.132636
0
LINE
8
Layer 1
10
67.404163
20
31.132636
11
67.598191
21
30.479997
0
LINE
8
Layer 1
10
67.598191
20
30.479997
11
66.750411
21
30.656538
0
LINE
8
Layer 1
10
66.750411
20
30.656538
11
66.090066
21
31.185553
0
LINE
8
Layer 1
10
66.090066
20
31.185553
11
65.455179
21
31.714550
0
LINE
8
Layer 1
10
65.455179
20
31.714550
11
64.678955
21
31.891108
0
LINE
8
Layer 1
10
64.678955
20
31.891108
11
64.017497
21
31.608886
0
LINE
8
Layer 1
10
64.017497
20
31.608886
11
63.929302
21
31.608886
0
LINE
8
Layer 1
10
63.929302
20
31.608886
11
63.832288
21
31.608886
0
LINE
8
Layer 1
10
63.832288
20
31.608886
11
63.550066
21
31.891108
0
LINE
8
Layer 1
10
63.550066
20
31.891108
11
63.550066
21
31.979303
0
LINE
8
Layer 1
10
63.550066
20
31.979303
11
63.550066
21
32.076317
0
LINE
8
Layer 1
10
63.550066
20
32.076317
11
63.832288
21
32.543747
0
LINE
8
Layer 1
10
63.832288
20
32.543747
11
63.832288
21
32.640761
0
LINE
8
Layer 1
10
63.832288
20
32.640761
11
63.832288
21
32.737775
0
LINE
8
Layer 1
10
63.832288
20
32.737775
11
62.465275
21
33.019997
0
LINE
8
Layer 1
10
62.465275
20
33.019997
11
61.098261
21
33.205206
0
LINE
8
Layer 1
10
61.098261
20
33.205206
11
60.727844
21
33.205206
0
LINE
8
Layer 1
10
60.727844
20
33.205206
11
61.389302
21
32.076317
0
LINE
8
Layer 1
10
61.389302
20
32.076317
11
61.268866
21
31.818183
0
LINE
8
Layer 1
10
61.268866
20
31.818183
11
60.913052
21
31.608886
0
LINE
8
Layer 1
10
60.913052
20
31.608886
11
60.348608
21
31.608886
0
LINE
8
Layer 1
10
60.348608
20
31.608886
11
59.784163
21
31.652983
0
LINE
8
Layer 1
10
59.784163
20
31.652983
11
59.526368
21
31.782445
0
LINE
8
Layer 1
10
59.526368
20
31.782445
11
59.316733
21
32.076317
0
LINE
8
Layer 1
10
59.316733
20
32.076317
11
59.457844
21
32.314442
0
LINE
8
Layer 1
10
59.457844
20
32.314442
11
59.598955
21
32.543747
0
LINE
8
Layer 1
10
59.598955
20
32.543747
11
59.598955
21
32.737775
0
LINE
8
Layer 1
10
59.598955
20
32.737775
11
59.598955
21
32.922983
0
LINE
8
Layer 1
10
59.598955
20
32.922983
11
58.796386
21
33.531525
0
LINE
8
Layer 1
10
58.796386
20
33.531525
11
57.993816
21
34.051872
0
LINE
8
Layer 1
10
57.993816
20
34.051872
11
57.861525
21
34.095969
0
LINE
8
Layer 1
10
57.861525
20
34.095969
11
57.623400
21
34.140067
0
LINE
8
Layer 1
10
57.623400
20
34.140067
11
57.186550
21
34.073698
0
LINE
8
Layer 1
10
57.186550
20
34.073698
11
56.820830
21
33.866664
0
LINE
8
Layer 1
10
56.820830
20
33.866664
11
56.455045
21
33.655194
0
LINE
8
Layer 1
10
56.455045
20
33.655194
11
56.018261
21
33.584442
0
LINE
8
Layer 1
10
56.018261
20
33.584442
11
55.833052
21
33.672636
0
LINE
8
Layer 1
10
55.833052
20
33.672636
11
56.727176
21
34.592556
0
LINE
8
Layer 1
10
56.727176
20
34.592556
11
58.090830
21
35.277775
0
LINE
8
Layer 1
10
58.090830
20
35.277775
11
60.727844
21
36.124442
0
LINE
8
Layer 1
10
60.727844
20
36.124442
11
64.092274
21
36.685537
0
LINE
8
Layer 1
10
64.092274
20
36.685537
11
67.598191
21
37.059303
0
LINE
8
Layer 1
10
67.598191
20
37.059303
11
74.468538
21
37.438539
0
LINE
8
Layer 1
10
74.468538
20
37.438539
11
75.183478
21
37.322176
0
LINE
8
Layer 1
10
75.183478
20
37.322176
11
75.641525
21
36.971108
0
LINE
8
Layer 1
10
75.641525
20
36.971108
11
76.294163
21
35.886317
0
LINE
8
Layer 1
10
76.294163
20
35.886317
11
77.149650
21
34.801525
0
LINE
8
Layer 1
10
77.149650
20
34.801525
11
77.863215
21
34.450074
0
LINE
8
Layer 1
10
77.863215
20
34.450074
11
78.975275
21
34.334094
0
LINE
8
Layer 1
10
78.975275
20
34.334094
11
81.140755
21
34.500069
0
LINE
8
Layer 1
10
81.140755
20
34.500069
11
83.305622
21
34.995553
0
LINE
8
Layer 1
10
83.305622
20
34.995553
11
85.470383
21
35.486602
0
LINE
8
Layer 1
10
85.470383
20
35.486602
11
87.635969
21
35.648192
0
LINE
8
Layer 1
10
87.635969
20
35.648192
11
88.667844
21
35.648192
0
LINE
8
Layer 1
10
88.667844
20
35.648192
11
89.634854
21
34.945300
0
LINE
8
Layer 1
10
89.634854
20
34.945300
11
90.837427
21
34.713331
0
LINE
8
Layer 1
10
90.837427
20
34.713331
11
92.213816
21
34.839512
0
LINE
8
Layer 1
10
92.213816
20
34.839512
11
93.518538
21
35.224858
0
LINE
8
Layer 1
10
93.518538
20
35.224858
11
96.058538
21
36.406664
0
LINE
8
Layer 1
10
96.058538
20
36.406664
11
98.545622
21
37.579650
0
LINE
8
Layer 1
10
98.545622
20
37.579650
11
99.796277
21
37.969375
0
LINE
8
Layer 1
10
99.796277
20
37.969375
11
101.094441
21
38.099997
0
LINE
8
Layer 1
10
101.094441
20
38.099997
11
101.094441
21
38.099997
0
LINE
8
Layer 1
10
47.833816
20
37.905969
11
48.234867
21
37.719200
0
LINE
8
Layer 1
10
48.234867
20
37.719200
11
48.495275
21
37.156317
0
LINE
8
Layer 1
10
48.495275
20
37.156317
11
48.398261
21
37.156317
0
LINE
8
Layer 1
10
48.398261
20
37.156317
11
48.213052
21
37.156317
0
LINE
8
Layer 1
10
48.213052
20
37.156317
11
47.551594
21
37.817775
0
LINE
8
Layer 1
10
47.551594
20
37.817775
11
47.833816
21
37.905969
0
LINE
8
Layer 1
10
47.833816
20
37.905969
11
47.833816
21
37.905969
0
LINE
8
Layer 1
10
46.519719
20
37.817775
11
46.616733
21
37.817775
0
LINE
8
Layer 1
10
46.616733
20
37.817775
11
46.704927
21
37.817775
0
LINE
8
Layer 1
10
46.704927
20
37.817775
11
46.987150
21
36.688886
0
LINE
8
Layer 1
10
46.987150
20
36.688886
11
47.181177
21
35.559997
0
LINE
8
Layer 1
10
47.181177
20
35.559997
11
47.084163
21
35.604094
0
LINE
8
Layer 1
10
47.084163
20
35.604094
11
46.898955
21
35.648192
0
LINE
8
Layer 1
10
46.898955
20
35.648192
11
46.590097
21
35.897636
0
LINE
8
Layer 1
10
46.590097
20
35.897636
11
46.422705
21
36.265553
0
LINE
8
Layer 1
10
46.422705
20
36.265553
11
46.164089
21
36.699076
0
LINE
8
Layer 1
10
46.164089
20
36.699076
11
45.576038
21
37.156317
0
LINE
8
Layer 1
10
45.576038
20
37.156317
11
45.487844
21
37.297428
0
LINE
8
Layer 1
10
45.487844
20
37.297428
11
45.390830
21
37.438539
0
LINE
8
Layer 1
10
45.390830
20
37.438539
11
45.568788
21
37.661264
0
LINE
8
Layer 1
10
45.568788
20
37.661264
11
45.911177
21
37.764858
0
LINE
8
Layer 1
10
45.911177
20
37.764858
11
46.519719
21
37.817775
0
LINE
8
Layer 1
10
46.519719
20
37.817775
11
46.519719
21
37.817775
0
LINE
8
Layer 1
10
33.722705
20
37.720761
11
34.062133
21
37.650341
0
LINE
8
Layer 1
10
34.062133
20
37.650341
11
34.331247
21
37.438539
0
LINE
8
Layer 1
10
34.331247
20
37.438539
11
34.569372
21
36.874094
0
LINE
8
Layer 1
10
34.569372
20
36.874094
11
34.525275
21
36.688886
0
LINE
8
Layer 1
10
34.525275
20
36.688886
11
34.472358
21
36.494858
0
LINE
8
Layer 1
10
34.472358
20
36.494858
11
34.004927
21
37.015206
0
LINE
8
Layer 1
10
34.004927
20
37.015206
11
33.722705
21
37.720761
0
LINE
8
Layer 1
10
33.722705
20
37.720761
11
33.722705
21
37.720761
0
LINE
8
Layer 1
10
44.447150
20
37.438539
11
44.893072
21
37.120805
0
LINE
8
Layer 1
10
44.893072
20
37.120805
11
45.293816
21
36.168539
0
LINE
8
Layer 1
10
45.293816
20
36.168539
11
45.719331
21
35.075436
0
LINE
8
Layer 1
10
45.719331
20
35.075436
11
46.237497
21
34.334094
0
LINE
8
Layer 1
10
46.237497
20
34.334094
11
46.052288
21
34.237081
0
LINE
8
Layer 1
10
46.052288
20
34.237081
11
45.911177
21
34.289997
0
LINE
8
Layer 1
10
45.911177
20
34.289997
11
45.770066
21
34.334094
0
LINE
8
Layer 1
10
45.770066
20
34.334094
11
45.152705
21
34.616317
0
LINE
8
Layer 1
10
45.152705
20
34.616317
11
44.447150
21
34.995553
0
LINE
8
Layer 1
10
44.447150
20
34.995553
11
44.358955
21
34.995553
0
LINE
8
Layer 1
10
44.358955
20
34.995553
11
44.076733
21
34.854442
0
LINE
8
Layer 1
10
44.076733
20
34.854442
11
43.794511
21
34.713331
0
LINE
8
Layer 1
10
43.794511
20
34.713331
11
43.301525
21
34.829309
0
LINE
8
Layer 1
10
43.301525
20
34.829309
11
42.947844
21
35.180761
0
LINE
8
Layer 1
10
42.947844
20
35.180761
11
43.935622
21
35.277775
0
LINE
8
Layer 1
10
43.935622
20
35.277775
11
44.532389
21
35.485999
0
LINE
8
Layer 1
10
44.532389
20
35.485999
11
44.729372
21
35.930414
0
LINE
8
Layer 1
10
44.729372
20
35.930414
11
44.729372
21
36.124442
0
LINE
8
Layer 1
10
44.729372
20
36.124442
11
43.978267
21
36.381943
0
LINE
8
Layer 1
10
43.978267
20
36.381943
11
43.415275
21
36.971108
0
LINE
8
Layer 1
10
43.415275
20
36.971108
11
43.860126
21
37.321816
0
LINE
8
Layer 1
10
43.860126
20
37.321816
11
44.447150
21
37.438539
0
LINE
8
Layer 1
10
44.447150
20
37.438539
11
44.447150
21
37.438539
0
LINE
8
Layer 1
10
50.056316
20
37.059303
11
50.100413
21
37.059303
0
LINE
8
Layer 1
10
50.100413
20
37.059303
11
50.285622
21
36.971108
0
LINE
8
Layer 1
10
50.285622
20
36.971108
11
50.121513
21
36.876342
0
LINE
8
Layer 1
10
50.121513
20
36.876342
11
50.003400
21
36.971108
0
LINE
8
Layer 1
10
50.003400
20
36.971108
11
50.056316
21
37.059303
0
LINE
8
Layer 1
10
50.056316
20
37.059303
11
50.056316
21
37.059303
0
LINE
8
Layer 1
10
41.721941
20
36.777081
11
42.180937
21
36.671281
0
LINE
8
Layer 1
10
42.180937
20
36.671281
11
42.427497
21
36.353747
0
LINE
8
Layer 1
10
42.427497
20
36.353747
11
42.568608
21
35.462983
0
LINE
8
Layer 1
10
42.568608
20
35.462983
11
41.342705
21
35.559997
0
LINE
8
Layer 1
10
41.342705
20
35.559997
11
40.707591
21
35.818935
0
LINE
8
Layer 1
10
40.707591
20
35.818935
11
40.496038
21
36.406664
0
LINE
8
Layer 1
10
40.496038
20
36.406664
11
40.496038
21
36.494858
0
LINE
8
Layer 1
10
40.496038
20
36.494858
11
41.721941
21
36.777081
0
LINE
8
Layer 1
10
41.721941
20
36.777081
11
41.721941
21
36.777081
0
LINE
8
Layer 1
10
31.844163
20
36.309650
11
31.983413
21
36.238873
0
LINE
8
Layer 1
10
31.983413
20
36.238873
11
32.029372
21
36.027428
0
LINE
8
Layer 1
10
32.029372
20
36.027428
11
31.844163
21
35.842219
0
LINE
8
Layer 1
10
31.844163
20
35.842219
11
31.650136
21
36.027428
0
LINE
8
Layer 1
10
31.650136
20
36.027428
11
31.699760
21
36.238871
0
LINE
8
Layer 1
10
31.699760
20
36.238871
11
31.844163
21
36.309650
0
LINE
8
Layer 1
10
31.844163
20
36.309650
11
31.844163
21
36.309650
0
LINE
8
Layer 1
10
39.181941
20
36.309650
11
39.335799
21
36.228669
0
LINE
8
Layer 1
10
39.335799
20
36.228669
11
39.420066
21
35.983331
0
LINE
8
Layer 1
10
39.420066
20
35.983331
11
39.464163
21
35.559997
0
LINE
8
Layer 1
10
39.464163
20
35.559997
11
38.846802
21
35.648192
0
LINE
8
Layer 1
10
38.846802
20
35.648192
11
38.529238
21
35.766319
0
LINE
8
Layer 1
10
38.529238
20
35.766319
11
38.423469
21
35.930414
0
LINE
8
Layer 1
10
38.423469
20
35.930414
11
38.423469
21
36.027428
0
LINE
8
Layer 1
10
38.423469
20
36.027428
11
38.520483
21
36.124442
0
LINE
8
Layer 1
10
38.520483
20
36.124442
11
38.855622
21
36.212636
0
LINE
8
Layer 1
10
38.855622
20
36.212636
11
39.181941
21
36.309650
0
LINE
8
Layer 1
10
39.181941
20
36.309650
11
39.181941
21
36.309650
0
LINE
8
Layer 1
10
36.262705
20
36.124442
11
36.447913
21
36.124442
0
LINE
8
Layer 1
10
36.447913
20
36.124442
11
36.874150
21
35.993824
0
LINE
8
Layer 1
10
36.874150
20
35.993824
11
37.206386
21
35.604094
0
LINE
8
Layer 1
10
37.206386
20
35.604094
11
37.488608
21
34.713331
0
LINE
8
Layer 1
10
37.488608
20
34.713331
11
37.041570
21
34.829309
0
LINE
8
Layer 1
10
37.041570
20
34.829309
11
36.641941
21
35.180761
0
LINE
8
Layer 1
10
36.641941
20
35.180761
11
36.358272
21
35.652585
0
LINE
8
Layer 1
10
36.358272
20
35.652585
11
36.262705
21
36.124442
0
LINE
8
Layer 1
10
36.262705
20
36.124442
11
36.262705
21
36.124442
0
LINE
8
Layer 1
10
100.618191
20
36.124442
11
99.630413
21
35.180761
0
LINE
8
Layer 1
10
99.630413
20
35.180761
11
99.194905
21
34.924062
0
LINE
8
Layer 1
10
99.194905
20
34.924062
11
98.360413
21
34.713331
0
LINE
8
Layer 1
10
98.360413
20
34.713331
11
98.360413
21
34.616317
0
LINE
8
Layer 1
10
98.360413
20
34.616317
11
98.360413
21
34.519303
0
LINE
8
Layer 1
10
98.360413
20
34.519303
11
98.686733
21
34.192983
0
LINE
8
Layer 1
10
98.686733
20
34.192983
11
99.118886
21
33.866664
0
LINE
8
Layer 1
10
99.118886
20
33.866664
11
98.528843
21
33.160082
0
LINE
8
Layer 1
10
98.528843
20
33.160082
11
97.892983
21
32.922983
0
LINE
8
Layer 1
10
97.892983
20
32.922983
11
97.541483
21
32.993737
0
LINE
8
Layer 1
10
97.541483
20
32.993737
11
97.425552
21
33.205206
0
LINE
8
Layer 1
10
97.425552
20
33.205206
11
97.329910
21
33.416651
0
LINE
8
Layer 1
10
97.329910
20
33.416651
11
97.046316
21
33.487428
0
LINE
8
Layer 1
10
97.046316
20
33.487428
11
96.852288
21
33.390414
0
LINE
8
Layer 1
10
96.852288
20
33.390414
11
96.199650
21
32.967081
0
LINE
8
Layer 1
10
96.199650
20
32.967081
11
95.538191
21
32.543747
0
LINE
8
Layer 1
10
95.538191
20
32.543747
11
95.538191
21
32.455553
0
LINE
8
Layer 1
10
95.538191
20
32.455553
11
95.538191
21
32.261525
0
LINE
8
Layer 1
10
95.538191
20
32.261525
11
95.679302
21
32.173331
0
LINE
8
Layer 1
10
95.679302
20
32.173331
11
96.005622
21
32.076317
0
LINE
8
Layer 1
10
96.005622
20
32.076317
11
96.102636
21
32.076317
0
LINE
8
Layer 1
10
96.102636
20
32.076317
11
96.199650
21
32.076317
0
LINE
8
Layer 1
10
96.199650
20
32.076317
11
96.622983
21
32.261525
0
LINE
8
Layer 1
10
96.622983
20
32.261525
11
97.046316
21
32.543747
0
LINE
8
Layer 1
10
97.046316
20
32.543747
11
97.328538
21
32.543747
0
LINE
8
Layer 1
10
97.328538
20
32.543747
11
98.034094
21
32.314442
0
LINE
8
Layer 1
10
98.034094
20
32.314442
11
98.827844
21
32.076317
0
LINE
8
Layer 1
10
98.827844
20
32.076317
11
99.150153
21
32.192655
0
LINE
8
Layer 1
10
99.150153
20
32.192655
11
99.542219
21
32.543747
0
LINE
8
Layer 1
10
99.542219
20
32.543747
11
100.291872
21
33.584442
0
LINE
8
Layer 1
10
100.291872
20
33.584442
11
100.856316
21
34.757428
0
LINE
8
Layer 1
10
100.856316
20
34.757428
11
101.094441
21
35.648192
0
LINE
8
Layer 1
10
101.094441
20
35.648192
11
100.812219
21
36.124442
0
LINE
8
Layer 1
10
100.812219
20
36.124442
11
100.715205
21
36.124442
0
LINE
8
Layer 1
10
100.715205
20
36.124442
11
100.618191
21
36.124442
0
LINE
8
Layer 1
10
100.618191
20
36.124442
11
100.618191
21
36.124442
0
LINE
8
Layer 1
10
71.549302
20
35.842219
11
71.748724
21
35.254132
0
LINE
8
Layer 1
10
71.748724
20
35.254132
11
71.972636
21
34.995553
0
LINE
8
Layer 1
10
71.972636
20
34.995553
11
72.960413
21
34.898539
0
LINE
8
Layer 1
10
72.960413
20
34.898539
11
72.839608
21
35.309451
0
LINE
8
Layer 1
10
72.839608
20
35.309451
11
72.484163
21
35.604094
0
LINE
8
Layer 1
10
72.484163
20
35.604094
11
71.637497
21
35.842219
0
LINE
8
Layer 1
10
71.637497
20
35.842219
11
71.549302
21
35.842219
0
LINE
8
Layer 1
10
71.549302
20
35.842219
11
71.549302
21
35.842219
0
LINE
8
Layer 1
10
48.680483
20
35.180761
11
48.777497
21
35.180761
0
LINE
8
Layer 1
10
48.777497
20
35.180761
11
48.962705
21
35.180761
0
LINE
8
Layer 1
10
48.962705
20
35.180761
11
49.059719
21
34.995553
0
LINE
8
Layer 1
10
49.059719
20
34.995553
11
49.156733
21
34.713331
0
LINE
8
Layer 1
10
49.156733
20
34.713331
11
49.156733
21
34.616317
0
LINE
8
Layer 1
10
49.156733
20
34.616317
11
49.156733
21
34.519303
0
LINE
8
Layer 1
10
49.156733
20
34.519303
11
48.680483
21
35.180761
0
LINE
8
Layer 1
10
48.680483
20
35.180761
11
48.680483
21
35.180761
0
LINE
8
Layer 1
10
96.949302
20
34.801525
11
96.384858
21
34.713331
0
LINE
8
Layer 1
10
96.384858
20
34.713331
11
96.172976
21
34.545543
0
LINE
8
Layer 1
10
96.172976
20
34.545543
11
96.102636
21
34.237081
0
LINE
8
Layer 1
10
96.102636
20
34.237081
11
96.667080
21
34.378192
0
LINE
8
Layer 1
10
96.667080
20
34.378192
11
96.878836
21
34.555030
0
LINE
8
Layer 1
10
96.878836
20
34.555030
11
96.949302
21
34.801525
0
LINE
8
Layer 1
10
96.949302
20
34.801525
11
96.949302
21
34.801525
0
LINE
8
Layer 1
10
35.601247
20
34.713331
11
35.795275
21
34.519303
0
LINE
8
Layer 1
10
35.795275
20
34.519303
11
35.601247
21
34.334094
0
LINE
8
Layer 1
10
35.601247
20
34.334094
11
35.416038
21
34.519303
0
LINE
8
Layer 1
10
35.416038
20
34.519303
11
35.601247
21
34.713331
0
LINE
8
Layer 1
10
35.601247
20
34.713331
11
35.601247
21
34.713331
0
LINE
8
Layer 1
10
61.098261
20
34.713331
11
61.098261
21
34.519303
0
LINE
8
Layer 1
10
61.098261
20
34.519303
11
61.175108
21
34.108342
0
LINE
8
Layer 1
10
61.175108
20
34.108342
11
61.405380
21
33.816412
0
LINE
8
Layer 1
10
61.405380
20
33.816412
11
61.788568
21
33.642212
0
LINE
8
Layer 1
10
61.788568
20
33.642212
11
62.324163
21
33.584442
0
LINE
8
Layer 1
10
62.324163
20
33.584442
11
62.703400
21
33.584442
0
LINE
8
Layer 1
10
62.703400
20
33.584442
11
62.888608
21
33.672636
0
LINE
8
Layer 1
10
62.888608
20
33.672636
11
63.267844
21
34.007775
0
LINE
8
Layer 1
10
63.267844
20
34.007775
11
63.364858
21
34.334094
0
LINE
8
Layer 1
10
63.364858
20
34.334094
11
63.082636
21
34.519303
0
LINE
8
Layer 1
10
63.082636
20
34.519303
11
62.183052
21
34.475206
0
LINE
8
Layer 1
10
62.183052
20
34.475206
11
61.559147
21
34.512064
0
LINE
8
Layer 1
10
61.559147
20
34.512064
11
61.098261
21
34.713331
0
LINE
8
Layer 1
10
61.098261
20
34.713331
11
61.098261
21
34.713331
0
LINE
8
Layer 1
10
67.783400
20
34.519303
11
67.766021
21
34.148772
0
LINE
8
Layer 1
10
67.766021
20
34.148772
11
67.619165
21
33.884197
0
LINE
8
Layer 1
10
67.619165
20
33.884197
11
66.936733
21
33.672636
0
LINE
8
Layer 1
10
66.936733
20
33.672636
11
65.904858
21
33.584442
0
LINE
8
Layer 1
10
65.904858
20
33.584442
11
64.864163
21
33.672636
0
LINE
8
Layer 1
10
64.864163
20
33.672636
11
65.404580
21
32.969744
0
LINE
8
Layer 1
10
65.404580
20
32.969744
11
66.275275
21
32.737775
0
LINE
8
Layer 1
10
66.275275
20
32.737775
11
66.768554
21
32.818732
0
LINE
8
Layer 1
10
66.768554
20
32.818732
11
67.121941
21
33.064094
0
LINE
8
Layer 1
10
67.121941
20
33.064094
11
67.454121
21
33.309434
0
LINE
8
Layer 1
10
67.454121
20
33.309434
11
67.880413
21
33.390414
0
LINE
8
Layer 1
10
67.880413
20
33.390414
11
68.444858
21
33.302219
0
LINE
8
Layer 1
10
68.444858
20
33.302219
11
69.009302
21
33.205206
0
LINE
8
Layer 1
10
69.009302
20
33.205206
11
69.572159
21
33.346721
0
LINE
8
Layer 1
10
69.572159
20
33.346721
11
69.758955
21
33.769650
0
LINE
8
Layer 1
10
69.758955
20
33.769650
11
69.547340
21
34.063495
0
LINE
8
Layer 1
10
69.547340
20
34.063495
11
68.912288
21
34.192983
0
LINE
8
Layer 1
10
68.912288
20
34.192983
11
68.206391
21
34.296911
0
LINE
8
Layer 1
10
68.206391
20
34.296911
11
67.783400
21
34.519303
0
LINE
8
Layer 1
10
67.783400
20
34.519303
11
67.783400
21
34.519303
0
LINE
8
Layer 1
10
36.077497
20
34.431108
11
36.262705
21
34.334094
0
LINE
8
Layer 1
10
36.262705
20
34.334094
11
36.004568
21
34.098635
0
LINE
8
Layer 1
10
36.004568
20
34.098635
11
35.795275
21
34.334094
0
LINE
8
Layer 1
10
35.795275
20
34.334094
11
36.077497
21
34.431108
0
LINE
8
Layer 1
10
36.077497
20
34.431108
11
36.077497
21
34.431108
0
LINE
8
Layer 1
10
33.625691
20
34.334094
11
33.722705
21
34.334094
0
LINE
8
Layer 1
10
33.722705
20
34.334094
11
33.819719
21
34.334094
0
LINE
8
Layer 1
10
33.819719
20
34.334094
11
34.287150
21
33.866664
0
LINE
8
Layer 1
10
34.287150
20
33.866664
11
34.004927
21
33.866664
0
LINE
8
Layer 1
10
34.004927
20
33.866664
11
33.343469
21
34.051872
0
LINE
8
Layer 1
10
33.343469
20
34.051872
11
33.625691
21
34.334094
0
LINE
8
Layer 1
10
33.625691
20
34.334094
11
33.625691
21
34.334094
0
LINE
8
Layer 1
10
47.551594
20
34.334094
11
47.745622
21
34.334094
0
LINE
8
Layer 1
10
47.745622
20
34.334094
11
47.833816
21
34.334094
0
LINE
8
Layer 1
10
47.833816
20
34.334094
11
48.495275
21
33.205206
0
LINE
8
Layer 1
10
48.495275
20
33.205206
11
48.116038
21
33.205206
0
LINE
8
Layer 1
10
48.116038
20
33.205206
11
47.647869
21
33.321184
0
LINE
8
Layer 1
10
47.647869
20
33.321184
11
47.366386
21
33.672636
0
LINE
8
Layer 1
10
47.366386
20
33.672636
11
47.410483
21
33.910761
0
LINE
8
Layer 1
10
47.410483
20
33.910761
11
47.551594
21
34.334094
0
LINE
8
Layer 1
10
47.551594
20
34.334094
11
47.551594
21
34.334094
0
LINE
8
Layer 1
10
36.359719
20
34.140067
11
36.924163
21
34.095969
0
LINE
8
Layer 1
10
36.924163
20
34.095969
11
37.135608
21
33.966840
0
LINE
8
Layer 1
10
37.135608
20
33.966840
11
37.206386
21
33.672636
0
LINE
8
Layer 1
10
37.206386
20
33.672636
11
37.109372
21
33.390414
0
LINE
8
Layer 1
10
37.109372
20
33.390414
11
37.065275
21
32.967081
0
LINE
8
Layer 1
10
37.065275
20
32.967081
11
36.924163
21
32.543747
0
LINE
8
Layer 1
10
36.924163
20
32.543747
11
36.558094
21
32.829295
0
LINE
8
Layer 1
10
36.558094
20
32.829295
11
36.403816
21
33.302219
0
LINE
8
Layer 1
10
36.403816
20
33.302219
11
36.359719
21
34.140067
0
LINE
8
Layer 1
10
36.359719
20
34.140067
11
36.359719
21
34.140067
0
LINE
8
Layer 1
10
38.423469
20
33.954858
11
39.129025
21
33.866664
0
LINE
8
Layer 1
10
39.129025
20
33.866664
11
39.379126
21
33.677749
0
LINE
8
Layer 1
10
39.379126
20
33.677749
11
39.464163
21
33.302219
0
LINE
8
Layer 1
10
39.464163
20
33.302219
11
38.684662
21
33.464145
0
LINE
8
Layer 1
10
38.684662
20
33.464145
11
38.488888
21
33.667944
0
LINE
8
Layer 1
10
38.488888
20
33.667944
11
38.423469
21
33.954858
0
LINE
8
Layer 1
10
38.423469
20
33.954858
11
38.423469
21
33.954858
0
LINE
8
Layer 1
10
40.028608
20
33.866664
11
40.690066
21
33.866664
0
LINE
8
Layer 1
10
40.690066
20
33.866664
11
40.690066
21
33.584442
0
LINE
8
Layer 1
10
40.690066
20
33.584442
11
40.593052
21
33.584442
0
LINE
8
Layer 1
10
40.593052
20
33.584442
11
40.496038
21
33.672636
0
LINE
8
Layer 1
10
40.496038
20
33.672636
11
40.028608
21
33.866664
0
LINE
8
Layer 1
10
40.028608
20
33.866664
11
40.028608
21
33.866664
0
LINE
8
Layer 1
10
50.947080
20
33.205206
11
51.035275
21
33.108192
0
LINE
8
Layer 1
10
51.035275
20
33.108192
11
51.132288
21
32.922983
0
LINE
8
Layer 1
10
51.132288
20
32.922983
11
51.317497
21
32.684858
0
LINE
8
Layer 1
10
51.317497
20
32.684858
11
51.317497
21
32.543747
0
LINE
8
Layer 1
10
51.317497
20
32.543747
11
51.176386
21
32.261525
0
LINE
8
Layer 1
10
51.176386
20
32.261525
11
50.947080
21
32.076317
0
LINE
8
Layer 1
10
50.947080
20
32.076317
11
50.656038
21
32.173331
0
LINE
8
Layer 1
10
50.656038
20
32.173331
11
50.285622
21
32.261525
0
LINE
8
Layer 1
10
50.285622
20
32.261525
11
49.950483
21
32.455553
0
LINE
8
Layer 1
10
49.950483
20
32.455553
11
49.809372
21
32.543747
0
LINE
8
Layer 1
10
49.809372
20
32.543747
11
49.809372
21
32.640761
0
LINE
8
Layer 1
10
49.809372
20
32.640761
11
49.809372
21
32.737775
0
LINE
8
Layer 1
10
49.809372
20
32.737775
11
50.947080
21
33.205206
0
LINE
8
Layer 1
10
50.947080
20
33.205206
11
50.947080
21
33.205206
0
LINE
8
Layer 1
10
57.738052
20
32.975900
11
57.982905
21
32.916175
0
LINE
8
Layer 1
10
57.982905
20
32.916175
11
58.134927
21
32.684858
0
LINE
8
Layer 1
10
58.134927
20
32.684858
11
58.276038
21
31.979303
0
LINE
8
Layer 1
10
58.276038
20
31.979303
11
57.482288
21
32.032219
0
LINE
8
Layer 1
10
57.482288
20
32.032219
11
57.025088
21
32.161684
0
LINE
8
Layer 1
10
57.025088
20
32.161684
11
56.873747
21
32.455553
0
LINE
8
Layer 1
10
56.873747
20
32.455553
11
56.873747
21
32.543747
0
LINE
8
Layer 1
10
56.873747
20
32.543747
11
57.288261
21
32.781872
0
LINE
8
Layer 1
10
57.288261
20
32.781872
11
57.526386
21
32.922983
0
LINE
8
Layer 1
10
57.526386
20
32.922983
11
57.738052
21
32.975900
0
LINE
8
Layer 1
10
57.738052
20
32.975900
11
57.738052
21
32.975900
0
LINE
8
Layer 1
10
46.704927
20
32.737775
11
46.848577
21
32.667003
0
LINE
8
Layer 1
10
46.848577
20
32.667003
11
46.898955
21
32.455553
0
LINE
8
Layer 1
10
46.898955
20
32.455553
11
46.704927
21
32.261525
0
LINE
8
Layer 1
10
46.704927
20
32.261525
11
46.519719
21
32.455553
0
LINE
8
Layer 1
10
46.519719
20
32.455553
11
46.564924
21
32.667001
0
LINE
8
Layer 1
10
46.564924
20
32.667001
11
46.704927
21
32.737775
0
LINE
8
Layer 1
10
46.704927
20
32.737775
11
46.704927
21
32.737775
0
LINE
8
Layer 1
10
54.236733
20
32.737775
11
54.324927
21
32.737775
0
LINE
8
Layer 1
10
54.324927
20
32.737775
11
54.421941
21
32.737775
0
LINE
8
Layer 1
10
54.421941
20
32.737775
11
54.704163
21
32.640761
0
LINE
8
Layer 1
10
54.704163
20
32.640761
11
54.898191
21
32.543747
0
LINE
8
Layer 1
10
54.898191
20
32.543747
11
54.519638
21
32.193013
0
LINE
8
Layer 1
10
54.519638
20
32.193013
11
53.954511
21
32.076317
0
LINE
8
Layer 1
10
53.954511
20
32.076317
11
53.575275
21
32.076317
0
LINE
8
Layer 1
10
53.575275
20
32.076317
11
54.236733
21
32.737775
0
LINE
8
Layer 1
10
54.236733
20
32.737775
11
54.236733
21
32.737775
0
LINE
8
Layer 1
10
92.433747
20
32.737775
11
92.618955
21
32.499650
0
LINE
8
Layer 1
10
92.618955
20
32.499650
11
92.901177
21
32.261525
0
LINE
8
Layer 1
10
92.901177
20
32.261525
11
92.998191
21
32.261525
0
LINE
8
Layer 1
10
92.998191
20
32.261525
11
93.095205
21
32.261525
0
LINE
8
Layer 1
10
93.095205
20
32.261525
11
93.562636
21
32.737775
0
LINE
8
Layer 1
10
93.562636
20
32.737775
11
92.433747
21
32.737775
0
LINE
8
Layer 1
10
92.433747
20
32.737775
11
92.433747
21
32.737775
0
LINE
8
Layer 1
10
73.992288
20
32.543747
11
74.168793
21
31.688412
0
LINE
8
Layer 1
10
74.168793
20
31.688412
11
74.697844
21
31.185553
0
LINE
8
Layer 1
10
74.697844
20
31.185553
11
75.438377
21
30.935784
0
LINE
8
Layer 1
10
75.438377
20
30.935784
11
76.250066
21
30.850414
0
LINE
8
Layer 1
10
76.250066
20
30.850414
11
77.290761
21
30.762219
0
LINE
8
Layer 1
10
77.290761
20
30.762219
11
77.899302
21
30.524094
0
LINE
8
Layer 1
10
77.899302
20
30.524094
11
78.419650
21
30.285969
0
LINE
8
Layer 1
10
78.419650
20
30.285969
11
78.975275
21
30.285969
0
LINE
8
Layer 1
10
78.975275
20
30.285969
11
79.754709
21
30.477124
0
LINE
8
Layer 1
10
79.754709
20
30.477124
11
79.950500
21
30.714342
0
LINE
8
Layer 1
10
79.950500
20
30.714342
11
80.015969
21
31.044442
0
LINE
8
Layer 1
10
80.015969
20
31.044442
11
79.945155
21
31.468067
0
LINE
8
Layer 1
10
79.945155
20
31.468067
11
79.733747
21
31.608886
0
LINE
8
Layer 1
10
79.733747
20
31.608886
11
79.310413
21
31.414858
0
LINE
8
Layer 1
10
79.310413
20
31.414858
11
78.887080
21
31.229650
0
LINE
8
Layer 1
10
78.887080
20
31.229650
11
78.790066
21
31.229650
0
LINE
8
Layer 1
10
78.790066
20
31.229650
11
78.693052
21
31.229650
0
LINE
8
Layer 1
10
78.693052
20
31.229650
11
78.084511
21
31.414858
0
LINE
8
Layer 1
10
78.084511
20
31.414858
11
77.572983
21
31.608886
0
LINE
8
Layer 1
10
77.572983
20
31.608886
11
77.140830
21
31.794094
0
LINE
8
Layer 1
10
77.140830
20
31.794094
11
76.911525
21
31.891108
0
LINE
8
Layer 1
10
76.911525
20
31.891108
11
76.532288
21
31.749997
0
LINE
8
Layer 1
10
76.532288
20
31.749997
11
76.250066
21
31.608886
0
LINE
8
Layer 1
10
76.250066
20
31.608886
11
75.967844
21
31.608886
0
LINE
8
Layer 1
10
75.967844
20
31.608886
11
75.380795
21
31.725225
0
LINE
8
Layer 1
10
75.380795
20
31.725225
11
74.935969
21
32.076317
0
LINE
8
Layer 1
10
74.935969
20
32.076317
11
74.510744
21
32.427386
0
LINE
8
Layer 1
10
74.510744
20
32.427386
11
73.992288
21
32.543747
0
LINE
8
Layer 1
10
73.992288
20
32.543747
11
73.992288
21
32.543747
0
LINE
8
Layer 1
10
48.680483
20
32.076317
11
48.680483
21
31.891108
0
LINE
8
Layer 1
10
48.680483
20
31.891108
11
48.213052
21
31.891108
0
LINE
8
Layer 1
10
48.213052
20
31.891108
11
48.680483
21
32.076317
0
LINE
8
Layer 1
10
48.680483
20
32.076317
11
48.680483
21
32.076317
0
LINE
8
Layer 1
10
49.341941
20
31.414858
11
49.481897
21
31.344086
0
LINE
8
Layer 1
10
49.481897
20
31.344086
11
49.527150
21
31.132636
0
LINE
8
Layer 1
10
49.527150
20
31.132636
11
49.341941
21
30.947428
0
LINE
8
Layer 1
10
49.341941
20
30.947428
11
49.156733
21
31.132636
0
LINE
8
Layer 1
10
49.156733
20
31.132636
11
49.202651
21
31.344084
0
LINE
8
Layer 1
10
49.202651
20
31.344084
11
49.341941
21
31.414858
0
LINE
8
Layer 1
10
49.341941
20
31.414858
11
49.341941
21
31.414858
0
LINE
8
Layer 1
10
51.784927
20
31.414858
11
51.929290
21
31.344086
0
LINE
8
Layer 1
10
51.929290
20
31.344086
11
51.978955
21
31.132636
0
LINE
8
Layer 1
10
51.978955
20
31.132636
11
51.784927
21
30.947428
0
LINE
8
Layer 1
10
51.784927
20
30.947428
11
51.599719
21
31.132636
0
LINE
8
Layer 1
10
51.599719
20
31.132636
11
51.645638
21
31.344084
0
LINE
8
Layer 1
10
51.645638
20
31.344084
11
51.784927
21
31.414858
0
LINE
8
Layer 1
10
51.784927
20
31.414858
11
51.784927
21
31.414858
0
LINE
8
Layer 1
10
88.667844
20
31.414858
11
88.810030
21
31.203392
0
LINE
8
Layer 1
10
88.810030
20
31.203392
11
89.047080
21
31.132636
0
LINE
8
Layer 1
10
89.047080
20
31.132636
11
89.514511
21
31.414858
0
LINE
8
Layer 1
10
89.514511
20
31.414858
11
88.667844
21
31.414858
0
LINE
8
Layer 1
10
88.667844
20
31.414858
11
88.667844
21
31.414858
0
LINE
8
Layer 1
10
49.624163
20
30.947428
11
49.809372
21
30.947428
0
LINE
8
Layer 1
10
49.809372
20
30.947428
11
50.003400
21
30.947428
0
LINE
8
Layer 1
10
50.003400
20
30.947428
11
50.567844
21
30.850414
0
LINE
8
Layer 1
10
50.567844
20
30.850414
11
51.132288
21
30.762219
0
LINE
8
Layer 1
10
51.132288
20
30.762219
11
50.470830
21
30.762219
0
LINE
8
Layer 1
10
50.470830
20
30.762219
11
50.003400
21
30.709303
0
LINE
8
Layer 1
10
50.003400
20
30.709303
11
49.719720
21
30.746164
0
LINE
8
Layer 1
10
49.719720
20
30.746164
11
49.624163
21
30.947428
0
LINE
8
Layer 1
10
49.624163
20
30.947428
11
49.624163
21
30.947428
0
LINE
8
Layer 1
10
58.937497
20
30.947428
11
59.598955
21
30.762219
0
LINE
8
Layer 1
10
59.598955
20
30.762219
11
59.095396
21
30.820507
0
LINE
8
Layer 1
10
59.095396
20
30.820507
11
58.708191
21
30.621108
0
LINE
8
Layer 1
10
58.708191
20
30.621108
11
58.458037
21
30.255349
0
LINE
8
Layer 1
10
58.458037
20
30.255349
11
58.373052
21
29.818539
0
LINE
8
Layer 1
10
58.373052
20
29.818539
11
57.950101
21
29.909701
0
LINE
8
Layer 1
10
57.950101
20
29.909701
11
57.808608
21
30.188956
0
LINE
8
Layer 1
10
57.808608
20
30.188956
11
57.914720
21
30.518186
0
LINE
8
Layer 1
10
57.914720
20
30.518186
11
58.231941
21
30.753400
0
LINE
8
Layer 1
10
58.231941
20
30.753400
11
58.937497
21
30.947428
0
LINE
8
Layer 1
10
58.937497
20
30.947428
11
58.937497
21
30.947428
0
LINE
8
Layer 1
10
28.924927
20
30.762219
11
29.865260
21
30.596224
0
LINE
8
Layer 1
10
29.865260
20
30.596224
11
30.618261
21
30.100761
0
LINE
8
Layer 1
10
30.618261
20
30.100761
11
31.371237
21
29.534516
0
LINE
8
Layer 1
10
31.371237
20
29.534516
11
32.311594
21
29.157081
0
LINE
8
Layer 1
10
32.311594
20
29.157081
11
32.831941
21
29.112983
0
LINE
8
Layer 1
10
32.831941
20
29.112983
11
33.722705
21
28.971872
0
LINE
8
Layer 1
10
33.722705
20
28.971872
11
34.622288
21
28.830761
0
LINE
8
Layer 1
10
34.622288
20
28.830761
11
35.133816
21
28.786664
0
LINE
8
Layer 1
10
35.133816
20
28.786664
11
35.936386
21
28.407428
0
LINE
8
Layer 1
10
35.936386
20
28.407428
11
36.738955
21
28.125206
0
LINE
8
Layer 1
10
36.738955
20
28.125206
11
37.391594
21
27.842983
0
LINE
8
Layer 1
10
37.391594
20
27.842983
11
38.476386
21
27.887081
0
LINE
8
Layer 1
10
38.476386
20
27.887081
11
39.561177
21
27.842983
0
LINE
8
Layer 1
10
39.561177
20
27.842983
11
40.486887
21
27.596849
0
LINE
8
Layer 1
10
40.486887
20
27.596849
11
41.201594
21
27.234442
0
LINE
8
Layer 1
10
41.201594
20
27.234442
11
41.990717
21
26.963191
0
LINE
8
Layer 1
10
41.990717
20
26.963191
11
43.133052
21
26.996317
0
LINE
8
Layer 1
10
43.133052
20
26.996317
11
46.846038
21
27.516664
0
LINE
8
Layer 1
10
46.846038
20
27.516664
11
48.599963
21
27.762011
0
LINE
8
Layer 1
10
48.599963
20
27.762011
11
50.753052
21
27.842983
0
LINE
8
Layer 1
10
50.753052
20
27.842983
11
51.317497
21
27.842983
0
LINE
8
Layer 1
10
51.317497
20
27.842983
11
51.837844
21
27.745969
0
LINE
8
Layer 1
10
51.837844
20
27.745969
11
52.684511
21
27.507844
0
LINE
8
Layer 1
10
52.684511
20
27.507844
11
53.531177
21
27.278539
0
LINE
8
Layer 1
10
53.531177
20
27.278539
11
54.042705
21
27.181525
0
LINE
8
Layer 1
10
54.042705
20
27.181525
11
54.139719
21
27.181525
0
LINE
8
Layer 1
10
54.139719
20
27.181525
11
54.236733
21
27.181525
0
LINE
8
Layer 1
10
54.236733
20
27.181525
11
56.776733
21
27.657775
0
LINE
8
Layer 1
10
56.776733
20
27.657775
11
59.316733
21
28.125206
0
LINE
8
Layer 1
10
59.316733
20
28.125206
11
59.837080
21
28.266317
0
LINE
8
Layer 1
10
59.837080
20
28.266317
11
60.683747
21
28.548539
0
LINE
8
Layer 1
10
60.683747
20
28.548539
11
61.521594
21
28.830761
0
LINE
8
Layer 1
10
61.521594
20
28.830761
11
62.041941
21
28.971872
0
LINE
8
Layer 1
10
62.041941
20
28.971872
11
62.844511
21
29.015969
0
LINE
8
Layer 1
10
62.844511
20
29.015969
11
64.017497
21
29.068886
0
LINE
8
Layer 1
10
64.017497
20
29.068886
11
65.005275
21
29.015969
0
LINE
8
Layer 1
10
65.005275
20
29.015969
11
65.993052
21
28.971872
0
LINE
8
Layer 1
10
65.993052
20
28.971872
11
67.158000
21
28.195602
0
LINE
8
Layer 1
10
67.158000
20
28.195602
11
68.391941
21
27.560761
0
LINE
8
Layer 1
10
68.391941
20
27.560761
11
69.676155
21
27.137479
0
LINE
8
Layer 1
10
69.676155
20
27.137479
11
70.984858
21
26.996317
0
LINE
8
Layer 1
10
70.984858
20
26.996317
11
73.004511
21
27.093331
0
LINE
8
Layer 1
10
73.004511
20
27.093331
11
75.121177
21
27.463747
0
LINE
8
Layer 1
10
75.121177
20
27.463747
11
77.193747
21
27.887081
0
LINE
8
Layer 1
10
77.193747
20
27.887081
11
80.342288
21
28.592636
0
LINE
8
Layer 1
10
80.342288
20
28.592636
11
83.499650
21
29.298192
0
LINE
8
Layer 1
10
83.499650
20
29.298192
11
85.563400
21
29.818539
0
LINE
8
Layer 1
10
85.563400
20
29.818539
11
85.845622
21
29.915553
0
LINE
8
Layer 1
10
85.845622
20
29.915553
11
86.127844
21
29.915553
0
LINE
8
Layer 1
10
86.127844
20
29.915553
11
86.753506
21
29.819963
0
LINE
8
Layer 1
10
86.753506
20
29.819963
11
87.309650
21
29.536317
0
LINE
8
Layer 1
10
87.309650
20
29.536317
11
88.385622
21
28.733747
0
LINE
8
Layer 1
10
88.385622
20
28.733747
11
89.655622
21
27.984094
0
LINE
8
Layer 1
10
89.655622
20
27.984094
11
90.470600
21
27.733968
0
LINE
8
Layer 1
10
90.470600
20
27.733968
11
91.498886
21
27.648956
0
LINE
8
Layer 1
10
91.498886
20
27.648956
11
93.844858
21
27.745969
0
LINE
8
Layer 1
10
93.844858
20
27.745969
11
96.199650
21
27.842983
0
LINE
8
Layer 1
10
96.199650
20
27.842983
11
97.848886
21
27.745969
0
LINE
8
Layer 1
10
97.848886
20
27.745969
11
99.401108
21
27.648956
0
LINE
8
Layer 1
10
99.401108
20
27.648956
11
101.138538
21
28.081108
0
LINE
8
Layer 1
10
101.138538
20
28.081108
11
102.928886
21
28.733747
0
LINE
8
Layer 1
10
102.928886
20
28.733747
11
104.763330
21
29.254094
0
LINE
8
Layer 1
10
104.763330
20
29.254094
11
105.747401
21
29.347762
0
LINE
8
Layer 1
10
105.747401
20
29.347762
11
106.827080
21
29.254094
0
LINE
8
Layer 1
10
106.827080
20
29.254094
11
106.827080
21
28.786664
0
LINE
8
Layer 1
10
106.827080
20
28.786664
11
105.980413
21
28.266317
0
LINE
8
Layer 1
10
105.980413
20
28.266317
11
104.666316
21
27.648956
0
LINE
8
Layer 1
10
104.666316
20
27.648956
11
102.549650
21
26.714094
0
LINE
8
Layer 1
10
102.549650
20
26.714094
11
101.479765
21
26.362648
0
LINE
8
Layer 1
10
101.479765
20
26.362648
11
100.432983
21
26.246664
0
LINE
8
Layer 1
10
100.432983
20
26.246664
11
99.529388
21
26.337833
0
LINE
8
Layer 1
10
99.529388
20
26.337833
11
98.695552
21
26.617081
0
LINE
8
Layer 1
10
98.695552
20
26.617081
11
97.833080
21
26.900727
0
LINE
8
Layer 1
10
97.833080
20
26.900727
11
96.852288
21
26.996317
0
LINE
8
Layer 1
10
96.852288
20
26.996317
11
94.594511
21
26.758192
0
LINE
8
Layer 1
10
94.594511
20
26.758192
11
92.336733
21
26.520067
0
LINE
8
Layer 1
10
92.336733
20
26.520067
11
90.837427
21
26.520067
0
LINE
8
Layer 1
10
90.837427
20
26.520067
11
88.526733
21
27.701872
0
LINE
8
Layer 1
10
88.526733
20
27.701872
11
87.366044
21
28.159033
0
LINE
8
Layer 1
10
87.366044
20
28.159033
11
86.039650
21
28.310414
0
LINE
8
Layer 1
10
86.039650
20
28.310414
11
83.981640
21
28.219235
0
LINE
8
Layer 1
10
83.981640
20
28.219235
11
81.947427
21
27.939997
0
LINE
8
Layer 1
10
81.947427
20
27.939997
11
77.846386
21
27.093331
0
LINE
8
Layer 1
10
77.846386
20
27.093331
11
73.754163
21
26.246664
0
LINE
8
Layer 1
10
73.754163
20
26.246664
11
71.719854
21
25.963002
0
LINE
8
Layer 1
10
71.719854
20
25.963002
11
69.661941
21
25.867428
0
LINE
8
Layer 1
10
69.661941
20
25.867428
11
68.347844
21
25.955622
0
LINE
8
Layer 1
10
68.347844
20
25.955622
11
67.457080
21
26.246664
0
LINE
8
Layer 1
10
67.457080
20
26.246664
11
66.610413
21
26.811108
0
LINE
8
Layer 1
10
66.610413
20
26.811108
11
65.525622
21
27.648956
0
LINE
8
Layer 1
10
65.525622
20
27.648956
11
65.146386
21
27.842983
0
LINE
8
Layer 1
10
65.146386
20
27.842983
11
64.352636
21
27.887081
0
LINE
8
Layer 1
10
64.352636
20
27.887081
11
63.550066
21
27.939997
0
LINE
8
Layer 1
10
63.550066
20
27.939997
11
60.771941
21
27.657775
0
LINE
8
Layer 1
10
60.771941
20
27.657775
11
57.993816
21
26.996317
0
LINE
8
Layer 1
10
57.993816
20
26.996317
11
56.494511
21
26.431872
0
LINE
8
Layer 1
10
56.494511
20
26.431872
11
55.740417
21
26.147855
0
LINE
8
Layer 1
10
55.740417
20
26.147855
11
54.986386
21
26.052636
0
LINE
8
Layer 1
10
54.986386
20
26.052636
11
54.236733
21
26.096733
0
LINE
8
Layer 1
10
54.236733
20
26.096733
11
53.575275
21
26.334858
0
LINE
8
Layer 1
10
53.575275
20
26.334858
11
51.220483
21
26.334858
0
LINE
8
Layer 1
10
51.220483
20
26.334858
11
48.421623
21
26.229066
0
LINE
8
Layer 1
10
48.421623
20
26.229066
11
45.858261
21
25.911525
0
LINE
8
Layer 1
10
45.858261
20
25.911525
11
40.496038
21
24.738539
0
LINE
8
Layer 1
10
40.496038
20
24.738539
11
39.843400
21
24.738539
0
LINE
8
Layer 1
10
39.843400
20
24.738539
11
39.160083
21
24.834116
0
LINE
8
Layer 1
10
39.160083
20
24.834116
11
38.617497
21
25.117775
0
LINE
8
Layer 1
10
38.617497
20
25.117775
11
37.814927
21
25.911525
0
LINE
8
Layer 1
10
37.814927
20
25.911525
11
37.162288
21
26.714094
0
LINE
8
Layer 1
10
37.162288
20
26.714094
11
36.770626
21
26.997741
0
LINE
8
Layer 1
10
36.770626
20
26.997741
11
36.262705
21
27.093331
0
LINE
8
Layer 1
10
36.262705
20
27.093331
11
31.650136
21
27.093331
0
LINE
8
Layer 1
10
31.650136
20
27.093331
11
26.287914
21
29.818539
0
LINE
8
Layer 1
10
26.287914
20
29.818539
11
26.102706
21
30.100761
0
LINE
8
Layer 1
10
26.102706
20
30.100761
11
26.712009
21
30.477009
0
LINE
8
Layer 1
10
26.712009
20
30.477009
11
27.416803
21
30.665206
0
LINE
8
Layer 1
10
27.416803
20
30.665206
11
28.924927
21
30.762219
0
LINE
8
Layer 1
10
28.924927
20
30.762219
11
28.924927
21
30.762219
0
LINE
8
Layer 1
10
54.898191
20
30.762219
11
55.341485
21
30.337748
0
LINE
8
Layer 1
10
55.341485
20
30.337748
11
55.550830
21
29.818539
0
LINE
8
Layer 1
10
55.550830
20
29.818539
11
55.365622
21
29.818539
0
LINE
8
Layer 1
10
55.365622
20
29.818539
11
54.869760
21
29.959339
0
LINE
8
Layer 1
10
54.869760
20
29.959339
11
54.704163
21
30.382983
0
LINE
8
Layer 1
10
54.704163
20
30.382983
11
54.704163
21
30.568192
0
LINE
8
Layer 1
10
54.704163
20
30.568192
11
54.898191
21
30.762219
0
LINE
8
Layer 1
10
54.898191
20
30.762219
11
54.898191
21
30.762219
0
LINE
8
Layer 1
10
59.784163
20
30.568192
11
60.163400
21
30.568192
0
LINE
8
Layer 1
10
60.163400
20
30.568192
11
60.492963
21
30.497418
0
LINE
8
Layer 1
10
60.492963
20
30.497418
11
60.727844
21
30.285969
0
LINE
8
Layer 1
10
60.727844
20
30.285969
11
60.542636
21
30.285969
0
LINE
8
Layer 1
10
60.542636
20
30.285969
11
60.445622
21
30.285969
0
LINE
8
Layer 1
10
60.445622
20
30.285969
11
59.784163
21
30.568192
0
LINE
8
Layer 1
10
59.784163
20
30.568192
11
59.784163
21
30.568192
0
LINE
8
Layer 1
10
48.495275
20
30.285969
11
48.634512
21
30.215198
0
LINE
8
Layer 1
10
48.634512
20
30.215198
11
48.680483
21
30.003747
0
LINE
8
Layer 1
10
48.680483
20
30.003747
11
48.495275
21
29.818539
0
LINE
8
Layer 1
10
48.495275
20
29.818539
11
48.310066
21
30.003747
0
LINE
8
Layer 1
10
48.310066
20
30.003747
11
48.355267
21
30.215196
0
LINE
8
Layer 1
10
48.355267
20
30.215196
11
48.495275
21
30.285969
0
LINE
8
Layer 1
10
48.495275
20
30.285969
11
48.495275
21
30.285969
0
LINE
8
Layer 1
10
65.807844
20
30.285969
11
65.904858
21
30.285969
0
LINE
8
Layer 1
10
65.904858
20
30.285969
11
65.993052
21
30.285969
0
LINE
8
Layer 1
10
65.993052
20
30.285969
11
66.134163
21
30.188956
0
LINE
8
Layer 1
10
66.134163
20
30.188956
11
66.187080
21
30.100761
0
LINE
8
Layer 1
10
66.187080
20
30.100761
11
66.090066
21
30.100761
0
LINE
8
Layer 1
10
66.090066
20
30.100761
11
65.993052
21
30.100761
0
LINE
8
Layer 1
10
65.993052
20
30.100761
11
65.807844
21
30.285969
0
LINE
8
Layer 1
10
65.807844
20
30.285969
11
65.807844
21
30.285969
0
LINE
8
Layer 1
10
96.852288
20
30.285969
11
97.989997
21
29.633331
0
LINE
8
Layer 1
10
97.989997
20
29.633331
11
97.513747
21
29.536317
0
LINE
8
Layer 1
10
97.513747
20
29.536317
11
97.046316
21
29.439303
0
LINE
8
Layer 1
10
97.046316
20
29.439303
11
96.949302
21
29.439303
0
LINE
8
Layer 1
10
96.949302
20
29.439303
11
96.852288
21
29.439303
0
LINE
8
Layer 1
10
96.852288
20
29.439303
11
96.719997
21
29.536317
0
LINE
8
Layer 1
10
96.719997
20
29.536317
11
96.667080
21
29.633331
0
LINE
8
Layer 1
10
96.667080
20
29.633331
11
96.719997
21
29.959650
0
LINE
8
Layer 1
10
96.719997
20
29.959650
11
96.852288
21
30.285969
0
LINE
8
Layer 1
10
96.852288
20
30.285969
11
96.852288
21
30.285969
0
LINE
8
Layer 1
10
66.469302
20
30.100761
11
66.609245
21
30.029990
0
LINE
8
Layer 1
10
66.609245
20
30.029990
11
66.654511
21
29.818539
0
LINE
8
Layer 1
10
66.654511
20
29.818539
11
66.469302
21
29.633331
0
LINE
8
Layer 1
10
66.469302
20
29.633331
11
66.275275
21
29.818539
0
LINE
8
Layer 1
10
66.275275
20
29.818539
11
66.325591
21
30.029988
0
LINE
8
Layer 1
10
66.325591
20
30.029988
11
66.469302
21
30.100761
0
LINE
8
Layer 1
10
66.469302
20
30.100761
11
66.469302
21
30.100761
0
LINE
8
Layer 1
10
91.684094
20
29.721525
11
91.825205
21
29.298192
0
LINE
8
Layer 1
10
91.825205
20
29.298192
11
92.151525
21
28.971872
0
LINE
8
Layer 1
10
92.151525
20
28.971872
11
92.336733
21
28.971872
0
LINE
8
Layer 1
10
92.336733
20
28.971872
11
92.433747
21
28.971872
0
LINE
8
Layer 1
10
92.433747
20
28.971872
11
92.618955
21
29.157081
0
LINE
8
Layer 1
10
92.618955
20
29.157081
11
92.618955
21
29.342289
0
LINE
8
Layer 1
10
92.618955
20
29.342289
11
92.527725
21
29.511848
0
LINE
8
Layer 1
10
92.527725
20
29.511848
11
92.248538
21
29.633331
0
LINE
8
Layer 1
10
92.248538
20
29.633331
11
91.684094
21
29.721525
0
LINE
8
Layer 1
10
91.684094
20
29.721525
11
91.684094
21
29.721525
0
LINE
8
Layer 1
10
42.471594
20
29.439303
11
42.615964
21
29.368530
0
LINE
8
Layer 1
10
42.615964
20
29.368530
11
42.665622
21
29.157081
0
LINE
8
Layer 1
10
42.665622
20
29.157081
11
42.471594
21
28.971872
0
LINE
8
Layer 1
10
42.471594
20
28.971872
11
42.286386
21
29.157081
0
LINE
8
Layer 1
10
42.286386
20
29.157081
11
42.332311
21
29.368530
0
LINE
8
Layer 1
10
42.332311
20
29.368530
11
42.471594
21
29.439303
0
LINE
8
Layer 1
10
42.471594
20
29.439303
11
42.471594
21
29.439303
0
LINE
8
Layer 1
10
64.581941
20
27.181525
11
64.946525
21
27.100907
0
LINE
8
Layer 1
10
64.946525
20
27.100907
11
65.287497
21
26.855206
0
LINE
8
Layer 1
10
65.287497
20
26.855206
11
65.807844
21
26.334858
0
LINE
8
Layer 1
10
65.807844
20
26.334858
11
65.807844
21
26.246664
0
LINE
8
Layer 1
10
65.807844
20
26.246664
11
65.807844
21
26.052636
0
LINE
8
Layer 1
10
65.807844
20
26.052636
11
64.352636
21
25.911525
0
LINE
8
Layer 1
10
64.352636
20
25.911525
11
63.170830
21
25.867428
0
LINE
8
Layer 1
10
63.170830
20
25.867428
11
60.824858
21
25.867428
0
LINE
8
Layer 1
10
60.824858
20
25.867428
11
58.937497
21
25.867428
0
LINE
8
Layer 1
10
58.937497
20
25.867428
11
60.186751
21
26.500724
0
LINE
8
Layer 1
10
60.186751
20
26.500724
11
61.671525
21
26.899303
0
LINE
8
Layer 1
10
61.671525
20
26.899303
11
64.581941
21
27.181525
0
LINE
8
Layer 1
10
64.581941
20
27.181525
11
64.581941
21
27.181525
0
LINE
8
Layer 1
10
35.230830
20
26.334858
11
36.238942
21
26.173276
0
LINE
8
Layer 1
10
36.238942
20
26.173276
11
37.012358
21
25.682219
0
LINE
8
Layer 1
10
37.012358
20
25.682219
11
38.520483
21
24.077081
0
LINE
8
Layer 1
10
38.520483
20
24.077081
11
39.319752
21
23.725639
0
LINE
8
Layer 1
10
39.319752
20
23.725639
11
40.213816
21
23.609650
0
LINE
8
Layer 1
10
40.213816
20
23.609650
11
41.309921
21
23.725638
0
LINE
8
Layer 1
10
41.309921
20
23.725638
11
42.524511
21
24.077081
0
LINE
8
Layer 1
10
42.524511
20
24.077081
11
44.447150
21
24.738539
0
LINE
8
Layer 1
10
44.447150
20
24.738539
11
48.423051
21
25.585083
0
LINE
8
Layer 1
10
48.423051
20
25.585083
11
52.446386
21
25.867428
0
LINE
8
Layer 1
10
52.446386
20
25.867428
11
53.279123
21
25.747020
0
LINE
8
Layer 1
10
53.279123
20
25.747020
11
53.901594
21
25.391178
0
LINE
8
Layer 1
10
53.901594
20
25.391178
11
54.527699
21
25.039736
0
LINE
8
Layer 1
10
54.527699
20
25.039736
11
55.365622
21
24.923747
0
LINE
8
Layer 1
10
55.365622
20
24.923747
11
56.820830
21
25.064858
0
LINE
8
Layer 1
10
56.820830
20
25.064858
11
58.276038
21
25.205969
0
LINE
8
Layer 1
10
58.276038
20
25.205969
11
59.695969
21
25.161872
0
LINE
8
Layer 1
10
59.695969
20
25.161872
11
61.098261
21
24.826733
0
LINE
8
Layer 1
10
61.098261
20
24.826733
11
57.341177
21
24.826733
0
LINE
8
Layer 1
10
57.341177
20
24.826733
11
57.776171
21
24.501184
0
LINE
8
Layer 1
10
57.776171
20
24.501184
11
58.328955
21
24.456317
0
LINE
8
Layer 1
10
58.328955
20
24.456317
11
58.832037
21
24.407749
0
LINE
8
Layer 1
10
58.832037
20
24.407749
11
59.122705
21
24.077081
0
LINE
8
Layer 1
10
59.122705
20
24.077081
11
58.276038
21
24.077081
0
LINE
8
Layer 1
10
58.276038
20
24.077081
11
57.341177
21
24.077081
0
LINE
8
Layer 1
10
57.341177
20
24.077081
11
55.833052
21
24.174094
0
LINE
8
Layer 1
10
55.833052
20
24.174094
11
53.619372
21
24.403400
0
LINE
8
Layer 1
10
53.619372
20
24.403400
11
51.361594
21
24.641525
0
LINE
8
Layer 1
10
51.361594
20
24.641525
11
49.809372
21
24.738539
0
LINE
8
Layer 1
10
49.809372
20
24.738539
11
49.244927
21
24.826733
0
LINE
8
Layer 1
10
49.244927
20
24.826733
11
48.680483
21
25.020761
0
LINE
8
Layer 1
10
48.680483
20
25.020761
11
48.680483
21
24.826733
0
LINE
8
Layer 1
10
48.680483
20
24.826733
11
48.680483
21
24.738539
0
LINE
8
Layer 1
10
48.680483
20
24.738539
11
48.777497
21
24.641525
0
LINE
8
Layer 1
10
48.777497
20
24.641525
11
48.962705
21
24.544511
0
LINE
8
Layer 1
10
48.962705
20
24.544511
11
49.721177
21
24.315206
0
LINE
8
Layer 1
10
49.721177
20
24.315206
11
50.470830
21
24.077081
0
LINE
8
Layer 1
10
50.470830
20
24.077081
11
55.011531
21
23.499562
0
LINE
8
Layer 1
10
55.011531
20
23.499562
11
59.598955
21
23.274511
0
LINE
8
Layer 1
10
59.598955
20
23.274511
11
68.815275
21
23.230414
0
LINE
8
Layer 1
10
68.815275
20
23.230414
11
73.864618
21
23.416806
0
LINE
8
Layer 1
10
73.864618
20
23.416806
11
78.842983
21
23.980067
0
LINE
8
Layer 1
10
78.842983
20
23.980067
11
83.767925
21
24.876011
0
LINE
8
Layer 1
10
83.767925
20
24.876011
11
88.667844
21
26.052636
0
LINE
8
Layer 1
10
88.667844
20
26.052636
11
89.047080
21
26.052636
0
LINE
8
Layer 1
10
89.047080
20
26.052636
11
90.175969
21
25.488192
0
LINE
8
Layer 1
10
90.175969
20
25.488192
11
91.304858
21
25.020761
0
LINE
8
Layer 1
10
91.304858
20
25.020761
11
91.587080
21
24.923747
0
LINE
8
Layer 1
10
91.587080
20
24.923747
11
92.151525
21
24.923747
0
LINE
8
Layer 1
10
92.151525
20
24.923747
11
93.374749
21
24.994147
0
LINE
8
Layer 1
10
93.374749
20
24.994147
11
94.409302
21
25.205969
0
LINE
8
Layer 1
10
94.409302
20
25.205969
11
96.667080
21
26.052636
0
LINE
8
Layer 1
10
96.667080
20
26.052636
11
97.046316
21
26.149650
0
LINE
8
Layer 1
10
97.046316
20
26.149650
11
98.598538
21
25.814511
0
LINE
8
Layer 1
10
98.598538
20
25.814511
11
100.291872
21
24.923747
0
LINE
8
Layer 1
10
100.291872
20
24.923747
11
101.658886
21
23.653747
0
LINE
8
Layer 1
10
101.658886
20
23.653747
11
102.082094
21
22.962444
0
LINE
8
Layer 1
10
102.082094
20
22.962444
11
102.223330
21
22.295553
0
LINE
8
Layer 1
10
102.223330
20
22.295553
11
102.152681
21
21.397844
0
LINE
8
Layer 1
10
102.152681
20
21.397844
11
101.940926
21
20.588432
0
LINE
8
Layer 1
10
101.940926
20
20.588432
11
101.588151
21
19.867494
0
LINE
8
Layer 1
10
101.588151
20
19.867494
11
101.094441
21
19.235206
0
LINE
8
Layer 1
10
101.094441
20
19.235206
11
99.845086
21
18.173803
0
LINE
8
Layer 1
10
99.845086
20
18.173803
11
98.360413
21
17.347844
0
LINE
8
Layer 1
10
98.360413
20
17.347844
11
96.714393
21
16.713053
0
LINE
8
Layer 1
10
96.714393
20
16.713053
11
94.973747
21
16.218956
0
LINE
8
Layer 1
10
94.973747
20
16.218956
11
91.772288
21
15.513400
0
LINE
8
Layer 1
10
91.772288
20
15.513400
11
85.105046
21
14.623056
0
LINE
8
Layer 1
10
85.105046
20
14.623056
11
78.648955
21
14.014094
0
LINE
8
Layer 1
10
78.648955
20
14.014094
11
72.192766
21
13.658248
0
LINE
8
Layer 1
10
72.192766
20
13.658248
11
65.525622
21
13.537844
0
LINE
8
Layer 1
10
65.525622
20
13.537844
11
61.098261
21
13.537844
0
LINE
8
Layer 1
10
61.098261
20
13.537844
11
58.752288
21
13.634858
0
LINE
8
Layer 1
10
58.752288
20
13.634858
11
54.704163
21
13.872983
0
LINE
8
Layer 1
10
54.704163
20
13.872983
11
50.611941
21
14.102289
0
LINE
8
Layer 1
10
50.611941
20
14.102289
11
48.213052
21
14.199303
0
LINE
8
Layer 1
10
48.213052
20
14.199303
11
45.484598
21
14.444357
0
LINE
8
Layer 1
10
45.484598
20
14.444357
11
43.133052
21
14.807844
0
LINE
8
Layer 1
10
43.133052
20
14.807844
11
38.053052
21
15.989650
0
LINE
8
Layer 1
10
38.053052
20
15.989650
11
35.547345
21
16.965493
0
LINE
8
Layer 1
10
35.547345
20
16.965493
11
33.299372
21
18.388539
0
LINE
8
Layer 1
10
33.299372
20
18.388539
11
32.373056
21
19.303178
0
LINE
8
Layer 1
10
32.373056
20
19.303178
11
31.711624
21
20.400363
0
LINE
8
Layer 1
10
31.711624
20
20.400363
11
31.314899
21
21.680056
0
LINE
8
Layer 1
10
31.314899
20
21.680056
11
31.182705
21
23.142219
0
LINE
8
Layer 1
10
31.182705
20
23.142219
11
31.323816
21
24.597428
0
LINE
8
Layer 1
10
31.323816
20
24.597428
11
31.571418
21
25.361989
0
LINE
8
Layer 1
10
31.571418
20
25.361989
11
32.029372
21
25.867428
0
LINE
8
Layer 1
10
32.029372
20
25.867428
11
33.678608
21
26.246664
0
LINE
8
Layer 1
10
33.678608
20
26.246664
11
35.230830
21
26.334858
0
LINE
8
Layer 1
10
35.230830
20
26.334858
11
35.230830
21
26.334858
0
LINE
8
Layer 1
10
73.330830
20
25.205969
11
73.475176
21
25.135921
0
LINE
8
Layer 1
10
73.475176
20
25.135921
11
73.524858
21
24.923747
0
LINE
8
Layer 1
10
73.524858
20
24.923747
11
73.330830
21
24.738539
0
LINE
8
Layer 1
10
73.330830
20
24.738539
11
73.145622
21
24.923747
0
LINE
8
Layer 1
10
73.145622
20
24.923747
11
73.191522
21
25.135920
0
LINE
8
Layer 1
10
73.191522
20
25.135920
11
73.330830
21
25.205969
0
LINE
8
Layer 1
10
73.330830
20
25.205969
11
73.330830
21
25.205969
 0 
ENDSEC
 0 
EOF
