999
"DXF R12 Output" (www.mydxf.blogspot.com)
 0 
SECTION
 2 
HEADER
 9 
$ACADVER
 1 
AC1009
 9 
$EXTMIN
 10 
 0 
 20 
 0 
 9 
$EXTMAX
 10 
 8.5 
 20 
 11 
 0 
ENDSEC
 0 
SECTION
 2 
ENTITIES
0
LINE
8
Layer 1
10
102.252653
20
213.192433
11
98.998872
21
210.252629
0
LINE
8
Layer 1
10
98.998872
20
210.252629
11
95.554860
21
207.506176
0
LINE
8
Layer 1
10
95.554860
20
207.506176
11
91.929974
21
204.971783
0
LINE
8
Layer 1
10
91.929974
20
204.971783
11
88.133569
21
202.668162
0
LINE
8
Layer 1
10
88.133569
20
202.668162
11
84.175001
21
200.614025
0
LINE
8
Layer 1
10
84.175001
20
200.614025
11
80.063626
21
198.828082
0
LINE
8
Layer 1
10
80.063626
20
198.828082
11
75.808799
21
197.329045
0
LINE
8
Layer 1
10
75.808799
20
197.329045
11
71.419875
21
196.135625
0
LINE
8
Layer 1
10
71.419875
20
196.135625
11
65.348501
21
195.141589
0
LINE
8
Layer 1
10
65.348501
20
195.141589
11
59.257991
21
194.503750
0
LINE
8
Layer 1
10
59.257991
20
194.503750
11
53.164412
21
194.239718
0
LINE
8
Layer 1
10
53.164412
20
194.239718
11
47.083828
21
194.367104
0
LINE
8
Layer 1
10
47.083828
20
194.367104
11
41.032308
21
194.903520
0
LINE
8
Layer 1
10
41.032308
20
194.903520
11
35.025918
21
195.866577
0
LINE
8
Layer 1
10
35.025918
20
195.866577
11
29.080724
21
197.273886
0
LINE
8
Layer 1
10
29.080724
20
197.273886
11
23.212792
21
199.143058
0
LINE
8
Layer 1
10
23.212792
20
199.143058
11
21.599327
21
196.538149
0
LINE
8
Layer 1
10
21.599327
20
196.538149
11
20.361593
21
193.752092
0
LINE
8
Layer 1
10
20.361593
20
193.752092
11
18.265069
21
187.968819
0
LINE
8
Layer 1
10
18.265069
20
187.968819
11
17.354224
21
185.225321
0
LINE
8
Layer 1
10
17.354224
20
185.225321
11
16.337159
21
181.571910
0
LINE
8
Layer 1
10
16.337159
20
181.571910
11
14.210806
21
172.581957
0
LINE
8
Layer 1
10
14.210806
20
172.581957
11
12.338876
21
163.092169
0
LINE
8
Layer 1
10
12.338876
20
163.092169
11
11.174236
21
155.195758
0
LINE
8
Layer 1
10
11.174236
20
155.195758
11
10.843514
21
149.365517
0
LINE
8
Layer 1
10
10.843514
20
149.365517
11
10.729373
21
141.661772
0
LINE
8
Layer 1
10
10.729373
20
141.661772
11
10.833253
21
134.004604
0
LINE
8
Layer 1
10
10.833253
20
134.004604
11
11.156597
21
128.314094
0
LINE
8
Layer 1
10
11.156597
20
128.314094
11
11.996253
21
121.493519
0
LINE
8
Layer 1
10
11.996253
20
121.493519
11
13.041916
21
115.073791
0
LINE
8
Layer 1
10
13.041916
20
115.073791
11
14.377440
21
108.600103
0
LINE
8
Layer 1
10
14.377440
20
108.600103
11
16.086681
21
101.617650
0
LINE
8
Layer 1
10
16.086681
20
101.617650
11
17.566201
21
96.405776
0
LINE
8
Layer 1
10
17.566201
20
96.405776
11
19.295353
21
91.265220
0
LINE
8
Layer 1
10
19.295353
20
91.265220
11
21.400135
21
85.848255
0
LINE
8
Layer 1
10
21.400135
20
85.848255
11
24.006542
21
79.807150
0
LINE
8
Layer 1
10
24.006542
20
79.807150
11
27.221765
21
73.560378
0
LINE
8
Layer 1
10
27.221765
20
73.560378
11
30.754927
21
67.475771
0
LINE
8
Layer 1
10
30.754927
20
67.475771
11
34.613653
21
61.594909
0
LINE
8
Layer 1
10
34.613653
20
61.594909
11
38.805570
21
55.959372
0
LINE
8
Layer 1
10
38.805570
20
55.959372
11
43.555526
21
50.507544
0
LINE
8
Layer 1
10
43.555526
20
50.507544
11
48.406773
21
45.151129
0
LINE
8
Layer 1
10
48.406773
20
45.151129
11
53.541828
21
40.087968
0
LINE
8
Layer 1
10
53.541828
20
40.087968
11
56.272820
21
37.728182
0
LINE
8
Layer 1
10
56.272820
20
37.728182
11
59.143209
21
35.515900
0
LINE
8
Layer 1
10
59.143209
20
35.515900
11
65.978819
21
30.438145
0
LINE
8
Layer 1
10
65.978819
20
30.438145
11
73.039541
21
25.721223
0
LINE
8
Layer 1
10
73.039541
20
25.721223
11
80.355376
21
21.412542
0
LINE
8
Layer 1
10
80.355376
20
21.412542
11
87.956319
21
17.559511
0
LINE
8
Layer 1
10
87.956319
20
17.559511
11
91.420827
21
15.982908
0
LINE
8
Layer 1
10
91.420827
20
15.982908
11
94.950890
21
14.594050
0
LINE
8
Layer 1
10
94.950890
20
14.594050
11
98.557752
21
13.444382
0
LINE
8
Layer 1
10
98.557752
20
13.444382
11
102.252653
21
12.585344
0
LINE
8
Layer 1
10
102.252653
20
12.585344
11
102.305570
21
12.594178
0
LINE
8
Layer 1
10
102.305570
20
12.594178
11
102.358486
21
12.585344
0
LINE
8
Layer 1
10
102.358486
20
12.585344
11
106.053371
21
13.444382
0
LINE
8
Layer 1
10
106.053371
20
13.444382
11
109.660224
21
14.594050
0
LINE
8
Layer 1
10
109.660224
20
14.594050
11
113.190285
21
15.982908
0
LINE
8
Layer 1
10
113.190285
20
15.982908
11
116.654792
21
17.559511
0
LINE
8
Layer 1
10
116.654792
20
17.559511
11
124.255736
21
21.412542
0
LINE
8
Layer 1
10
124.255736
20
21.412542
11
131.571573
21
25.721223
0
LINE
8
Layer 1
10
131.571573
20
25.721223
11
138.632304
21
30.438145
0
LINE
8
Layer 1
10
138.632304
20
30.438145
11
145.467931
21
35.515900
0
LINE
8
Layer 1
10
145.467931
20
35.515900
11
148.338310
21
37.728182
0
LINE
8
Layer 1
10
148.338310
20
37.728182
11
151.069295
21
40.087968
0
LINE
8
Layer 1
10
151.069295
20
40.087968
11
156.204345
21
45.151129
0
LINE
8
Layer 1
10
156.204345
20
45.151129
11
161.055597
21
50.507544
0
LINE
8
Layer 1
10
161.055597
20
50.507544
11
165.805570
21
55.959372
0
LINE
8
Layer 1
10
165.805570
20
55.959372
11
169.997474
21
61.594909
0
LINE
8
Layer 1
10
169.997474
20
61.594909
11
173.856202
21
67.475771
0
LINE
8
Layer 1
10
173.856202
20
67.475771
11
177.389371
21
73.560378
0
LINE
8
Layer 1
10
177.389371
20
73.560378
11
180.604597
21
79.807150
0
LINE
8
Layer 1
10
180.604597
20
79.807150
11
183.210989
21
85.848255
0
LINE
8
Layer 1
10
183.210989
20
85.848255
11
185.315765
21
91.265220
0
LINE
8
Layer 1
10
185.315765
20
91.265220
11
187.044922
21
96.405776
0
LINE
8
Layer 1
10
187.044922
20
96.405776
11
188.524459
21
101.617650
0
LINE
8
Layer 1
10
188.524459
20
101.617650
11
190.233683
21
108.600103
0
LINE
8
Layer 1
10
190.233683
20
108.600103
11
191.569199
21
115.073791
0
LINE
8
Layer 1
10
191.569199
20
115.073791
11
192.614859
21
121.493519
0
LINE
8
Layer 1
10
192.614859
20
121.493519
11
193.454514
21
128.314094
0
LINE
8
Layer 1
10
193.454514
20
128.314094
11
193.777858
21
134.004604
0
LINE
8
Layer 1
10
193.777858
20
134.004604
11
193.881738
21
141.661772
0
LINE
8
Layer 1
10
193.881738
20
141.661772
11
193.767597
21
149.365517
0
LINE
8
Layer 1
10
193.767597
20
149.365517
11
193.436875
21
155.195758
0
LINE
8
Layer 1
10
193.436875
20
155.195758
11
192.272235
21
163.092169
0
LINE
8
Layer 1
10
192.272235
20
163.092169
11
190.400305
21
172.581957
0
LINE
8
Layer 1
10
190.400305
20
172.581957
11
188.273952
21
181.571910
0
LINE
8
Layer 1
10
188.273952
20
181.571910
11
187.256887
21
185.225321
0
LINE
8
Layer 1
10
187.256887
20
185.225321
11
186.346042
21
187.968819
0
LINE
8
Layer 1
10
186.346042
20
187.968819
11
184.249533
21
193.752092
0
LINE
8
Layer 1
10
184.249533
20
193.752092
11
183.011800
21
196.538149
0
LINE
8
Layer 1
10
183.011800
20
196.538149
11
181.398347
21
199.143058
0
LINE
8
Layer 1
10
181.398347
20
199.143058
11
175.530407
21
197.273886
0
LINE
8
Layer 1
10
175.530407
20
197.273886
11
169.585206
21
195.866577
0
LINE
8
Layer 1
10
169.585206
20
195.866577
11
163.578811
21
194.903520
0
LINE
8
Layer 1
10
163.578811
20
194.903520
11
157.527290
21
194.367104
0
LINE
8
Layer 1
10
157.527290
20
194.367104
11
151.446708
21
194.239718
0
LINE
8
Layer 1
10
151.446708
20
194.239718
11
145.353132
21
194.503750
0
LINE
8
Layer 1
10
145.353132
20
194.503750
11
139.262629
21
195.141589
0
LINE
8
Layer 1
10
139.262629
20
195.141589
11
133.191264
21
196.135625
0
LINE
8
Layer 1
10
133.191264
20
196.135625
11
128.802332
21
197.329045
0
LINE
8
Layer 1
10
128.802332
20
197.329045
11
124.547498
21
198.828082
0
LINE
8
Layer 1
10
124.547498
20
198.828082
11
120.436118
21
200.614025
0
LINE
8
Layer 1
10
120.436118
20
200.614025
11
116.477549
21
202.668162
0
LINE
8
Layer 1
10
116.477549
20
202.668162
11
112.681146
21
204.971783
0
LINE
8
Layer 1
10
112.681146
20
204.971783
11
109.056263
21
207.506176
0
LINE
8
Layer 1
10
109.056263
20
207.506176
11
105.612259
21
210.252629
0
LINE
8
Layer 1
10
105.612259
20
210.252629
11
102.358486
21
213.192433
0
LINE
8
Layer 1
10
102.358486
20
213.192433
11
102.305570
21
213.139516
0
LINE
8
Layer 1
10
102.305570
20
213.139516
11
102.252653
21
213.192433
0
LINE
8
Layer 1
10
102.252653
20
213.192433
11
102.252653
21
213.192433
0
LINE
8
Layer 1
10
102.243819
20
201.868266
11
102.243819
21
201.788891
0
LINE
8
Layer 1
10
102.243819
20
201.788891
11
102.305570
21
201.841808
0
LINE
8
Layer 1
10
102.305570
20
201.841808
11
102.367292
21
201.788891
0
LINE
8
Layer 1
10
102.367292
20
201.788891
11
102.367292
21
201.868266
0
LINE
8
Layer 1
10
102.367292
20
201.868266
11
105.304623
21
199.216047
0
LINE
8
Layer 1
10
105.304623
20
199.216047
11
108.413113
21
196.738174
0
LINE
8
Layer 1
10
108.413113
20
196.738174
11
111.684445
21
194.451543
0
LINE
8
Layer 1
10
111.684445
20
194.451543
11
115.110302
21
192.373047
0
LINE
8
Layer 1
10
115.110302
20
192.373047
11
118.682368
21
190.519584
0
LINE
8
Layer 1
10
118.682368
20
190.519584
11
122.392326
21
188.908047
0
LINE
8
Layer 1
10
122.392326
20
188.908047
11
126.231860
21
187.555332
0
LINE
8
Layer 1
10
126.231860
20
187.555332
11
130.192653
21
186.478333
0
LINE
8
Layer 1
10
130.192653
20
186.478333
11
135.676357
21
185.580525
0
LINE
8
Layer 1
10
135.676357
20
185.580525
11
141.177409
21
185.004437
0
LINE
8
Layer 1
10
141.177409
20
185.004437
11
146.681277
21
184.765975
0
LINE
8
Layer 1
10
146.681277
20
184.765975
11
152.173428
21
184.881043
0
LINE
8
Layer 1
10
152.173428
20
184.881043
11
157.639332
21
185.365547
0
LINE
8
Layer 1
10
157.639332
20
185.365547
11
163.064456
21
186.235391
0
LINE
8
Layer 1
10
163.064456
20
186.235391
11
168.434268
21
187.506481
0
LINE
8
Layer 1
10
168.434268
20
187.506481
11
173.734236
21
189.194722
0
LINE
8
Layer 1
10
173.734236
20
189.194722
11
175.191939
21
186.842460
0
LINE
8
Layer 1
10
175.191939
20
186.842460
11
176.310787
21
184.327176
0
LINE
8
Layer 1
10
176.310787
20
184.327176
11
178.205709
21
179.105286
0
LINE
8
Layer 1
10
178.205709
20
179.105286
11
179.028316
21
176.627469
0
LINE
8
Layer 1
10
179.028316
20
176.627469
11
179.946753
21
173.328002
0
LINE
8
Layer 1
10
179.946753
20
173.328002
11
181.866748
21
165.209165
0
LINE
8
Layer 1
10
181.866748
20
165.209165
11
183.556953
21
156.638875
0
LINE
8
Layer 1
10
183.556953
20
156.638875
11
184.608625
21
149.507231
0
LINE
8
Layer 1
10
184.608625
20
149.507231
11
184.890322
21
144.757455
0
LINE
8
Layer 1
10
184.890322
20
144.757455
11
185.006880
21
138.463485
0
LINE
8
Layer 1
10
185.006880
20
138.463485
11
184.957379
21
131.967569
0
LINE
8
Layer 1
10
184.957379
20
131.967569
11
184.740903
21
126.611956
0
LINE
8
Layer 1
10
184.740903
20
126.611956
11
141.393347
21
126.611956
0
LINE
8
Layer 1
10
141.393347
20
126.611956
11
141.393347
21
128.358206
0
LINE
8
Layer 1
10
141.393347
20
128.358206
11
139.629459
21
128.367011
0
LINE
8
Layer 1
10
139.629459
20
128.367011
11
138.332986
21
128.402289
0
LINE
8
Layer 1
10
138.332986
20
128.402289
11
138.324181
21
128.402289
0
LINE
8
Layer 1
10
138.324181
20
128.402289
11
137.054181
21
128.499317
0
LINE
8
Layer 1
10
137.054181
20
128.499317
11
136.436820
21
128.569872
0
LINE
8
Layer 1
10
136.436820
20
128.569872
11
136.427986
21
128.569872
0
LINE
8
Layer 1
10
136.427986
20
128.569872
11
133.455847
21
129.125483
0
LINE
8
Layer 1
10
133.455847
20
129.125483
11
133.447014
21
129.125483
0
LINE
8
Layer 1
10
133.447014
20
129.125483
11
132.891403
21
129.275428
0
LINE
8
Layer 1
10
132.891403
20
129.275428
11
132.882569
21
129.275428
0
LINE
8
Layer 1
10
132.882569
20
129.275428
11
131.797792
21
129.619372
0
LINE
8
Layer 1
10
131.797792
20
129.619372
11
131.788958
21
129.619372
0
LINE
8
Layer 1
10
131.788958
20
129.619372
11
129.293070
21
130.695344
0
LINE
8
Layer 1
10
129.293070
20
130.695344
11
129.284236
21
130.695344
0
LINE
8
Layer 1
10
129.284236
20
130.695344
11
128.834459
21
130.951122
0
LINE
8
Layer 1
10
128.834459
20
130.951122
11
128.825625
21
130.951122
0
LINE
8
Layer 1
10
128.825625
20
130.951122
11
126.776935
21
132.370531
0
LINE
8
Layer 1
10
126.776935
20
132.370531
11
125.174375
21
134.046733
0
LINE
8
Layer 1
10
125.174375
20
134.046733
11
124.671681
21
134.787567
0
LINE
8
Layer 1
10
124.671681
20
134.787567
11
124.451181
21
135.166817
0
LINE
8
Layer 1
10
124.451181
20
135.166817
11
123.472236
21
136.965984
0
LINE
8
Layer 1
10
123.472236
20
136.965984
11
123.392847
21
148.219592
0
LINE
8
Layer 1
10
123.392847
20
148.219592
11
123.366403
21
152.417647
0
LINE
8
Layer 1
10
123.366403
20
152.417647
11
123.472236
21
158.529508
0
LINE
8
Layer 1
10
123.472236
20
158.529508
11
123.551597
21
159.164508
0
LINE
8
Layer 1
10
123.551597
20
159.164508
11
123.657431
21
159.649592
0
LINE
8
Layer 1
10
123.657431
20
159.649592
11
123.719181
21
159.843620
0
LINE
8
Layer 1
10
123.719181
20
159.843620
11
123.877931
21
160.134647
0
LINE
8
Layer 1
10
123.877931
20
160.134647
11
124.177792
21
160.408064
0
LINE
8
Layer 1
10
124.177792
20
160.408064
11
124.292431
21
160.452147
0
LINE
8
Layer 1
10
124.292431
20
160.452147
11
124.424736
21
160.487425
0
LINE
8
Layer 1
10
124.424736
20
160.487425
11
125.059736
21
160.531536
0
LINE
8
Layer 1
10
125.059736
20
160.531536
11
125.447792
21
160.531536
0
LINE
8
Layer 1
10
125.447792
20
160.531536
11
127.105847
21
160.302231
0
LINE
8
Layer 1
10
127.105847
20
160.302231
11
128.217097
21
159.896536
0
LINE
8
Layer 1
10
128.217097
20
159.896536
11
129.875153
21
158.926397
0
LINE
8
Layer 1
10
129.875153
20
158.926397
11
129.883958
21
158.926397
0
LINE
8
Layer 1
10
129.883958
20
158.926397
11
130.968764
21
158.044453
0
LINE
8
Layer 1
10
130.968764
20
158.044453
11
132.297607
21
156.695660
0
LINE
8
Layer 1
10
132.297607
20
156.695660
11
133.570486
21
155.081120
0
LINE
8
Layer 1
10
133.570486
20
155.081120
11
134.055570
21
154.366730
0
LINE
8
Layer 1
10
134.055570
20
154.366730
11
140.890625
21
160.460981
0
LINE
8
Layer 1
10
140.890625
20
160.460981
11
129.275431
21
168.998203
0
LINE
8
Layer 1
10
129.275431
20
168.998203
11
111.618903
21
159.190981
0
LINE
8
Layer 1
10
111.618903
20
159.190981
11
111.618903
21
145.538481
0
LINE
8
Layer 1
10
111.618903
20
145.538481
11
111.618903
21
131.885984
0
LINE
8
Layer 1
10
111.618903
20
131.885984
11
112.738958
21
129.531178
0
LINE
8
Layer 1
10
112.738958
20
129.531178
11
113.259320
21
128.516956
0
LINE
8
Layer 1
10
113.259320
20
128.516956
11
113.806125
21
127.626178
0
LINE
8
Layer 1
10
113.806125
20
127.626178
11
114.617514
21
126.611956
0
LINE
8
Layer 1
10
114.617514
20
126.611956
11
103.857792
21
126.611956
0
LINE
8
Layer 1
10
103.857792
20
126.611956
11
103.857792
21
174.139925
0
LINE
8
Layer 1
10
103.857792
20
174.139925
11
106.380153
21
174.139925
0
LINE
8
Layer 1
10
106.380153
20
174.139925
11
107.230160
21
174.315957
0
LINE
8
Layer 1
10
107.230160
20
174.315957
11
107.897097
21
174.669092
0
LINE
8
Layer 1
10
107.897097
20
174.669092
11
108.441458
21
175.238669
0
LINE
8
Layer 1
10
108.441458
20
175.238669
11
108.937792
21
176.062564
0
LINE
8
Layer 1
10
108.937792
20
176.062564
11
109.194853
21
176.776567
0
LINE
8
Layer 1
10
109.194853
20
176.776567
11
109.279803
21
177.547328
0
LINE
8
Layer 1
10
109.279803
20
177.547328
11
108.990709
21
179.105286
0
LINE
8
Layer 1
10
108.990709
20
179.105286
11
108.645491
21
179.815320
0
LINE
8
Layer 1
10
108.645491
20
179.815320
11
108.186523
21
180.426915
0
LINE
8
Layer 1
10
108.186523
20
180.426915
11
107.629142
21
180.900245
0
LINE
8
Layer 1
10
107.629142
20
180.900245
11
106.988681
21
181.195480
0
LINE
8
Layer 1
10
106.988681
20
181.195480
11
106.212569
21
181.583536
0
LINE
8
Layer 1
10
106.212569
20
181.583536
11
105.983264
21
182.439036
0
LINE
8
Layer 1
10
105.983264
20
182.439036
11
105.853174
21
183.570257
0
LINE
8
Layer 1
10
105.853174
20
183.570257
11
105.612847
21
184.352842
0
LINE
8
Layer 1
10
105.612847
20
184.352842
11
105.172732
21
184.955612
0
LINE
8
Layer 1
10
105.172732
20
184.955612
11
104.457514
21
185.543481
0
LINE
8
Layer 1
10
104.457514
20
185.543481
11
103.487375
21
186.099097
0
LINE
8
Layer 1
10
103.487375
20
186.099097
11
102.402569
21
186.346042
0
LINE
8
Layer 1
10
102.402569
20
186.346042
11
102.305570
21
186.337222
0
LINE
8
Layer 1
10
102.305570
20
186.337222
11
102.208542
21
186.346042
0
LINE
8
Layer 1
10
102.208542
20
186.346042
11
101.123764
21
186.099097
0
LINE
8
Layer 1
10
101.123764
20
186.099097
11
100.153625
21
185.543481
0
LINE
8
Layer 1
10
100.153625
20
185.543481
11
99.438382
21
184.955612
0
LINE
8
Layer 1
10
99.438382
20
184.955612
11
98.998264
21
184.352842
0
LINE
8
Layer 1
10
98.998264
20
184.352842
11
98.757948
21
183.570257
0
LINE
8
Layer 1
10
98.757948
20
183.570257
11
98.627847
21
182.439036
0
LINE
8
Layer 1
10
98.627847
20
182.439036
11
98.398542
21
181.583536
0
LINE
8
Layer 1
10
98.398542
20
181.583536
11
97.622431
21
181.195480
0
LINE
8
Layer 1
10
97.622431
20
181.195480
11
96.981970
21
180.900245
0
LINE
8
Layer 1
10
96.981970
20
180.900245
11
96.424591
21
180.426915
0
LINE
8
Layer 1
10
96.424591
20
180.426915
11
95.965632
21
179.815320
0
LINE
8
Layer 1
10
95.965632
20
179.815320
11
95.620431
21
179.105286
0
LINE
8
Layer 1
10
95.620431
20
179.105286
11
95.331315
21
177.547328
0
LINE
8
Layer 1
10
95.331315
20
177.547328
11
95.416270
21
176.776567
0
LINE
8
Layer 1
10
95.416270
20
176.776567
11
95.673347
21
176.062564
0
LINE
8
Layer 1
10
95.673347
20
176.062564
11
96.169660
21
175.238669
0
LINE
8
Layer 1
10
96.169660
20
175.238669
11
96.714042
21
174.669092
0
LINE
8
Layer 1
10
96.714042
20
174.669092
11
97.380968
21
174.315957
0
LINE
8
Layer 1
10
97.380968
20
174.315957
11
98.230986
21
174.139925
0
LINE
8
Layer 1
10
98.230986
20
174.139925
11
100.753347
21
174.139925
0
LINE
8
Layer 1
10
100.753347
20
174.139925
11
100.753347
21
126.611956
0
LINE
8
Layer 1
10
100.753347
20
126.611956
11
89.993625
21
126.611956
0
LINE
8
Layer 1
10
89.993625
20
126.611956
11
90.805014
21
127.626178
0
LINE
8
Layer 1
10
90.805014
20
127.626178
11
91.351820
21
128.516956
0
LINE
8
Layer 1
10
91.351820
20
128.516956
11
91.872153
21
129.531178
0
LINE
8
Layer 1
10
91.872153
20
129.531178
11
92.992236
21
131.885984
0
LINE
8
Layer 1
10
92.992236
20
131.885984
11
92.992236
21
145.538481
0
LINE
8
Layer 1
10
92.992236
20
145.538481
11
92.992236
21
159.190981
0
LINE
8
Layer 1
10
92.992236
20
159.190981
11
75.335709
21
168.998203
0
LINE
8
Layer 1
10
75.335709
20
168.998203
11
63.720486
21
160.460981
0
LINE
8
Layer 1
10
63.720486
20
160.460981
11
70.555570
21
154.366730
0
LINE
8
Layer 1
10
70.555570
20
154.366730
11
71.040625
21
155.081120
0
LINE
8
Layer 1
10
71.040625
20
155.081120
11
72.313507
21
156.695660
0
LINE
8
Layer 1
10
72.313507
20
156.695660
11
73.642375
21
158.044453
0
LINE
8
Layer 1
10
73.642375
20
158.044453
11
74.727153
21
158.926397
0
LINE
8
Layer 1
10
74.727153
20
158.926397
11
74.735986
21
158.926397
0
LINE
8
Layer 1
10
74.735986
20
158.926397
11
76.394042
21
159.896536
0
LINE
8
Layer 1
10
76.394042
20
159.896536
11
77.505292
21
160.302231
0
LINE
8
Layer 1
10
77.505292
20
160.302231
11
79.163347
21
160.531536
0
LINE
8
Layer 1
10
79.163347
20
160.531536
11
79.551403
21
160.531536
0
LINE
8
Layer 1
10
79.551403
20
160.531536
11
80.186403
21
160.487425
0
LINE
8
Layer 1
10
80.186403
20
160.487425
11
80.318681
21
160.452147
0
LINE
8
Layer 1
10
80.318681
20
160.452147
11
80.433347
21
160.408064
0
LINE
8
Layer 1
10
80.433347
20
160.408064
11
80.733209
21
160.134647
0
LINE
8
Layer 1
10
80.733209
20
160.134647
11
80.891959
21
159.843620
0
LINE
8
Layer 1
10
80.891959
20
159.843620
11
80.953681
21
159.649592
0
LINE
8
Layer 1
10
80.953681
20
159.649592
11
81.059514
21
159.164508
0
LINE
8
Layer 1
10
81.059514
20
159.164508
11
81.138903
21
158.529508
0
LINE
8
Layer 1
10
81.138903
20
158.529508
11
81.244736
21
152.417647
0
LINE
8
Layer 1
10
81.244736
20
152.417647
11
81.218264
21
148.219592
0
LINE
8
Layer 1
10
81.218264
20
148.219592
11
81.138903
21
136.965984
0
LINE
8
Layer 1
10
81.138903
20
136.965984
11
80.159931
21
135.166817
0
LINE
8
Layer 1
10
80.159931
20
135.166817
11
79.939459
21
134.787567
0
LINE
8
Layer 1
10
79.939459
20
134.787567
11
79.436736
21
134.046733
0
LINE
8
Layer 1
10
79.436736
20
134.046733
11
77.834176
21
132.370531
0
LINE
8
Layer 1
10
77.834176
20
132.370531
11
75.785486
21
130.951122
0
LINE
8
Layer 1
10
75.785486
20
130.951122
11
75.776681
21
130.951122
0
LINE
8
Layer 1
10
75.776681
20
130.951122
11
75.326875
21
130.695344
0
LINE
8
Layer 1
10
75.326875
20
130.695344
11
75.318070
21
130.695344
0
LINE
8
Layer 1
10
75.318070
20
130.695344
11
72.822153
21
129.619372
0
LINE
8
Layer 1
10
72.822153
20
129.619372
11
72.813347
21
129.619372
0
LINE
8
Layer 1
10
72.813347
20
129.619372
11
71.728542
21
129.275428
0
LINE
8
Layer 1
10
71.728542
20
129.275428
11
71.719736
21
129.275428
0
LINE
8
Layer 1
10
71.719736
20
129.275428
11
71.164097
21
129.125483
0
LINE
8
Layer 1
10
71.164097
20
129.125483
11
71.155292
21
129.125483
0
LINE
8
Layer 1
10
71.155292
20
129.125483
11
68.183125
21
128.569872
0
LINE
8
Layer 1
10
68.183125
20
128.569872
11
68.174320
21
128.569872
0
LINE
8
Layer 1
10
68.174320
20
128.569872
11
67.556959
21
128.499317
0
LINE
8
Layer 1
10
67.556959
20
128.499317
11
66.286959
21
128.402289
0
LINE
8
Layer 1
10
66.286959
20
128.402289
11
66.278125
21
128.402289
0
LINE
8
Layer 1
10
66.278125
20
128.402289
11
64.981681
21
128.367011
0
LINE
8
Layer 1
10
64.981681
20
128.367011
11
63.217792
21
128.358206
0
LINE
8
Layer 1
10
63.217792
20
128.358206
11
63.217792
21
126.611956
0
LINE
8
Layer 1
10
63.217792
20
126.611956
11
19.870208
21
126.611956
0
LINE
8
Layer 1
10
19.870208
20
126.611956
11
19.653732
21
131.967569
0
LINE
8
Layer 1
10
19.653732
20
131.967569
11
19.604235
21
138.463485
0
LINE
8
Layer 1
10
19.604235
20
138.463485
11
19.720801
21
144.757455
0
LINE
8
Layer 1
10
19.720801
20
144.757455
11
20.002514
21
149.507231
0
LINE
8
Layer 1
10
20.002514
20
149.507231
11
21.054171
21
156.638875
0
LINE
8
Layer 1
10
21.054171
20
156.638875
11
22.744370
21
165.209165
0
LINE
8
Layer 1
10
22.744370
20
165.209165
11
24.664371
21
173.328002
0
LINE
8
Layer 1
10
24.664371
20
173.328002
11
25.582815
21
176.627469
0
LINE
8
Layer 1
10
25.582815
20
176.627469
11
26.405431
21
179.105286
0
LINE
8
Layer 1
10
26.405431
20
179.105286
11
28.300338
21
184.327176
0
LINE
8
Layer 1
10
28.300338
20
184.327176
11
29.419184
21
186.842460
0
LINE
8
Layer 1
10
29.419184
20
186.842460
11
30.876875
21
189.194722
0
LINE
8
Layer 1
10
30.876875
20
189.194722
11
36.176843
21
187.506481
0
LINE
8
Layer 1
10
36.176843
20
187.506481
11
41.546656
21
186.235391
0
LINE
8
Layer 1
10
41.546656
20
186.235391
11
46.971780
21
185.365547
0
LINE
8
Layer 1
10
46.971780
20
185.365547
11
52.437686
21
184.881043
0
LINE
8
Layer 1
10
52.437686
20
184.881043
11
57.929841
21
184.765975
0
LINE
8
Layer 1
10
57.929841
20
184.765975
11
63.433714
21
185.004437
0
LINE
8
Layer 1
10
63.433714
20
185.004437
11
68.934773
21
185.580525
0
LINE
8
Layer 1
10
68.934773
20
185.580525
11
74.418486
21
186.478333
0
LINE
8
Layer 1
10
74.418486
20
186.478333
11
78.379294
21
187.555333
0
LINE
8
Layer 1
10
78.379294
20
187.555333
11
82.218833
21
188.908045
0
LINE
8
Layer 1
10
82.218833
20
188.908045
11
85.928787
21
190.519575
0
LINE
8
Layer 1
10
85.928787
20
190.519575
11
89.500844
21
192.373032
0
LINE
8
Layer 1
10
89.500844
20
192.373032
11
92.926690
21
194.451521
0
LINE
8
Layer 1
10
92.926690
20
194.451521
11
96.198010
21
196.738152
0
LINE
8
Layer 1
10
96.198010
20
196.738152
11
99.306491
21
199.216031
0
LINE
8
Layer 1
10
99.306491
20
199.216031
11
102.243819
21
201.868266
0
LINE
8
Layer 1
10
102.243819
20
201.868266
11
102.243819
21
201.868266
0
LINE
8
Layer 1
10
20.337653
20
122.140483
11
63.217792
21
122.140483
0
LINE
8
Layer 1
10
63.217792
20
122.140483
11
63.217792
21
119.327095
0
LINE
8
Layer 1
10
63.217792
20
119.327095
11
69.285570
21
119.626956
0
LINE
8
Layer 1
10
69.285570
20
119.626956
11
74.550764
21
120.129650
0
LINE
8
Layer 1
10
74.550764
20
120.129650
11
74.559597
21
120.129650
0
LINE
8
Layer 1
10
74.559597
20
120.129650
11
77.699320
21
120.632372
0
LINE
8
Layer 1
10
77.699320
20
120.632372
11
79.524931
21
121.055706
0
LINE
8
Layer 1
10
79.524931
20
121.055706
11
79.533764
21
121.055706
0
LINE
8
Layer 1
10
79.533764
20
121.055706
11
80.389236
21
121.302650
0
LINE
8
Layer 1
10
80.389236
20
121.302650
11
82.038486
21
121.867095
0
LINE
8
Layer 1
10
82.038486
20
121.867095
11
82.726403
21
122.140483
0
LINE
8
Layer 1
10
82.726403
20
122.140483
11
100.753347
21
122.140483
0
LINE
8
Layer 1
10
100.753347
20
122.140483
11
100.753347
21
114.344094
0
LINE
8
Layer 1
10
100.753347
20
114.344094
11
40.869320
21
114.344094
0
LINE
8
Layer 1
10
40.869320
20
114.344094
11
40.869320
21
116.875289
0
LINE
8
Layer 1
10
40.869320
20
116.875289
11
40.693287
21
117.720880
0
LINE
8
Layer 1
10
40.693287
20
117.720880
11
40.340153
21
118.383400
0
LINE
8
Layer 1
10
40.340153
20
118.383400
11
39.770586
21
118.932188
0
LINE
8
Layer 1
10
39.770586
20
118.932188
11
38.946681
21
119.432928
0
LINE
8
Layer 1
10
38.946681
20
119.432928
11
38.232678
21
119.688625
0
LINE
8
Layer 1
10
38.232678
20
119.688625
11
37.461917
21
119.770543
0
LINE
8
Layer 1
10
37.461917
20
119.770543
11
35.903958
21
119.477011
0
LINE
8
Layer 1
10
35.903958
20
119.477011
11
34.582319
21
118.677253
0
LINE
8
Layer 1
10
34.582319
20
118.677253
11
34.108996
21
118.122901
0
LINE
8
Layer 1
10
34.108996
20
118.122901
11
33.813764
21
117.483817
0
LINE
8
Layer 1
10
33.813764
20
117.483817
11
33.425709
21
116.707706
0
LINE
8
Layer 1
10
33.425709
20
116.707706
11
32.570208
21
116.478400
0
LINE
8
Layer 1
10
32.570208
20
116.478400
11
31.438977
21
116.343907
0
LINE
8
Layer 1
10
31.438977
20
116.343907
11
30.656403
21
116.099178
0
LINE
8
Layer 1
10
30.656403
20
116.099178
11
30.053633
21
115.663466
0
LINE
8
Layer 1
10
30.053633
20
115.663466
11
29.465764
21
114.952650
0
LINE
8
Layer 1
10
29.465764
20
114.952650
11
28.910153
21
113.982511
0
LINE
8
Layer 1
10
28.910153
20
113.982511
11
28.663209
21
112.897706
0
LINE
8
Layer 1
10
28.663209
20
112.897706
11
28.910153
21
111.812928
0
LINE
8
Layer 1
10
28.910153
20
111.812928
11
29.465764
21
110.842789
0
LINE
8
Layer 1
10
29.465764
20
110.842789
11
30.053633
21
110.127557
0
LINE
8
Layer 1
10
30.053633
20
110.127557
11
30.656403
21
109.687428
0
LINE
8
Layer 1
10
30.656403
20
109.687428
11
31.438988
21
109.447112
0
LINE
8
Layer 1
10
31.438988
20
109.447112
11
32.570208
21
109.317011
0
LINE
8
Layer 1
10
32.570208
20
109.317011
11
33.425709
21
109.087706
0
LINE
8
Layer 1
10
33.425709
20
109.087706
11
33.813764
21
108.311594
0
LINE
8
Layer 1
10
33.813764
20
108.311594
11
34.109000
21
107.671146
0
LINE
8
Layer 1
10
34.109000
20
107.671146
11
34.582329
21
107.113766
0
LINE
8
Layer 1
10
34.582329
20
107.113766
11
35.193925
21
106.654800
0
LINE
8
Layer 1
10
35.193925
20
106.654800
11
35.903958
21
106.309595
0
LINE
8
Layer 1
10
35.903958
20
106.309595
11
37.461917
21
106.020479
0
LINE
8
Layer 1
10
37.461917
20
106.020479
11
38.232678
21
106.105434
0
LINE
8
Layer 1
10
38.232678
20
106.105434
11
38.946681
21
106.362511
0
LINE
8
Layer 1
10
38.946681
20
106.362511
11
39.770576
21
106.858824
0
LINE
8
Layer 1
10
39.770576
20
106.858824
11
40.340153
21
107.403206
0
LINE
8
Layer 1
10
40.340153
20
107.403206
11
40.693287
21
108.070132
0
LINE
8
Layer 1
10
40.693287
20
108.070132
11
40.869320
21
108.920150
0
LINE
8
Layer 1
10
40.869320
20
108.920150
11
40.869320
21
111.442511
0
LINE
8
Layer 1
10
40.869320
20
111.442511
11
100.762153
21
111.416039
0
LINE
8
Layer 1
10
100.762153
20
111.416039
11
100.762153
21
74.206817
0
LINE
8
Layer 1
10
100.762153
20
74.206817
11
92.992236
21
74.206817
0
LINE
8
Layer 1
10
92.992236
20
74.206817
11
92.992236
21
78.969317
0
LINE
8
Layer 1
10
92.992236
20
78.969317
11
92.992236
21
92.621817
0
LINE
8
Layer 1
10
92.992236
20
92.621817
11
75.335709
21
102.429039
0
LINE
8
Layer 1
10
75.335709
20
102.429039
11
63.720486
21
93.891817
0
LINE
8
Layer 1
10
63.720486
20
93.891817
11
70.555570
21
87.797567
0
LINE
8
Layer 1
10
70.555570
20
87.797567
11
71.040625
21
88.511956
0
LINE
8
Layer 1
10
71.040625
20
88.511956
11
72.313507
21
90.126496
0
LINE
8
Layer 1
10
72.313507
20
90.126496
11
73.642375
21
91.475289
0
LINE
8
Layer 1
10
73.642375
20
91.475289
11
74.727153
21
92.357234
0
LINE
8
Layer 1
10
74.727153
20
92.357234
11
74.735986
21
92.357234
0
LINE
8
Layer 1
10
74.735986
20
92.357234
11
76.394042
21
93.327372
0
LINE
8
Layer 1
10
76.394042
20
93.327372
11
77.505292
21
93.733067
0
LINE
8
Layer 1
10
77.505292
20
93.733067
11
79.163347
21
93.962372
0
LINE
8
Layer 1
10
79.163347
20
93.962372
11
79.551403
21
93.962372
0
LINE
8
Layer 1
10
79.551403
20
93.962372
11
80.186403
21
93.918261
0
LINE
8
Layer 1
10
80.186403
20
93.918261
11
80.318681
21
93.882983
0
LINE
8
Layer 1
10
80.318681
20
93.882983
11
80.433347
21
93.838900
0
LINE
8
Layer 1
10
80.433347
20
93.838900
11
80.733209
21
93.565483
0
LINE
8
Layer 1
10
80.733209
20
93.565483
11
80.891959
21
93.274456
0
LINE
8
Layer 1
10
80.891959
20
93.274456
11
80.953681
21
93.080428
0
LINE
8
Layer 1
10
80.953681
20
93.080428
11
81.059514
21
92.595344
0
LINE
8
Layer 1
10
81.059514
20
92.595344
11
81.138903
21
91.960344
0
LINE
8
Layer 1
10
81.138903
20
91.960344
11
81.244736
21
85.848484
0
LINE
8
Layer 1
10
81.244736
20
85.848484
11
81.218264
21
81.650428
0
LINE
8
Layer 1
10
81.218264
20
81.650428
11
81.165347
21
74.206817
0
LINE
8
Layer 1
10
81.165347
20
74.206817
11
35.365986
21
74.206817
0
LINE
8
Layer 1
10
35.365986
20
74.206817
11
31.591264
21
81.412289
0
LINE
8
Layer 1
10
31.591264
20
81.412289
11
29.237249
21
86.869151
0
LINE
8
Layer 1
10
29.237249
20
86.869151
11
27.336433
21
91.762919
0
LINE
8
Layer 1
10
27.336433
20
91.762919
11
25.774886
21
96.407032
0
LINE
8
Layer 1
10
25.774886
20
96.407032
11
24.438681
21
101.114928
0
LINE
8
Layer 1
10
24.438681
20
101.114928
11
23.064204
21
106.682273
0
LINE
8
Layer 1
10
23.064204
20
106.682273
11
21.956504
21
111.857787
0
LINE
8
Layer 1
10
21.956504
20
111.857787
11
21.064636
21
116.918260
0
LINE
8
Layer 1
10
21.064636
20
116.918260
11
20.337653
21
122.140483
0
LINE
8
Layer 1
10
20.337653
20
122.140483
11
20.337653
21
122.140483
0
LINE
8
Layer 1
10
103.857792
20
122.140483
11
121.884736
21
122.140483
0
LINE
8
Layer 1
10
121.884736
20
122.140483
11
122.572653
21
121.867095
0
LINE
8
Layer 1
10
122.572653
20
121.867095
11
124.221875
21
121.302650
0
LINE
8
Layer 1
10
124.221875
20
121.302650
11
125.077375
21
121.055706
0
LINE
8
Layer 1
10
125.077375
20
121.055706
11
125.086181
21
121.055706
0
LINE
8
Layer 1
10
125.086181
20
121.055706
11
126.911820
21
120.632372
0
LINE
8
Layer 1
10
126.911820
20
120.632372
11
130.051542
21
120.129650
0
LINE
8
Layer 1
10
130.051542
20
120.129650
11
130.060347
21
120.129650
0
LINE
8
Layer 1
10
130.060347
20
120.129650
11
135.325570
21
119.626956
0
LINE
8
Layer 1
10
135.325570
20
119.626956
11
141.393347
21
119.327095
0
LINE
8
Layer 1
10
141.393347
20
119.327095
11
141.393347
21
122.140483
0
LINE
8
Layer 1
10
141.393347
20
122.140483
11
184.273486
21
122.140483
0
LINE
8
Layer 1
10
184.273486
20
122.140483
11
183.546487
21
116.918260
0
LINE
8
Layer 1
10
183.546487
20
116.918260
11
182.654610
21
111.857787
0
LINE
8
Layer 1
10
182.654610
20
111.857787
11
181.546907
21
106.682273
0
LINE
8
Layer 1
10
181.546907
20
106.682273
11
180.172431
21
101.114928
0
LINE
8
Layer 1
10
180.172431
20
101.114928
11
178.836225
21
96.407032
0
LINE
8
Layer 1
10
178.836225
20
96.407032
11
177.274682
21
91.762919
0
LINE
8
Layer 1
10
177.274682
20
91.762919
11
175.373874
21
86.869151
0
LINE
8
Layer 1
10
175.373874
20
86.869151
11
173.019875
21
81.412289
0
LINE
8
Layer 1
10
173.019875
20
81.412289
11
169.245153
21
74.206817
0
LINE
8
Layer 1
10
169.245153
20
74.206817
11
123.445764
21
74.206817
0
LINE
8
Layer 1
10
123.445764
20
74.206817
11
123.392847
21
81.650428
0
LINE
8
Layer 1
10
123.392847
20
81.650428
11
123.366403
21
85.848484
0
LINE
8
Layer 1
10
123.366403
20
85.848484
11
123.472236
21
91.960344
0
LINE
8
Layer 1
10
123.472236
20
91.960344
11
123.551597
21
92.595344
0
LINE
8
Layer 1
10
123.551597
20
92.595344
11
123.657431
21
93.080428
0
LINE
8
Layer 1
10
123.657431
20
93.080428
11
123.719181
21
93.274456
0
LINE
8
Layer 1
10
123.719181
20
93.274456
11
123.877931
21
93.565483
0
LINE
8
Layer 1
10
123.877931
20
93.565483
11
124.177792
21
93.838900
0
LINE
8
Layer 1
10
124.177792
20
93.838900
11
124.292431
21
93.882983
0
LINE
8
Layer 1
10
124.292431
20
93.882983
11
124.424736
21
93.918261
0
LINE
8
Layer 1
10
124.424736
20
93.918261
11
125.059736
21
93.962372
0
LINE
8
Layer 1
10
125.059736
20
93.962372
11
125.447792
21
93.962372
0
LINE
8
Layer 1
10
125.447792
20
93.962372
11
127.105847
21
93.733067
0
LINE
8
Layer 1
10
127.105847
20
93.733067
11
128.217097
21
93.327372
0
LINE
8
Layer 1
10
128.217097
20
93.327372
11
129.875153
21
92.357234
0
LINE
8
Layer 1
10
129.875153
20
92.357234
11
129.883958
21
92.357234
0
LINE
8
Layer 1
10
129.883958
20
92.357234
11
130.968764
21
91.475289
0
LINE
8
Layer 1
10
130.968764
20
91.475289
11
132.297607
21
90.126496
0
LINE
8
Layer 1
10
132.297607
20
90.126496
11
133.570486
21
88.511956
0
LINE
8
Layer 1
10
133.570486
20
88.511956
11
134.055570
21
87.797567
0
LINE
8
Layer 1
10
134.055570
20
87.797567
11
140.890625
21
93.891817
0
LINE
8
Layer 1
10
140.890625
20
93.891817
11
129.275431
21
102.429039
0
LINE
8
Layer 1
10
129.275431
20
102.429039
11
111.618903
21
92.621817
0
LINE
8
Layer 1
10
111.618903
20
92.621817
11
111.618903
21
78.969317
0
LINE
8
Layer 1
10
111.618903
20
78.969317
11
111.618903
21
74.206817
0
LINE
8
Layer 1
10
111.618903
20
74.206817
11
103.848958
21
74.206817
0
LINE
8
Layer 1
10
103.848958
20
74.206817
11
103.848958
21
111.416039
0
LINE
8
Layer 1
10
103.848958
20
111.416039
11
163.741820
21
111.442511
0
LINE
8
Layer 1
10
163.741820
20
111.442511
11
163.741820
21
108.920150
0
LINE
8
Layer 1
10
163.741820
20
108.920150
11
163.917831
21
108.070132
0
LINE
8
Layer 1
10
163.917831
20
108.070132
11
164.270986
21
107.403206
0
LINE
8
Layer 1
10
164.270986
20
107.403206
11
164.840543
21
106.858824
0
LINE
8
Layer 1
10
164.840543
20
106.858824
11
165.664459
21
106.362511
0
LINE
8
Layer 1
10
165.664459
20
106.362511
11
166.378445
21
106.105434
0
LINE
8
Layer 1
10
166.378445
20
106.105434
11
167.149198
21
106.020479
0
LINE
8
Layer 1
10
167.149198
20
106.020479
11
168.707153
21
106.309595
0
LINE
8
Layer 1
10
168.707153
20
106.309595
11
169.417187
21
106.654800
0
LINE
8
Layer 1
10
169.417187
20
106.654800
11
170.028785
21
107.113766
0
LINE
8
Layer 1
10
170.028785
20
107.113766
11
170.502123
21
107.671146
0
LINE
8
Layer 1
10
170.502123
20
107.671146
11
170.797375
21
108.311594
0
LINE
8
Layer 1
10
170.797375
20
108.311594
11
171.185431
21
109.087706
0
LINE
8
Layer 1
10
171.185431
20
109.087706
11
172.040903
21
109.317011
0
LINE
8
Layer 1
10
172.040903
20
109.317011
11
173.172127
21
109.447112
0
LINE
8
Layer 1
10
173.172127
20
109.447112
11
173.954736
21
109.687428
0
LINE
8
Layer 1
10
173.954736
20
109.687428
11
174.557482
21
110.127557
0
LINE
8
Layer 1
10
174.557482
20
110.127557
11
175.145347
21
110.842789
0
LINE
8
Layer 1
10
175.145347
20
110.842789
11
175.700986
21
111.812928
0
LINE
8
Layer 1
10
175.700986
20
111.812928
11
175.947931
21
112.897706
0
LINE
8
Layer 1
10
175.947931
20
112.897706
11
175.700986
21
113.982511
0
LINE
8
Layer 1
10
175.700986
20
113.982511
11
175.145347
21
114.952650
0
LINE
8
Layer 1
10
175.145347
20
114.952650
11
174.557482
21
115.663466
0
LINE
8
Layer 1
10
174.557482
20
115.663466
11
173.954736
21
116.099178
0
LINE
8
Layer 1
10
173.954736
20
116.099178
11
173.172138
21
116.343907
0
LINE
8
Layer 1
10
173.172138
20
116.343907
11
172.040903
21
116.478400
0
LINE
8
Layer 1
10
172.040903
20
116.478400
11
171.185431
21
116.707706
0
LINE
8
Layer 1
10
171.185431
20
116.707706
11
170.797375
21
117.483817
0
LINE
8
Layer 1
10
170.797375
20
117.483817
11
170.502127
21
118.122901
0
LINE
8
Layer 1
10
170.502127
20
118.122901
11
170.028796
21
118.677253
0
LINE
8
Layer 1
10
170.028796
20
118.677253
11
168.707153
21
119.477011
0
LINE
8
Layer 1
10
168.707153
20
119.477011
11
167.149208
21
119.770543
0
LINE
8
Layer 1
10
167.149208
20
119.770543
11
166.378457
21
119.688625
0
LINE
8
Layer 1
10
166.378457
20
119.688625
11
165.664459
21
119.432928
0
LINE
8
Layer 1
10
165.664459
20
119.432928
11
164.840553
21
118.932188
0
LINE
8
Layer 1
10
164.840553
20
118.932188
11
164.270986
21
118.383400
0
LINE
8
Layer 1
10
164.270986
20
118.383400
11
163.917842
21
117.720880
0
LINE
8
Layer 1
10
163.917842
20
117.720880
11
163.741820
21
116.875289
0
LINE
8
Layer 1
10
163.741820
20
116.875289
11
163.741820
21
114.344094
0
LINE
8
Layer 1
10
163.741820
20
114.344094
11
103.857792
21
114.344094
0
LINE
8
Layer 1
10
103.857792
20
114.344094
11
103.857792
21
122.140483
0
LINE
8
Layer 1
10
103.857792
20
122.140483
11
103.857792
21
122.140483
0
LINE
8
Layer 1
10
38.029459
20
69.735344
11
80.777292
21
69.735344
0
LINE
8
Layer 1
10
80.777292
20
69.735344
11
80.159931
21
68.597650
0
LINE
8
Layer 1
10
80.159931
20
68.597650
11
79.939459
21
68.218400
0
LINE
8
Layer 1
10
79.939459
20
68.218400
11
79.436736
21
67.477567
0
LINE
8
Layer 1
10
79.436736
20
67.477567
11
77.834176
21
65.801364
0
LINE
8
Layer 1
10
77.834176
20
65.801364
11
75.785486
21
64.381956
0
LINE
8
Layer 1
10
75.785486
20
64.381956
11
75.776681
21
64.381956
0
LINE
8
Layer 1
10
75.776681
20
64.381956
11
75.326875
21
64.126178
0
LINE
8
Layer 1
10
75.326875
20
64.126178
11
75.318070
21
64.126178
0
LINE
8
Layer 1
10
75.318070
20
64.126178
11
72.822153
21
63.050206
0
LINE
8
Layer 1
10
72.822153
20
63.050206
11
72.813347
21
63.050206
0
LINE
8
Layer 1
10
72.813347
20
63.050206
11
71.728542
21
62.706261
0
LINE
8
Layer 1
10
71.728542
20
62.706261
11
71.719736
21
62.706261
0
LINE
8
Layer 1
10
71.719736
20
62.706261
11
71.164097
21
62.556317
0
LINE
8
Layer 1
10
71.164097
20
62.556317
11
71.155292
21
62.556317
0
LINE
8
Layer 1
10
71.155292
20
62.556317
11
68.183125
21
62.000706
0
LINE
8
Layer 1
10
68.183125
20
62.000706
11
68.174320
21
62.000706
0
LINE
8
Layer 1
10
68.174320
20
62.000706
11
67.556959
21
61.930150
0
LINE
8
Layer 1
10
67.556959
20
61.930150
11
66.286959
21
61.833122
0
LINE
8
Layer 1
10
66.286959
20
61.833122
11
66.278125
21
61.833122
0
LINE
8
Layer 1
10
66.278125
20
61.833122
11
64.981681
21
61.797844
0
LINE
8
Layer 1
10
64.981681
20
61.797844
11
63.217792
21
61.789039
0
LINE
8
Layer 1
10
63.217792
20
61.789039
11
63.217792
21
52.757928
0
LINE
8
Layer 1
10
63.217792
20
52.757928
11
69.285570
21
53.057789
0
LINE
8
Layer 1
10
69.285570
20
53.057789
11
74.550764
21
53.560483
0
LINE
8
Layer 1
10
74.550764
20
53.560483
11
74.559597
21
53.560483
0
LINE
8
Layer 1
10
74.559597
20
53.560483
11
77.699320
21
54.063206
0
LINE
8
Layer 1
10
77.699320
20
54.063206
11
79.524931
21
54.486539
0
LINE
8
Layer 1
10
79.524931
20
54.486539
11
79.533764
21
54.486539
0
LINE
8
Layer 1
10
79.533764
20
54.486539
11
80.389236
21
54.733484
0
LINE
8
Layer 1
10
80.389236
20
54.733484
11
82.038486
21
55.297928
0
LINE
8
Layer 1
10
82.038486
20
55.297928
11
85.266403
21
56.761956
0
LINE
8
Layer 1
10
85.266403
20
56.761956
11
85.954320
21
57.132372
0
LINE
8
Layer 1
10
85.954320
20
57.132372
11
85.963125
21
57.132372
0
LINE
8
Layer 1
10
85.963125
20
57.132372
11
87.727222
21
58.173409
0
LINE
8
Layer 1
10
87.727222
20
58.173409
11
89.102847
21
59.187289
0
LINE
8
Layer 1
10
89.102847
20
59.187289
11
89.111681
21
59.187289
0
LINE
8
Layer 1
10
89.111681
20
59.187289
11
90.032452
21
60.074207
0
LINE
8
Layer 1
10
90.032452
20
60.074207
11
90.805014
21
61.057011
0
LINE
8
Layer 1
10
90.805014
20
61.057011
11
91.351820
21
61.947789
0
LINE
8
Layer 1
10
91.351820
20
61.947789
11
91.872153
21
62.962011
0
LINE
8
Layer 1
10
91.872153
20
62.962011
11
92.992236
21
65.316817
0
LINE
8
Layer 1
10
92.992236
20
65.316817
11
92.992236
21
69.735344
0
LINE
8
Layer 1
10
92.992236
20
69.735344
11
100.762153
21
69.735344
0
LINE
8
Layer 1
10
100.762153
20
69.735344
11
100.762153
21
51.637844
0
LINE
8
Layer 1
10
100.762153
20
51.637844
11
98.230986
21
51.637844
0
LINE
8
Layer 1
10
98.230986
20
51.637844
11
97.385371
21
51.461822
0
LINE
8
Layer 1
10
97.385371
20
51.461822
11
96.722847
21
51.108678
0
LINE
8
Layer 1
10
96.722847
20
51.108678
11
96.174063
21
50.539111
0
LINE
8
Layer 1
10
96.174063
20
50.539111
11
95.673347
21
49.715206
0
LINE
8
Layer 1
10
95.673347
20
49.715206
11
95.417638
21
49.001207
0
LINE
8
Layer 1
10
95.417638
20
49.001207
11
95.335718
21
48.230456
0
LINE
8
Layer 1
10
95.335718
20
48.230456
11
95.629236
21
46.672511
0
LINE
8
Layer 1
10
95.629236
20
46.672511
11
96.428994
21
45.350868
0
LINE
8
Layer 1
10
96.428994
20
45.350868
11
96.983346
21
44.877537
0
LINE
8
Layer 1
10
96.983346
20
44.877537
11
97.622431
21
44.582289
0
LINE
8
Layer 1
10
97.622431
20
44.582289
11
98.398542
21
44.194233
0
LINE
8
Layer 1
10
98.398542
20
44.194233
11
98.627847
21
43.338761
0
LINE
8
Layer 1
10
98.627847
20
43.338761
11
98.762344
21
42.207526
0
LINE
8
Layer 1
10
98.762344
20
42.207526
11
99.007097
21
41.424928
0
LINE
8
Layer 1
10
99.007097
20
41.424928
11
99.442799
21
40.822182
0
LINE
8
Layer 1
10
99.442799
20
40.822182
11
100.153625
21
40.234317
0
LINE
8
Layer 1
10
100.153625
20
40.234317
11
101.123764
21
39.678678
0
LINE
8
Layer 1
10
101.123764
20
39.678678
11
102.208542
21
39.431733
0
LINE
8
Layer 1
10
102.208542
20
39.431733
11
102.305570
21
39.440567
0
LINE
8
Layer 1
10
102.305570
20
39.440567
11
102.402569
21
39.431733
0
LINE
8
Layer 1
10
102.402569
20
39.431733
11
103.487375
21
39.678678
0
LINE
8
Layer 1
10
103.487375
20
39.678678
11
104.457514
21
40.234317
0
LINE
8
Layer 1
10
104.457514
20
40.234317
11
105.168319
21
40.822182
0
LINE
8
Layer 1
10
105.168319
20
40.822182
11
105.604042
21
41.424928
0
LINE
8
Layer 1
10
105.604042
20
41.424928
11
105.848771
21
42.207526
0
LINE
8
Layer 1
10
105.848771
20
42.207526
11
105.983264
21
43.338761
0
LINE
8
Layer 1
10
105.983264
20
43.338761
11
106.212569
21
44.194233
0
LINE
8
Layer 1
10
106.212569
20
44.194233
11
106.988681
21
44.582289
0
LINE
8
Layer 1
10
106.988681
20
44.582289
11
107.627765
21
44.877537
0
LINE
8
Layer 1
10
107.627765
20
44.877537
11
108.182117
21
45.350868
0
LINE
8
Layer 1
10
108.182117
20
45.350868
11
108.981875
21
46.672511
0
LINE
8
Layer 1
10
108.981875
20
46.672511
11
109.275397
21
48.230456
0
LINE
8
Layer 1
10
109.275397
20
48.230456
11
109.193485
21
49.001207
0
LINE
8
Layer 1
10
109.193485
20
49.001207
11
108.937792
21
49.715206
0
LINE
8
Layer 1
10
108.937792
20
49.715206
11
108.437052
21
50.539111
0
LINE
8
Layer 1
10
108.437052
20
50.539111
11
107.888264
21
51.108678
0
LINE
8
Layer 1
10
107.888264
20
51.108678
11
107.225744
21
51.461822
0
LINE
8
Layer 1
10
107.225744
20
51.461822
11
106.380153
21
51.637844
0
LINE
8
Layer 1
10
106.380153
20
51.637844
11
103.848958
21
51.637844
0
LINE
8
Layer 1
10
103.848958
20
51.637844
11
103.848958
21
69.735344
0
LINE
8
Layer 1
10
103.848958
20
69.735344
11
111.618903
21
69.735344
0
LINE
8
Layer 1
10
111.618903
20
69.735344
11
111.618903
21
65.316817
0
LINE
8
Layer 1
10
111.618903
20
65.316817
11
112.738958
21
62.962011
0
LINE
8
Layer 1
10
112.738958
20
62.962011
11
113.259320
21
61.947789
0
LINE
8
Layer 1
10
113.259320
20
61.947789
11
113.806125
21
61.057011
0
LINE
8
Layer 1
10
113.806125
20
61.057011
11
114.578666
21
60.074207
0
LINE
8
Layer 1
10
114.578666
20
60.074207
11
115.499459
21
59.187289
0
LINE
8
Layer 1
10
115.499459
20
59.187289
11
115.508264
21
59.187289
0
LINE
8
Layer 1
10
115.508264
20
59.187289
11
116.883889
21
58.173409
0
LINE
8
Layer 1
10
116.883889
20
58.173409
11
118.647986
21
57.132372
0
LINE
8
Layer 1
10
118.647986
20
57.132372
11
118.656820
21
57.132372
0
LINE
8
Layer 1
10
118.656820
20
57.132372
11
119.344736
21
56.761956
0
LINE
8
Layer 1
10
119.344736
20
56.761956
11
122.572653
21
55.297928
0
LINE
8
Layer 1
10
122.572653
20
55.297928
11
124.221875
21
54.733484
0
LINE
8
Layer 1
10
124.221875
20
54.733484
11
125.077375
21
54.486539
0
LINE
8
Layer 1
10
125.077375
20
54.486539
11
125.086181
21
54.486539
0
LINE
8
Layer 1
10
125.086181
20
54.486539
11
126.911820
21
54.063206
0
LINE
8
Layer 1
10
126.911820
20
54.063206
11
130.051542
21
53.560483
0
LINE
8
Layer 1
10
130.051542
20
53.560483
11
130.060347
21
53.560483
0
LINE
8
Layer 1
10
130.060347
20
53.560483
11
135.325570
21
53.057789
0
LINE
8
Layer 1
10
135.325570
20
53.057789
11
141.393347
21
52.757928
0
LINE
8
Layer 1
10
141.393347
20
52.757928
11
141.393347
21
61.789039
0
LINE
8
Layer 1
10
141.393347
20
61.789039
11
139.629459
21
61.797844
0
LINE
8
Layer 1
10
139.629459
20
61.797844
11
138.332986
21
61.833122
0
LINE
8
Layer 1
10
138.332986
20
61.833122
11
138.324181
21
61.833122
0
LINE
8
Layer 1
10
138.324181
20
61.833122
11
137.054181
21
61.930150
0
LINE
8
Layer 1
10
137.054181
20
61.930150
11
136.436820
21
62.000706
0
LINE
8
Layer 1
10
136.436820
20
62.000706
11
136.427986
21
62.000706
0
LINE
8
Layer 1
10
136.427986
20
62.000706
11
133.455847
21
62.556317
0
LINE
8
Layer 1
10
133.455847
20
62.556317
11
133.447014
21
62.556317
0
LINE
8
Layer 1
10
133.447014
20
62.556317
11
132.891403
21
62.706261
0
LINE
8
Layer 1
10
132.891403
20
62.706261
11
132.882569
21
62.706261
0
LINE
8
Layer 1
10
132.882569
20
62.706261
11
131.797792
21
63.050206
0
LINE
8
Layer 1
10
131.797792
20
63.050206
11
131.788958
21
63.050206
0
LINE
8
Layer 1
10
131.788958
20
63.050206
11
129.293070
21
64.126178
0
LINE
8
Layer 1
10
129.293070
20
64.126178
11
129.284236
21
64.126178
0
LINE
8
Layer 1
10
129.284236
20
64.126178
11
128.834459
21
64.381956
0
LINE
8
Layer 1
10
128.834459
20
64.381956
11
128.825625
21
64.381956
0
LINE
8
Layer 1
10
128.825625
20
64.381956
11
126.776935
21
65.801364
0
LINE
8
Layer 1
10
126.776935
20
65.801364
11
125.174375
21
67.477567
0
LINE
8
Layer 1
10
125.174375
20
67.477567
11
124.671681
21
68.218400
0
LINE
8
Layer 1
10
124.671681
20
68.218400
11
124.451181
21
68.597650
0
LINE
8
Layer 1
10
124.451181
20
68.597650
11
123.833819
21
69.735344
0
LINE
8
Layer 1
10
123.833819
20
69.735344
11
166.581681
21
69.735344
0
LINE
8
Layer 1
10
166.581681
20
69.735344
11
163.251159
21
64.704712
0
LINE
8
Layer 1
10
163.251159
20
64.704712
11
159.649597
21
59.875206
0
LINE
8
Layer 1
10
159.649597
20
59.875206
11
155.360491
21
54.950589
0
LINE
8
Layer 1
10
155.360491
20
54.950589
11
150.981202
21
50.111520
0
LINE
8
Layer 1
10
150.981202
20
50.111520
11
146.345589
21
45.537314
0
LINE
8
Layer 1
10
146.345589
20
45.537314
11
143.879743
21
43.405572
0
LINE
8
Layer 1
10
143.879743
20
43.405572
11
141.287514
21
41.407289
0
LINE
8
Layer 1
10
141.287514
20
41.407289
11
135.113229
21
36.820941
0
LINE
8
Layer 1
10
135.113229
20
36.820941
11
128.735236
21
32.560370
0
LINE
8
Layer 1
10
128.735236
20
32.560370
11
122.126834
21
28.668522
0
LINE
8
Layer 1
10
122.126834
20
28.668522
11
115.261319
21
25.188345
0
LINE
8
Layer 1
10
115.261319
20
25.188345
11
112.136370
21
23.766105
0
LINE
8
Layer 1
10
112.136370
20
23.766105
11
108.952630
21
22.513037
0
LINE
8
Layer 1
10
108.952630
20
22.513037
11
105.699728
21
21.475345
0
LINE
8
Layer 1
10
105.699728
20
21.475345
11
102.367292
21
20.699233
0
LINE
8
Layer 1
10
102.367292
20
20.699233
11
102.367292
21
20.725706
0
LINE
8
Layer 1
10
102.367292
20
20.725706
11
102.305570
21
20.708067
0
LINE
8
Layer 1
10
102.305570
20
20.708067
11
102.243819
21
20.725706
0
LINE
8
Layer 1
10
102.243819
20
20.725706
11
102.243819
21
20.699233
0
LINE
8
Layer 1
10
102.243819
20
20.699233
11
98.911364
21
21.475329
0
LINE
8
Layer 1
10
98.911364
20
21.475329
11
95.658471
21
22.513016
0
LINE
8
Layer 1
10
95.658471
20
22.513016
11
92.474745
21
23.766089
0
LINE
8
Layer 1
10
92.474745
20
23.766089
11
89.349792
21
25.188345
0
LINE
8
Layer 1
10
89.349792
20
25.188345
11
82.484278
21
28.668522
0
LINE
8
Layer 1
10
82.484278
20
28.668522
11
75.875878
21
32.560370
0
LINE
8
Layer 1
10
75.875878
20
32.560370
11
69.497894
21
36.820941
0
LINE
8
Layer 1
10
69.497894
20
36.820941
11
63.323625
21
41.407289
0
LINE
8
Layer 1
10
63.323625
20
41.407289
11
60.731387
21
43.405572
0
LINE
8
Layer 1
10
60.731387
20
43.405572
11
58.265534
21
45.537314
0
LINE
8
Layer 1
10
58.265534
20
45.537314
11
53.629916
21
50.111520
0
LINE
8
Layer 1
10
53.629916
20
50.111520
11
49.250632
21
54.950589
0
LINE
8
Layer 1
10
49.250632
20
54.950589
11
44.961542
21
59.875206
0
LINE
8
Layer 1
10
44.961542
20
59.875206
11
41.359970
21
64.704712
0
LINE
8
Layer 1
10
41.359970
20
64.704712
11
38.029459
21
69.735344
0
LINE
8
Layer 1
10
38.029459
20
69.735344
11
38.029459
21
69.735344
 0 
ENDSEC
 0 
EOF
