  0
SECTION
  2
HEADER
  9
$ACADVER
  1
AC1009
  9
$DWGCODEPAGE
  3
ansi_1252
  9
$INSBASE
 10
0.0
 20
0.0
 30
0.0
  9
$EXTMIN
 10
1.704538
 20
0.834628
 30
0.0
  9
$EXTMAX
 10
12.60079
 20
31.712836
 30
0.0
  9
$LIMMIN
 10
0.0
 20
0.0
  9
$LIMMAX
 10
12.0
 20
9.0
  9
$ORTHOMODE
 70
     0
  9
$REGENMODE
 70
     1
  9
$FILLMODE
 70
     1
  9
$QTEXTMODE
 70
     0
  9
$MIRRTEXT
 70
     1
  9
$DRAGMODE
 70
     2
  9
$LTSCALE
 40
1.0
  9
$OSMODE
 70
    37
  9
$ATTMODE
 70
     1
  9
$TEXTSIZE
 40
0.2
  9
$TRACEWID
 40
0.05
  9
$TEXTSTYLE
  7
STANDARD
  9
$CLAYER
  8
0
  9
$CELTYPE
  6
BYBLOCK
  9
$CECOLOR
 62
   256
  9
$DIMSCALE
 40
1.0
  9
$DIMASZ
 40
0.18
  9
$DIMEXO
 40
0.0625
  9
$DIMDLI
 40
0.38
  9
$DIMRND
 40
0.0
  9
$DIMDLE
 40
0.0
  9
$DIMEXE
 40
0.18
  9
$DIMTP
 40
0.0
  9
$DIMTM
 40
0.0
  9
$DIMTXT
 40
0.18
  9
$DIMCEN
 40
0.09
  9
$DIMTSZ
 40
0.0
  9
$DIMTOL
 70
     0
  9
$DIMLIM
 70
     0
  9
$DIMTIH
 70
     1
  9
$DIMTOH
 70
     1
  9
$DIMSE1
 70
     0
  9
$DIMSE2
 70
     0
  9
$DIMTAD
 70
     0
  9
$DIMZIN
 70
     0
  9
$DIMBLK
  1

  9
$DIMASO
 70
     1
  9
$DIMSHO
 70
     1
  9
$DIMPOST
  1

  9
$DIMAPOST
  1

  9
$DIMALT
 70
     0
  9
$DIMALTD
 70
     2
  9
$DIMALTF
 40
25.4
  9
$DIMLFAC
 40
1.0
  9
$DIMTOFL
 70
     0
  9
$DIMTVP
 40
0.0
  9
$DIMTIX
 70
     0
  9
$DIMSOXD
 70
     0
  9
$DIMSAH
 70
     0
  9
$DIMBLK1
  1

  9
$DIMBLK2
  1

  9
$DIMSTYLE
  2
STANDARD
  9
$DIMCLRD
 70
     0
  9
$DIMCLRE
 70
     0
  9
$DIMCLRT
 70
     0
  9
$DIMTFAC
 40
1.0
  9
$DIMGAP
 40
0.09
  9
$LUNITS
 70
     2
  9
$LUPREC
 70
     4
  9
$SKETCHINC
 40
0.1
  9
$FILLETRAD
 40
0.5
  9
$AUNITS
 70
     0
  9
$AUPREC
 70
     0
  9
$MENU
  1
.
  9
$ELEVATION
 40
0.0
  9
$PELEVATION
 40
0.0
  9
$THICKNESS
 40
0.0
  9
$LIMCHECK
 70
     0
  9
$CHAMFERA
 40
0.5
  9
$CHAMFERB
 40
0.5
  9
$SKPOLY
 70
     0
  9
$TDCREATE
 40
2453353.508792488
  9
$TDUPDATE
 40
4910353.859588148
  9
$TDINDWG
 40
4895786.051922963
  9
$TDUSRTIMER
 40
4895786.051922963
  9
$USRTIMER
 70
     1
  9
$ANGBASE
 50
0.0
  9
$ANGDIR
 70
     0
  9
$PDMODE
 70
     0
  9
$PDSIZE
 40
0.0
  9
$PLINEWID
 40
0.0
  9
$COORDS
 70
     1
  9
$SPLFRAME
 70
     0
  9
$SPLINETYPE
 70
     6
  9
$SPLINESEGS
 70
     8
  9
$ATTDIA
 70
     0
  9
$ATTREQ
 70
     1
  9
$HANDLING
 70
     1
  9
$HANDSEED
  5
1A0
  9
$SURFTAB1
 70
     6
  9
$SURFTAB2
 70
     6
  9
$SURFTYPE
 70
     6
  9
$SURFU
 70
     6
  9
$SURFV
 70
     6
  9
$UCSNAME
  2

  9
$UCSORG
 10
0.0
 20
0.0
 30
0.0
  9
$UCSXDIR
 10
1.0
 20
0.0
 30
0.0
  9
$UCSYDIR
 10
0.0
 20
1.0
 30
0.0
  9
$PUCSNAME
  2

  9
$PUCSORG
 10
0.0
 20
0.0
 30
0.0
  9
$PUCSXDIR
 10
1.0
 20
0.0
 30
0.0
  9
$PUCSYDIR
 10
0.0
 20
1.0
 30
0.0
  9
$USERI1
 70
     0
  9
$USERI2
 70
     0
  9
$USERI3
 70
     0
  9
$USERI4
 70
     0
  9
$USERI5
 70
     0
  9
$USERR1
 40
0.0
  9
$USERR2
 40
0.0
  9
$USERR3
 40
0.0
  9
$USERR4
 40
0.0
  9
$USERR5
 40
0.0
  9
$WORLDVIEW
 70
     1
  9
$SHADEDGE
 70
     3
  9
$SHADEDIF
 70
    70
  9
$TILEMODE
 70
     1
  9
$MAXACTVP
 70
    64
  9
$PLIMCHECK
 70
     0
  9
$PEXTMIN
 10
0.0
 20
0.0
 30
0.0
  9
$PEXTMAX
 10
0.0
 20
0.0
 30
0.0
  9
$PLIMMIN
 10
0.0
 20
0.0
  9
$PLIMMAX
 10
0.0
 20
0.0
  9
$UNITMODE
 70
     0
  9
$VISRETAIN
 70
     1
  9
$PLINEGEN
 70
     0
  9
$PSLTSCALE
 70
     1
  0
ENDSEC
  0
SECTION
  2
TABLES
  0
TABLE
  2
VPORT
 70
     1
  0
VPORT
  2
*ACTIVE
 70
     0
 10
0.0
 20
0.0
 11
1.0
 21
1.0
 12
8.257124498574074
 22
17.13529551152727
 13
0.0
 23
0.0
 14
0.5
 24
0.5
 15
0.5
 25
0.5
 16
0.0
 26
0.0
 36
1.0
 17
0.0
 27
0.0
 37
0.0
 40
51.92116104439079
 41
1.972972972850329
 42
50.0
 43
0.0
 44
0.0
 50
0.0
 51
0.0
 71
    16
 72
   100
 73
     1
 74
     3
 75
     0
 76
     0
 77
     0
 78
     0
  0
ENDTAB
  0
TABLE
  2
LTYPE
 70
     1
  0
LTYPE
  2
CONTINUOUS
 70
     0
  3
Solid line
 72
    65
 73
     0
 40
0.0
  0
ENDTAB
  0
TABLE
  2
LAYER
 70
     2
  0
LAYER
  2
0
 70
     0
 62
     7
  6
CONTINUOUS
  0
LAYER
  2
LAYER_1
 70
     0
 62
     7
  6
CONTINUOUS
  0
ENDTAB
  0
TABLE
  2
STYLE
 70
     1
  0
STYLE
  2
STANDARD
 70
     0
 40
0.0
 41
1.0
 50
0.0
 71
     0
 42
0.2
  3
txt
  4

  0
ENDTAB
  0
TABLE
  2
VIEW
 70
     0
  0
ENDTAB
  0
TABLE
  2
UCS
 70
     0
  0
ENDTAB
  0
TABLE
  2
APPID
 70
     1
  0
APPID
  2
ACAD
 70
     0
  0
ENDTAB
  0
TABLE
  2
DIMSTYLE
 70
     1
  0
DIMSTYLE
  2
STANDARD
 70
     0
  3

  4

  5

  6

  7

 40
1.0
 41
0.18
 42
0.0625
 43
0.38
 44
0.18
 45
0.0
 46
0.0
 47
0.0
 48
0.0
140
0.18
141
0.09
142
0.0
143
25.4
144
1.0
145
0.0
146
1.0
147
0.09
 71
     0
 72
     0
 73
     1
 74
     1
 75
     0
 76
     0
 77
     0
 78
     0
170
     0
171
     2
172
     0
173
     0
174
     0
175
     0
176
     0
177
     0
178
     0
  0
ENDTAB
  0
ENDSEC
  0
SECTION
  2
BLOCKS
  0
BLOCK
  8
0
  2
$MODEL_SPACE
 70
     0
 10
0.0
 20
0.0
 30
0.0
  3
$MODEL_SPACE
  1

  0
ENDBLK
  5
21
  8
0
  0
BLOCK
 67
     1
  8
0
  2
$PAPER_SPACE
 70
     0
 10
0.0
 20
0.0
 30
0.0
  3
$PAPER_SPACE
  1

  0
ENDBLK
  5
76
 67
     1
  8
0
  0
ENDSEC
  0
SECTION
  2
ENTITIES
  0
LINE
  5
192
  8
LAYER_1
 10
5.590558
 20
1.703801
 30
0.0
 11
5.104182
 21
2.230334
 31
0.0
  0
LINE
  5
193
  8
LAYER_1
 10
5.104182
 20
2.230334
 30
0.0
 11
4.870885
 21
2.71806
 31
0.0
  0
LINE
  5
23
  8
LAYER_1
 10
4.870885
 20
2.71806
 30
0.0
 11
4.575666017752125
 21
4.478385806839297
 31
0.0
  0
LINE
  5
24
  8
LAYER_1
 10
4.575666017752125
 20
4.478385806839297
 30
0.0
 11
4.969732
 21
6.613189
 31
0.0
  0
LINE
  5
25
  8
LAYER_1
 10
4.969732
 20
6.613189
 30
0.0
 11
4.535047
 21
8.408807
 31
0.0
  0
LINE
  5
26
  8
LAYER_1
 10
4.535047
 20
8.408807
 30
0.0
 11
4.039981
 21
10.448282
 31
0.0
  0
LINE
  5
194
  8
LAYER_1
 10
4.039981
 20
10.448282
 30
0.0
 11
4.092356
 21
12.307199
 31
0.0
  0
LINE
  5
28
  8
LAYER_1
 10
4.092356
 20
12.307199
 30
0.0
 11
4.746637
 21
14.28095
 31
0.0
  0
LINE
  5
29
  8
LAYER_1
 10
4.746637
 20
14.28095
 30
0.0
 11
6.057288
 21
16.664928
 31
0.0
  0
LINE
  5
2A
  8
LAYER_1
 10
6.057288
 20
16.664928
 30
0.0
 11
6.960383
 21
18.240026
 31
0.0
  0
LINE
  5
2B
  8
LAYER_1
 10
6.960383
 20
18.240026
 30
0.0
 11
7.421123
 21
19.399176
 31
0.0
  0
LINE
  5
2C
  8
LAYER_1
 10
7.421123
 20
19.399176
 30
0.0
 11
7.491174
 21
20.347519
 31
0.0
  0
LINE
  5
2D
  8
LAYER_1
 10
7.491174
 20
20.347519
 30
0.0
 11
7.222201
 21
21.290195
 31
0.0
  0
LINE
  5
2E
  8
LAYER_1
 10
7.222201
 20
21.290195
 30
0.0
 11
6.600471
 21
22.223421
 31
0.0
  0
LINE
  5
2F
  8
LAYER_1
 10
6.600471
 20
22.223421
 30
0.0
 11
5.44231
 21
22.88989
 31
0.0
  0
LINE
  5
30
  8
LAYER_1
 10
5.44231
 20
22.88989
 30
0.0
 11
3.145027
 21
23.980977
 31
0.0
  0
LINE
  5
31
  8
LAYER_1
 10
3.145027
 20
23.980977
 30
0.0
 11
2.61038
 21
24.424773
 31
0.0
  0
LINE
  5
32
  8
LAYER_1
 10
2.61038
 20
24.424773
 30
0.0
 11
2.212789
 21
24.976667
 31
0.0
  0
LINE
  5
33
  8
LAYER_1
 10
2.212789
 20
24.976667
 30
0.0
 11
1.809752
 21
25.931572
 31
0.0
  0
LINE
  5
34
  8
LAYER_1
 10
1.809752
 20
25.931572
 30
0.0
 11
1.704538
 21
26.927894
 31
0.0
  0
LINE
  5
35
  8
LAYER_1
 10
1.704538
 20
26.927894
 30
0.0
 11
1.893426
 21
27.879018
 31
0.0
  0
LINE
  5
36
  8
LAYER_1
 10
1.893426
 20
27.879018
 30
0.0
 11
2.372695
 21
28.698329
 31
0.0
  0
LINE
  5
37
  8
LAYER_1
 10
2.372695
 20
28.698329
 30
0.0
 11
3.052056
 21
29.488134
 31
0.0
  0
LINE
  5
38
  8
LAYER_1
 10
3.052056
 20
29.488134
 30
0.0
 11
3.572139
 21
28.542049
 31
0.0
  0
LINE
  5
39
  8
LAYER_1
 10
3.572139
 20
28.542049
 30
0.0
 11
4.253107
 21
27.376587
 31
0.0
  0
LINE
  5
3A
  8
LAYER_1
 10
4.253107
 20
27.376587
 30
0.0
 11
4.772824
 21
26.780091
 31
0.0
  0
LINE
  5
3B
  8
LAYER_1
 10
4.772824
 20
26.780091
 30
0.0
 11
5.305913
 21
26.628475
 31
0.0
  0
LINE
  5
3C
  8
LAYER_1
 10
5.305913
 20
26.628475
 30
0.0
 11
6.026999
 21
26.797653
 31
0.0
  0
LINE
  5
3D
  8
LAYER_1
 10
6.026999
 20
26.797653
 30
0.0
 11
6.900478
 21
27.244947
 31
0.0
  0
LINE
  5
3E
  8
LAYER_1
 10
6.900478
 20
27.244947
 30
0.0
 11
7.528114
 21
27.834409
 31
0.0
  0
LINE
  5
3F
  8
LAYER_1
 10
7.528114
 20
27.834409
 30
0.0
 11
7.761066
 21
28.250819
 31
0.0
  0
LINE
  5
40
  8
LAYER_1
 10
7.761066
 20
28.250819
 30
0.0
 11
7.802033
 21
28.631415
 31
0.0
  0
LINE
  5
41
  8
LAYER_1
 10
7.802033
 20
28.631415
 30
0.0
 11
7.207912
 21
29.944942
 31
0.0
  0
LINE
  5
42
  8
LAYER_1
 10
7.207912
 20
29.944942
 30
0.0
 11
6.714579
 21
31.000133
 31
0.0
  0
LINE
  5
43
  8
LAYER_1
 10
6.714579
 20
31.000133
 30
0.0
 11
6.480905794685023
 21
31.50262673202364
 31
0.0
  0
LINE
  5
44
  8
LAYER_1
 10
6.480905794685023
 20
31.50262673202364
 30
0.0
 11
7.101598
 21
31.712836
 31
0.0
  0
LINE
  5
45
  8
LAYER_1
 10
7.101598
 20
31.712836
 30
0.0
 11
7.880653
 21
31.700369
 31
0.0
  0
LINE
  5
46
  8
LAYER_1
 10
7.880653
 20
31.700369
 30
0.0
 11
8.730041
 21
31.530583
 31
0.0
  0
LINE
  5
47
  8
LAYER_1
 10
8.730041
 20
31.530583
 30
0.0
 11
9.428991
 21
31.228186
 31
0.0
  0
LINE
  5
48
  8
LAYER_1
 10
9.428991
 20
31.228186
 30
0.0
 11
10.095979
 21
30.596575
 31
0.0
  0
LINE
  5
49
  8
LAYER_1
 10
10.095979
 20
30.596575
 30
0.0
 11
10.641741
 21
29.771151
 31
0.0
  0
LINE
  5
4A
  8
LAYER_1
 10
10.641741
 20
29.771151
 30
0.0
 11
10.96087
 21
28.641368
 31
0.0
  0
LINE
  5
4B
  8
LAYER_1
 10
10.96087
 20
28.641368
 30
0.0
 11
10.734613
 21
26.865
 31
0.0
  0
LINE
  5
4C
  8
LAYER_1
 10
10.734613
 20
26.865
 30
0.0
 11
10.512026
 21
24.991877
 31
0.0
  0
LINE
  5
4D
  8
LAYER_1
 10
10.512026
 20
24.991877
 30
0.0
 11
10.873356
 21
23.40096
 31
0.0
  0
LINE
  5
4E
  8
LAYER_1
 10
10.873356
 20
23.40096
 30
0.0
 11
11.34349
 21
21.260214
 31
0.0
  0
LINE
  5
4F
  8
LAYER_1
 10
11.34349
 20
21.260214
 30
0.0
 11
11.274649
 21
19.227609
 31
0.0
  0
LINE
  5
50
  8
LAYER_1
 10
11.274649
 20
19.227609
 30
0.0
 11
10.656003
 21
17.239816
 31
0.0
  0
LINE
  5
51
  8
LAYER_1
 10
10.656003
 20
17.239816
 30
0.0
 11
9.476723
 21
15.233507
 31
0.0
  0
LINE
  5
52
  8
LAYER_1
 10
9.476723
 20
15.233507
 30
0.0
 11
8.572222999999999
 21
13.896085
 31
0.0
  0
LINE
  5
53
  8
LAYER_1
 10
8.572222999999999
 20
13.896085
 30
0.0
 11
8.002240000000001
 21
12.829776
 31
0.0
  0
LINE
  5
54
  8
LAYER_1
 10
8.002240000000001
 20
12.829776
 30
0.0
 11
7.705317
 21
11.892547
 31
0.0
  0
LINE
  5
55
  8
LAYER_1
 10
7.705317
 20
11.892547
 30
0.0
 11
7.62
 21
10.942367
 31
0.0
  0
LINE
  5
56
  8
LAYER_1
 10
7.62
 20
10.942367
 30
0.0
 11
7.736749
 21
9.866073
 31
0.0
  0
LINE
  5
57
  8
LAYER_1
 10
7.736749
 20
9.866073
 30
0.0
 11
8.127305
 21
9.077693999999999
 31
0.0
  0
LINE
  5
58
  8
LAYER_1
 10
8.127305
 20
9.077693999999999
 30
0.0
 11
8.852133
 21
8.503358
 31
0.0
  0
LINE
  5
195
  8
LAYER_1
 10
8.852133
 20
8.503358
 30
0.0
 11
9.971695
 21
8.069195000000001
 31
0.0
  0
LINE
  5
196
  8
LAYER_1
 10
9.971695
 20
8.069195000000001
 30
0.0
 11
11.090018
 21
7.65646
 31
0.0
  0
LINE
  5
5B
  8
LAYER_1
 10
11.090018
 20
7.65646
 30
0.0
 11
11.86018
 21
7.142945
 31
0.0
  0
LINE
  5
5C
  8
LAYER_1
 10
11.86018
 20
7.142945
 30
0.0
 11
12.343373
 21
6.470762
 31
0.0
  0
LINE
  5
5D
  8
LAYER_1
 10
12.343373
 20
6.470762
 30
0.0
 11
12.60079
 21
5.582021
 31
0.0
  0
LINE
  5
197
  8
LAYER_1
 10
12.60079
 20
5.582021
 30
0.0
 11
12.583719
 21
4.727584
 31
0.0
  0
LINE
  5
5F
  8
LAYER_1
 10
12.583719
 20
4.727584
 30
0.0
 11
12.347056
 21
3.825927
 31
0.0
  0
LINE
  5
60
  8
LAYER_1
 10
12.347056
 20
3.825927
 30
0.0
 11
11.978913
 21
3.112368
 31
0.0
  0
LINE
  5
61
  8
LAYER_1
 10
11.978913
 20
3.112368
 30
0.0
 11
11.50028008572628
 21
2.769754480646792
 31
0.0
  0
LINE
  5
62
  8
LAYER_1
 10
11.50028008572628
 20
2.769754480646792
 30
0.0
 11
9.680893977202146
 21
5.51064783894289
 31
0.0
  0
LINE
  5
66
  8
LAYER_1
 10
9.680893977202146
 20
5.51064783894289
 30
0.0
 11
8.857609
 21
4.981916
 31
0.0
  0
LINE
  5
67
  8
LAYER_1
 10
8.857609
 20
4.981916
 30
0.0
 11
8.179085000000001
 21
4.567966
 31
0.0
  0
LINE
  5
68
  8
LAYER_1
 10
8.179085000000001
 20
4.567966
 30
0.0
 11
7.530710394400897
 21
4.163829550814635
 31
0.0
  0
LINE
  5
69
  8
LAYER_1
 10
7.530710394400897
 20
4.163829550814635
 30
0.0
 11
9.326468111905228
 21
1.446564583538331
 31
0.0
  0
LINE
  5
198
  8
LAYER_1
 10
9.326468111905228
 20
1.446564583538331
 30
0.0
 11
8.584695999999999
 21
1.017973
 31
0.0
  0
LINE
  5
6D
  8
LAYER_1
 10
8.584695999999999
 20
1.017973
 30
0.0
 11
7.787682
 21
0.834628
 31
0.0
  0
LINE
  5
6E
  8
LAYER_1
 10
7.787682
 20
0.834628
 30
0.0
 11
7.005966
 21
0.891716
 31
0.0
  0
LINE
  5
6F
  8
LAYER_1
 10
7.005966
 20
0.891716
 30
0.0
 11
6.265081
 21
1.18339
 31
0.0
  0
LINE
  5
70
  8
LAYER_1
 10
6.265081
 20
1.18339
 30
0.0
 11
5.590558
 21
1.703801
 31
0.0
  0
LINE
  5
71
  8
LAYER_1
 10
5.590558
 20
1.703801
 30
0.0
 11
5.590558
 21
1.703801
 31
0.0
  0
ENDSEC
  0
EOF
