  0
SECTION
  2
HEADER
  9
$ACADVER
  1
AC1009
  9
$EXTMAX
 10
10.0165004730225
 20
9.9907197952271
 30
0.0
  9
$EXTMIN
 10
0.9105359911919
 20
0.7068139910698
 30
0.0
  9
$INSUNITS
 70
     4
  9
$LUNITS
 70
     2
  9
$LUPREC
 70
     4
  9
$MEASUREMENT
 70
     1
  0
ENDSEC
  0
SECTION
  2
TABLES
  0
TABLE
  2
LAYER
 70
     1
  0
LAYER
  2
0
 70
     0
 62
     7
  6
Continuous
  0
ENDTAB
  0
TABLE
  2
APPID
 70
     1
  0
APPID
  2
ACAD
 70
     0
  0
ENDTAB
  0
ENDSEC
  0
SECTION
  2
ENTITIES
  0
POLYLINE
  8
0
 66
     1
 10
0.0
 20
0.0
 30
0.0
 70
     1
  0
VERTEX
  8
0
 10
1.26134
 20
9.17258
 42
0.0
  0
VERTEX
  8
0
 10
1.40804
 20
9.11746
 42
0.0
  0
VERTEX
  8
0
 10
1.55046
 20
9.05013
 42
0.0
  0
VERTEX
  8
0
 10
1.6244
 20
9.04833
 42
0.0
  0
VERTEX
  8
0
 10
1.69732
 20
9.05886
 42
0.0
  0
VERTEX
  8
0
 10
1.75261
 20
9.06054
 42
0.0
  0
VERTEX
  8
0
 10
1.80643
 20
9.04904
 42
0.0
  0
VERTEX
  8
0
 10
1.84614
 20
9.03956
 42
0.0
  0
VERTEX
  8
0
 10
1.88693
 20
9.03819
 42
0.0
  0
VERTEX
  8
0
 10
1.92796
 20
9.03808
 42
0.0
  0
VERTEX
  8
0
 10
1.96838
 20
9.03212
 42
0.0
  0
VERTEX
  8
0
 10
2.00911
 20
9.02881
 42
0.0
  0
VERTEX
  8
0
 10
2.04964
 20
9.02414
 42
0.0
  0
VERTEX
  8
0
 10
2.15169
 20
8.98833
 42
0.0
  0
VERTEX
  8
0
 10
2.25174
 20
8.94667
 42
0.0
  0
VERTEX
  8
0
 10
2.30382
 20
8.91672
 42
0.0
  0
VERTEX
  8
0
 10
2.35379
 20
8.88271
 42
0.0
  0
VERTEX
  8
0
 10
2.38596
 20
8.85969
 42
0.0
  0
VERTEX
  8
0
 10
2.41781
 20
8.83621
 42
0.0
  0
VERTEX
  8
0
 10
2.51258
 20
8.79238
 42
0.0
  0
VERTEX
  8
0
 10
2.56819
 20
8.75011
 42
0.0
  0
VERTEX
  8
0
 10
2.62007
 20
8.70307
 42
0.0
  0
VERTEX
  8
0
 10
2.67264
 20
8.65653
 42
0.0
  0
VERTEX
  8
0
 10
2.71729
 20
8.60249
 42
0.0
  0
VERTEX
  8
0
 10
2.7436
 20
8.56793
 42
0.0
  0
VERTEX
  8
0
 10
2.77214
 20
8.53494
 42
0.0
  0
VERTEX
  8
0
 10
2.79921
 20
8.50092
 42
0.0
  0
VERTEX
  8
0
 10
2.82107
 20
8.46337
 42
0.0
  0
VERTEX
  8
0
 10
2.81287
 20
8.45253
 42
0.0
  0
VERTEX
  8
0
 10
2.80464
 20
8.44162
 42
0.0
  0
VERTEX
  8
0
 10
2.83974
 20
8.42969
 42
0.0
  0
VERTEX
  8
0
 10
2.84429
 20
8.39822
 42
0.0
  0
VERTEX
  8
0
 10
2.81472
 20
8.40662
 42
0.0
  0
VERTEX
  8
0
 10
2.78933
 20
8.39231
 42
0.0
  0
VERTEX
  8
0
 10
2.76101
 20
8.38607
 42
0.0
  0
VERTEX
  8
0
 10
2.75612
 20
8.36182
 42
0.0
  0
VERTEX
  8
0
 10
2.74903
 20
8.33757
 42
0.0
  0
VERTEX
  8
0
 10
2.73671
 20
8.31674
 42
0.0
  0
VERTEX
  8
0
 10
2.71631
 20
8.30257
 42
0.0
  0
VERTEX
  8
0
 10
2.68582
 20
8.31771
 42
0.0
  0
VERTEX
  8
0
 10
2.65369
 20
8.32975
 42
0.0
  0
VERTEX
  8
0
 10
2.62104
 20
8.33274
 42
0.0
  0
VERTEX
  8
0
 10
2.58892
 20
8.32047
 42
0.0
  0
VERTEX
  8
0
 10
2.59093
 20
8.29531
 42
0.0
  0
VERTEX
  8
0
 10
2.59901
 20
8.27067
 42
0.0
  0
VERTEX
  8
0
 10
2.60531
 20
8.2461
 42
0.0
  0
VERTEX
  8
0
 10
2.60189
 20
8.22086
 42
0.0
  0
VERTEX
  8
0
 10
2.59164
 20
8.19325
 42
0.0
  0
VERTEX
  8
0
 10
2.56967
 20
8.17453
 42
0.0
  0
VERTEX
  8
0
 10
2.54221
 20
8.16949
 42
0.0
  0
VERTEX
  8
0
 10
2.51563
 20
8.18257
 42
0.0
  0
VERTEX
  8
0
 10
2.46744
 20
8.23519
 42
0.0
  0
VERTEX
  8
0
 10
2.41097
 20
8.27815
 42
0.0
  0
VERTEX
  8
0
 10
2.38032
 20
8.28868
 42
0.0
  0
VERTEX
  8
0
 10
2.34776
 20
8.29031
 42
0.0
  0
VERTEX
  8
0
 10
2.31478
 20
8.29025
 42
0.0
  0
VERTEX
  8
0
 10
2.28288
 20
8.29562
 42
0.0
  0
VERTEX
  8
0
 10
2.26297
 20
8.31065
 42
0.0
  0
VERTEX
  8
0
 10
2.24772
 20
8.33046
 42
0.0
  0
VERTEX
  8
0
 10
2.23301
 20
8.35086
 42
0.0
  0
VERTEX
  8
0
 10
2.21474
 20
8.36774
 42
0.0
  0
VERTEX
  8
0
 10
2.16992
 20
8.40294
 42
0.0
  0
VERTEX
  8
0
 10
2.13493
 20
8.44737
 42
0.0
  0
VERTEX
  8
0
 10
2.12819
 20
8.48068
 42
0.0
  0
VERTEX
  8
0
 10
2.12392
 20
8.51443
 42
0.0
  0
VERTEX
  8
0
 10
2.09521
 20
8.53982
 42
0.0
  0
VERTEX
  8
0
 10
2.06429
 20
8.56261
 42
0.0
  0
VERTEX
  8
0
 10
1.99653
 20
8.62299
 42
0.0
  0
VERTEX
  8
0
 10
1.92828
 20
8.68289
 42
0.0
  0
VERTEX
  8
0
 10
1.83946
 20
8.70964
 42
0.0
  0
VERTEX
  8
0
 10
1.74804
 20
8.72689
 42
0.0
  0
VERTEX
  8
0
 10
1.73519
 20
8.71858
 42
0.0
  0
VERTEX
  8
0
 10
1.77664
 20
8.68033
 42
0.0
  0
VERTEX
  8
0
 10
1.81446
 20
8.63857
 42
0.0
  0
VERTEX
  8
0
 10
1.84983
 20
8.59494
 42
0.0
  0
VERTEX
  8
0
 10
1.89219
 20
8.55794
 42
0.0
  0
VERTEX
  8
0
 10
1.9196
 20
8.54368
 42
0.0
  0
VERTEX
  8
0
 10
1.94906
 20
8.53315
 42
0.0
  0
VERTEX
  8
0
 10
1.97706
 20
8.52056
 42
0.0
  0
VERTEX
  8
0
 10
2.00022
 20
8.5
 42
0.0
  0
VERTEX
  8
0
 10
1.99951
 20
8.48774
 42
0.0
  0
VERTEX
  8
0
 10
1.92563
 20
8.46864
 42
0.0
  0
VERTEX
  8
0
 10
1.93278
 20
8.4451
 42
0.0
  0
VERTEX
  8
0
 10
1.94646
 20
8.42503
 42
0.0
  0
VERTEX
  8
0
 10
1.96371
 20
8.40712
 42
0.0
  0
VERTEX
  8
0
 10
1.98172
 20
8.39031
 42
0.0
  0
VERTEX
  8
0
 10
1.98958
 20
8.37668
 42
0.0
  0
VERTEX
  8
0
 10
1.98904
 20
8.36014
 42
0.0
  0
VERTEX
  8
0
 10
1.95628
 20
8.34056
 42
0.0
  0
VERTEX
  8
0
 10
1.96517
 20
8.31993
 42
0.0
  0
VERTEX
  8
0
 10
1.98182
 20
8.30485
 42
0.0
  0
VERTEX
  8
0
 10
2.00211
 20
8.29312
 42
0.0
  0
VERTEX
  8
0
 10
2.02214
 20
8.28239
 42
0.0
  0
VERTEX
  8
0
 10
2.06803
 20
8.24474
 42
0.0
  0
VERTEX
  8
0
 10
2.11285
 20
8.20583
 42
0.0
  0
VERTEX
  8
0
 10
2.15181
 20
8.15468
 42
0.0
  0
VERTEX
  8
0
 10
2.18446
 20
8.0989
 42
0.0
  0
VERTEX
  8
0
 10
2.19021
 20
8.08018
 42
0.0
  0
VERTEX
  8
0
 10
2.18951
 20
8.06011
 42
0.0
  0
VERTEX
  8
0
 10
2.16465
 20
8.0376
 42
0.0
  0
VERTEX
  8
0
 10
2.13818
 20
8.0166
 42
0.0
  0
VERTEX
  8
0
 10
2.14094
 20
7.9911
 42
0.0
  0
VERTEX
  8
0
 10
2.15072
 20
7.96724
 42
0.0
  0
VERTEX
  8
0
 10
2.16276
 20
7.9439
 42
0.0
  0
VERTEX
  8
0
 10
2.17242
 20
7.91976
 42
0.0
  0
VERTEX
  8
0
 10
2.17507
 20
7.89193
 42
0.0
  0
VERTEX
  8
0
 10
2.17578
 20
7.86376
 42
0.0
  0
VERTEX
  8
0
 10
2.20247
 20
7.84256
 42
0.0
  0
VERTEX
  8
0
 10
2.22808
 20
7.8201
 42
0.0
  0
VERTEX
  8
0
 10
2.21631
 20
7.80658
 42
0.0
  0
VERTEX
  8
0
 10
2.19982
 20
7.80126
 42
0.0
  0
VERTEX
  8
0
 10
2.18126
 20
7.79964
 42
0.0
  0
VERTEX
  8
0
 10
2.16351
 20
7.79731
 42
0.0
  0
VERTEX
  8
0
 10
2.14507
 20
7.78825
 42
0.0
  0
VERTEX
  8
0
 10
2.13103
 20
7.77126
 42
0.0
  0
VERTEX
  8
0
 10
2.11615
 20
7.75629
 42
0.0
  0
VERTEX
  8
0
 10
2.09538
 20
7.75304
 42
0.0
  0
VERTEX
  8
0
 10
2.06451
 20
7.77692
 42
0.0
  0
VERTEX
  8
0
 10
2.03575
 20
7.80431
 42
0.0
  0
VERTEX
  8
0
 10
2.00603
 20
7.83046
 42
0.0
  0
VERTEX
  8
0
 10
1.97222
 20
7.85042
 42
0.0
  0
VERTEX
  8
0
 10
1.95964
 20
7.8534
 42
0.0
  0
VERTEX
  8
0
 10
1.94743
 20
7.84933
 42
0.0
  0
VERTEX
  8
0
 10
1.93869
 20
7.84011
 42
0.0
  0
VERTEX
  8
0
 10
1.93631
 20
7.82742
 42
0.0
  0
VERTEX
  8
0
 10
1.94103
 20
7.78928
 42
0.0
  0
VERTEX
  8
0
 10
1.95985
 20
7.7551
 42
0.0
  0
VERTEX
  8
0
 10
1.98708
 20
7.68024
 42
0.0
  0
VERTEX
  8
0
 10
2.01828
 20
7.6071
 42
0.0
  0
VERTEX
  8
0
 10
2.05012
 20
7.55886
 42
0.0
  0
VERTEX
  8
0
 10
2.0644
 20
7.50265
 42
0.0
  0
VERTEX
  8
0
 10
2.05561
 20
7.45844
 42
0.0
  0
VERTEX
  8
0
 10
2.04719
 20
7.41407
 42
0.0
  0
VERTEX
  8
0
 10
2.05007
 20
7.38753
 42
0.0
  0
VERTEX
  8
0
 10
2.04215
 20
7.3629
 42
0.0
  0
VERTEX
  8
0
 10
2.01183
 20
7.40929
 42
0.0
  0
VERTEX
  8
0
 10
1.98725
 20
7.45844
 42
0.0
  0
VERTEX
  8
0
 10
1.94769
 20
7.53304
 42
0.0
  0
VERTEX
  8
0
 10
1.91157
 20
7.6091
 42
0.0
  0
VERTEX
  8
0
 10
1.90815
 20
7.63792
 42
0.0
  0
VERTEX
  8
0
 10
1.91336
 20
7.66715
 42
0.0
  0
VERTEX
  8
0
 10
1.88607
 20
7.66965
 42
0.0
  0
VERTEX
  8
0
 10
1.86139
 20
7.72814
 42
0.0
  0
VERTEX
  8
0
 10
1.85038
 20
7.78982
 42
0.0
  0
VERTEX
  8
0
 10
1.8201
 20
7.99881
 42
0.0
  0
VERTEX
  8
0
 10
1.80604
 20
8.10243
 42
0.0
  0
VERTEX
  8
0
 10
1.78733
 20
8.20562
 42
0.0
  0
VERTEX
  8
0
 10
1.77029
 20
8.29112
 42
0.0
  0
VERTEX
  8
0
 10
1.74274
 20
8.37408
 42
0.0
  0
VERTEX
  8
0
 10
1.76329
 20
8.40474
 42
0.0
  0
VERTEX
  8
0
 10
1.73867
 20
8.42622
 42
0.0
  0
VERTEX
  8
0
 10
1.72711
 20
8.46104
 42
0.0
  0
VERTEX
  8
0
 10
1.70996
 20
8.49382
 42
0.0
  0
VERTEX
  8
0
 10
1.68604
 20
8.52111
 42
0.0
  0
VERTEX
  8
0
 10
1.65419
 20
8.53928
 42
0.0
  0
VERTEX
  8
0
 10
1.60281
 20
8.58626
 42
0.0
  0
VERTEX
  8
0
 10
1.55333
 20
8.63553
 42
0.0
  0
VERTEX
  8
0
 10
1.52024
 20
8.6709
 42
0.0
  0
VERTEX
  8
0
 10
1.49442
 20
8.71181
 42
0.0
  0
VERTEX
  8
0
 10
1.4751
 20
8.75646
 42
0.0
  0
VERTEX
  8
0
 10
1.46153
 20
8.80285
 42
0.0
  0
VERTEX
  8
0
 10
1.4459
 20
8.8444
 42
0.0
  0
VERTEX
  8
0
 10
1.42513
 20
8.88368
 42
0.0
  0
VERTEX
  8
0
 10
1.40392
 20
8.92275
 42
0.0
  0
VERTEX
  8
0
 10
1.38704
 20
8.96382
 42
0.0
  0
VERTEX
  8
0
 10
1.36165
 20
9.01938
 42
0.0
  0
VERTEX
  8
0
 10
1.32655
 20
9.06944
 42
0.0
  0
VERTEX
  8
0
 10
1.2902
 20
9.11893
 42
0.0
  0
SEQEND
  0
POLYLINE
  8
0
 66
     1
 10
0.0
 20
0.0
 30
0.0
 70
     1
  0
VERTEX
  8
0
 10
2.30176
 20
6.70942
 42
0.0
  0
VERTEX
  8
0
 10
2.35417
 20
6.67844
 42
0.0
  0
VERTEX
  8
0
 10
2.40576
 20
6.646
 42
0.0
  0
VERTEX
  8
0
 10
2.41249
 20
6.64285
 42
0.0
  0
VERTEX
  8
0
 10
2.41863
 20
6.64063
 42
0.0
  0
VERTEX
  8
0
 10
2.42622
 20
6.63797
 42
0.0
  0
VERTEX
  8
0
 10
2.43847
 20
6.63135
 42
0.0
  0
VERTEX
  8
0
 10
2.44857
 20
6.62543
 42
0.0
  0
VERTEX
  8
0
 10
2.45578
 20
6.62304
 42
0.0
  0
VERTEX
  8
0
 10
2.46322
 20
6.62039
 42
0.0
  0
VERTEX
  8
0
 10
2.47319
 20
6.61546
 42
0.0
  0
VERTEX
  8
0
 10
2.48568
 20
6.60878
 42
0.0
  0
VERTEX
  8
0
 10
2.4924
 20
6.60493
 42
0.0
  0
VERTEX
  8
0
 10
2.50624
 20
6.59646
 42
0.0
  0
VERTEX
  8
0
 10
2.52018
 20
6.58794
 42
0.0
  0
VERTEX
  8
0
 10
2.52442
 20
6.58544
 42
0.0
  0
VERTEX
  8
0
 10
2.56896
 20
6.55826
 42
0.0
  0
VERTEX
  8
0
 10
2.57221
 20
6.55567
 42
0.0
  0
VERTEX
  8
0
 10
2.6014
 20
6.51753
 42
0.0
  0
VERTEX
  8
0
 10
2.60487
 20
6.51237
 42
0.0
  0
VERTEX
  8
0
 10
2.60813
 20
6.507
 42
0.0
  0
VERTEX
  8
0
 10
2.61501
 20
6.48774
 42
0.0
  0
VERTEX
  8
0
 10
2.62185
 20
6.46843
 42
0.0
  0
VERTEX
  8
0
 10
2.62472
 20
6.46035
 42
0.0
  0
VERTEX
  8
0
 10
2.6269
 20
6.45481
 42
0.0
  0
VERTEX
  8
0
 10
2.63075
 20
6.44678
 42
0.0
  0
VERTEX
  8
0
 10
2.63721
 20
6.43381
 42
0.0
  0
VERTEX
  8
0
 10
2.64154
 20
6.42415
 42
0.0
  0
VERTEX
  8
0
 10
2.64649
 20
6.40881
 42
0.0
  0
VERTEX
  8
0
 10
2.64708
 20
6.40061
 42
0.0
  0
VERTEX
  8
0
 10
2.64746
 20
6.39318
 42
0.0
  0
VERTEX
  8
0
 10
2.64757
 20
6.38574
 42
0.0
  0
VERTEX
  8
0
 10
2.64746
 20
6.37842
 42
0.0
  0
VERTEX
  8
0
 10
2.64735
 20
6.3711
 42
0.0
  0
VERTEX
  8
0
 10
2.64985
 20
6.31288
 42
0.0
  0
VERTEX
  8
0
 10
2.65104
 20
6.30485
 42
0.0
  0
VERTEX
  8
0
 10
2.65126
 20
6.29742
 42
0.0
  0
VERTEX
  8
0
 10
2.65007
 20
6.28933
 42
0.0
  0
VERTEX
  8
0
 10
2.64735
 20
6.23215
 42
0.0
  0
VERTEX
  8
0
 10
2.64746
 20
6.22542
 42
0.0
  0
VERTEX
  8
0
 10
2.64746
 20
6.21892
 42
0.0
  0
VERTEX
  8
0
 10
2.64719
 20
6.21257
 42
0.0
  0
VERTEX
  8
0
 10
2.64649
 20
6.20574
 42
0.0
  0
VERTEX
  8
0
 10
2.63206
 20
6.183
 42
0.0
  0
VERTEX
  8
0
 10
2.62918
 20
6.17654
 42
0.0
  0
VERTEX
  8
0
 10
2.63075
 20
6.13444
 42
0.0
  0
VERTEX
  8
0
 10
2.63396
 20
6.1244
 42
0.0
  0
VERTEX
  8
0
 10
2.63601
 20
6.1161
 42
0.0
  0
VERTEX
  8
0
 10
2.63797
 20
6.10781
 42
0.0
  0
VERTEX
  8
0
 10
2.63976
 20
6.10021
 42
0.0
  0
VERTEX
  8
0
 10
2.6441
 20
6.09
 42
0.0
  0
VERTEX
  8
0
 10
2.64686
 20
6.08365
 42
0.0
  0
VERTEX
  8
0
 10
2.65126
 20
6.07656
 42
0.0
  0
VERTEX
  8
0
 10
2.67014
 20
6.04889
 42
0.0
  0
VERTEX
  8
0
 10
2.6799
 20
6.01682
 42
0.0
  0
VERTEX
  8
0
 10
2.68961
 20
5.94704
 42
0.0
  0
VERTEX
  8
0
 10
2.68989
 20
5.87685
 42
0.0
  0
VERTEX
  8
0
 10
2.67676
 20
5.87028
 42
0.0
  0
VERTEX
  8
0
 10
2.66357
 20
5.86372
 42
0.0
  0
VERTEX
  8
0
 10
2.65913
 20
5.86171
 42
0.0
  0
VERTEX
  8
0
 10
2.65767
 20
5.85678
 42
0.0
  0
VERTEX
  8
0
 10
2.6556
 20
5.85042
 42
0.0
  0
VERTEX
  8
0
 10
2.6531
 20
5.84332
 42
0.0
  0
VERTEX
  8
0
 10
2.64974
 20
5.83421
 42
0.0
  0
VERTEX
  8
0
 10
2.64757
 20
5.82671
 42
0.0
  0
VERTEX
  8
0
 10
2.64231
 20
5.81125
 42
0.0
  0
VERTEX
  8
0
 10
2.63938
 20
5.80474
 42
0.0
  0
VERTEX
  8
0
 10
2.63732
 20
5.80018
 42
0.0
  0
VERTEX
  8
0
 10
2.62588
 20
5.78911
 42
0.0
  0
VERTEX
  8
0
 10
2.61442
 20
5.77794
 42
0.0
  0
VERTEX
  8
0
 10
2.60981
 20
5.77458
 42
0.0
  0
VERTEX
  8
0
 10
2.5906
 20
5.76172
 42
0.0
  0
VERTEX
  8
0
 10
2.58594
 20
5.75885
 42
0.0
  0
VERTEX
  8
0
 10
2.58111
 20
5.75353
 42
0.0
  0
VERTEX
  8
0
 10
2.56803
 20
5.73036
 42
0.0
  0
VERTEX
  8
0
 10
2.56418
 20
5.72364
 42
0.0
  0
VERTEX
  8
0
 10
2.55994
 20
5.71604
 42
0.0
  0
VERTEX
  8
0
 10
2.55371
 20
5.70426
 42
0.0
  0
VERTEX
  8
0
 10
2.55024
 20
5.69694
 42
0.0
  0
VERTEX
  8
0
 10
2.53326
 20
5.65707
 42
0.0
  0
VERTEX
  8
0
 10
2.53125
 20
5.65272
 42
0.0
  0
VERTEX
  8
0
 10
2.52935
 20
5.64849
 42
0.0
  0
VERTEX
  8
0
 10
2.51329
 20
5.60943
 42
0.0
  0
VERTEX
  8
0
 10
2.49306
 20
5.57249
 42
0.0
  0
VERTEX
  8
0
 10
2.4904
 20
5.56874
 42
0.0
  0
VERTEX
  8
0
 10
2.45313
 20
5.52306
 42
0.0
  0
VERTEX
  8
0
 10
2.45036
 20
5.51937
 42
0.0
  0
VERTEX
  8
0
 10
2.43522
 20
5.49843
 42
0.0
  0
VERTEX
  8
0
 10
2.41407
 20
5.48693
 42
0.0
  0
VERTEX
  8
0
 10
2.3896
 20
5.48318
 42
0.0
  0
VERTEX
  8
0
 10
2.38319
 20
5.47846
 42
0.0
  0
VERTEX
  8
0
 10
2.37381
 20
5.46615
 42
0.0
  0
VERTEX
  8
0
 10
2.36447
 20
5.45383
 42
0.0
  0
VERTEX
  8
0
 10
2.3616
 20
5.44993
 42
0.0
  0
VERTEX
  8
0
 10
2.34056
 20
5.43186
 42
0.0
  0
VERTEX
  8
0
 10
2.31267
 20
5.42421
 42
0.0
  0
VERTEX
  8
0
 10
2.29796
 20
5.37033
 42
0.0
  0
VERTEX
  8
0
 10
2.2895
 20
5.31483
 42
0.0
  0
VERTEX
  8
0
 10
2.27219
 20
5.18664
 42
0.0
  0
VERTEX
  8
0
 10
2.271
 20
5.18158
 42
0.0
  0
VERTEX
  8
0
 10
2.25521
 20
5.14144
 42
0.0
  0
VERTEX
  8
0
 10
2.25319
 20
5.1346
 42
0.0
  0
VERTEX
  8
0
 10
2.25293
 20
5.12929
 42
0.0
  0
VERTEX
  8
0
 10
2.25271
 20
5.12207
 42
0.0
  0
VERTEX
  8
0
 10
2.25282
 20
5.10633
 42
0.0
  0
VERTEX
  8
0
 10
2.25304
 20
5.09901
 42
0.0
  0
VERTEX
  8
0
 10
2.25331
 20
5.09364
 42
0.0
  0
VERTEX
  8
0
 10
2.25537
 20
5.08686
 42
0.0
  0
VERTEX
  8
0
 10
2.2654
 20
5.06147
 42
0.0
  0
VERTEX
  8
0
 10
2.26465
 20
5.03461
 42
0.0
  0
VERTEX
  8
0
 10
2.25663
 20
5.00808
 42
0.0
  0
VERTEX
  8
0
 10
2.2449
 20
4.9834
 42
0.0
  0
VERTEX
  8
0
 10
2.24175
 20
4.97715
 42
0.0
  0
VERTEX
  8
0
 10
2.2391
 20
4.97174
 42
0.0
  0
VERTEX
  8
0
 10
2.23514
 20
4.96278
 42
0.0
  0
VERTEX
  8
0
 10
2.23096
 20
4.94737
 42
0.0
  0
VERTEX
  8
0
 10
2.22689
 20
4.93197
 42
0.0
  0
VERTEX
  8
0
 10
2.22553
 20
4.92307
 42
0.0
  0
VERTEX
  8
0
 10
2.22542
 20
4.83849
 42
0.0
  0
VERTEX
  8
0
 10
2.22689
 20
4.8279
 42
0.0
  0
VERTEX
  8
0
 10
2.22792
 20
4.81999
 42
0.0
  0
VERTEX
  8
0
 10
2.2284
 20
4.81179
 42
0.0
  0
VERTEX
  8
0
 10
2.22846
 20
4.80344
 42
0.0
  0
VERTEX
  8
0
 10
2.22504
 20
4.79389
 42
0.0
  0
VERTEX
  8
0
 10
2.22325
 20
4.78722
 42
0.0
  0
VERTEX
  8
0
 10
2.22119
 20
4.77962
 42
0.0
  0
VERTEX
  8
0
 10
2.21631
 20
4.7659
 42
0.0
  0
VERTEX
  8
0
 10
2.21306
 20
4.75906
 42
0.0
  0
VERTEX
  8
0
 10
2.20454
 20
4.7455
 42
0.0
  0
VERTEX
  8
0
 10
2.19601
 20
4.73193
 42
0.0
  0
VERTEX
  8
0
 10
2.19336
 20
4.72797
 42
0.0
  0
VERTEX
  8
0
 10
2.16292
 20
4.6715
 42
0.0
  0
VERTEX
  8
0
 10
2.16032
 20
4.66521
 42
0.0
  0
VERTEX
  8
0
 10
2.15647
 20
4.65549
 42
0.0
  0
VERTEX
  8
0
 10
2.15381
 20
4.64914
 42
0.0
  0
VERTEX
  8
0
 10
2.14094
 20
4.62196
 42
0.0
  0
VERTEX
  8
0
 10
2.11957
 20
4.60129
 42
0.0
  0
VERTEX
  8
0
 10
2.11572
 20
4.59819
 42
0.0
  0
VERTEX
  8
0
 10
2.08811
 20
4.57172
 42
0.0
  0
VERTEX
  8
0
 10
2.08388
 20
4.56526
 42
0.0
  0
VERTEX
  8
0
 10
2.07954
 20
4.55588
 42
0.0
  0
VERTEX
  8
0
 10
2.07688
 20
4.54926
 42
0.0
  0
VERTEX
  8
0
 10
2.06142
 20
4.51471
 42
0.0
  0
VERTEX
  8
0
 10
2.03472
 20
4.48725
 42
0.0
  0
VERTEX
  8
0
 10
2.03369
 20
4.54335
 42
0.0
  0
VERTEX
  8
0
 10
2.04904
 20
4.59651
 42
0.0
  0
VERTEX
  8
0
 10
2.05117
 20
4.60037
 42
0.0
  0
VERTEX
  8
0
 10
2.08171
 20
4.63889
 42
0.0
  0
VERTEX
  8
0
 10
2.08751
 20
4.64501
 42
0.0
  0
VERTEX
  8
0
 10
2.09538
 20
4.65332
 42
0.0
  0
VERTEX
  8
0
 10
2.10385
 20
4.6639
 42
0.0
  0
VERTEX
  8
0
 10
2.11128
 20
4.67361
 42
0.0
  0
VERTEX
  8
0
 10
2.11546
 20
4.6811
 42
0.0
  0
VERTEX
  8
0
 10
2.12364
 20
4.69347
 42
0.0
  0
VERTEX
  8
0
 10
2.13037
 20
4.70437
 42
0.0
  0
VERTEX
  8
0
 10
2.13325
 20
4.71218
 42
0.0
  0
VERTEX
  8
0
 10
2.13807
 20
4.72217
 42
0.0
  0
VERTEX
  8
0
 10
2.13986
 20
4.72879
 42
0.0
  0
VERTEX
  8
0
 10
2.14204
 20
4.73639
 42
0.0
  0
VERTEX
  8
0
 10
2.14671
 20
4.75065
 42
0.0
  0
VERTEX
  8
0
 10
2.14865
 20
4.75906
 42
0.0
  0
VERTEX
  8
0
 10
2.15294
 20
4.83649
 42
0.0
  0
VERTEX
  8
0
 10
2.15354
 20
4.84343
 42
0.0
  0
VERTEX
  8
0
 10
2.15668
 20
4.85471
 42
0.0
  0
VERTEX
  8
0
 10
2.15853
 20
4.86062
 42
0.0
  0
VERTEX
  8
0
 10
2.16015
 20
4.8654
 42
0.0
  0
VERTEX
  8
0
 10
2.17796
 20
4.90354
 42
0.0
  0
VERTEX
  8
0
 10
2.18001
 20
4.91037
 42
0.0
  0
VERTEX
  8
0
 10
2.17779
 20
4.92665
 42
0.0
  0
VERTEX
  8
0
 10
2.17557
 20
4.94282
 42
0.0
  0
VERTEX
  8
0
 10
2.17361
 20
4.94819
 42
0.0
  0
VERTEX
  8
0
 10
2.16754
 20
4.9476
 42
0.0
  0
VERTEX
  8
0
 10
2.16135
 20
4.947
 42
0.0
  0
VERTEX
  8
0
 10
2.15175
 20
4.94412
 42
0.0
  0
VERTEX
  8
0
 10
2.14578
 20
4.94146
 42
0.0
  0
VERTEX
  8
0
 10
2.13906
 20
4.93826
 42
0.0
  0
VERTEX
  8
0
 10
2.08062
 20
4.92383
 42
0.0
  0
VERTEX
  8
0
 10
2.07465
 20
4.92383
 42
0.0
  0
VERTEX
  8
0
 10
2.03874
 20
4.92731
 42
0.0
  0
VERTEX
  8
0
 10
2.00792
 20
4.94439
 42
0.0
  0
VERTEX
  8
0
 10
2.00435
 20
4.94726
 42
0.0
  0
VERTEX
  8
0
 10
2.00097
 20
4.95003
 42
0.0
  0
VERTEX
  8
0
 10
1.96528
 20
5.00792
 42
0.0
  0
VERTEX
  8
0
 10
1.94265
 20
5.07281
 42
0.0
  0
VERTEX
  8
0
 10
1.94135
 20
5.07753
 42
0.0
  0
VERTEX
  8
0
 10
1.9369
 20
5.10813
 42
0.0
  0
VERTEX
  8
0
 10
1.95497
 20
5.1026
 42
0.0
  0
VERTEX
  8
0
 10
1.95796
 20
5.09972
 42
0.0
  0
VERTEX
  8
0
 10
1.96864
 20
5.08621
 42
0.0
  0
VERTEX
  8
0
 10
1.97933
 20
5.0726
 42
0.0
  0
VERTEX
  8
0
 10
1.98438
 20
5.06575
 42
0.0
  0
VERTEX
  8
0
 10
1.99181
 20
5.05697
 42
0.0
  0
VERTEX
  8
0
 10
2.00108
 20
5.04785
 42
0.0
  0
VERTEX
  8
0
 10
2.0101
 20
5.03988
 42
0.0
  0
VERTEX
  8
0
 10
2.01938
 20
5.03293
 42
0.0
  0
VERTEX
  8
0
 10
2.03282
 20
5.02365
 42
0.0
  0
VERTEX
  8
0
 10
2.04085
 20
5.01828
 42
0.0
  0
VERTEX
  8
0
 10
2.04889
 20
5.01465
 42
0.0
  0
VERTEX
  8
0
 10
2.06299
 20
5.00965
 42
0.0
  0
VERTEX
  8
0
 10
2.07726
 20
5.00467
 42
0.0
  0
VERTEX
  8
0
 10
2.08376
 20
5.00239
 42
0.0
  0
VERTEX
  8
0
 10
2.08919
 20
5.00082
 42
0.0
  0
VERTEX
  8
0
 10
2.10693
 20
4.99892
 42
0.0
  0
VERTEX
  8
0
 10
2.15886
 20
5.00336
 42
0.0
  0
VERTEX
  8
0
 10
2.16476
 20
5.00424
 42
0.0
  0
VERTEX
  8
0
 10
2.17258
 20
5.00851
 42
0.0
  0
VERTEX
  8
0
 10
2.17871
 20
5.0166
 42
0.0
  0
VERTEX
  8
0
 10
2.18576
 20
5.028
 42
0.0
  0
VERTEX
  8
0
 10
2.18951
 20
5.03494
 42
0.0
  0
VERTEX
  8
0
 10
2.2079
 20
5.08171
 42
0.0
  0
VERTEX
  8
0
 10
2.20947
 20
5.08686
 42
0.0
  0
VERTEX
  8
0
 10
2.22461
 20
5.2029
 42
0.0
  0
VERTEX
  8
0
 10
2.2105
 20
5.31999
 42
0.0
  0
VERTEX
  8
0
 10
2.20871
 20
5.32688
 42
0.0
  0
VERTEX
  8
0
 10
2.20031
 20
5.34967
 42
0.0
  0
VERTEX
  8
0
 10
2.19814
 20
5.3559
 42
0.0
  0
VERTEX
  8
0
 10
2.19108
 20
5.37842
 42
0.0
  0
VERTEX
  8
0
 10
2.18782
 20
5.38499
 42
0.0
  0
VERTEX
  8
0
 10
2.16194
 20
5.41336
 42
0.0
  0
VERTEX
  8
0
 10
2.12793
 20
5.42703
 42
0.0
  0
VERTEX
  8
0
 10
2.09006
 20
5.43349
 42
0.0
  0
VERTEX
  8
0
 10
2.05285
 20
5.44015
 42
0.0
  0
VERTEX
  8
0
 10
2.02317
 20
5.43061
 42
0.0
  0
VERTEX
  8
0
 10
1.9969
 20
5.41189
 42
0.0
  0
VERTEX
  8
0
 10
1.99197
 20
5.40831
 42
0.0
  0
VERTEX
  8
0
 10
1.98676
 20
5.40474
 42
0.0
  0
VERTEX
  8
0
 10
1.95649
 20
5.39762
 42
0.0
  0
VERTEX
  8
0
 10
1.9274
 20
5.41037
 42
0.0
  0
VERTEX
  8
0
 10
1.88097
 20
5.43311
 42
0.0
  0
VERTEX
  8
0
 10
1.83018
 20
5.44265
 42
0.0
  0
VERTEX
  8
0
 10
1.83344
 20
5.4854
 42
0.0
  0
VERTEX
  8
0
 10
1.85042
 20
5.52501
 42
0.0
  0
VERTEX
  8
0
 10
1.83154
 20
5.56093
 42
0.0
  0
VERTEX
  8
0
 10
1.82563
 20
5.56803
 42
0.0
  0
VERTEX
  8
0
 10
1.81917
 20
5.57379
 42
0.0
  0
VERTEX
  8
0
 10
1.81353
 20
5.57894
 42
0.0
  0
VERTEX
  8
0
 10
1.79596
 20
5.61208
 42
0.0
  0
VERTEX
  8
0
 10
1.77935
 20
5.646
 42
0.0
  0
VERTEX
  8
0
 10
1.76551
 20
5.66243
 42
0.0
  0
VERTEX
  8
0
 10
1.75629
 20
5.68132
 42
0.0
  0
VERTEX
  8
0
 10
1.75489
 20
5.68685
 42
0.0
  0
VERTEX
  8
0
 10
1.75369
 20
5.69129
 42
0.0
  0
VERTEX
  8
0
 10
1.75151
 20
5.69694
 42
0.0
  0
VERTEX
  8
0
 10
1.74294
 20
5.71436
 42
0.0
  0
VERTEX
  8
0
 10
1.73443
 20
5.73176
 42
0.0
  0
VERTEX
  8
0
 10
1.73193
 20
5.73747
 42
0.0
  0
VERTEX
  8
0
 10
1.72857
 20
5.74479
 42
0.0
  0
VERTEX
  8
0
 10
1.72781
 20
5.75211
 42
0.0
  0
VERTEX
  8
0
 10
1.72738
 20
5.75956
 42
0.0
  0
VERTEX
  8
0
 10
1.72732
 20
5.76796
 42
0.0
  0
VERTEX
  8
0
 10
1.73296
 20
5.78467
 42
0.0
  0
VERTEX
  8
0
 10
1.73671
 20
5.79368
 42
0.0
  0
VERTEX
  8
0
 10
1.73899
 20
5.80018
 42
0.0
  0
VERTEX
  8
0
 10
1.74274
 20
5.80897
 42
0.0
  0
VERTEX
  8
0
 10
1.74528
 20
5.81629
 42
0.0
  0
VERTEX
  8
0
 10
1.75114
 20
5.83165
 42
0.0
  0
VERTEX
  8
0
 10
1.75342
 20
5.83936
 42
0.0
  0
VERTEX
  8
0
 10
1.75401
 20
5.84478
 42
0.0
  0
VERTEX
  8
0
 10
1.757
 20
5.89399
 42
0.0
  0
VERTEX
  8
0
 10
1.76193
 20
5.94282
 42
0.0
  0
VERTEX
  8
0
 10
1.76372
 20
5.94857
 42
0.0
  0
VERTEX
  8
0
 10
1.77132
 20
5.97114
 42
0.0
  0
VERTEX
  8
0
 10
1.77371
 20
5.97765
 42
0.0
  0
VERTEX
  8
0
 10
1.78239
 20
6.00108
 42
0.0
  0
VERTEX
  8
0
 10
1.78537
 20
6.0084
 42
0.0
  0
VERTEX
  8
0
 10
1.78944
 20
6.01872
 42
0.0
  0
VERTEX
  8
0
 10
1.7921
 20
6.02544
 42
0.0
  0
VERTEX
  8
0
 10
1.817
 20
6.08469
 42
0.0
  0
VERTEX
  8
0
 10
1.84581
 20
6.14225
 42
0.0
  0
VERTEX
  8
0
 10
1.84978
 20
6.15007
 42
0.0
  0
VERTEX
  8
0
 10
1.85433
 20
6.15875
 42
0.0
  0
VERTEX
  8
0
 10
1.85764
 20
6.16585
 42
0.0
  0
VERTEX
  8
0
 10
1.86421
 20
6.17589
 42
0.0
  0
VERTEX
  8
0
 10
1.86774
 20
6.18311
 42
0.0
  0
VERTEX
  8
0
 10
1.87517
 20
6.19189
 42
0.0
  0
VERTEX
  8
0
 10
1.88226
 20
6.19781
 42
0.0
  0
VERTEX
  8
0
 10
1.89546
 20
6.20449
 42
0.0
  0
VERTEX
  8
0
 10
1.90858
 20
6.21115
 42
0.0
  0
VERTEX
  8
0
 10
1.91564
 20
6.2156
 42
0.0
  0
VERTEX
  8
0
 10
1.92079
 20
6.22304
 42
0.0
  0
VERTEX
  8
0
 10
1.93138
 20
6.24815
 42
0.0
  0
VERTEX
  8
0
 10
1.9349
 20
6.25558
 42
0.0
  0
VERTEX
  8
0
 10
1.94194
 20
6.26649
 42
0.0
  0
VERTEX
  8
0
 10
1.9471
 20
6.2736
 42
0.0
  0
VERTEX
  8
0
 10
1.95074
 20
6.28168
 42
0.0
  0
VERTEX
  8
0
 10
1.95215
 20
6.30051
 42
0.0
  0
VERTEX
  8
0
 10
1.95361
 20
6.31928
 42
0.0
  0
VERTEX
  8
0
 10
1.95372
 20
6.32493
 42
0.0
  0
VERTEX
  8
0
 10
1.9541
 20
6.33035
 42
0.0
  0
VERTEX
  8
0
 10
1.95568
 20
6.3386
 42
0.0
  0
VERTEX
  8
0
 10
1.99121
 20
6.35883
 42
0.0
  0
VERTEX
  8
0
 10
1.99604
 20
6.36154
 42
0.0
  0
VERTEX
  8
0
 10
1.99892
 20
6.3629
 42
0.0
  0
VERTEX
  8
0
 10
1.99854
 20
6.36589
 42
0.0
  0
VERTEX
  8
0
 10
1.9975
 20
6.3719
 42
0.0
  0
VERTEX
  8
0
 10
1.99533
 20
6.38596
 42
0.0
  0
VERTEX
  8
0
 10
1.99625
 20
6.41357
 42
0.0
  0
VERTEX
  8
0
 10
2.00119
 20
6.41721
 42
0.0
  0
VERTEX
  8
0
 10
2.02507
 20
6.4356
 42
0.0
  0
VERTEX
  8
0
 10
2.04514
 20
6.45828
 42
0.0
  0
VERTEX
  8
0
 10
2.06565
 20
6.48019
 42
0.0
  0
VERTEX
  8
0
 10
2.09087
 20
6.49615
 42
0.0
  0
VERTEX
  8
0
 10
2.09646
 20
6.49858
 42
0.0
  0
VERTEX
  8
0
 10
2.1014
 20
6.50082
 42
0.0
  0
VERTEX
  8
0
 10
2.10514
 20
6.50239
 42
0.0
  0
VERTEX
  8
0
 10
2.10417
 20
6.50613
 42
0.0
  0
VERTEX
  8
0
 10
2.10206
 20
6.51215
 42
0.0
  0
VERTEX
  8
0
 10
2.09924
 20
6.51839
 42
0.0
  0
VERTEX
  8
0
 10
2.08436
 20
6.54867
 42
0.0
  0
VERTEX
  8
0
 10
2.12571
 20
6.5535
 42
0.0
  0
VERTEX
  8
0
 10
2.13135
 20
6.55339
 42
0.0
  0
VERTEX
  8
0
 10
2.13672
 20
6.55333
 42
0.0
  0
VERTEX
  8
0
 10
2.15354
 20
6.53847
 42
0.0
  0
VERTEX
  8
0
 10
2.15972
 20
6.5345
 42
0.0
  0
VERTEX
  8
0
 10
2.18506
 20
6.52746
 42
0.0
  0
VERTEX
  8
0
 10
2.2111
 20
6.53125
 42
0.0
  0
VERTEX
  8
0
 10
2.22976
 20
6.59457
 42
0.0
  0
VERTEX
  8
0
 10
2.26449
 20
6.60693
 42
0.0
  0
VERTEX
  8
0
 10
2.27181
 20
6.60969
 42
0.0
  0
VERTEX
  8
0
 10
2.28347
 20
6.6149
 42
0.0
  0
VERTEX
  8
0
 10
2.29167
 20
6.61979
 42
0.0
  0
VERTEX
  8
0
 10
2.29665
 20
6.62776
 42
0.0
  0
VERTEX
  8
0
 10
2.30138
 20
6.66846
 42
0.0
  0
SEQEND
  0
POLYLINE
  8
0
 66
     1
 10
0.0
 20
0.0
 30
0.0
 70
     1
  0
VERTEX
  8
0
 10
8.96767
 20
5.52681
 42
0.0
  0
VERTEX
  8
0
 10
8.97874
 20
5.53999
 42
0.0
  0
VERTEX
  8
0
 10
8.99468
 20
5.54303
 42
0.0
  0
VERTEX
  8
0
 10
9.05137
 20
5.50657
 42
0.0
  0
VERTEX
  8
0
 10
9.10178
 20
5.46169
 42
0.0
  0
VERTEX
  8
0
 10
9.31521
 20
5.24994
 42
0.0
  0
VERTEX
  8
0
 10
9.37299
 20
5.17817
 42
0.0
  0
VERTEX
  8
0
 10
9.4196
 20
5.09831
 42
0.0
  0
VERTEX
  8
0
 10
9.49653
 20
4.97618
 42
0.0
  0
VERTEX
  8
0
 10
9.52533
 20
4.92854
 42
0.0
  0
VERTEX
  8
0
 10
9.55419
 20
4.88069
 42
0.0
  0
VERTEX
  8
0
 10
9.57878
 20
4.83094
 42
0.0
  0
VERTEX
  8
0
 10
9.59494
 20
4.77756
 42
0.0
  0
VERTEX
  8
0
 10
9.64697
 20
4.66049
 42
0.0
  0
VERTEX
  8
0
 10
9.71354
 20
4.54986
 42
0.0
  0
VERTEX
  8
0
 10
9.74029
 20
4.50206
 42
0.0
  0
VERTEX
  8
0
 10
9.76947
 20
4.45562
 42
0.0
  0
VERTEX
  8
0
 10
9.79693
 20
4.40831
 42
0.0
  0
VERTEX
  8
0
 10
9.81847
 20
4.35786
 42
0.0
  0
VERTEX
  8
0
 10
9.80306
 20
4.34293
 42
0.0
  0
VERTEX
  8
0
 10
9.78261
 20
4.34224
 42
0.0
  0
VERTEX
  8
0
 10
9.74294
 20
4.39199
 42
0.0
  0
VERTEX
  8
0
 10
9.648
 20
4.53233
 42
0.0
  0
VERTEX
  8
0
 10
9.56392
 20
4.67904
 42
0.0
  0
VERTEX
  8
0
 10
9.5319
 20
4.74001
 42
0.0
  0
VERTEX
  8
0
 10
9.49903
 20
4.8004
 42
0.0
  0
VERTEX
  8
0
 10
9.46442
 20
4.86475
 42
0.0
  0
VERTEX
  8
0
 10
9.4266
 20
4.92692
 42
0.0
  0
VERTEX
  8
0
 10
9.22781
 20
5.25092
 42
0.0
  0
VERTEX
  8
0
 10
9.17839
 20
5.31944
 42
0.0
  0
VERTEX
  8
0
 10
9.11947
 20
5.38053
 42
0.0
  0
VERTEX
  8
0
 10
9.07363
 20
5.42415
 42
0.0
  0
VERTEX
  8
0
 10
9.02593
 20
5.46528
 42
0.0
  0
VERTEX
  8
0
 10
9.00424
 20
5.48899
 42
0.0
  0
VERTEX
  8
0
 10
9.0025
 20
5.52067
 42
0.0
  0
SEQEND
  0
POLYLINE
  8
0
 66
     1
 10
0.0
 20
0.0
 30
0.0
 70
     1
  0
VERTEX
  8
0
 10
4.03304
 20
5.41456
 42
0.0
  0
VERTEX
  8
0
 10
4.08143
 20
5.44081
 42
0.0
  0
VERTEX
  8
0
 10
4.13363
 20
5.45936
 42
0.0
  0
VERTEX
  8
0
 10
4.29486
 20
5.45942
 42
0.0
  0
VERTEX
  8
0
 10
4.34961
 20
5.44581
 42
0.0
  0
VERTEX
  8
0
 10
4.40528
 20
5.43549
 42
0.0
  0
VERTEX
  8
0
 10
4.46039
 20
5.42356
 42
0.0
  0
VERTEX
  8
0
 10
4.51357
 20
5.40474
 42
0.0
  0
VERTEX
  8
0
 10
4.53819
 20
5.39019
 42
0.0
  0
VERTEX
  8
0
 10
4.56153
 20
5.37244
 42
0.0
  0
VERTEX
  8
0
 10
4.58599
 20
5.35796
 42
0.0
  0
VERTEX
  8
0
 10
4.61404
 20
5.35303
 42
0.0
  0
VERTEX
  8
0
 10
4.6836
 20
5.35829
 42
0.0
  0
VERTEX
  8
0
 10
4.75168
 20
5.37885
 42
0.0
  0
VERTEX
  8
0
 10
4.81976
 20
5.39421
 42
0.0
  0
VERTEX
  8
0
 10
4.88932
 20
5.38396
 42
0.0
  0
VERTEX
  8
0
 10
4.89079
 20
5.36783
 42
0.0
  0
VERTEX
  8
0
 10
4.84999
 20
5.36458
 42
0.0
  0
VERTEX
  8
0
 10
4.81
 20
5.35736
 42
0.0
  0
VERTEX
  8
0
 10
4.76471
 20
5.33225
 42
0.0
  0
VERTEX
  8
0
 10
4.72364
 20
5.30029
 42
0.0
  0
VERTEX
  8
0
 10
4.6894
 20
5.31153
 42
0.0
  0
VERTEX
  8
0
 10
4.65337
 20
5.31315
 42
0.0
  0
VERTEX
  8
0
 10
4.61951
 20
5.30333
 42
0.0
  0
VERTEX
  8
0
 10
4.59207
 20
5.28011
 42
0.0
  0
VERTEX
  8
0
 10
4.53917
 20
5.21951
 42
0.0
  0
VERTEX
  8
0
 10
4.48753
 20
5.15776
 42
0.0
  0
VERTEX
  8
0
 10
4.45514
 20
5.11594
 42
0.0
  0
VERTEX
  8
0
 10
4.42231
 20
5.07394
 42
0.0
  0
VERTEX
  8
0
 10
4.38542
 20
5.03646
 42
0.0
  0
VERTEX
  8
0
 10
4.34076
 20
5.00792
 42
0.0
  0
VERTEX
  8
0
 10
4.26357
 20
4.98269
 42
0.0
  0
VERTEX
  8
0
 10
4.183
 20
4.98426
 42
0.0
  0
VERTEX
  8
0
 10
4.09489
 20
5.01351
 42
0.0
  0
VERTEX
  8
0
 10
4.01058
 20
5.05285
 42
0.0
  0
VERTEX
  8
0
 10
3.96587
 20
5.05442
 42
0.0
  0
VERTEX
  8
0
 10
3.92176
 20
5.05925
 42
0.0
  0
VERTEX
  8
0
 10
3.86404
 20
5.06511
 42
0.0
  0
VERTEX
  8
0
 10
3.80643
 20
5.06982
 42
0.0
  0
VERTEX
  8
0
 10
3.79064
 20
5.07904
 42
0.0
  0
VERTEX
  8
0
 10
3.78168
 20
5.09413
 42
0.0
  0
VERTEX
  8
0
 10
3.7761
 20
5.11199
 42
0.0
  0
VERTEX
  8
0
 10
3.77061
 20
5.12918
 42
0.0
  0
VERTEX
  8
0
 10
3.79563
 20
5.15522
 42
0.0
  0
VERTEX
  8
0
 10
3.82443
 20
5.17763
 42
0.0
  0
VERTEX
  8
0
 10
3.8699
 20
5.22125
 42
0.0
  0
VERTEX
  8
0
 10
3.90913
 20
5.27024
 42
0.0
  0
VERTEX
  8
0
 10
3.96479
 20
5.34793
 42
0.0
  0
SEQEND
  0
POLYLINE
  8
0
 66
     1
 10
0.0
 20
0.0
 30
0.0
 70
     1
  0
VERTEX
  8
0
 10
2.01958
 20
5.37657
 42
0.0
  0
VERTEX
  8
0
 10
2.04438
 20
5.38265
 42
0.0
  0
VERTEX
  8
0
 10
2.07004
 20
5.37261
 42
0.0
  0
VERTEX
  8
0
 10
2.07428
 20
5.27518
 42
0.0
  0
VERTEX
  8
0
 10
2.07449
 20
5.27013
 42
0.0
  0
VERTEX
  8
0
 10
2.07932
 20
5.26833
 42
0.0
  0
VERTEX
  8
0
 10
2.10124
 20
5.26036
 42
0.0
  0
VERTEX
  8
0
 10
2.12435
 20
5.26064
 42
0.0
  0
VERTEX
  8
0
 10
2.12939
 20
5.26133
 42
0.0
  0
VERTEX
  8
0
 10
2.13037
 20
5.26687
 42
0.0
  0
VERTEX
  8
0
 10
2.13363
 20
5.30344
 42
0.0
  0
VERTEX
  8
0
 10
2.13629
 20
5.31461
 42
0.0
  0
VERTEX
  8
0
 10
2.14708
 20
5.31674
 42
0.0
  0
VERTEX
  8
0
 10
2.1531
 20
5.31592
 42
0.0
  0
VERTEX
  8
0
 10
2.15853
 20
5.31461
 42
0.0
  0
VERTEX
  8
0
 10
2.16292
 20
5.31017
 42
0.0
  0
VERTEX
  8
0
 10
2.16846
 20
5.22353
 42
0.0
  0
VERTEX
  8
0
 10
2.15104
 20
5.13721
 42
0.0
  0
VERTEX
  8
0
 10
2.14931
 20
5.11697
 42
0.0
  0
VERTEX
  8
0
 10
2.14567
 20
5.09625
 42
0.0
  0
VERTEX
  8
0
 10
2.13629
 20
5.07943
 42
0.0
  0
VERTEX
  8
0
 10
2.11751
 20
5.07075
 42
0.0
  0
VERTEX
  8
0
 10
2.11106
 20
5.07064
 42
0.0
  0
VERTEX
  8
0
 10
2.10157
 20
5.07508
 42
0.0
  0
VERTEX
  8
0
 10
2.09467
 20
5.07883
 42
0.0
  0
VERTEX
  8
0
 10
2.08583
 20
5.08475
 42
0.0
  0
VERTEX
  8
0
 10
2.08074
 20
5.08892
 42
0.0
  0
VERTEX
  8
0
 10
2.05117
 20
5.11436
 42
0.0
  0
VERTEX
  8
0
 10
2.04736
 20
5.11719
 42
0.0
  0
VERTEX
  8
0
 10
2.02636
 20
5.1334
 42
0.0
  0
VERTEX
  8
0
 10
2.01096
 20
5.15462
 42
0.0
  0
VERTEX
  8
0
 10
2.00771
 20
5.16021
 42
0.0
  0
VERTEX
  8
0
 10
2.00276
 20
5.16917
 42
0.0
  0
VERTEX
  8
0
 10
1.99951
 20
5.17497
 42
0.0
  0
VERTEX
  8
0
 10
1.99474
 20
5.18386
 42
0.0
  0
VERTEX
  8
0
 10
1.99143
 20
5.26704
 42
0.0
  0
VERTEX
  8
0
 10
1.99642
 20
5.34993
 42
0.0
  0
VERTEX
  8
0
 10
1.9981
 20
5.35639
 42
0.0
  0
VERTEX
  8
0
 10
2.00564
 20
5.36421
 42
0.0
  0
VERTEX
  8
0
 10
2.01324
 20
5.37142
 42
0.0
  0
SEQEND
  0
POLYLINE
  8
0
 66
     1
 10
0.0
 20
0.0
 30
0.0
 70
     1
  0
VERTEX
  8
0
 10
4.25429
 20
5.37924
 42
0.0
  0
VERTEX
  8
0
 10
4.32547
 20
5.38286
 42
0.0
  0
VERTEX
  8
0
 10
4.39703
 20
5.37429
 42
0.0
  0
VERTEX
  8
0
 10
4.4465
 20
5.36442
 42
0.0
  0
VERTEX
  8
0
 10
4.49181
 20
5.34093
 42
0.0
  0
VERTEX
  8
0
 10
4.50976
 20
5.28722
 42
0.0
  0
VERTEX
  8
0
 10
4.46576
 20
5.19862
 42
0.0
  0
VERTEX
  8
0
 10
4.42686
 20
5.16878
 42
0.0
  0
VERTEX
  8
0
 10
4.3904
 20
5.1359
 42
0.0
  0
VERTEX
  8
0
 10
4.28717
 20
5.07801
 42
0.0
  0
VERTEX
  8
0
 10
4.18901
 20
5.07596
 42
0.0
  0
VERTEX
  8
0
 10
4.14193
 20
5.08626
 42
0.0
  0
VERTEX
  8
0
 10
4.09722
 20
5.10553
 42
0.0
  0
VERTEX
  8
0
 10
4.06006
 20
5.10764
 42
0.0
  0
VERTEX
  8
0
 10
4.02317
 20
5.11068
 42
0.0
  0
VERTEX
  8
0
 10
3.99197
 20
5.14035
 42
0.0
  0
VERTEX
  8
0
 10
3.97282
 20
5.17833
 42
0.0
  0
VERTEX
  8
0
 10
3.96451
 20
5.22081
 42
0.0
  0
VERTEX
  8
0
 10
3.9661
 20
5.26378
 42
0.0
  0
VERTEX
  8
0
 10
3.99431
 20
5.29579
 42
0.0
  0
VERTEX
  8
0
 10
4.02908
 20
5.3195
 42
0.0
  0
VERTEX
  8
0
 10
4.06581
 20
5.34099
 42
0.0
  0
VERTEX
  8
0
 10
4.09999
 20
5.36604
 42
0.0
  0
VERTEX
  8
0
 10
4.13232
 20
5.37571
 42
0.0
  0
VERTEX
  8
0
 10
4.16749
 20
5.37429
 42
0.0
  0
VERTEX
  8
0
 10
4.16162
 20
5.32221
 42
0.0
  0
VERTEX
  8
0
 10
4.17074
 20
5.27051
 42
0.0
  0
VERTEX
  8
0
 10
4.18875
 20
5.25722
 42
0.0
  0
VERTEX
  8
0
 10
4.20931
 20
5.24756
 42
0.0
  0
VERTEX
  8
0
 10
4.22928
 20
5.25635
 42
0.0
  0
VERTEX
  8
0
 10
4.24821
 20
5.26872
 42
0.0
  0
VERTEX
  8
0
 10
4.26129
 20
5.28532
 42
0.0
  0
VERTEX
  8
0
 10
4.26367
 20
5.30692
 42
0.0
  0
VERTEX
  8
0
 10
4.25603
 20
5.34304
 42
0.0
  0
SEQEND
  0
POLYLINE
  8
0
 66
     1
 10
0.0
 20
0.0
 30
0.0
 70
     1
  0
VERTEX
  8
0
 10
7.71386
 20
4.63965
 42
0.0
  0
VERTEX
  8
0
 10
7.86914
 20
4.63857
 42
0.0
  0
VERTEX
  8
0
 10
8.04514
 20
4.59347
 42
0.0
  0
VERTEX
  8
0
 10
8.21821
 20
4.53749
 42
0.0
  0
VERTEX
  8
0
 10
8.26004
 20
4.51579
 42
0.0
  0
VERTEX
  8
0
 10
8.30285
 20
4.49582
 42
0.0
  0
VERTEX
  8
0
 10
8.41265
 20
4.42318
 42
0.0
  0
VERTEX
  8
0
 10
8.51818
 20
4.3444
 42
0.0
  0
VERTEX
  8
0
 10
8.5109
 20
4.31939
 42
0.0
  0
VERTEX
  8
0
 10
8.49408
 20
4.33165
 42
0.0
  0
VERTEX
  8
0
 10
8.48296
 20
4.34967
 42
0.0
  0
VERTEX
  8
0
 10
8.44358
 20
4.35053
 42
0.0
  0
VERTEX
  8
0
 10
8.40696
 20
4.36367
 42
0.0
  0
VERTEX
  8
0
 10
8.37164
 20
4.38222
 42
0.0
  0
VERTEX
  8
0
 10
8.33632
 20
4.39931
 42
0.0
  0
VERTEX
  8
0
 10
8.07081
 20
4.49832
 42
0.0
  0
VERTEX
  8
0
 10
7.88911
 20
4.56549
 42
0.0
  0
VERTEX
  8
0
 10
7.85736
 20
4.57731
 42
0.0
  0
VERTEX
  8
0
 10
7.82503
 20
4.58811
 42
0.0
  0
VERTEX
  8
0
 10
7.79417
 20
4.60167
 42
0.0
  0
VERTEX
  8
0
 10
7.76688
 20
4.62164
 42
0.0
  0
VERTEX
  8
0
 10
7.75114
 20
4.6211
 42
0.0
  0
VERTEX
  8
0
 10
7.73367
 20
4.62115
 42
0.0
  0
VERTEX
  8
0
 10
7.71951
 20
4.62603
 42
0.0
  0
SEQEND
  0
POLYLINE
  8
0
 66
     1
 10
0.0
 20
0.0
 30
0.0
 70
     1
  0
VERTEX
  8
0
 10
8.55285
 20
4.33649
 42
0.0
  0
VERTEX
  8
0
 10
8.59381
 20
4.32232
 42
0.0
  0
VERTEX
  8
0
 10
8.6314
 20
4.30089
 42
0.0
  0
VERTEX
  8
0
 10
8.66749
 20
4.27636
 42
0.0
  0
VERTEX
  8
0
 10
8.70394
 20
4.25282
 42
0.0
  0
VERTEX
  8
0
 10
8.7494
 20
4.21522
 42
0.0
  0
VERTEX
  8
0
 10
8.78754
 20
4.16965
 42
0.0
  0
VERTEX
  8
0
 10
8.67031
 20
4.23519
 42
0.0
  0
VERTEX
  8
0
 10
8.5536
 20
4.301
 42
0.0
  0
SEQEND
  0
POLYLINE
  8
0
 66
     1
 10
0.0
 20
0.0
 30
0.0
 70
     1
  0
VERTEX
  8
0
 10
2.56142
 20
3.40424
 42
0.0
  0
VERTEX
  8
0
 10
2.57579
 20
3.3974
 42
0.0
  0
VERTEX
  8
0
 10
2.55225
 20
3.36133
 42
0.0
  0
VERTEX
  8
0
 10
2.52333
 20
3.32878
 42
0.0
  0
VERTEX
  8
0
 10
2.52274
 20
3.27328
 42
0.0
  0
VERTEX
  8
0
 10
2.49642
 20
3.25808
 42
0.0
  0
VERTEX
  8
0
 10
2.46843
 20
3.24474
 42
0.0
  0
VERTEX
  8
0
 10
2.44308
 20
3.22835
 42
0.0
  0
VERTEX
  8
0
 10
2.42481
 20
3.20404
 42
0.0
  0
VERTEX
  8
0
 10
2.42242
 20
3.17806
 42
0.0
  0
VERTEX
  8
0
 10
2.43164
 20
3.15186
 42
0.0
  0
VERTEX
  8
0
 10
2.37181
 20
3.09532
 42
0.0
  0
VERTEX
  8
0
 10
2.30849
 20
3.04264
 42
0.0
  0
VERTEX
  8
0
 10
2.25939
 20
3.01421
 42
0.0
  0
VERTEX
  8
0
 10
2.21392
 20
2.98019
 42
0.0
  0
VERTEX
  8
0
 10
2.229
 20
2.95594
 42
0.0
  0
VERTEX
  8
0
 10
2.24729
 20
2.93332
 42
0.0
  0
VERTEX
  8
0
 10
2.19829
 20
2.86594
 42
0.0
  0
VERTEX
  8
0
 10
2.14225
 20
2.80387
 42
0.0
  0
VERTEX
  8
0
 10
2.0746
 20
2.7469
 42
0.0
  0
VERTEX
  8
0
 10
2.07633
 20
2.80051
 42
0.0
  0
VERTEX
  8
0
 10
2.15414
 20
2.86833
 42
0.0
  0
VERTEX
  8
0
 10
2.21326
 20
2.95301
 42
0.0
  0
VERTEX
  8
0
 10
2.18181
 20
2.99306
 42
0.0
  0
VERTEX
  8
0
 10
2.19586
 20
3.02175
 42
0.0
  0
VERTEX
  8
0
 10
2.22097
 20
3.03797
 42
0.0
  0
VERTEX
  8
0
 10
2.25185
 20
3.04585
 42
0.0
  0
VERTEX
  8
0
 10
2.28326
 20
3.04949
 42
0.0
  0
VERTEX
  8
0
 10
2.33247
 20
3.09663
 42
0.0
  0
VERTEX
  8
0
 10
2.37299
 20
3.15164
 42
0.0
  0
VERTEX
  8
0
 10
2.37446
 20
3.22592
 42
0.0
  0
VERTEX
  8
0
 10
2.39307
 20
3.24154
 42
0.0
  0
VERTEX
  8
0
 10
2.41504
 20
3.25142
 42
0.0
  0
VERTEX
  8
0
 10
2.43847
 20
3.25879
 42
0.0
  0
VERTEX
  8
0
 10
2.46132
 20
3.26704
 42
0.0
  0
VERTEX
  8
0
 10
2.46924
 20
3.287
 42
0.0
  0
VERTEX
  8
0
 10
2.465
 20
3.30871
 42
0.0
  0
VERTEX
  8
0
 10
2.46012
 20
3.3304
 42
0.0
  0
VERTEX
  8
0
 10
2.46625
 20
3.35042
 42
0.0
  0
VERTEX
  8
0
 10
2.48867
 20
3.36708
 42
0.0
  0
VERTEX
  8
0
 10
2.51568
 20
3.37549
 42
0.0
  0
VERTEX
  8
0
 10
2.54172
 20
3.38482
 42
0.0
  0
SEQEND
  0
POLYLINE
  8
0
 66
     1
 10
0.0
 20
0.0
 30
0.0
 70
     1
  0
VERTEX
  8
0
 10
7.27251
 20
3.34304
 42
0.0
  0
VERTEX
  8
0
 10
7.29682
 20
3.3456
 42
0.0
  0
VERTEX
  8
0
 10
7.31413
 20
3.32856
 42
0.0
  0
VERTEX
  8
0
 10
7.34956
 20
3.26904
 42
0.0
  0
VERTEX
  8
0
 10
7.37022
 20
3.20335
 42
0.0
  0
VERTEX
  8
0
 10
7.38753
 20
3.12424
 42
0.0
  0
VERTEX
  8
0
 10
7.40181
 20
3.04471
 42
0.0
  0
VERTEX
  8
0
 10
7.38151
 20
3.04904
 42
0.0
  0
VERTEX
  8
0
 10
7.35308
 20
3.14242
 42
0.0
  0
VERTEX
  8
0
 10
7.3189
 20
3.23372
 42
0.0
  0
VERTEX
  8
0
 10
7.30317
 20
3.25956
 42
0.0
  0
VERTEX
  8
0
 10
7.28706
 20
3.28554
 42
0.0
  0
VERTEX
  8
0
 10
7.27522
 20
3.31299
 42
0.0
  0
SEQEND
  0
POLYLINE
  8
0
 66
     1
 10
0.0
 20
0.0
 30
0.0
 70
     1
  0
VERTEX
  8
0
 10
2.03749
 20
2.66982
 42
0.0
  0
VERTEX
  8
0
 10
2.06413
 20
2.69254
 42
0.0
  0
VERTEX
  8
0
 10
2.09694
 20
2.7041
 42
0.0
  0
VERTEX
  8
0
 10
2.13254
 20
2.70904
 42
0.0
  0
VERTEX
  8
0
 10
2.16764
 20
2.71186
 42
0.0
  0
VERTEX
  8
0
 10
2.1785
 20
2.70204
 42
0.0
  0
VERTEX
  8
0
 10
2.17156
 20
2.6914
 42
0.0
  0
VERTEX
  8
0
 10
2.15647
 20
2.68175
 42
0.0
  0
VERTEX
  8
0
 10
2.14274
 20
2.67486
 42
0.0
  0
VERTEX
  8
0
 10
2.09614
 20
2.65192
 42
0.0
  0
VERTEX
  8
0
 10
2.04665
 20
2.63471
 42
0.0
  0
VERTEX
  8
0
 10
1.99892
 20
2.61475
 42
0.0
  0
VERTEX
  8
0
 10
1.95768
 20
2.58317
 42
0.0
  0
VERTEX
  8
0
 10
1.94168
 20
2.56679
 42
0.0
  0
VERTEX
  8
0
 10
1.92714
 20
2.5485
 42
0.0
  0
VERTEX
  8
0
 10
1.91781
 20
2.52806
 42
0.0
  0
VERTEX
  8
0
 10
1.91743
 20
2.50493
 42
0.0
  0
VERTEX
  8
0
 10
1.94993
 20
2.48931
 42
0.0
  0
VERTEX
  8
0
 10
1.92643
 20
2.46772
 42
0.0
  0
VERTEX
  8
0
 10
1.8974
 20
2.45443
 42
0.0
  0
VERTEX
  8
0
 10
1.92122
 20
2.43246
 42
0.0
  0
VERTEX
  8
0
 10
1.95122
 20
2.4159
 42
0.0
  0
VERTEX
  8
0
 10
1.98101
 20
2.39719
 42
0.0
  0
VERTEX
  8
0
 10
2.00624
 20
2.37294
 42
0.0
  0
VERTEX
  8
0
 10
2.02968
 20
2.34646
 42
0.0
  0
VERTEX
  8
0
 10
2.05393
 20
2.32096
 42
0.0
  0
VERTEX
  8
0
 10
2.07949
 20
2.28635
 42
0.0
  0
VERTEX
  8
0
 10
2.0964
 20
2.24696
 42
0.0
  0
VERTEX
  8
0
 10
2.10742
 20
2.20503
 42
0.0
  0
VERTEX
  8
0
 10
2.11524
 20
2.16271
 42
0.0
  0
VERTEX
  8
0
 10
2.09646
 20
2.09782
 42
0.0
  0
VERTEX
  8
0
 10
2.07232
 20
2.0345
 42
0.0
  0
VERTEX
  8
0
 10
2.06603
 20
2.00786
 42
0.0
  0
VERTEX
  8
0
 10
2.06347
 20
1.98031
 42
0.0
  0
VERTEX
  8
0
 10
2.05951
 20
1.95324
 42
0.0
  0
VERTEX
  8
0
 10
2.04893
 20
1.928
 42
0.0
  0
VERTEX
  8
0
 10
2.02582
 20
1.90597
 42
0.0
  0
VERTEX
  8
0
 10
1.99858
 20
1.88917
 42
0.0
  0
VERTEX
  8
0
 10
1.97032
 20
1.87381
 42
0.0
  0
VERTEX
  8
0
 10
1.94401
 20
1.85579
 42
0.0
  0
VERTEX
  8
0
 10
1.92144
 20
1.77175
 42
0.0
  0
VERTEX
  8
0
 10
1.90229
 20
1.68674
 42
0.0
  0
VERTEX
  8
0
 10
1.90924
 20
1.65636
 42
0.0
  0
VERTEX
  8
0
 10
1.93044
 20
1.63363
 42
0.0
  0
VERTEX
  8
0
 10
1.98443
 20
1.59407
 42
0.0
  0
VERTEX
  8
0
 10
2.03847
 20
1.55458
 42
0.0
  0
VERTEX
  8
0
 10
2.07542
 20
1.51872
 42
0.0
  0
VERTEX
  8
0
 10
2.10069
 20
1.47265
 42
0.0
  0
VERTEX
  8
0
 10
2.12685
 20
1.42763
 42
0.0
  0
VERTEX
  8
0
 10
2.16629
 20
1.39475
 42
0.0
  0
VERTEX
  8
0
 10
2.25624
 20
1.37972
 42
0.0
  0
VERTEX
  8
0
 10
2.347
 20
1.36827
 42
0.0
  0
VERTEX
  8
0
 10
2.36399
 20
1.34304
 42
0.0
  0
VERTEX
  8
0
 10
2.36708
 20
1.3112
 42
0.0
  0
VERTEX
  8
0
 10
2.35021
 20
1.30686
 42
0.0
  0
VERTEX
  8
0
 10
2.33344
 20
1.31114
 42
0.0
  0
VERTEX
  8
0
 10
2.31674
 20
1.31874
 42
0.0
  0
VERTEX
  8
0
 10
2.30007
 20
1.32433
 42
0.0
  0
VERTEX
  8
0
 10
2.21881
 20
1.33377
 42
0.0
  0
VERTEX
  8
0
 10
2.14008
 20
1.35715
 42
0.0
  0
VERTEX
  8
0
 10
2.08306
 20
1.38265
 42
0.0
  0
VERTEX
  8
0
 10
2.0376
 20
1.42443
 42
0.0
  0
VERTEX
  8
0
 10
2.03261
 20
1.44976
 42
0.0
  0
VERTEX
  8
0
 10
2.02897
 20
1.47586
 42
0.0
  0
VERTEX
  8
0
 10
2.02154
 20
1.50032
 42
0.0
  0
VERTEX
  8
0
 10
2.00526
 20
1.52046
 42
0.0
  0
VERTEX
  8
0
 10
1.94769
 20
1.55126
 42
0.0
  0
VERTEX
  8
0
 10
1.89497
 20
1.58871
 42
0.0
  0
VERTEX
  8
0
 10
1.86757
 20
1.6256
 42
0.0
  0
VERTEX
  8
0
 10
1.83356
 20
1.65587
 42
0.0
  0
VERTEX
  8
0
 10
1.78776
 20
1.63917
 42
0.0
  0
VERTEX
  8
0
 10
1.74669
 20
1.61263
 42
0.0
  0
VERTEX
  8
0
 10
1.70568
 20
1.58572
 42
0.0
  0
VERTEX
  8
0
 10
1.66032
 20
1.56793
 42
0.0
  0
VERTEX
  8
0
 10
1.58746
 20
1.54335
 42
0.0
  0
VERTEX
  8
0
 10
1.5541
 20
1.56461
 42
0.0
  0
VERTEX
  8
0
 10
1.52832
 20
1.59467
 42
0.0
  0
VERTEX
  8
0
 10
1.50564
 20
1.62825
 42
0.0
  0
VERTEX
  8
0
 10
1.48161
 20
1.65994
 42
0.0
  0
VERTEX
  8
0
 10
1.42919
 20
1.72575
 42
0.0
  0
VERTEX
  8
0
 10
1.36675
 20
1.78228
 42
0.0
  0
VERTEX
  8
0
 10
1.31673
 20
1.80811
 42
0.0
  0
VERTEX
  8
0
 10
1.26595
 20
1.83285
 42
0.0
  0
VERTEX
  8
0
 10
1.21674
 20
1.86008
 42
0.0
  0
VERTEX
  8
0
 10
1.1715
 20
1.89344
 42
0.0
  0
VERTEX
  8
0
 10
1.14714
 20
1.9285
 42
0.0
  0
VERTEX
  8
0
 10
1.12891
 20
1.96712
 42
0.0
  0
VERTEX
  8
0
 10
1.11334
 20
2.00722
 42
0.0
  0
VERTEX
  8
0
 10
1.09695
 20
2.0466
 42
0.0
  0
VERTEX
  8
0
 10
1.08171
 20
2.0701
 42
0.0
  0
VERTEX
  8
0
 10
1.06142
 20
2.08925
 42
0.0
  0
VERTEX
  8
0
 10
1.03971
 20
2.10726
 42
0.0
  0
VERTEX
  8
0
 10
1.02029
 20
2.12722
 42
0.0
  0
VERTEX
  8
0
 10
1.01628
 20
2.15858
 42
0.0
  0
VERTEX
  8
0
 10
1.02496
 20
2.18733
 42
0.0
  0
VERTEX
  8
0
 10
1.04248
 20
2.21283
 42
0.0
  0
VERTEX
  8
0
 10
1.0651
 20
2.23443
 42
0.0
  0
VERTEX
  8
0
 10
1.11106
 20
2.23469
 42
0.0
  0
VERTEX
  8
0
 10
1.15028
 20
2.25114
 42
0.0
  0
VERTEX
  8
0
 10
1.18875
 20
2.26932
 42
0.0
  0
VERTEX
  8
0
 10
1.19152
 20
2.17307
 42
0.0
  0
VERTEX
  8
0
 10
1.22656
 20
2.15337
 42
0.0
  0
VERTEX
  8
0
 10
1.26676
 20
2.14806
 42
0.0
  0
VERTEX
  8
0
 10
1.30887
 20
2.14962
 42
0.0
  0
VERTEX
  8
0
 10
1.34966
 20
2.15067
 42
0.0
  0
VERTEX
  8
0
 10
1.39313
 20
2.17785
 42
0.0
  0
VERTEX
  8
0
 10
1.4266
 20
2.21669
 42
0.0
  0
VERTEX
  8
0
 10
1.45822
 20
2.25808
 42
0.0
  0
VERTEX
  8
0
 10
1.49625
 20
2.29286
 42
0.0
  0
VERTEX
  8
0
 10
1.52485
 20
2.31131
 42
0.0
  0
VERTEX
  8
0
 10
1.55746
 20
2.31722
 42
0.0
  0
VERTEX
  8
0
 10
1.58897
 20
2.3094
 42
0.0
  0
VERTEX
  8
0
 10
1.61442
 20
2.28662
 42
0.0
  0
VERTEX
  8
0
 10
1.60813
 20
2.2455
 42
0.0
  0
VERTEX
  8
0
 10
1.65451
 20
2.26357
 42
0.0
  0
VERTEX
  8
0
 10
1.69874
 20
2.28683
 42
0.0
  0
VERTEX
  8
0
 10
1.74382
 20
2.28792
 42
0.0
  0
VERTEX
  8
0
 10
1.78564
 20
2.27403
 42
0.0
  0
VERTEX
  8
0
 10
1.82585
 20
2.25325
 42
0.0
  0
VERTEX
  8
0
 10
1.86626
 20
2.23361
 42
0.0
  0
VERTEX
  8
0
 10
1.88699
 20
2.22504
 42
0.0
  0
VERTEX
  8
0
 10
1.90701
 20
2.21451
 42
0.0
  0
VERTEX
  8
0
 10
1.92404
 20
2.20036
 42
0.0
  0
VERTEX
  8
0
 10
1.93582
 20
2.18099
 42
0.0
  0
VERTEX
  8
0
 10
1.93821
 20
2.10542
 42
0.0
  0
VERTEX
  8
0
 10
1.98557
 20
2.12039
 42
0.0
  0
VERTEX
  8
0
 10
1.98856
 20
2.13456
 42
0.0
  0
VERTEX
  8
0
 10
1.9905
 20
2.14996
 42
0.0
  0
VERTEX
  8
0
 10
1.99561
 20
2.16282
 42
0.0
  0
VERTEX
  8
0
 10
2.00803
 20
2.16917
 42
0.0
  0
VERTEX
  8
0
 10
2.01394
 20
2.14094
 42
0.0
  0
VERTEX
  8
0
 10
2.04438
 20
2.1441
 42
0.0
  0
VERTEX
  8
0
 10
2.0721
 20
2.16211
 42
0.0
  0
VERTEX
  8
0
 10
2.08263
 20
2.17774
 42
0.0
  0
VERTEX
  8
0
 10
2.08376
 20
2.19553
 42
0.0
  0
VERTEX
  8
0
 10
2.07949
 20
2.21403
 42
0.0
  0
VERTEX
  8
0
 10
2.07379
 20
2.23167
 42
0.0
  0
VERTEX
  8
0
 10
2.05919
 20
2.26232
 42
0.0
  0
VERTEX
  8
0
 10
2.03797
 20
2.28863
 42
0.0
  0
VERTEX
  8
0
 10
2.0146
 20
2.31364
 42
0.0
  0
VERTEX
  8
0
 10
1.99349
 20
2.34028
 42
0.0
  0
VERTEX
  8
0
 10
1.93604
 20
2.38183
 42
0.0
  0
VERTEX
  8
0
 10
1.87685
 20
2.42106
 42
0.0
  0
VERTEX
  8
0
 10
1.83453
 20
2.44672
 42
0.0
  0
VERTEX
  8
0
 10
1.78776
 20
2.46272
 42
0.0
  0
VERTEX
  8
0
 10
1.78836
 20
2.49463
 42
0.0
  0
VERTEX
  8
0
 10
1.80626
 20
2.51801
 42
0.0
  0
VERTEX
  8
0
 10
1.8329
 20
2.53608
 42
0.0
  0
VERTEX
  8
0
 10
1.85992
 20
2.55203
 42
0.0
  0
VERTEX
  8
0
 10
1.94006
 20
2.62403
 42
0.0
  0
SEQEND
  0
POLYLINE
  8
0
 66
     1
 10
0.0
 20
0.0
 30
0.0
 70
     1
  0
VERTEX
  8
0
 10
1.19368
 20
2.47597
 42
0.0
  0
VERTEX
  8
0
 10
1.19851
 20
2.49794
 42
0.0
  0
VERTEX
  8
0
 10
1.19938
 20
2.52186
 42
0.0
  0
VERTEX
  8
0
 10
1.20448
 20
2.54312
 42
0.0
  0
VERTEX
  8
0
 10
1.22217
 20
2.55697
 42
0.0
  0
VERTEX
  8
0
 10
1.20801
 20
2.46224
 42
0.0
  0
VERTEX
  8
0
 10
1.15804
 20
2.41297
 42
0.0
  0
VERTEX
  8
0
 10
1.14149
 20
2.38803
 42
0.0
  0
VERTEX
  8
0
 10
1.12516
 20
2.36257
 42
0.0
  0
VERTEX
  8
0
 10
1.1065
 20
2.33925
 42
0.0
  0
VERTEX
  8
0
 10
1.08306
 20
2.32047
 42
0.0
  0
VERTEX
  8
0
 10
1.08876
 20
2.34403
 42
0.0
  0
VERTEX
  8
0
 10
1.10178
 20
2.36376
 42
0.0
  0
VERTEX
  8
0
 10
1.11757
 20
2.38211
 42
0.0
  0
VERTEX
  8
0
 10
1.13173
 20
2.40147
 42
0.0
  0
VERTEX
  8
0
 10
1.1531
 20
2.43875
 42
0.0
  0
VERTEX
  8
0
 10
1.17611
 20
2.45497
 42
0.0
  0
SEQEND
  0
POLYLINE
  8
0
 66
     1
 10
0.0
 20
0.0
 30
0.0
 70
     1
  0
VERTEX
  8
0
 10
3.75537
 20
2.23551
 42
0.0
  0
VERTEX
  8
0
 10
3.7595
 20
2.25136
 42
0.0
  0
VERTEX
  8
0
 10
3.77171
 20
2.2564
 42
0.0
  0
VERTEX
  8
0
 10
3.78554
 20
2.25163
 42
0.0
  0
VERTEX
  8
0
 10
3.79454
 20
2.23796
 42
0.0
  0
SEQEND
  0
POLYLINE
  8
0
 66
     1
 10
0.0
 20
0.0
 30
0.0
 70
     1
  0
VERTEX
  8
0
 10
3.57904
 20
2.22401
 42
0.0
  0
VERTEX
  8
0
 10
3.70199
 20
2.24799
 42
0.0
  0
VERTEX
  8
0
 10
3.69792
 20
2.23144
 42
0.0
  0
VERTEX
  8
0
 10
3.683
 20
2.22542
 42
0.0
  0
VERTEX
  8
0
 10
3.66368
 20
2.22444
 42
0.0
  0
VERTEX
  8
0
 10
3.64649
 20
2.22287
 42
0.0
  0
VERTEX
  8
0
 10
3.5944
 20
2.21485
 42
0.0
  0
VERTEX
  8
0
 10
3.54254
 20
2.20632
 42
0.0
  0
VERTEX
  8
0
 10
3.55919
 20
2.21804
 42
0.0
  0
SEQEND
  0
POLYLINE
  8
0
 66
     1
 10
0.0
 20
0.0
 30
0.0
 70
     1
  0
VERTEX
  8
0
 10
3.2469
 20
2.15392
 42
0.0
  0
VERTEX
  8
0
 10
3.50922
 20
2.21365
 42
0.0
  0
VERTEX
  8
0
 10
3.51324
 20
2.20258
 42
0.0
  0
VERTEX
  8
0
 10
3.45014
 20
2.17925
 42
0.0
  0
VERTEX
  8
0
 10
3.38428
 20
2.16471
 42
0.0
  0
VERTEX
  8
0
 10
3.3316
 20
2.146
 42
0.0
  0
VERTEX
  8
0
 10
3.27783
 20
2.13086
 42
0.0
  0
VERTEX
  8
0
 10
3.2411
 20
2.12033
 42
0.0
  0
VERTEX
  8
0
 10
3.20568
 20
2.10558
 42
0.0
  0
VERTEX
  8
0
 10
3.16997
 20
2.09196
 42
0.0
  0
VERTEX
  8
0
 10
3.13254
 20
2.08469
 42
0.0
  0
VERTEX
  8
0
 10
3.1345
 20
2.10656
 42
0.0
  0
SEQEND
  0
POLYLINE
  8
0
 66
     1
 10
0.0
 20
0.0
 30
0.0
 70
     1
  0
VERTEX
  8
0
 10
2.99289
 20
1.90483
 42
0.0
  0
VERTEX
  8
0
 10
3.01144
 20
1.92415
 42
0.0
  0
VERTEX
  8
0
 10
3.03737
 20
1.92811
 42
0.0
  0
VERTEX
  8
0
 10
3.06603
 20
1.92361
 42
0.0
  0
VERTEX
  8
0
 10
3.09256
 20
1.91749
 42
0.0
  0
VERTEX
  8
0
 10
3.13678
 20
1.926
 42
0.0
  0
VERTEX
  8
0
 10
3.18181
 20
1.926
 42
0.0
  0
VERTEX
  8
0
 10
3.17469
 20
1.90929
 42
0.0
  0
VERTEX
  8
0
 10
3.12989
 20
1.89583
 42
0.0
  0
VERTEX
  8
0
 10
3.08306
 20
1.88704
 42
0.0
  0
VERTEX
  8
0
 10
3.03657
 20
1.88824
 42
0.0
  0
SEQEND
  0
POLYLINE
  8
0
 66
     1
 10
0.0
 20
0.0
 30
0.0
 70
     1
  0
VERTEX
  8
0
 10
2.79443
 20
1.78831
 42
0.0
  0
VERTEX
  8
0
 10
2.85661
 20
1.79064
 42
0.0
  0
VERTEX
  8
0
 10
2.91949
 20
1.79693
 42
0.0
  0
VERTEX
  8
0
 10
2.98128
 20
1.7959
 42
0.0
  0
VERTEX
  8
0
 10
3.04015
 20
1.77604
 42
0.0
  0
VERTEX
  8
0
 10
3.02214
 20
1.76351
 42
0.0
  0
VERTEX
  8
0
 10
2.9694
 20
1.771
 42
0.0
  0
VERTEX
  8
0
 10
2.91581
 20
1.77533
 42
0.0
  0
VERTEX
  8
0
 10
2.86247
 20
1.77294
 42
0.0
  0
VERTEX
  8
0
 10
2.8106
 20
1.76036
 42
0.0
  0
VERTEX
  8
0
 10
2.76383
 20
1.75369
 42
0.0
  0
VERTEX
  8
0
 10
2.71642
 20
1.75597
 42
0.0
  0
VERTEX
  8
0
 10
2.71783
 20
1.77371
 42
0.0
  0
VERTEX
  8
0
 10
2.75543
 20
1.78494
 42
0.0
  0
SEQEND
  0
POLYLINE
  8
0
 66
     1
 10
0.0
 20
0.0
 30
0.0
 70
     1
  0
VERTEX
  8
0
 10
3.26904
 20
1.73313
 42
0.0
  0
VERTEX
  8
0
 10
3.33535
 20
1.73107
 42
0.0
  0
VERTEX
  8
0
 10
3.40013
 20
1.71631
 42
0.0
  0
VERTEX
  8
0
 10
3.42529
 20
1.70193
 42
0.0
  0
VERTEX
  8
0
 10
3.43778
 20
1.67676
 42
0.0
  0
VERTEX
  8
0
 10
3.42632
 20
1.68511
 42
0.0
  0
VERTEX
  8
0
 10
3.41585
 20
1.6951
 42
0.0
  0
VERTEX
  8
0
 10
3.4044
 20
1.70253
 42
0.0
  0
VERTEX
  8
0
 10
3.39031
 20
1.70318
 42
0.0
  0
VERTEX
  8
0
 10
3.34196
 20
1.7054
 42
0.0
  0
VERTEX
  8
0
 10
3.29394
 20
1.71317
 42
0.0
  0
SEQEND
  0
POLYLINE
  8
0
 66
     1
 10
0.0
 20
0.0
 30
0.0
 70
     1
  0
VERTEX
  8
0
 10
2.49078
 20
1.58306
 42
0.0
  0
VERTEX
  8
0
 10
2.60536
 20
1.58268
 42
0.0
  0
VERTEX
  8
0
 10
2.59782
 20
1.55339
 42
0.0
  0
VERTEX
  8
0
 10
2.54785
 20
1.5631
 42
0.0
  0
VERTEX
  8
0
 10
2.49675
 20
1.56608
 42
0.0
  0
SEQEND
  0
POLYLINE
  8
0
 66
     1
 10
0.0
 20
0.0
 30
0.0
 70
     1
  0
VERTEX
  8
0
 10
6.43283
 20
9.25087
 42
0.0
  0
VERTEX
  8
0
 10
6.44412
 20
9.28489
 42
0.0
  0
VERTEX
  8
0
 10
6.46164
 20
9.29118
 42
0.0
  0
VERTEX
  8
0
 10
6.46761
 20
9.27686
 42
0.0
  0
VERTEX
  8
0
 10
6.46983
 20
9.26215
 42
0.0
  0
VERTEX
  8
0
 10
6.47894
 20
9.22857
 42
0.0
  0
VERTEX
  8
0
 10
6.49849
 20
9.15881
 42
0.0
  0
VERTEX
  8
0
 10
6.51758
 20
9.08882
 42
0.0
  0
VERTEX
  8
0
 10
6.52935
 20
9.05626
 42
0.0
  0
VERTEX
  8
0
 10
6.5459
 20
9.0255
 42
0.0
  0
VERTEX
  8
0
 10
6.54796
 20
8.99121
 42
0.0
  0
VERTEX
  8
0
 10
6.55626
 20
8.95806
 42
0.0
  0
VERTEX
  8
0
 10
6.60792
 20
8.85422
 42
0.0
  0
VERTEX
  8
0
 10
6.66737
 20
8.75439
 42
0.0
  0
VERTEX
  8
0
 10
6.6774
 20
8.74371
 42
0.0
  0
VERTEX
  8
0
 10
6.69103
 20
8.73899
 42
0.0
  0
VERTEX
  8
0
 10
6.70622
 20
8.73774
 42
0.0
  0
VERTEX
  8
0
 10
6.72097
 20
8.73731
 42
0.0
  0
VERTEX
  8
0
 10
6.7455
 20
8.73719
 42
0.0
  0
VERTEX
  8
0
 10
6.77035
 20
8.73768
 42
0.0
  0
VERTEX
  8
0
 10
6.79411
 20
8.74235
 42
0.0
  0
VERTEX
  8
0
 10
6.81543
 20
8.75461
 42
0.0
  0
VERTEX
  8
0
 10
6.86897
 20
8.78299
 42
0.0
  0
VERTEX
  8
0
 10
6.92887
 20
8.79286
 42
0.0
  0
VERTEX
  8
0
 10
7.14671
 20
8.79258
 42
0.0
  0
VERTEX
  8
0
 10
7.15326
 20
8.77962
 42
0.0
  0
VERTEX
  8
0
 10
7.15983
 20
8.76665
 42
0.0
  0
VERTEX
  8
0
 10
7.17535
 20
8.76471
 42
0.0
  0
VERTEX
  8
0
 10
7.19194
 20
8.76531
 42
0.0
  0
VERTEX
  8
0
 10
7.20692
 20
8.76264
 42
0.0
  0
VERTEX
  8
0
 10
7.21761
 20
8.75082
 42
0.0
  0
VERTEX
  8
0
 10
7.11774
 20
8.75006
 42
0.0
  0
VERTEX
  8
0
 10
7.05561
 20
8.72017
 42
0.0
  0
VERTEX
  8
0
 10
6.98861
 20
8.70742
 42
0.0
  0
VERTEX
  8
0
 10
6.9535
 20
8.70703
 42
0.0
  0
VERTEX
  8
0
 10
6.92079
 20
8.69706
 42
0.0
  0
VERTEX
  8
0
 10
6.87831
 20
8.66911
 42
0.0
  0
VERTEX
  8
0
 10
6.83035
 20
8.65528
 42
0.0
  0
VERTEX
  8
0
 10
6.79861
 20
8.65332
 42
0.0
  0
VERTEX
  8
0
 10
6.77219
 20
8.63797
 42
0.0
  0
VERTEX
  8
0
 10
6.8094
 20
8.46892
 42
0.0
  0
VERTEX
  8
0
 10
6.82932
 20
8.42969
 42
0.0
  0
VERTEX
  8
0
 10
6.86182
 20
8.40007
 42
0.0
  0
VERTEX
  8
0
 10
6.89817
 20
8.37315
 42
0.0
  0
VERTEX
  8
0
 10
6.92969
 20
8.34196
 42
0.0
  0
VERTEX
  8
0
 10
6.93088
 20
8.25472
 42
0.0
  0
VERTEX
  8
0
 10
6.90815
 20
8.26004
 42
0.0
  0
VERTEX
  8
0
 10
6.88519
 20
8.2659
 42
0.0
  0
VERTEX
  8
0
 10
6.86393
 20
8.27501
 42
0.0
  0
VERTEX
  8
0
 10
6.84631
 20
8.2901
 42
0.0
  0
VERTEX
  8
0
 10
6.79665
 20
8.36322
 42
0.0
  0
VERTEX
  8
0
 10
6.76183
 20
8.44482
 42
0.0
  0
VERTEX
  8
0
 10
6.68338
 20
8.59158
 42
0.0
  0
VERTEX
  8
0
 10
6.64963
 20
8.62229
 42
0.0
  0
VERTEX
  8
0
 10
6.61697
 20
8.65479
 42
0.0
  0
VERTEX
  8
0
 10
6.59056
 20
8.69146
 42
0.0
  0
VERTEX
  8
0
 10
6.57536
 20
8.73443
 42
0.0
  0
VERTEX
  8
0
 10
6.49485
 20
8.95747
 42
0.0
  0
VERTEX
  8
0
 10
6.45053
 20
9.10308
 42
0.0
  0
VERTEX
  8
0
 10
6.44396
 20
9.14051
 42
0.0
  0
VERTEX
  8
0
 10
6.43961
 20
9.1786
 42
0.0
  0
VERTEX
  8
0
 10
6.43283
 20
9.21593
 42
0.0
  0
SEQEND
  0
POLYLINE
  8
0
 66
     1
 10
0.0
 20
0.0
 30
0.0
 70
     1
  0
VERTEX
  8
0
 10
6.94732
 20
8.10889
 42
0.0
  0
VERTEX
  8
0
 10
6.96837
 20
8.15213
 42
0.0
  0
VERTEX
  8
0
 10
7.20833
 20
8.03907
 42
0.0
  0
VERTEX
  8
0
 10
7.60325
 20
7.84212
 42
0.0
  0
VERTEX
  8
0
 10
7.62446
 20
7.83208
 42
0.0
  0
VERTEX
  8
0
 10
7.6429
 20
7.81793
 42
0.0
  0
VERTEX
  8
0
 10
7.64671
 20
7.80767
 42
0.0
  0
VERTEX
  8
0
 10
7.64031
 20
7.80024
 42
0.0
  0
VERTEX
  8
0
 10
7.62924
 20
7.79514
 42
0.0
  0
VERTEX
  8
0
 10
7.61908
 20
7.79178
 42
0.0
  0
VERTEX
  8
0
 10
7.52225
 20
7.77746
 42
0.0
  0
VERTEX
  8
0
 10
7.42383
 20
7.77783
 42
0.0
  0
VERTEX
  8
0
 10
7.34771
 20
7.77735
 42
0.0
  0
VERTEX
  8
0
 10
7.2724
 20
7.78575
 42
0.0
  0
VERTEX
  8
0
 10
7.25999
 20
7.7876
 42
0.0
  0
VERTEX
  8
0
 10
7.2474
 20
7.78733
 42
0.0
  0
VERTEX
  8
0
 10
7.23742
 20
7.7825
 42
0.0
  0
VERTEX
  8
0
 10
7.23292
 20
7.77061
 42
0.0
  0
VERTEX
  8
0
 10
7.29221
 20
7.72282
 42
0.0
  0
VERTEX
  8
0
 10
7.35981
 20
7.68739
 42
0.0
  0
VERTEX
  8
0
 10
7.43132
 20
7.65853
 42
0.0
  0
VERTEX
  8
0
 10
7.50256
 20
7.63049
 42
0.0
  0
VERTEX
  8
0
 10
7.57221
 20
7.60699
 42
0.0
  0
VERTEX
  8
0
 10
7.64458
 20
7.59196
 42
0.0
  0
VERTEX
  8
0
 10
7.71897
 20
7.58658
 42
0.0
  0
VERTEX
  8
0
 10
7.79269
 20
7.57753
 42
0.0
  0
VERTEX
  8
0
 10
7.92524
 20
7.57835
 42
0.0
  0
VERTEX
  8
0
 10
7.98844
 20
7.58664
 42
0.0
  0
VERTEX
  8
0
 10
8.06261
 20
7.57656
 42
0.0
  0
VERTEX
  8
0
 10
8.17611
 20
7.55089
 42
0.0
  0
VERTEX
  8
0
 10
8.28765
 20
7.51574
 42
0.0
  0
VERTEX
  8
0
 10
8.35835
 20
7.48307
 42
0.0
  0
VERTEX
  8
0
 10
8.42839
 20
7.44883
 42
0.0
  0
VERTEX
  8
0
 10
8.45275
 20
7.43582
 42
0.0
  0
VERTEX
  8
0
 10
8.4726
 20
7.41749
 42
0.0
  0
VERTEX
  8
0
 10
8.38135
 20
7.43679
 42
0.0
  0
VERTEX
  8
0
 10
8.28933
 20
7.45144
 42
0.0
  0
VERTEX
  8
0
 10
8.22325
 20
7.45822
 42
0.0
  0
VERTEX
  8
0
 10
8.15728
 20
7.46431
 42
0.0
  0
VERTEX
  8
0
 10
8.12711
 20
7.46875
 42
0.0
  0
VERTEX
  8
0
 10
8.09674
 20
7.46875
 42
0.0
  0
VERTEX
  8
0
 10
7.87983
 20
7.46804
 42
0.0
  0
VERTEX
  8
0
 10
7.7525
 20
7.44162
 42
0.0
  0
VERTEX
  8
0
 10
7.75814
 20
7.41786
 42
0.0
  0
VERTEX
  8
0
 10
7.77225
 20
7.39757
 42
0.0
  0
VERTEX
  8
0
 10
7.79042
 20
7.37944
 42
0.0
  0
VERTEX
  8
0
 10
7.80832
 20
7.36219
 42
0.0
  0
VERTEX
  8
0
 10
7.90001
 20
7.315
 42
0.0
  0
VERTEX
  8
0
 10
7.99414
 20
7.27289
 42
0.0
  0
VERTEX
  8
0
 10
8.12147
 20
7.22917
 42
0.0
  0
VERTEX
  8
0
 10
8.28043
 20
7.17361
 42
0.0
  0
VERTEX
  8
0
 10
8.28261
 20
7.15864
 42
0.0
  0
VERTEX
  8
0
 10
8.23128
 20
7.14953
 42
0.0
  0
VERTEX
  8
0
 10
8.17925
 20
7.14421
 42
0.0
  0
VERTEX
  8
0
 10
8.14475
 20
7.13672
 42
0.0
  0
VERTEX
  8
0
 10
8.11029
 20
7.14074
 42
0.0
  0
VERTEX
  8
0
 10
8.05979
 20
7.14914
 42
0.0
  0
VERTEX
  8
0
 10
8.00851
 20
7.15022
 42
0.0
  0
VERTEX
  8
0
 10
7.70101
 20
7.20068
 42
0.0
  0
VERTEX
  8
0
 10
7.64697
 20
7.20617
 42
0.0
  0
VERTEX
  8
0
 10
7.59338
 20
7.21528
 42
0.0
  0
VERTEX
  8
0
 10
7.53965
 20
7.22228
 42
0.0
  0
VERTEX
  8
0
 10
7.48546
 20
7.22136
 42
0.0
  0
VERTEX
  8
0
 10
7.47706
 20
7.19656
 42
0.0
  0
VERTEX
  8
0
 10
7.51671
 20
7.15283
 42
0.0
  0
VERTEX
  8
0
 10
7.56456
 20
7.11888
 42
0.0
  0
VERTEX
  8
0
 10
7.63558
 20
7.08794
 42
0.0
  0
VERTEX
  8
0
 10
7.70899
 20
7.06332
 42
0.0
  0
VERTEX
  8
0
 10
7.86231
 20
7.01497
 42
0.0
  0
VERTEX
  8
0
 10
8.0154
 20
6.96576
 42
0.0
  0
VERTEX
  8
0
 10
8.46419
 20
6.8195
 42
0.0
  0
VERTEX
  8
0
 10
8.5459
 20
6.7844
 42
0.0
  0
VERTEX
  8
0
 10
8.54764
 20
6.77262
 42
0.0
  0
VERTEX
  8
0
 10
8.53868
 20
6.76421
 42
0.0
  0
VERTEX
  8
0
 10
8.50179
 20
6.77772
 42
0.0
  0
VERTEX
  8
0
 10
8.46382
 20
6.78586
 42
0.0
  0
VERTEX
  8
0
 10
8.42578
 20
6.79313
 42
0.0
  0
VERTEX
  8
0
 10
8.3929
 20
6.81337
 42
0.0
  0
VERTEX
  8
0
 10
8.32721
 20
6.80518
 42
0.0
  0
VERTEX
  8
0
 10
8.26172
 20
6.81483
 42
0.0
  0
VERTEX
  8
0
 10
8.17464
 20
6.82835
 42
0.0
  0
VERTEX
  8
0
 10
8.08735
 20
6.83826
 42
0.0
  0
VERTEX
  8
0
 10
7.78564
 20
6.88644
 42
0.0
  0
VERTEX
  8
0
 10
7.727
 20
6.89193
 42
0.0
  0
VERTEX
  8
0
 10
7.66883
 20
6.89908
 42
0.0
  0
VERTEX
  8
0
 10
7.63775
 20
6.90392
 42
0.0
  0
VERTEX
  8
0
 10
7.60633
 20
6.90315
 42
0.0
  0
VERTEX
  8
0
 10
7.618
 20
6.88211
 42
0.0
  0
VERTEX
  8
0
 10
7.63846
 20
6.86637
 42
0.0
  0
VERTEX
  8
0
 10
7.65864
 20
6.84993
 42
0.0
  0
VERTEX
  8
0
 10
7.67513
 20
6.82975
 42
0.0
  0
VERTEX
  8
0
 10
7.69119
 20
6.80903
 42
0.0
  0
VERTEX
  8
0
 10
7.71018
 20
6.79101
 42
0.0
  0
VERTEX
  8
0
 10
7.75493
 20
6.77561
 42
0.0
  0
VERTEX
  8
0
 10
7.80089
 20
6.76313
 42
0.0
  0
VERTEX
  8
0
 10
8.0401
 20
6.6856
 42
0.0
  0
VERTEX
  8
0
 10
8.27903
 20
6.60672
 42
0.0
  0
VERTEX
  8
0
 10
8.33328
 20
6.58692
 42
0.0
  0
VERTEX
  8
0
 10
8.38949
 20
6.57237
 42
0.0
  0
VERTEX
  8
0
 10
8.44482
 20
6.55588
 42
0.0
  0
VERTEX
  8
0
 10
8.49664
 20
6.52994
 42
0.0
  0
VERTEX
  8
0
 10
8.65989
 20
6.41954
 42
0.0
  0
VERTEX
  8
0
 10
8.81347
 20
6.29622
 42
0.0
  0
VERTEX
  8
0
 10
8.83664
 20
6.26432
 42
0.0
  0
VERTEX
  8
0
 10
8.86529
 20
6.24501
 42
0.0
  0
VERTEX
  8
0
 10
8.89063
 20
6.22
 42
0.0
  0
VERTEX
  8
0
 10
8.91465
 20
6.19456
 42
0.0
  0
VERTEX
  8
0
 10
8.93599
 20
6.16775
 42
0.0
  0
VERTEX
  8
0
 10
8.95742
 20
6.14051
 42
0.0
  0
VERTEX
  8
0
 10
8.97547
 20
6.11143
 42
0.0
  0
VERTEX
  8
0
 10
8.98676
 20
6.0791
 42
0.0
  0
VERTEX
  8
0
 10
8.96263
 20
6.08268
 42
0.0
  0
VERTEX
  8
0
 10
8.95171
 20
6.1014
 42
0.0
  0
VERTEX
  8
0
 10
8.94086
 20
6.12067
 42
0.0
  0
VERTEX
  8
0
 10
8.92725
 20
6.13683
 42
0.0
  0
VERTEX
  8
0
 10
8.90793
 20
6.14621
 42
0.0
  0
VERTEX
  8
0
 10
8.84407
 20
6.18067
 42
0.0
  0
VERTEX
  8
0
 10
8.78706
 20
6.22553
 42
0.0
  0
VERTEX
  8
0
 10
8.73986
 20
6.25754
 42
0.0
  0
VERTEX
  8
0
 10
8.66222
 20
6.30464
 42
0.0
  0
VERTEX
  8
0
 10
8.58138
 20
6.34597
 42
0.0
  0
VERTEX
  8
0
 10
8.45464
 20
6.37528
 42
0.0
  0
VERTEX
  8
0
 10
8.32519
 20
6.39008
 42
0.0
  0
VERTEX
  8
0
 10
8.15354
 20
6.44467
 42
0.0
  0
VERTEX
  8
0
 10
7.98247
 20
6.50097
 42
0.0
  0
VERTEX
  8
0
 10
7.8456
 20
6.55875
 42
0.0
  0
VERTEX
  8
0
 10
7.79438
 20
6.58365
 42
0.0
  0
VERTEX
  8
0
 10
7.74251
 20
6.60781
 42
0.0
  0
VERTEX
  8
0
 10
7.68924
 20
6.62765
 42
0.0
  0
VERTEX
  8
0
 10
7.63374
 20
6.63965
 42
0.0
  0
VERTEX
  8
0
 10
7.64675
 20
6.60389
 42
0.0
  0
VERTEX
  8
0
 10
7.66749
 20
6.57124
 42
0.0
  0
VERTEX
  8
0
 10
7.73014
 20
6.48557
 42
0.0
  0
VERTEX
  8
0
 10
7.79921
 20
6.40446
 42
0.0
  0
VERTEX
  8
0
 10
7.86268
 20
6.33832
 42
0.0
  0
VERTEX
  8
0
 10
7.93582
 20
6.28369
 42
0.0
  0
VERTEX
  8
0
 10
7.96035
 20
6.27083
 42
0.0
  0
VERTEX
  8
0
 10
7.97575
 20
6.24914
 42
0.0
  0
VERTEX
  8
0
 10
7.9471
 20
6.25532
 42
0.0
  0
VERTEX
  8
0
 10
7.92176
 20
6.26992
 42
0.0
  0
VERTEX
  8
0
 10
7.82932
 20
6.34028
 42
0.0
  0
VERTEX
  8
0
 10
7.73856
 20
6.41265
 42
0.0
  0
VERTEX
  8
0
 10
7.7264
 20
6.42643
 42
0.0
  0
VERTEX
  8
0
 10
7.70042
 20
6.44656
 42
0.0
  0
VERTEX
  8
0
 10
7.67637
 20
6.46946
 42
0.0
  0
VERTEX
  8
0
 10
7.56142
 20
6.55192
 42
0.0
  0
VERTEX
  8
0
 10
7.45096
 20
6.64057
 42
0.0
  0
VERTEX
  8
0
 10
7.4139
 20
6.67247
 42
0.0
  0
VERTEX
  8
0
 10
7.37537
 20
6.7021
 42
0.0
  0
VERTEX
  8
0
 10
7.33176
 20
6.72732
 42
0.0
  0
VERTEX
  8
0
 10
7.29656
 20
6.76281
 42
0.0
  0
VERTEX
  8
0
 10
7.26187
 20
6.78635
 42
0.0
  0
VERTEX
  8
0
 10
7.22433
 20
6.80567
 42
0.0
  0
VERTEX
  8
0
 10
7.18701
 20
6.82531
 42
0.0
  0
VERTEX
  8
0
 10
7.1531
 20
6.84983
 42
0.0
  0
VERTEX
  8
0
 10
7.19358
 20
6.87457
 42
0.0
  0
VERTEX
  8
0
 10
7.19706
 20
6.89264
 42
0.0
  0
VERTEX
  8
0
 10
7.18593
 20
6.9089
 42
0.0
  0
VERTEX
  8
0
 10
7.14876
 20
6.95176
 42
0.0
  0
VERTEX
  8
0
 10
7.11393
 20
6.99653
 42
0.0
  0
VERTEX
  8
0
 10
7.07775
 20
7.04021
 42
0.0
  0
VERTEX
  8
0
 10
7.03678
 20
7.07964
 42
0.0
  0
VERTEX
  8
0
 10
7.0154
 20
7.07764
 42
0.0
  0
VERTEX
  8
0
 10
6.99724
 20
7.08653
 42
0.0
  0
VERTEX
  8
0
 10
6.96468
 20
7.14942
 42
0.0
  0
VERTEX
  8
0
 10
6.94211
 20
7.21679
 42
0.0
  0
VERTEX
  8
0
 10
6.9089
 20
7.31364
 42
0.0
  0
VERTEX
  8
0
 10
6.88764
 20
7.41325
 42
0.0
  0
VERTEX
  8
0
 10
6.90511
 20
7.4599
 42
0.0
  0
VERTEX
  8
0
 10
6.92947
 20
7.50336
 42
0.0
  0
VERTEX
  8
0
 10
6.95068
 20
7.52431
 42
0.0
  0
VERTEX
  8
0
 10
6.977
 20
7.54025
 42
0.0
  0
VERTEX
  8
0
 10
7.00087
 20
7.55794
 42
0.0
  0
VERTEX
  8
0
 10
7.01492
 20
7.58388
 42
0.0
  0
VERTEX
  8
0
 10
7.01426
 20
7.76747
 42
0.0
  0
VERTEX
  8
0
 10
7.00526
 20
7.83404
 42
0.0
  0
VERTEX
  8
0
 10
6.99892
 20
7.90099
 42
0.0
  0
VERTEX
  8
0
 10
6.97814
 20
7.98346
 42
0.0
  0
VERTEX
  8
0
 10
6.94488
 20
8.06179
 42
0.0
  0
SEQEND
  0
POLYLINE
  8
0
 66
     1
 10
0.0
 20
0.0
 30
0.0
 70
     1
  0
VERTEX
  8
0
 10
7.53694
 20
3.78842
 42
0.0
  0
VERTEX
  8
0
 10
7.51839
 20
3.83306
 42
0.0
  0
VERTEX
  8
0
 10
7.54779
 20
3.82183
 42
0.0
  0
VERTEX
  8
0
 10
7.57383
 20
3.80214
 42
0.0
  0
VERTEX
  8
0
 10
7.58963
 20
3.77567
 42
0.0
  0
VERTEX
  8
0
 10
7.58832
 20
3.74419
 42
0.0
  0
VERTEX
  8
0
 10
7.60558
 20
3.7341
 42
0.0
  0
VERTEX
  8
0
 10
7.62543
 20
3.72781
 42
0.0
  0
VERTEX
  8
0
 10
7.69217
 20
3.64063
 42
0.0
  0
VERTEX
  8
0
 10
7.7545
 20
3.54986
 42
0.0
  0
VERTEX
  8
0
 10
7.88015
 20
3.35265
 42
0.0
  0
VERTEX
  8
0
 10
7.97694
 20
3.14008
 42
0.0
  0
VERTEX
  8
0
 10
8.00076
 20
3.08464
 42
0.0
  0
VERTEX
  8
0
 10
8.02735
 20
3.02979
 42
0.0
  0
VERTEX
  8
0
 10
8.04758
 20
2.97331
 42
0.0
  0
VERTEX
  8
0
 10
8.05225
 20
2.91297
 42
0.0
  0
VERTEX
  8
0
 10
8.04486
 20
2.87261
 42
0.0
  0
VERTEX
  8
0
 10
8.03212
 20
2.83322
 42
0.0
  0
VERTEX
  8
0
 10
8.01785
 20
2.76742
 42
0.0
  0
VERTEX
  8
0
 10
8.00299
 20
2.70167
 42
0.0
  0
VERTEX
  8
0
 10
7.99957
 20
2.66542
 42
0.0
  0
VERTEX
  8
0
 10
7.9924
 20
2.62999
 42
0.0
  0
VERTEX
  8
0
 10
7.96647
 20
2.62679
 42
0.0
  0
VERTEX
  8
0
 10
7.96631
 20
2.72635
 42
0.0
  0
VERTEX
  8
0
 10
7.95833
 20
2.82514
 42
0.0
  0
VERTEX
  8
0
 10
7.95632
 20
2.8724
 42
0.0
  0
VERTEX
  8
0
 10
7.95221
 20
2.91917
 42
0.0
  0
VERTEX
  8
0
 10
7.91237
 20
3.12858
 42
0.0
  0
VERTEX
  8
0
 10
7.87349
 20
3.24333
 42
0.0
  0
VERTEX
  8
0
 10
7.70514
 20
3.57032
 42
0.0
  0
VERTEX
  8
0
 10
7.68685
 20
3.59836
 42
0.0
  0
VERTEX
  8
0
 10
7.66217
 20
3.62076
 42
0.0
  0
VERTEX
  8
0
 10
7.63569
 20
3.64176
 42
0.0
  0
VERTEX
  8
0
 10
7.61214
 20
3.66547
 42
0.0
  0
VERTEX
  8
0
 10
7.58046
 20
3.7021
 42
0.0
  0
VERTEX
  8
0
 10
7.55653
 20
3.74393
 42
0.0
  0
SEQEND
  0
POLYLINE
  8
0
 66
     1
 10
0.0
 20
0.0
 30
0.0
 70
     1
  0
VERTEX
  8
0
 10
7.29081
 20
2.51839
 42
0.0
  0
VERTEX
  8
0
 10
7.16754
 20
2.9541
 42
0.0
  0
VERTEX
  8
0
 10
7.15756
 20
2.97803
 42
0.0
  0
VERTEX
  8
0
 10
7.14638
 20
3.0039
 42
0.0
  0
VERTEX
  8
0
 10
7.1429
 20
3.02865
 42
0.0
  0
VERTEX
  8
0
 10
7.15597
 20
3.04904
 42
0.0
  0
VERTEX
  8
0
 10
7.2105
 20
2.99642
 42
0.0
  0
VERTEX
  8
0
 10
7.23269
 20
2.94889
 42
0.0
  0
VERTEX
  8
0
 10
7.25103
 20
2.89908
 42
0.0
  0
VERTEX
  8
0
 10
7.34153
 20
2.77051
 42
0.0
  0
VERTEX
  8
0
 10
7.35275
 20
2.74631
 42
0.0
  0
VERTEX
  8
0
 10
7.36165
 20
2.72038
 42
0.0
  0
VERTEX
  8
0
 10
7.37364
 20
2.69694
 42
0.0
  0
VERTEX
  8
0
 10
7.39415
 20
2.68024
 42
0.0
  0
VERTEX
  8
0
 10
7.40901
 20
2.73329
 42
0.0
  0
VERTEX
  8
0
 10
7.41889
 20
2.78776
 42
0.0
  0
VERTEX
  8
0
 10
7.42046
 20
2.81879
 42
0.0
  0
VERTEX
  8
0
 10
7.41601
 20
2.84961
 42
0.0
  0
VERTEX
  8
0
 10
7.41325
 20
2.88021
 42
0.0
  0
VERTEX
  8
0
 10
7.41986
 20
2.9106
 42
0.0
  0
VERTEX
  8
0
 10
7.40169
 20
2.93381
 42
0.0
  0
VERTEX
  8
0
 10
7.40267
 20
2.98236
 42
0.0
  0
VERTEX
  8
0
 10
7.42719
 20
2.97575
 42
0.0
  0
VERTEX
  8
0
 10
7.46674
 20
2.74681
 42
0.0
  0
VERTEX
  8
0
 10
7.48529
 20
2.64882
 42
0.0
  0
VERTEX
  8
0
 10
7.5
 20
2.55035
 42
0.0
  0
VERTEX
  8
0
 10
7.50803
 20
2.47319
 42
0.0
  0
VERTEX
  8
0
 10
7.51622
 20
2.39606
 42
0.0
  0
VERTEX
  8
0
 10
7.51867
 20
2.33772
 42
0.0
  0
VERTEX
  8
0
 10
7.50987
 20
2.28
 42
0.0
  0
VERTEX
  8
0
 10
7.5084
 20
2.20383
 42
0.0
  0
VERTEX
  8
0
 10
7.50472
 20
2.12776
 42
0.0
  0
VERTEX
  8
0
 10
7.49815
 20
2.081
 42
0.0
  0
VERTEX
  8
0
 10
7.49636
 20
2.03353
 42
0.0
  0
VERTEX
  8
0
 10
7.46431
 20
1.9254
 42
0.0
  0
VERTEX
  8
0
 10
7.45578
 20
1.88194
 42
0.0
  0
VERTEX
  8
0
 10
7.45215
 20
1.83729
 42
0.0
  0
VERTEX
  8
0
 10
7.39535
 20
1.71294
 42
0.0
  0
VERTEX
  8
0
 10
7.37001
 20
1.71246
 42
0.0
  0
VERTEX
  8
0
 10
7.35579
 20
1.6709
 42
0.0
  0
VERTEX
  8
0
 10
7.32542
 20
1.63781
 42
0.0
  0
VERTEX
  8
0
 10
7.3475
 20
1.74636
 42
0.0
  0
VERTEX
  8
0
 10
7.35394
 20
1.78435
 42
0.0
  0
VERTEX
  8
0
 10
7.37121
 20
1.81819
 42
0.0
  0
VERTEX
  8
0
 10
7.36313
 20
1.83599
 42
0.0
  0
VERTEX
  8
0
 10
7.35965
 20
1.85487
 42
0.0
  0
VERTEX
  8
0
 10
7.36063
 20
2.04785
 42
0.0
  0
VERTEX
  8
0
 10
7.35394
 20
2.10954
 42
0.0
  0
VERTEX
  8
0
 10
7.34858
 20
2.17122
 42
0.0
  0
VERTEX
  8
0
 10
7.34842
 20
2.21354
 42
0.0
  0
VERTEX
  8
0
 10
7.34093
 20
2.25499
 42
0.0
  0
VERTEX
  8
0
 10
7.32476
 20
2.38851
 42
0.0
  0
SEQEND
  0
POLYLINE
  8
0
 66
     1
 10
0.0
 20
0.0
 30
0.0
 70
     1
  0
VERTEX
  8
0
 10
6.00364
 20
9.95458
 42
0.0
  0
VERTEX
  8
0
 10
6.08942
 20
9.97732
 42
0.0
  0
VERTEX
  8
0
 10
6.12343
 20
9.98014
 42
0.0
  0
VERTEX
  8
0
 10
6.15717
 20
9.98649
 42
0.0
  0
VERTEX
  8
0
 10
6.19097
 20
9.99072
 42
0.0
  0
VERTEX
  8
0
 10
6.2251
 20
9.98703
 42
0.0
  0
VERTEX
  8
0
 10
6.23628
 20
9.97026
 42
0.0
  0
VERTEX
  8
0
 10
6.23915
 20
9.95036
 42
0.0
  0
VERTEX
  8
0
 10
6.23856
 20
9.92925
 42
0.0
  0
VERTEX
  8
0
 10
6.23926
 20
9.90881
 42
0.0
  0
VERTEX
  8
0
 10
6.26535
 20
9.88867
 42
0.0
  0
VERTEX
  8
0
 10
6.2901
 20
9.86686
 42
0.0
  0
VERTEX
  8
0
 10
6.29237
 20
9.79221
 42
0.0
  0
VERTEX
  8
0
 10
6.3156
 20
9.74278
 42
0.0
  0
VERTEX
  8
0
 10
6.32335
 20
9.68892
 42
0.0
  0
VERTEX
  8
0
 10
6.32889
 20
9.65739
 42
0.0
  0
VERTEX
  8
0
 10
6.34543
 20
9.63092
 42
0.0
  0
VERTEX
  8
0
 10
6.36746
 20
9.60726
 42
0.0
  0
VERTEX
  8
0
 10
6.38943
 20
9.58425
 42
0.0
  0
VERTEX
  8
0
 10
6.42671
 20
9.52365
 42
0.0
  0
VERTEX
  8
0
 10
6.44114
 20
9.4624
 42
0.0
  0
VERTEX
  8
0
 10
6.46793
 20
9.40554
 42
0.0
  0
VERTEX
  8
0
 10
6.59418
 20
9.36074
 42
0.0
  0
VERTEX
  8
0
 10
6.67367
 20
9.36415
 42
0.0
  0
VERTEX
  8
0
 10
6.75261
 20
9.37875
 42
0.0
  0
VERTEX
  8
0
 10
6.81944
 20
9.39535
 42
0.0
  0
VERTEX
  8
0
 10
6.88504
 20
9.41732
 42
0.0
  0
VERTEX
  8
0
 10
6.94624
 20
9.43294
 42
0.0
  0
VERTEX
  8
0
 10
7.00831
 20
9.44499
 42
0.0
  0
VERTEX
  8
0
 10
7.04335
 20
9.41635
 42
0.0
  0
VERTEX
  8
0
 10
7.08219
 20
9.40685
 42
0.0
  0
VERTEX
  8
0
 10
7.1224
 20
9.40321
 42
0.0
  0
VERTEX
  8
0
 10
7.16237
 20
9.39871
 42
0.0
  0
VERTEX
  8
0
 10
7.20079
 20
9.38667
 42
0.0
  0
VERTEX
  8
0
 10
7.26758
 20
9.36176
 42
0.0
  0
VERTEX
  8
0
 10
7.33262
 20
9.33214
 42
0.0
  0
VERTEX
  8
0
 10
7.35562
 20
9.31033
 42
0.0
  0
VERTEX
  8
0
 10
7.37733
 20
9.28674
 42
0.0
  0
VERTEX
  8
0
 10
7.42551
 20
9.25407
 42
0.0
  0
VERTEX
  8
0
 10
7.46907
 20
9.21522
 42
0.0
  0
VERTEX
  8
0
 10
7.51269
 20
9.17643
 42
0.0
  0
VERTEX
  8
0
 10
7.56104
 20
9.14372
 42
0.0
  0
VERTEX
  8
0
 10
7.61415
 20
9.09928
 42
0.0
  0
VERTEX
  8
0
 10
7.67686
 20
9.06944
 42
0.0
  0
VERTEX
  8
0
 10
7.71903
 20
9.05951
 42
0.0
  0
VERTEX
  8
0
 10
7.76042
 20
9.0471
 42
0.0
  0
VERTEX
  8
0
 10
7.79551
 20
9.03222
 42
0.0
  0
VERTEX
  8
0
 10
7.83208
 20
9.01953
 42
0.0
  0
VERTEX
  8
0
 10
7.86621
 20
9.0031
 42
0.0
  0
VERTEX
  8
0
 10
7.89415
 20
8.97683
 42
0.0
  0
VERTEX
  8
0
 10
7.88629
 20
8.96208
 42
0.0
  0
VERTEX
  8
0
 10
7.87343
 20
8.95475
 42
0.0
  0
VERTEX
  8
0
 10
7.85781
 20
8.95221
 42
0.0
  0
VERTEX
  8
0
 10
7.84153
 20
8.95182
 42
0.0
  0
VERTEX
  8
0
 10
7.8406
 20
8.91743
 42
0.0
  0
VERTEX
  8
0
 10
7.85183
 20
8.88585
 42
0.0
  0
VERTEX
  8
0
 10
7.86942
 20
8.85607
 42
0.0
  0
VERTEX
  8
0
 10
7.88764
 20
8.82699
 42
0.0
  0
VERTEX
  8
0
 10
7.93636
 20
8.77214
 42
0.0
  0
VERTEX
  8
0
 10
7.98861
 20
8.72076
 42
0.0
  0
VERTEX
  8
0
 10
8.00435
 20
8.70828
 42
0.0
  0
VERTEX
  8
0
 10
8.02235
 20
8.699
 42
0.0
  0
VERTEX
  8
0
 10
8.03792
 20
8.68772
 42
0.0
  0
VERTEX
  8
0
 10
8.04617
 20
8.66922
 42
0.0
  0
VERTEX
  8
0
 10
8.08469
 20
8.63889
 42
0.0
  0
VERTEX
  8
0
 10
8.11908
 20
8.60374
 42
0.0
  0
VERTEX
  8
0
 10
8.15576
 20
8.57611
 42
0.0
  0
VERTEX
  8
0
 10
8.19417
 20
8.55057
 42
0.0
  0
VERTEX
  8
0
 10
8.31196
 20
8.47521
 42
0.0
  0
VERTEX
  8
0
 10
8.42681
 20
8.39606
 42
0.0
  0
VERTEX
  8
0
 10
8.46024
 20
8.36117
 42
0.0
  0
VERTEX
  8
0
 10
8.52903
 20
8.2506
 42
0.0
  0
VERTEX
  8
0
 10
8.53293
 20
8.19683
 42
0.0
  0
VERTEX
  8
0
 10
8.4891
 20
8.17617
 42
0.0
  0
VERTEX
  8
0
 10
8.509
 20
8.14507
 42
0.0
  0
VERTEX
  8
0
 10
8.52251
 20
8.11094
 42
0.0
  0
VERTEX
  8
0
 10
8.52815
 20
8.07497
 42
0.0
  0
VERTEX
  8
0
 10
8.52474
 20
8.03808
 42
0.0
  0
VERTEX
  8
0
 10
8.54406
 20
7.94601
 42
0.0
  0
VERTEX
  8
0
 10
8.56896
 20
7.85547
 42
0.0
  0
VERTEX
  8
0
 10
8.59944
 20
7.81185
 42
0.0
  0
VERTEX
  8
0
 10
8.63986
 20
7.77772
 42
0.0
  0
VERTEX
  8
0
 10
8.68599
 20
7.75
 42
0.0
  0
VERTEX
  8
0
 10
8.73346
 20
7.72569
 42
0.0
  0
VERTEX
  8
0
 10
8.78782
 20
7.70757
 42
0.0
  0
VERTEX
  8
0
 10
8.84451
 20
7.69792
 42
0.0
  0
VERTEX
  8
0
 10
8.90087
 20
7.68739
 42
0.0
  0
VERTEX
  8
0
 10
8.95432
 20
7.66667
 42
0.0
  0
VERTEX
  8
0
 10
8.96044
 20
7.65104
 42
0.0
  0
VERTEX
  8
0
 10
8.91363
 20
7.61615
 42
0.0
  0
VERTEX
  8
0
 10
8.861
 20
7.5905
 42
0.0
  0
VERTEX
  8
0
 10
8.81364
 20
7.57476
 42
0.0
  0
VERTEX
  8
0
 10
8.77035
 20
7.55122
 42
0.0
  0
VERTEX
  8
0
 10
8.72413
 20
7.50347
 42
0.0
  0
VERTEX
  8
0
 10
8.73529
 20
7.43631
 42
0.0
  0
VERTEX
  8
0
 10
8.83692
 20
7.34787
 42
0.0
  0
VERTEX
  8
0
 10
8.85488
 20
7.34125
 42
0.0
  0
VERTEX
  8
0
 10
8.87935
 20
7.32124
 42
0.0
  0
VERTEX
  8
0
 10
8.89919
 20
7.2965
 42
0.0
  0
VERTEX
  8
0
 10
8.91824
 20
7.27094
 42
0.0
  0
VERTEX
  8
0
 10
8.94043
 20
7.24837
 42
0.0
  0
VERTEX
  8
0
 10
8.96533
 20
7.24343
 42
0.0
  0
VERTEX
  8
0
 10
8.99181
 20
7.24382
 42
0.0
  0
VERTEX
  8
0
 10
9.01758
 20
7.24197
 42
0.0
  0
VERTEX
  8
0
 10
9.04075
 20
7.23036
 42
0.0
  0
VERTEX
  8
0
 10
9.09218
 20
7.18261
 42
0.0
  0
VERTEX
  8
0
 10
9.13206
 20
7.12532
 42
0.0
  0
VERTEX
  8
0
 10
9.16943
 20
7.04324
 42
0.0
  0
VERTEX
  8
0
 10
9.22586
 20
6.97607
 42
0.0
  0
VERTEX
  8
0
 10
9.28851
 20
6.91456
 42
0.0
  0
VERTEX
  8
0
 10
9.31782
 20
6.8596
 42
0.0
  0
VERTEX
  8
0
 10
9.34549
 20
6.80365
 42
0.0
  0
VERTEX
  8
0
 10
9.35504
 20
6.7755
 42
0.0
  0
VERTEX
  8
0
 10
9.35699
 20
6.7455
 42
0.0
  0
VERTEX
  8
0
 10
9.30751
 20
6.7449
 42
0.0
  0
VERTEX
  8
0
 10
9.2844
 20
6.76921
 42
0.0
  0
VERTEX
  8
0
 10
9.26497
 20
6.79665
 42
0.0
  0
VERTEX
  8
0
 10
9.24539
 20
6.82394
 42
0.0
  0
VERTEX
  8
0
 10
9.22168
 20
6.84776
 42
0.0
  0
VERTEX
  8
0
 10
9.20785
 20
6.85851
 42
0.0
  0
VERTEX
  8
0
 10
9.19129
 20
6.86681
 42
0.0
  0
VERTEX
  8
0
 10
9.17426
 20
6.86882
 42
0.0
  0
VERTEX
  8
0
 10
9.15912
 20
6.86051
 42
0.0
  0
VERTEX
  8
0
 10
9.25439
 20
6.73372
 42
0.0
  0
VERTEX
  8
0
 10
9.338
 20
6.59831
 42
0.0
  0
VERTEX
  8
0
 10
9.39556
 20
6.49843
 42
0.0
  0
VERTEX
  8
0
 10
9.42258
 20
6.45583
 42
0.0
  0
VERTEX
  8
0
 10
9.44987
 20
6.41325
 42
0.0
  0
VERTEX
  8
0
 10
9.50032
 20
6.33713
 42
0.0
  0
VERTEX
  8
0
 10
9.56174
 20
6.26882
 42
0.0
  0
VERTEX
  8
0
 10
9.59706
 20
6.23236
 42
0.0
  0
VERTEX
  8
0
 10
9.63493
 20
6.1984
 42
0.0
  0
VERTEX
  8
0
 10
9.67204
 20
6.16379
 42
0.0
  0
VERTEX
  8
0
 10
9.70524
 20
6.12522
 42
0.0
  0
VERTEX
  8
0
 10
9.76417
 20
6.04031
 42
0.0
  0
VERTEX
  8
0
 10
9.80572
 20
5.94586
 42
0.0
  0
VERTEX
  8
0
 10
9.8355
 20
5.84619
 42
0.0
  0
VERTEX
  8
0
 10
9.85926
 20
5.74561
 42
0.0
  0
VERTEX
  8
0
 10
9.87869
 20
5.66396
 42
0.0
  0
VERTEX
  8
0
 10
9.89675
 20
5.58192
 42
0.0
  0
VERTEX
  8
0
 10
9.89632
 20
5.5631
 42
0.0
  0
VERTEX
  8
0
 10
9.88514
 20
5.54725
 42
0.0
  0
VERTEX
  8
0
 10
9.84597
 20
5.55333
 42
0.0
  0
VERTEX
  8
0
 10
9.84711
 20
5.53336
 42
0.0
  0
VERTEX
  8
0
 10
9.85215
 20
5.51346
 42
0.0
  0
VERTEX
  8
0
 10
9.8546
 20
5.49397
 42
0.0
  0
VERTEX
  8
0
 10
9.84799
 20
5.47515
 42
0.0
  0
VERTEX
  8
0
 10
9.83279
 20
5.39925
 42
0.0
  0
VERTEX
  8
0
 10
9.8444
 20
5.3221
 42
0.0
  0
VERTEX
  8
0
 10
9.86094
 20
5.24431
 42
0.0
  0
VERTEX
  8
0
 10
9.86074
 20
5.16644
 42
0.0
  0
VERTEX
  8
0
 10
9.85146
 20
5.16228
 42
0.0
  0
VERTEX
  8
0
 10
9.84386
 20
5.16624
 42
0.0
  0
VERTEX
  8
0
 10
9.8374
 20
5.17432
 42
0.0
  0
VERTEX
  8
0
 10
9.83154
 20
5.18229
 42
0.0
  0
VERTEX
  8
0
 10
9.78922
 20
5.25706
 42
0.0
  0
VERTEX
  8
0
 10
9.73876
 20
5.32611
 42
0.0
  0
VERTEX
  8
0
 10
9.76406
 20
5.25136
 42
0.0
  0
VERTEX
  8
0
 10
9.79943
 20
5.18039
 42
0.0
  0
VERTEX
  8
0
 10
9.82497
 20
5.10753
 42
0.0
  0
VERTEX
  8
0
 10
9.85351
 20
5.03581
 42
0.0
  0
VERTEX
  8
0
 10
9.89811
 20
4.90076
 42
0.0
  0
VERTEX
  8
0
 10
9.90474
 20
4.84201
 42
0.0
  0
VERTEX
  8
0
 10
9.9106
 20
4.7831
 42
0.0
  0
VERTEX
  8
0
 10
9.91026
 20
4.48628
 42
0.0
  0
VERTEX
  8
0
 10
9.90994
 20
4.4305
 42
0.0
  0
VERTEX
  8
0
 10
9.91862
 20
4.37576
 42
0.0
  0
VERTEX
  8
0
 10
9.93983
 20
4.24371
 42
0.0
  0
VERTEX
  8
0
 10
9.94179
 20
4.18354
 42
0.0
  0
VERTEX
  8
0
 10
9.94726
 20
4.12364
 42
0.0
  0
VERTEX
  8
0
 10
9.96658
 20
4.00608
 42
0.0
  0
VERTEX
  8
0
 10
9.99349
 20
3.8904
 42
0.0
  0
VERTEX
  8
0
 10
10.0165
 20
3.75439
 42
0.0
  0
VERTEX
  8
0
 10
10.0151
 20
3.73893
 42
0.0
  0
VERTEX
  8
0
 10
10.0059
 20
3.72635
 42
0.0
  0
VERTEX
  8
0
 10
9.99203
 20
3.72006
 42
0.0
  0
VERTEX
  8
0
 10
9.97683
 20
3.72342
 42
0.0
  0
VERTEX
  8
0
 10
9.96533
 20
3.75444
 42
0.0
  0
VERTEX
  8
0
 10
9.95806
 20
3.78674
 42
0.0
  0
VERTEX
  8
0
 10
9.93425
 20
3.79417
 42
0.0
  0
VERTEX
  8
0
 10
9.94276
 20
3.67572
 42
0.0
  0
VERTEX
  8
0
 10
9.94194
 20
3.55637
 42
0.0
  0
VERTEX
  8
0
 10
9.94217
 20
3.4866
 42
0.0
  0
VERTEX
  8
0
 10
9.93343
 20
3.41758
 42
0.0
  0
VERTEX
  8
0
 10
9.92785
 20
3.34776
 42
0.0
  0
VERTEX
  8
0
 10
9.9159
 20
3.27875
 42
0.0
  0
VERTEX
  8
0
 10
9.90593
 20
3.27289
 42
0.0
  0
VERTEX
  8
0
 10
9.89546
 20
3.27767
 42
0.0
  0
VERTEX
  8
0
 10
9.88683
 20
3.38672
 42
0.0
  0
VERTEX
  8
0
 10
9.86193
 20
3.47125
 42
0.0
  0
VERTEX
  8
0
 10
9.83469
 20
3.5549
 42
0.0
  0
VERTEX
  8
0
 10
9.80626
 20
3.63992
 42
0.0
  0
VERTEX
  8
0
 10
9.77528
 20
3.72374
 42
0.0
  0
VERTEX
  8
0
 10
9.75222
 20
3.7341
 42
0.0
  0
VERTEX
  8
0
 10
9.75792
 20
3.70247
 42
0.0
  0
VERTEX
  8
0
 10
9.75521
 20
3.67079
 42
0.0
  0
VERTEX
  8
0
 10
9.75082
 20
3.63889
 42
0.0
  0
VERTEX
  8
0
 10
9.75174
 20
3.60672
 42
0.0
  0
VERTEX
  8
0
 10
9.75217
 20
3.55686
 42
0.0
  0
VERTEX
  8
0
 10
9.75114
 20
3.50683
 42
0.0
  0
VERTEX
  8
0
 10
9.75049
 20
3.43138
 42
0.0
  0
VERTEX
  8
0
 10
9.75608
 20
3.35628
 42
0.0
  0
VERTEX
  8
0
 10
9.76031
 20
3.31489
 42
0.0
  0
VERTEX
  8
0
 10
9.75461
 20
3.27349
 42
0.0
  0
VERTEX
  8
0
 10
9.75103
 20
3.24333
 42
0.0
  0
VERTEX
  8
0
 10
9.75043
 20
3.21268
 42
0.0
  0
VERTEX
  8
0
 10
9.74713
 20
3.18272
 42
0.0
  0
VERTEX
  8
0
 10
9.73529
 20
3.15462
 42
0.0
  0
VERTEX
  8
0
 10
9.71544
 20
3.16021
 42
0.0
  0
VERTEX
  8
0
 10
9.70665
 20
3.18061
 42
0.0
  0
VERTEX
  8
0
 10
9.69211
 20
3.23757
 42
0.0
  0
VERTEX
  8
0
 10
9.67111
 20
3.29221
 42
0.0
  0
VERTEX
  8
0
 10
9.60747
 20
3.37244
 42
0.0
  0
VERTEX
  8
0
 10
9.54389
 20
3.45253
 42
0.0
  0
VERTEX
  8
0
 10
9.52789
 20
3.51764
 42
0.0
  0
VERTEX
  8
0
 10
9.52285
 20
3.58469
 42
0.0
  0
VERTEX
  8
0
 10
9.51281
 20
3.59972
 42
0.0
  0
VERTEX
  8
0
 10
9.5031
 20
3.61654
 42
0.0
  0
VERTEX
  8
0
 10
9.49115
 20
3.62944
 42
0.0
  0
VERTEX
  8
0
 10
9.47439
 20
3.63265
 42
0.0
  0
VERTEX
  8
0
 10
9.46892
 20
3.59224
 42
0.0
  0
VERTEX
  8
0
 10
9.48389
 20
3.55447
 42
0.0
  0
VERTEX
  8
0
 10
9.50429
 20
3.51708
 42
0.0
  0
VERTEX
  8
0
 10
9.51514
 20
3.47754
 42
0.0
  0
VERTEX
  8
0
 10
9.51307
 20
3.33919
 42
0.0
  0
VERTEX
  8
0
 10
9.50168
 20
3.32992
 42
0.0
  0
VERTEX
  8
0
 10
9.49029
 20
3.32058
 42
0.0
  0
VERTEX
  8
0
 10
9.42464
 20
3.46272
 42
0.0
  0
VERTEX
  8
0
 10
9.39378
 20
3.5224
 42
0.0
  0
VERTEX
  8
0
 10
9.35292
 20
3.57633
 42
0.0
  0
VERTEX
  8
0
 10
9.33507
 20
3.59326
 42
0.0
  0
VERTEX
  8
0
 10
9.31554
 20
3.60949
 42
0.0
  0
VERTEX
  8
0
 10
9.29389
 20
3.62033
 42
0.0
  0
VERTEX
  8
0
 10
9.26986
 20
3.62088
 42
0.0
  0
VERTEX
  8
0
 10
9.27806
 20
3.5339
 42
0.0
  0
VERTEX
  8
0
 10
9.27935
 20
3.30871
 42
0.0
  0
VERTEX
  8
0
 10
9.27024
 20
3.24946
 42
0.0
  0
VERTEX
  8
0
 10
9.26975
 20
3.17426
 42
0.0
  0
VERTEX
  8
0
 10
9.26243
 20
3.09983
 42
0.0
  0
VERTEX
  8
0
 10
9.259
 20
3.03999
 42
0.0
  0
VERTEX
  8
0
 10
9.25401
 20
2.98031
 42
0.0
  0
VERTEX
  8
0
 10
9.24832
 20
2.92751
 42
0.0
  0
VERTEX
  8
0
 10
9.2474
 20
2.87418
 42
0.0
  0
VERTEX
  8
0
 10
9.23682
 20
2.8201
 42
0.0
  0
VERTEX
  8
0
 10
9.22413
 20
2.7665
 42
0.0
  0
VERTEX
  8
0
 10
9.21425
 20
2.75131
 42
0.0
  0
VERTEX
  8
0
 10
9.19646
 20
2.74631
 42
0.0
  0
VERTEX
  8
0
 10
9.16303
 20
3.06222
 42
0.0
  0
VERTEX
  8
0
 10
9.15733
 20
3.10167
 42
0.0
  0
VERTEX
  8
0
 10
9.14328
 20
3.13861
 42
0.0
  0
VERTEX
  8
0
 10
9.12424
 20
3.17367
 42
0.0
  0
VERTEX
  8
0
 10
9.10357
 20
3.20751
 42
0.0
  0
VERTEX
  8
0
 10
9.0541
 20
3.29563
 42
0.0
  0
VERTEX
  8
0
 10
8.99604
 20
3.37842
 42
0.0
  0
VERTEX
  8
0
 10
8.95318
 20
3.41015
 42
0.0
  0
VERTEX
  8
0
 10
8.90733
 20
3.43787
 42
0.0
  0
VERTEX
  8
0
 10
8.87782
 20
3.47646
 42
0.0
  0
VERTEX
  8
0
 10
8.84115
 20
3.50743
 42
0.0
  0
VERTEX
  8
0
 10
8.85086
 20
3.46619
 42
0.0
  0
VERTEX
  8
0
 10
8.86638
 20
3.42681
 42
0.0
  0
VERTEX
  8
0
 10
8.91689
 20
3.30692
 42
0.0
  0
VERTEX
  8
0
 10
8.94846
 20
3.1805
 42
0.0
  0
VERTEX
  8
0
 10
8.94943
 20
2.9725
 42
0.0
  0
VERTEX
  8
0
 10
8.92833
 20
2.85058
 42
0.0
  0
VERTEX
  8
0
 10
8.90246
 20
2.72949
 42
0.0
  0
VERTEX
  8
0
 10
8.88254
 20
2.65013
 42
0.0
  0
VERTEX
  8
0
 10
8.86133
 20
2.57101
 42
0.0
  0
VERTEX
  8
0
 10
8.80556
 20
2.35379
 42
0.0
  0
VERTEX
  8
0
 10
8.78911
 20
2.3425
 42
0.0
  0
VERTEX
  8
0
 10
8.77268
 20
2.35314
 42
0.0
  0
VERTEX
  8
0
 10
8.76172
 20
2.38124
 42
0.0
  0
VERTEX
  8
0
 10
8.76324
 20
2.41086
 42
0.0
  0
VERTEX
  8
0
 10
8.77007
 20
2.44103
 42
0.0
  0
VERTEX
  8
0
 10
8.77518
 20
2.47071
 42
0.0
  0
VERTEX
  8
0
 10
8.77696
 20
2.54183
 42
0.0
  0
VERTEX
  8
0
 10
8.76193
 20
2.61046
 42
0.0
  0
VERTEX
  8
0
 10
8.74843
 20
2.65326
 42
0.0
  0
VERTEX
  8
0
 10
8.74154
 20
2.69764
 42
0.0
  0
VERTEX
  8
0
 10
8.72553
 20
2.70307
 42
0.0
  0
VERTEX
  8
0
 10
8.72424
 20
2.64611
 42
0.0
  0
VERTEX
  8
0
 10
8.70481
 20
2.64068
 42
0.0
  0
VERTEX
  8
0
 10
8.68435
 20
2.64025
 42
0.0
  0
VERTEX
  8
0
 10
8.68283
 20
2.6766
 42
0.0
  0
VERTEX
  8
0
 10
8.68056
 20
2.71349
 42
0.0
  0
VERTEX
  8
0
 10
8.67313
 20
2.74897
 42
0.0
  0
VERTEX
  8
0
 10
8.65619
 20
2.78093
 42
0.0
  0
VERTEX
  8
0
 10
8.64225
 20
2.78494
 42
0.0
  0
VERTEX
  8
0
 10
8.58664
 20
2.6396
 42
0.0
  0
VERTEX
  8
0
 10
8.5536
 20
2.48822
 42
0.0
  0
VERTEX
  8
0
 10
8.53614
 20
2.39453
 42
0.0
  0
VERTEX
  8
0
 10
8.49425
 20
2.30821
 42
0.0
  0
VERTEX
  8
0
 10
8.47949
 20
2.29372
 42
0.0
  0
VERTEX
  8
0
 10
8.46024
 20
2.28874
 42
0.0
  0
VERTEX
  8
0
 10
8.45882
 20
2.35775
 42
0.0
  0
VERTEX
  8
0
 10
8.45107
 20
2.42563
 42
0.0
  0
VERTEX
  8
0
 10
8.44032
 20
2.50157
 42
0.0
  0
VERTEX
  8
0
 10
8.42096
 20
2.57547
 42
0.0
  0
VERTEX
  8
0
 10
8.40018
 20
2.57064
 42
0.0
  0
VERTEX
  8
0
 10
8.32146
 20
2.28153
 42
0.0
  0
VERTEX
  8
0
 10
8.24767
 20
2.05154
 42
0.0
  0
VERTEX
  8
0
 10
8.23579
 20
2.04292
 42
0.0
  0
VERTEX
  8
0
 10
8.22331
 20
2.08149
 42
0.0
  0
VERTEX
  8
0
 10
8.22661
 20
2.12267
 42
0.0
  0
VERTEX
  8
0
 10
8.22564
 20
2.36942
 42
0.0
  0
VERTEX
  8
0
 10
8.22299
 20
2.46382
 42
0.0
  0
VERTEX
  8
0
 10
8.21326
 20
2.55735
 42
0.0
  0
VERTEX
  8
0
 10
8.20053
 20
2.66704
 42
0.0
  0
VERTEX
  8
0
 10
8.16303
 20
2.77121
 42
0.0
  0
VERTEX
  8
0
 10
8.14817
 20
2.77328
 42
0.0
  0
VERTEX
  8
0
 10
8.15582
 20
2.70518
 42
0.0
  0
VERTEX
  8
0
 10
8.15886
 20
2.63672
 42
0.0
  0
VERTEX
  8
0
 10
8.10872
 20
2.58399
 42
0.0
  0
VERTEX
  8
0
 10
8.10406
 20
2.54357
 42
0.0
  0
VERTEX
  8
0
 10
8.10058
 20
2.5025
 42
0.0
  0
VERTEX
  8
0
 10
8.09494
 20
2.42426
 42
0.0
  0
VERTEX
  8
0
 10
8.08974
 20
2.34592
 42
0.0
  0
VERTEX
  8
0
 10
8.08257
 20
2.28271
 42
0.0
  0
VERTEX
  8
0
 10
8.04438
 20
2.10781
 42
0.0
  0
VERTEX
  8
0
 10
7.99664
 20
1.93539
 42
0.0
  0
VERTEX
  8
0
 10
7.91363
 20
1.68875
 42
0.0
  0
VERTEX
  8
0
 10
7.84944
 20
1.49881
 42
0.0
  0
VERTEX
  8
0
 10
7.81799
 20
1.43468
 42
0.0
  0
VERTEX
  8
0
 10
7.79058
 20
1.36887
 42
0.0
  0
VERTEX
  8
0
 10
7.76594
 20
1.35916
 42
0.0
  0
VERTEX
  8
0
 10
7.82742
 20
1.62761
 42
0.0
  0
VERTEX
  8
0
 10
7.84694
 20
1.69803
 42
0.0
  0
VERTEX
  8
0
 10
7.86817
 20
1.76807
 42
0.0
  0
VERTEX
  8
0
 10
7.88824
 20
1.88004
 42
0.0
  0
VERTEX
  8
0
 10
7.89176
 20
1.99337
 42
0.0
  0
VERTEX
  8
0
 10
7.88536
 20
2.01617
 42
0.0
  0
VERTEX
  8
0
 10
7.86876
 20
2.02957
 42
0.0
  0
VERTEX
  8
0
 10
7.85178
 20
1.98817
 42
0.0
  0
VERTEX
  8
0
 10
7.84179
 20
1.94456
 42
0.0
  0
VERTEX
  8
0
 10
7.83475
 20
1.90013
 42
0.0
  0
VERTEX
  8
0
 10
7.82671
 20
1.85596
 42
0.0
  0
VERTEX
  8
0
 10
7.77203
 20
1.7284
 42
0.0
  0
VERTEX
  8
0
 10
7.71967
 20
1.59972
 42
0.0
  0
VERTEX
  8
0
 10
7.68967
 20
1.51828
 42
0.0
  0
VERTEX
  8
0
 10
7.65283
 20
1.43978
 42
0.0
  0
VERTEX
  8
0
 10
7.60889
 20
1.33686
 42
0.0
  0
VERTEX
  8
0
 10
7.55399
 20
1.23926
 42
0.0
  0
VERTEX
  8
0
 10
7.54551
 20
1.21544
 42
0.0
  0
VERTEX
  8
0
 10
7.53212
 20
1.19537
 42
0.0
  0
VERTEX
  8
0
 10
7.4694
 20
1.07932
 42
0.0
  0
VERTEX
  8
0
 10
7.40446
 20
0.964193
 42
0.0
  0
VERTEX
  8
0
 10
7.34099
 20
0.913792
 42
0.0
  0
VERTEX
  8
0
 10
7.27479
 20
0.867458
 42
0.0
  0
VERTEX
  8
0
 10
7.29568
 20
0.935221
 42
0.0
  0
VERTEX
  8
0
 10
7.31739
 20
1.00277
 42
0.0
  0
VERTEX
  8
0
 10
7.33447
 20
1.06646
 42
0.0
  0
VERTEX
  8
0
 10
7.36231
 20
1.1256
 42
0.0
  0
VERTEX
  8
0
 10
7.39958
 20
1.17871
 42
0.0
  0
VERTEX
  8
0
 10
7.42985
 20
1.23579
 42
0.0
  0
VERTEX
  8
0
 10
7.44482
 20
1.32248
 42
0.0
  0
VERTEX
  8
0
 10
7.45497
 20
1.41
 42
0.0
  0
VERTEX
  8
0
 10
7.45839
 20
1.47488
 42
0.0
  0
VERTEX
  8
0
 10
7.45372
 20
1.53965
 42
0.0
  0
VERTEX
  8
0
 10
7.43576
 20
1.51654
 42
0.0
  0
VERTEX
  8
0
 10
7.42367
 20
1.48921
 42
0.0
  0
VERTEX
  8
0
 10
7.39307
 20
1.4216
 42
0.0
  0
VERTEX
  8
0
 10
7.36328
 20
1.35352
 42
0.0
  0
VERTEX
  8
0
 10
7.33658
 20
1.30512
 42
0.0
  0
VERTEX
  8
0
 10
7.30354
 20
1.26096
 42
0.0
  0
VERTEX
  8
0
 10
7.26768
 20
1.2187
 42
0.0
  0
VERTEX
  8
0
 10
7.23264
 20
1.17594
 42
0.0
  0
VERTEX
  8
0
 10
7.17578
 20
1.10889
 42
0.0
  0
VERTEX
  8
0
 10
7.12164
 20
1.03944
 42
0.0
  0
VERTEX
  8
0
 10
7.06662
 20
0.966363
 42
0.0
  0
VERTEX
  8
0
 10
7.009
 20
0.895454
 42
0.0
  0
VERTEX
  8
0
 10
6.95921
 20
0.835721
 42
0.0
  0
VERTEX
  8
0
 10
6.91357
 20
0.772786
 42
0.0
  0
VERTEX
  8
0
 10
6.8795
 20
0.734592
 42
0.0
  0
VERTEX
  8
0
 10
6.838
 20
0.706814
 42
0.0
  0
VERTEX
  8
0
 10
6.83507
 20
0.735622
 42
0.0
  0
VERTEX
  8
0
 10
6.84321
 20
0.762532
 42
0.0
  0
VERTEX
  8
0
 10
6.92085
 20
0.910319
 42
0.0
  0
VERTEX
  8
0
 10
6.98535
 20
1.06407
 42
0.0
  0
VERTEX
  8
0
 10
7.03233
 20
1.2475
 42
0.0
  0
VERTEX
  8
0
 10
7.04015
 20
1.29888
 42
0.0
  0
VERTEX
  8
0
 10
7.03944
 20
1.35086
 42
0.0
  0
VERTEX
  8
0
 10
7.02642
 20
1.37961
 42
0.0
  0
VERTEX
  8
0
 10
7.00375
 20
1.3629
 42
0.0
  0
VERTEX
  8
0
 10
6.99115
 20
1.33735
 42
0.0
  0
VERTEX
  8
0
 10
6.98014
 20
1.31011
 42
0.0
  0
VERTEX
  8
0
 10
6.96224
 20
1.28825
 42
0.0
  0
VERTEX
  8
0
 10
6.87793
 20
1.22353
 42
0.0
  0
VERTEX
  8
0
 10
6.85032
 20
1.16184
 42
0.0
  0
VERTEX
  8
0
 10
6.83479
 20
1.09625
 42
0.0
  0
VERTEX
  8
0
 10
6.82682
 20
1.0797
 42
0.0
  0
VERTEX
  8
0
 10
6.81087
 20
1.06863
 42
0.0
  0
VERTEX
  8
0
 10
6.79346
 20
1.08567
 42
0.0
  0
VERTEX
  8
0
 10
6.8036
 20
1.14703
 42
0.0
  0
VERTEX
  8
0
 10
6.80653
 20
1.2092
 42
0.0
  0
VERTEX
  8
0
 10
6.81435
 20
1.29221
 42
0.0
  0
VERTEX
  8
0
 10
6.81739
 20
1.37554
 42
0.0
  0
VERTEX
  8
0
 10
6.82482
 20
1.43201
 42
0.0
  0
VERTEX
  8
0
 10
6.82443
 20
1.4891
 42
0.0
  0
VERTEX
  8
0
 10
6.82493
 20
1.56521
 42
0.0
  0
VERTEX
  8
0
 10
6.81569
 20
1.64025
 42
0.0
  0
VERTEX
  8
0
 10
6.80132
 20
1.73269
 42
0.0
  0
VERTEX
  8
0
 10
6.77962
 20
1.82411
 42
0.0
  0
VERTEX
  8
0
 10
6.77115
 20
1.86686
 42
0.0
  0
VERTEX
  8
0
 10
6.75261
 20
1.90517
 42
0.0
  0
VERTEX
  8
0
 10
6.74104
 20
1.88726
 42
0.0
  0
VERTEX
  8
0
 10
6.73876
 20
1.86719
 42
0.0
  0
VERTEX
  8
0
 10
6.74246
 20
1.8464
 42
0.0
  0
VERTEX
  8
0
 10
6.74897
 20
1.82622
 42
0.0
  0
VERTEX
  8
0
 10
6.72179
 20
1.80176
 42
0.0
  0
VERTEX
  8
0
 10
6.70415
 20
1.77024
 42
0.0
  0
VERTEX
  8
0
 10
6.69114
 20
1.73557
 42
0.0
  0
VERTEX
  8
0
 10
6.67774
 20
1.7015
 42
0.0
  0
VERTEX
  8
0
 10
6.63411
 20
1.60921
 42
0.0
  0
VERTEX
  8
0
 10
6.59478
 20
1.51503
 42
0.0
  0
VERTEX
  8
0
 10
6.57297
 20
1.41536
 42
0.0
  0
VERTEX
  8
0
 10
6.54601
 20
1.31684
 42
0.0
  0
VERTEX
  8
0
 10
6.49576
 20
1.23638
 42
0.0
  0
VERTEX
  8
0
 10
6.43321
 20
1.16547
 42
0.0
  0
VERTEX
  8
0
 10
6.42079
 20
1.16764
 42
0.0
  0
VERTEX
  8
0
 10
6.43001
 20
1.25884
 42
0.0
  0
VERTEX
  8
0
 10
6.45687
 20
1.34728
 42
0.0
  0
VERTEX
  8
0
 10
6.47613
 20
1.42253
 42
0.0
  0
VERTEX
  8
0
 10
6.49582
 20
1.4975
 42
0.0
  0
VERTEX
  8
0
 10
6.51449
 20
1.60081
 42
0.0
  0
VERTEX
  8
0
 10
6.51258
 20
1.70563
 42
0.0
  0
VERTEX
  8
0
 10
6.50543
 20
1.77024
 42
0.0
  0
VERTEX
  8
0
 10
6.50575
 20
1.83529
 42
0.0
  0
VERTEX
  8
0
 10
6.50624
 20
1.99268
 42
0.0
  0
VERTEX
  8
0
 10
6.51861
 20
2.04883
 42
0.0
  0
VERTEX
  8
0
 10
6.53782
 20
2.10297
 42
0.0
  0
VERTEX
  8
0
 10
6.55881
 20
2.15653
 42
0.0
  0
VERTEX
  8
0
 10
6.57667
 20
2.2111
 42
0.0
  0
VERTEX
  8
0
 10
6.57639
 20
2.26253
 42
0.0
  0
VERTEX
  8
0
 10
6.58469
 20
2.31381
 42
0.0
  0
VERTEX
  8
0
 10
6.58914
 20
2.36464
 42
0.0
  0
VERTEX
  8
0
 10
6.57736
 20
2.41465
 42
0.0
  0
VERTEX
  8
0
 10
6.55843
 20
2.41515
 42
0.0
  0
VERTEX
  8
0
 10
6.48042
 20
2.02713
 42
0.0
  0
VERTEX
  8
0
 10
6.45893
 20
1.9406
 42
0.0
  0
VERTEX
  8
0
 10
6.45394
 20
1.90571
 42
0.0
  0
VERTEX
  8
0
 10
6.44536
 20
1.87196
 42
0.0
  0
VERTEX
  8
0
 10
6.42996
 20
1.84065
 42
0.0
  0
VERTEX
  8
0
 10
6.39393
 20
1.78347
 42
0.0
  0
VERTEX
  8
0
 10
6.35747
 20
1.72646
 42
0.0
  0
VERTEX
  8
0
 10
6.3176
 20
1.6721
 42
0.0
  0
VERTEX
  8
0
 10
6.27132
 20
1.62283
 42
0.0
  0
VERTEX
  8
0
 10
6.24382
 20
1.59386
 42
0.0
  0
VERTEX
  8
0
 10
6.21832
 20
1.5619
 42
0.0
  0
VERTEX
  8
0
 10
6.18956
 20
1.53483
 42
0.0
  0
VERTEX
  8
0
 10
6.15224
 20
1.5204
 42
0.0
  0
VERTEX
  8
0
 10
6.15261
 20
1.57476
 42
0.0
  0
VERTEX
  8
0
 10
6.16949
 20
1.60183
 42
0.0
  0
VERTEX
  8
0
 10
6.18901
 20
1.62739
 42
0.0
  0
VERTEX
  8
0
 10
6.20708
 20
1.65369
 42
0.0
  0
VERTEX
  8
0
 10
6.21978
 20
1.683
 42
0.0
  0
VERTEX
  8
0
 10
6.22894
 20
1.729
 42
0.0
  0
VERTEX
  8
0
 10
6.22651
 20
1.77599
 42
0.0
  0
VERTEX
  8
0
 10
6.19933
 20
1.75196
 42
0.0
  0
VERTEX
  8
0
 10
6.18517
 20
1.71799
 42
0.0
  0
VERTEX
  8
0
 10
6.16743
 20
1.67985
 42
0.0
  0
VERTEX
  8
0
 10
6.14318
 20
1.64481
 42
0.0
  0
VERTEX
  8
0
 10
6.1211
 20
1.60894
 42
0.0
  0
VERTEX
  8
0
 10
6.10986
 20
1.56825
 42
0.0
  0
VERTEX
  8
0
 10
6.09918
 20
1.52914
 42
0.0
  0
VERTEX
  8
0
 10
6.07785
 20
1.49528
 42
0.0
  0
VERTEX
  8
0
 10
6.04969
 20
1.46587
 42
0.0
  0
VERTEX
  8
0
 10
6.01839
 20
1.44015
 42
0.0
  0
VERTEX
  8
0
 10
5.98725
 20
1.41607
 42
0.0
  0
VERTEX
  8
0
 10
5.95144
 20
1.40136
 42
0.0
  0
VERTEX
  8
0
 10
5.95301
 20
1.45318
 42
0.0
  0
VERTEX
  8
0
 10
5.96506
 20
1.50407
 42
0.0
  0
VERTEX
  8
0
 10
5.99625
 20
1.55994
 42
0.0
  0
VERTEX
  8
0
 10
6.02274
 20
1.618
 42
0.0
  0
VERTEX
  8
0
 10
6.01622
 20
1.63075
 42
0.0
  0
VERTEX
  8
0
 10
6.00971
 20
1.6435
 42
0.0
  0
VERTEX
  8
0
 10
5.99024
 20
1.63092
 42
0.0
  0
VERTEX
  8
0
 10
5.97439
 20
1.61322
 42
0.0
  0
VERTEX
  8
0
 10
5.70378
 20
1.2704
 42
0.0
  0
VERTEX
  8
0
 10
5.68485
 20
1.25179
 42
0.0
  0
VERTEX
  8
0
 10
5.66243
 20
1.23752
 42
0.0
  0
VERTEX
  8
0
 10
5.63965
 20
1.22374
 42
0.0
  0
VERTEX
  8
0
 10
5.61942
 20
1.20654
 42
0.0
  0
VERTEX
  8
0
 10
5.58772
 20
1.16911
 42
0.0
  0
VERTEX
  8
0
 10
5.5549
 20
1.13276
 42
0.0
  0
VERTEX
  8
0
 10
5.55692
 20
1.16488
 42
0.0
  0
VERTEX
  8
0
 10
5.56728
 20
1.19493
 42
0.0
  0
VERTEX
  8
0
 10
5.58111
 20
1.22418
 42
0.0
  0
VERTEX
  8
0
 10
5.59364
 20
1.2538
 42
0.0
  0
VERTEX
  8
0
 10
5.61415
 20
1.29557
 42
0.0
  0
VERTEX
  8
0
 10
5.63194
 20
1.33876
 42
0.0
  0
VERTEX
  8
0
 10
5.64378
 20
1.38341
 42
0.0
  0
VERTEX
  8
0
 10
5.64621
 20
1.42969
 42
0.0
  0
VERTEX
  8
0
 10
5.64318
 20
1.55821
 42
0.0
  0
VERTEX
  8
0
 10
5.6614
 20
1.68614
 42
0.0
  0
VERTEX
  8
0
 10
5.64746
 20
1.68147
 42
0.0
  0
VERTEX
  8
0
 10
5.59472
 20
1.59771
 42
0.0
  0
VERTEX
  8
0
 10
5.53103
 20
1.52225
 42
0.0
  0
VERTEX
  8
0
 10
5.49783
 20
1.49615
 42
0.0
  0
VERTEX
  8
0
 10
5.4656
 20
1.46897
 42
0.0
  0
VERTEX
  8
0
 10
5.44906
 20
1.45324
 42
0.0
  0
VERTEX
  8
0
 10
5.42947
 20
1.44174
 42
0.0
  0
VERTEX
  8
0
 10
5.42746
 20
1.47624
 42
0.0
  0
VERTEX
  8
0
 10
5.43668
 20
1.50879
 42
0.0
  0
VERTEX
  8
0
 10
5.48529
 20
1.61317
 42
0.0
  0
VERTEX
  8
0
 10
5.53039
 20
1.71907
 42
0.0
  0
VERTEX
  8
0
 10
5.56369
 20
1.8629
 42
0.0
  0
VERTEX
  8
0
 10
5.5695
 20
1.93278
 42
0.0
  0
VERTEX
  8
0
 10
5.58425
 20
2.00082
 42
0.0
  0
VERTEX
  8
0
 10
5.60292
 20
2.05425
 42
0.0
  0
VERTEX
  8
0
 10
5.6084
 20
2.11008
 42
0.0
  0
VERTEX
  8
0
 10
5.60331
 20
2.12853
 42
0.0
  0
VERTEX
  8
0
 10
5.58832
 20
2.14057
 42
0.0
  0
VERTEX
  8
0
 10
5.58003
 20
2.05735
 42
0.0
  0
VERTEX
  8
0
 10
5.56429
 20
1.97487
 42
0.0
  0
VERTEX
  8
0
 10
5.53629
 20
1.88124
 42
0.0
  0
VERTEX
  8
0
 10
5.49854
 20
1.79118
 42
0.0
  0
VERTEX
  8
0
 10
5.40522
 20
1.6129
 42
0.0
  0
VERTEX
  8
0
 10
5.28217
 20
1.45469
 42
0.0
  0
VERTEX
  8
0
 10
5.25814
 20
1.42225
 42
0.0
  0
VERTEX
  8
0
 10
5.23753
 20
1.38721
 42
0.0
  0
VERTEX
  8
0
 10
5.21565
 20
1.35324
 42
0.0
  0
VERTEX
  8
0
 10
5.18793
 20
1.32395
 42
0.0
  0
VERTEX
  8
0
 10
5.18067
 20
1.34435
 42
0.0
  0
VERTEX
  8
0
 10
5.1836
 20
1.36627
 42
0.0
  0
VERTEX
  8
0
 10
5.21371
 20
1.41786
 42
0.0
  0
VERTEX
  8
0
 10
5.25201
 20
1.46397
 42
0.0
  0
VERTEX
  8
0
 10
5.28444
 20
1.53049
 42
0.0
  0
VERTEX
  8
0
 10
5.29997
 20
1.58393
 42
0.0
  0
VERTEX
  8
0
 10
5.31565
 20
1.63732
 42
0.0
  0
VERTEX
  8
0
 10
5.3049
 20
1.64458
 42
0.0
  0
VERTEX
  8
0
 10
5.29172
 20
1.64714
 42
0.0
  0
VERTEX
  8
0
 10
5.27919
 20
1.64404
 42
0.0
  0
VERTEX
  8
0
 10
5.27061
 20
1.63433
 42
0.0
  0
VERTEX
  8
0
 10
5.23828
 20
1.56369
 42
0.0
  0
VERTEX
  8
0
 10
5.20329
 20
1.49468
 42
0.0
  0
VERTEX
  8
0
 10
5.16629
 20
1.47765
 42
0.0
  0
VERTEX
  8
0
 10
5.1334
 20
1.45432
 42
0.0
  0
VERTEX
  8
0
 10
5.11507
 20
1.43772
 42
0.0
  0
VERTEX
  8
0
 10
5.0976
 20
1.41889
 42
0.0
  0
VERTEX
  8
0
 10
5.07813
 20
1.405
 42
0.0
  0
VERTEX
  8
0
 10
5.05371
 20
1.40294
 42
0.0
  0
VERTEX
  8
0
 10
5.05692
 20
1.45221
 42
0.0
  0
VERTEX
  8
0
 10
5.08225
 20
1.49354
 42
0.0
  0
VERTEX
  8
0
 10
5.11567
 20
1.53201
 42
0.0
  0
VERTEX
  8
0
 10
5.14324
 20
1.5726
 42
0.0
  0
VERTEX
  8
0
 10
5.178
 20
1.69987
 42
0.0
  0
VERTEX
  8
0
 10
5.20703
 20
1.82878
 42
0.0
  0
VERTEX
  8
0
 10
5.2111
 20
1.87636
 42
0.0
  0
VERTEX
  8
0
 10
5.18658
 20
1.85943
 42
0.0
  0
VERTEX
  8
0
 10
5.17074
 20
1.83285
 42
0.0
  0
VERTEX
  8
0
 10
5.11794
 20
1.76243
 42
0.0
  0
VERTEX
  8
0
 10
5.06489
 20
1.69217
 42
0.0
  0
VERTEX
  8
0
 10
5.03581
 20
1.65631
 42
0.0
  0
VERTEX
  8
0
 10
4.99735
 20
1.63075
 42
0.0
  0
VERTEX
  8
0
 10
4.92356
 20
1.58778
 42
0.0
  0
VERTEX
  8
0
 10
4.85726
 20
1.53375
 42
0.0
  0
VERTEX
  8
0
 10
4.76432
 20
1.45324
 42
0.0
  0
VERTEX
  8
0
 10
4.68431
 20
1.35986
 42
0.0
  0
VERTEX
  8
0
 10
4.62554
 20
1.2997
 42
0.0
  0
VERTEX
  8
0
 10
4.57183
 20
1.23481
 42
0.0
  0
VERTEX
  8
0
 10
4.55274
 20
1.23145
 42
0.0
  0
VERTEX
  8
0
 10
4.55062
 20
1.25792
 42
0.0
  0
VERTEX
  8
0
 10
4.56256
 20
1.2793
 42
0.0
  0
VERTEX
  8
0
 10
4.58122
 20
1.29818
 42
0.0
  0
VERTEX
  8
0
 10
4.59924
 20
1.31689
 42
0.0
  0
VERTEX
  8
0
 10
4.61074
 20
1.36621
 42
0.0
  0
VERTEX
  8
0
 10
4.618
 20
1.41635
 42
0.0
  0
VERTEX
  8
0
 10
4.63639
 20
1.44558
 42
0.0
  0
VERTEX
  8
0
 10
4.6454
 20
1.47862
 42
0.0
  0
VERTEX
  8
0
 10
4.60639
 20
1.43718
 42
0.0
  0
VERTEX
  8
0
 10
4.57813
 20
1.38726
 42
0.0
  0
VERTEX
  8
0
 10
4.55794
 20
1.37788
 42
0.0
  0
VERTEX
  8
0
 10
4.54215
 20
1.36312
 42
0.0
  0
VERTEX
  8
0
 10
4.51183
 20
1.29856
 42
0.0
  0
VERTEX
  8
0
 10
4.48753
 20
1.23128
 42
0.0
  0
VERTEX
  8
0
 10
4.47831
 20
1.21273
 42
0.0
  0
VERTEX
  8
0
 10
4.46837
 20
1.19417
 42
0.0
  0
VERTEX
  8
0
 10
4.45514
 20
1.17893
 42
0.0
  0
VERTEX
  8
0
 10
4.43619
 20
1.17025
 42
0.0
  0
VERTEX
  8
0
 10
4.42301
 20
1.18354
 42
0.0
  0
VERTEX
  8
0
 10
4.42176
 20
1.20199
 42
0.0
  0
VERTEX
  8
0
 10
4.55469
 20
1.52701
 42
0.0
  0
VERTEX
  8
0
 10
4.58692
 20
1.60699
 42
0.0
  0
VERTEX
  8
0
 10
4.61154
 20
1.68924
 42
0.0
  0
VERTEX
  8
0
 10
4.61649
 20
1.73258
 42
0.0
  0
VERTEX
  8
0
 10
4.62332
 20
1.77582
 42
0.0
  0
VERTEX
  8
0
 10
4.6269
 20
1.81907
 42
0.0
  0
VERTEX
  8
0
 10
4.62196
 20
1.86253
 42
0.0
  0
VERTEX
  8
0
 10
4.60943
 20
1.86008
 42
0.0
  0
VERTEX
  8
0
 10
4.60238
 20
1.85032
 42
0.0
  0
VERTEX
  8
0
 10
4.59836
 20
1.83724
 42
0.0
  0
VERTEX
  8
0
 10
4.59517
 20
1.82471
 42
0.0
  0
VERTEX
  8
0
 10
4.56413
 20
1.69764
 42
0.0
  0
VERTEX
  8
0
 10
4.50347
 20
1.58083
 42
0.0
  0
VERTEX
  8
0
 10
4.45551
 20
1.50256
 42
0.0
  0
VERTEX
  8
0
 10
4.39746
 20
1.43158
 42
0.0
  0
VERTEX
  8
0
 10
4.33561
 20
1.36339
 42
0.0
  0
VERTEX
  8
0
 10
4.27626
 20
1.29335
 42
0.0
  0
VERTEX
  8
0
 10
4.24451
 20
1.26579
 42
0.0
  0
VERTEX
  8
0
 10
4.21365
 20
1.23758
 42
0.0
  0
VERTEX
  8
0
 10
4.19293
 20
1.17437
 42
0.0
  0
VERTEX
  8
0
 10
4.17111
 20
1.1116
 42
0.0
  0
VERTEX
  8
0
 10
4.14985
 20
1.10324
 42
0.0
  0
VERTEX
  8
0
 10
4.21436
 20
1.33767
 42
0.0
  0
VERTEX
  8
0
 10
4.28803
 20
1.56972
 42
0.0
  0
VERTEX
  8
0
 10
4.30946
 20
1.64085
 42
0.0
  0
VERTEX
  8
0
 10
4.33176
 20
1.71169
 42
0.0
  0
VERTEX
  8
0
 10
4.36231
 20
1.84224
 42
0.0
  0
VERTEX
  8
0
 10
4.36893
 20
1.87244
 42
0.0
  0
VERTEX
  8
0
 10
4.36589
 20
1.90365
 42
0.0
  0
VERTEX
  8
0
 10
4.35493
 20
1.93321
 42
0.0
  0
VERTEX
  8
0
 10
4.33778
 20
1.95856
 42
0.0
  0
VERTEX
  8
0
 10
4.31592
 20
1.95589
 42
0.0
  0
VERTEX
  8
0
 10
4.31662
 20
1.92594
 42
0.0
  0
VERTEX
  8
0
 10
4.32129
 20
1.89615
 42
0.0
  0
VERTEX
  8
0
 10
4.28435
 20
1.77024
 42
0.0
  0
VERTEX
  8
0
 10
4.21989
 20
1.6569
 42
0.0
  0
VERTEX
  8
0
 10
4.19629
 20
1.62289
 42
0.0
  0
VERTEX
  8
0
 10
4.16949
 20
1.59071
 42
0.0
  0
VERTEX
  8
0
 10
4.14481
 20
1.55746
 42
0.0
  0
VERTEX
  8
0
 10
4.12771
 20
1.52018
 42
0.0
  0
VERTEX
  8
0
 10
4.15056
 20
1.50217
 42
0.0
  0
VERTEX
  8
0
 10
4.10297
 20
1.51394
 42
0.0
  0
VERTEX
  8
0
 10
4.11546
 20
1.55865
 42
0.0
  0
VERTEX
  8
0
 10
4.13226
 20
1.60238
 42
0.0
  0
VERTEX
  8
0
 10
4.14481
 20
1.63932
 42
0.0
  0
VERTEX
  8
0
 10
4.15343
 20
1.67686
 42
0.0
  0
VERTEX
  8
0
 10
4.15517
 20
1.78689
 42
0.0
  0
VERTEX
  8
0
 10
4.13986
 20
1.89513
 42
0.0
  0
VERTEX
  8
0
 10
4.11253
 20
1.93961
 42
0.0
  0
VERTEX
  8
0
 10
4.08051
 20
1.97971
 42
0.0
  0
VERTEX
  8
0
 10
4.05962
 20
1.97706
 42
0.0
  0
VERTEX
  8
0
 10
4.07607
 20
1.92692
 42
0.0
  0
VERTEX
  8
0
 10
4.08425
 20
1.875
 42
0.0
  0
VERTEX
  8
0
 10
4.08296
 20
1.75754
 42
0.0
  0
VERTEX
  8
0
 10
4.06728
 20
1.64133
 42
0.0
  0
VERTEX
  8
0
 10
4.03087
 20
1.625
 42
0.0
  0
VERTEX
  8
0
 10
4.01964
 20
1.63579
 42
0.0
  0
VERTEX
  8
0
 10
4.01449
 20
1.65326
 42
0.0
  0
VERTEX
  8
0
 10
4.00863
 20
1.66862
 42
0.0
  0
VERTEX
  8
0
 10
3.99544
 20
1.67279
 42
0.0
  0
VERTEX
  8
0
 10
3.98633
 20
1.64849
 42
0.0
  0
VERTEX
  8
0
 10
3.98817
 20
1.62349
 42
0.0
  0
VERTEX
  8
0
 10
3.99615
 20
1.59864
 42
0.0
  0
VERTEX
  8
0
 10
4.00564
 20
1.57465
 42
0.0
  0
VERTEX
  8
0
 10
4.00814
 20
1.54449
 42
0.0
  0
VERTEX
  8
0
 10
4.00586
 20
1.51324
 42
0.0
  0
VERTEX
  8
0
 10
3.99507
 20
1.48546
 42
0.0
  0
VERTEX
  8
0
 10
3.9719
 20
1.46576
 42
0.0
  0
VERTEX
  8
0
 10
3.95188
 20
1.47254
 42
0.0
  0
VERTEX
  8
0
 10
3.94342
 20
1.4905
 42
0.0
  0
VERTEX
  8
0
 10
3.93636
 20
1.55425
 42
0.0
  0
VERTEX
  8
0
 10
3.91976
 20
1.6161
 42
0.0
  0
VERTEX
  8
0
 10
3.91151
 20
1.63237
 42
0.0
  0
VERTEX
  8
0
 10
3.89447
 20
1.63579
 42
0.0
  0
VERTEX
  8
0
 10
3.85829
 20
1.54617
 42
0.0
  0
VERTEX
  8
0
 10
3.81353
 20
1.46044
 42
0.0
  0
VERTEX
  8
0
 10
3.80018
 20
1.44417
 42
0.0
  0
VERTEX
  8
0
 10
3.78228
 20
1.43619
 42
0.0
  0
VERTEX
  8
0
 10
3.78142
 20
1.47515
 42
0.0
  0
VERTEX
  8
0
 10
3.78646
 20
1.514
 42
0.0
  0
VERTEX
  8
0
 10
3.79036
 20
1.55263
 42
0.0
  0
VERTEX
  8
0
 10
3.78635
 20
1.5911
 42
0.0
  0
VERTEX
  8
0
 10
3.76704
 20
1.59494
 42
0.0
  0
VERTEX
  8
0
 10
3.73888
 20
1.56467
 42
0.0
  0
VERTEX
  8
0
 10
3.71376
 20
1.53163
 42
0.0
  0
VERTEX
  8
0
 10
3.7009
 20
1.54596
 42
0.0
  0
VERTEX
  8
0
 10
3.69797
 20
1.56569
 42
0.0
  0
VERTEX
  8
0
 10
3.69814
 20
1.58735
 42
0.0
  0
VERTEX
  8
0
 10
3.69467
 20
1.60742
 42
0.0
  0
VERTEX
  8
0
 10
3.68207
 20
1.5944
 42
0.0
  0
VERTEX
  8
0
 10
3.67617
 20
1.57704
 42
0.0
  0
VERTEX
  8
0
 10
3.65913
 20
1.52408
 42
0.0
  0
VERTEX
  8
0
 10
3.62836
 20
1.47754
 42
0.0
  0
VERTEX
  8
0
 10
3.58729
 20
1.43929
 42
0.0
  0
VERTEX
  8
0
 10
3.53939
 20
1.41118
 42
0.0
  0
VERTEX
  8
0
 10
3.54107
 20
1.45503
 42
0.0
  0
VERTEX
  8
0
 10
3.54796
 20
1.49832
 42
0.0
  0
VERTEX
  8
0
 10
3.47368
 20
1.47825
 42
0.0
  0
VERTEX
  8
0
 10
3.48346
 20
1.54183
 42
0.0
  0
VERTEX
  8
0
 10
3.4821
 20
1.60612
 42
0.0
  0
VERTEX
  8
0
 10
3.33365
 20
1.4994
 42
0.0
  0
VERTEX
  8
0
 10
3.16639
 20
1.4254
 42
0.0
  0
VERTEX
  8
0
 10
3.1334
 20
1.42654
 42
0.0
  0
VERTEX
  8
0
 10
3.10357
 20
1.44222
 42
0.0
  0
VERTEX
  8
0
 10
3.00543
 20
1.52208
 42
0.0
  0
VERTEX
  8
0
 10
2.96587
 20
1.54292
 42
0.0
  0
VERTEX
  8
0
 10
2.92318
 20
1.55578
 42
0.0
  0
VERTEX
  8
0
 10
2.87875
 20
1.5625
 42
0.0
  0
VERTEX
  8
0
 10
2.83415
 20
1.56489
 42
0.0
  0
VERTEX
  8
0
 10
2.81874
 20
1.56879
 42
0.0
  0
VERTEX
  8
0
 10
2.80138
 20
1.57129
 42
0.0
  0
VERTEX
  8
0
 10
2.7889
 20
1.56717
 42
0.0
  0
VERTEX
  8
0
 10
2.78814
 20
1.55122
 42
0.0
  0
VERTEX
  8
0
 10
2.84625
 20
1.53022
 42
0.0
  0
VERTEX
  8
0
 10
2.90565
 20
1.51247
 42
0.0
  0
VERTEX
  8
0
 10
2.93235
 20
1.51144
 42
0.0
  0
VERTEX
  8
0
 10
2.95893
 20
1.50726
 42
0.0
  0
VERTEX
  8
0
 10
2.98269
 20
1.4969
 42
0.0
  0
VERTEX
  8
0
 10
3.00082
 20
1.47706
 42
0.0
  0
VERTEX
  8
0
 10
3.02919
 20
1.4349
 42
0.0
  0
VERTEX
  8
0
 10
3.06569
 20
1.3986
 42
0.0
  0
VERTEX
  8
0
 10
3.05225
 20
1.38091
 42
0.0
  0
VERTEX
  8
0
 10
3.03385
 20
1.36849
 42
0.0
  0
VERTEX
  8
0
 10
3.01324
 20
1.35889
 42
0.0
  0
VERTEX
  8
0
 10
2.99306
 20
1.34928
 42
0.0
  0
VERTEX
  8
0
 10
2.92546
 20
1.32031
 42
0.0
  0
VERTEX
  8
0
 10
2.85932
 20
1.28803
 42
0.0
  0
VERTEX
  8
0
 10
2.79199
 20
1.27517
 42
0.0
  0
VERTEX
  8
0
 10
2.75364
 20
1.27707
 42
0.0
  0
VERTEX
  8
0
 10
2.71582
 20
1.28613
 42
0.0
  0
VERTEX
  8
0
 10
2.69108
 20
1.25581
 42
0.0
  0
VERTEX
  8
0
 10
2.60297
 20
1.23703
 42
0.0
  0
VERTEX
  8
0
 10
2.51682
 20
1.21018
 42
0.0
  0
VERTEX
  8
0
 10
2.48178
 20
1.21164
 42
0.0
  0
VERTEX
  8
0
 10
2.4471
 20
1.21929
 42
0.0
  0
VERTEX
  8
0
 10
2.30881
 20
1.24007
 42
0.0
  0
VERTEX
  8
0
 10
2.19743
 20
1.25212
 42
0.0
  0
VERTEX
  8
0
 10
2.08664
 20
1.26796
 42
0.0
  0
VERTEX
  8
0
 10
1.98378
 20
1.29129
 42
0.0
  0
VERTEX
  8
0
 10
1.88103
 20
1.31494
 42
0.0
  0
VERTEX
  8
0
 10
1.80746
 20
1.324
 42
0.0
  0
VERTEX
  8
0
 10
1.74035
 20
1.35411
 42
0.0
  0
VERTEX
  8
0
 10
1.7029
 20
1.37402
 42
0.0
  0
VERTEX
  8
0
 10
1.662
 20
1.38574
 42
0.0
  0
VERTEX
  8
0
 10
1.62831
 20
1.41564
 42
0.0
  0
VERTEX
  8
0
 10
1.59879
 20
1.45014
 42
0.0
  0
VERTEX
  8
0
 10
1.51947
 20
1.52468
 42
0.0
  0
VERTEX
  8
0
 10
1.44917
 20
1.60721
 42
0.0
  0
VERTEX
  8
0
 10
1.40625
 20
1.65369
 42
0.0
  0
VERTEX
  8
0
 10
1.36437
 20
1.7009
 42
0.0
  0
VERTEX
  8
0
 10
1.20573
 20
1.7895
 42
0.0
  0
VERTEX
  8
0
 10
1.15359
 20
1.81099
 42
0.0
  0
VERTEX
  8
0
 10
1.10276
 20
1.83512
 42
0.0
  0
VERTEX
  8
0
 10
1.08068
 20
1.8845
 42
0.0
  0
VERTEX
  8
0
 10
1.06603
 20
1.93674
 42
0.0
  0
VERTEX
  8
0
 10
1.05154
 20
1.98893
 42
0.0
  0
VERTEX
  8
0
 10
1.03006
 20
2.03819
 42
0.0
  0
VERTEX
  8
0
 10
0.995008
 20
2.04921
 42
0.0
  0
VERTEX
  8
0
 10
0.958279
 20
2.06071
 42
0.0
  0
VERTEX
  8
0
 10
0.928006
 20
2.07954
 42
0.0
  0
VERTEX
  8
0
 10
0.912272
 20
2.11247
 42
0.0
  0
VERTEX
  8
0
 10
0.910536
 20
2.17383
 42
0.0
  0
VERTEX
  8
0
 10
0.920193
 20
2.23406
 42
0.0
  0
VERTEX
  8
0
 10
0.938531
 20
2.29135
 42
0.0
  0
VERTEX
  8
0
 10
0.960449
 20
2.34744
 42
0.0
  0
VERTEX
  8
0
 10
0.988118
 20
2.40072
 42
0.0
  0
VERTEX
  8
0
 10
1.02365
 20
2.44928
 42
0.0
  0
VERTEX
  8
0
 10
1.08556
 20
2.52403
 42
0.0
  0
VERTEX
  8
0
 10
1.12999
 20
2.61029
 42
0.0
  0
VERTEX
  8
0
 10
1.14773
 20
2.6435
 42
0.0
  0
VERTEX
  8
0
 10
1.17074
 20
2.67361
 42
0.0
  0
VERTEX
  8
0
 10
1.19238
 20
2.70432
 42
0.0
  0
VERTEX
  8
0
 10
1.20622
 20
2.73926
 42
0.0
  0
VERTEX
  8
0
 10
1.22472
 20
2.86046
 42
0.0
  0
VERTEX
  8
0
 10
1.26443
 20
2.90517
 42
0.0
  0
VERTEX
  8
0
 10
1.30089
 20
2.95242
 42
0.0
  0
VERTEX
  8
0
 10
1.34608
 20
3.03765
 42
0.0
  0
VERTEX
  8
0
 10
1.38607
 20
3.12532
 42
0.0
  0
VERTEX
  8
0
 10
1.50196
 20
3.38514
 42
0.0
  0
VERTEX
  8
0
 10
1.56293
 20
3.51574
 42
0.0
  0
VERTEX
  8
0
 10
1.62929
 20
3.6435
 42
0.0
  0
VERTEX
  8
0
 10
1.67947
 20
3.7405
 42
0.0
  0
VERTEX
  8
0
 10
1.73118
 20
3.83649
 42
0.0
  0
VERTEX
  8
0
 10
1.76025
 20
3.9069
 42
0.0
  0
VERTEX
  8
0
 10
1.79129
 20
3.97646
 42
0.0
  0
VERTEX
  8
0
 10
1.81743
 20
4.01329
 42
0.0
  0
VERTEX
  8
0
 10
1.85015
 20
4.04531
 42
0.0
  0
VERTEX
  8
0
 10
1.85004
 20
4.2079
 42
0.0
  0
VERTEX
  8
0
 10
1.79579
 20
4.48893
 42
0.0
  0
VERTEX
  8
0
 10
1.72857
 20
4.76676
 42
0.0
  0
VERTEX
  8
0
 10
1.68896
 20
4.90756
 42
0.0
  0
VERTEX
  8
0
 10
1.65836
 20
5.05062
 42
0.0
  0
VERTEX
  8
0
 10
1.62939
 20
5.18511
 42
0.0
  0
VERTEX
  8
0
 10
1.58328
 20
5.31424
 42
0.0
  0
VERTEX
  8
0
 10
1.57374
 20
5.34571
 42
0.0
  0
VERTEX
  8
0
 10
1.57237
 20
5.37853
 42
0.0
  0
VERTEX
  8
0
 10
1.5734
 20
5.41178
 42
0.0
  0
VERTEX
  8
0
 10
1.57101
 20
5.4445
 42
0.0
  0
VERTEX
  8
0
 10
1.55485
 20
5.47467
 42
0.0
  0
VERTEX
  8
0
 10
1.54085
 20
5.50553
 42
0.0
  0
VERTEX
  8
0
 10
1.56754
 20
5.62207
 42
0.0
  0
VERTEX
  8
0
 10
1.55285
 20
5.65272
 42
0.0
  0
VERTEX
  8
0
 10
1.53722
 20
5.66601
 42
0.0
  0
VERTEX
  8
0
 10
1.53049
 20
5.68425
 42
0.0
  0
VERTEX
  8
0
 10
1.53581
 20
5.75504
 42
0.0
  0
VERTEX
  8
0
 10
1.55843
 20
5.82286
 42
0.0
  0
VERTEX
  8
0
 10
1.59754
 20
5.98876
 42
0.0
  0
VERTEX
  8
0
 10
1.61632
 20
6.15788
 42
0.0
  0
VERTEX
  8
0
 10
1.62993
 20
6.27056
 42
0.0
  0
VERTEX
  8
0
 10
1.65067
 20
6.38189
 42
0.0
  0
VERTEX
  8
0
 10
1.67165
 20
6.4406
 42
0.0
  0
VERTEX
  8
0
 10
1.69325
 20
6.49892
 42
0.0
  0
VERTEX
  8
0
 10
1.71653
 20
6.52929
 42
0.0
  0
VERTEX
  8
0
 10
1.73899
 20
6.56022
 42
0.0
  0
VERTEX
  8
0
 10
1.75375
 20
6.58074
 42
0.0
  0
VERTEX
  8
0
 10
1.77382
 20
6.59576
 42
0.0
  0
VERTEX
  8
0
 10
1.79622
 20
6.60818
 42
0.0
  0
VERTEX
  8
0
 10
1.81808
 20
6.62088
 42
0.0
  0
VERTEX
  8
0
 10
1.829
 20
6.65186
 42
0.0
  0
VERTEX
  8
0
 10
1.78792
 20
6.68326
 42
0.0
  0
VERTEX
  8
0
 10
1.79622
 20
6.72163
 42
0.0
  0
VERTEX
  8
0
 10
1.79779
 20
6.76064
 42
0.0
  0
VERTEX
  8
0
 10
1.77636
 20
6.78163
 42
0.0
  0
VERTEX
  8
0
 10
1.75379
 20
6.80149
 42
0.0
  0
VERTEX
  8
0
 10
1.75597
 20
6.83772
 42
0.0
  0
VERTEX
  8
0
 10
1.77083
 20
6.87061
 42
0.0
  0
VERTEX
  8
0
 10
1.79308
 20
6.90044
 42
0.0
  0
VERTEX
  8
0
 10
1.81749
 20
6.9274
 42
0.0
  0
VERTEX
  8
0
 10
1.84326
 20
6.96224
 42
0.0
  0
VERTEX
  8
0
 10
1.85786
 20
7.00347
 42
0.0
  0
VERTEX
  8
0
 10
1.88069
 20
7.04975
 42
0.0
  0
VERTEX
  8
0
 10
1.90881
 20
7.09326
 42
0.0
  0
VERTEX
  8
0
 10
1.91971
 20
7.13781
 42
0.0
  0
VERTEX
  8
0
 10
1.91781
 20
7.18371
 42
0.0
  0
VERTEX
  8
0
 10
1.8916
 20
7.18289
 42
0.0
  0
VERTEX
  8
0
 10
1.91456
 20
7.21642
 42
0.0
  0
VERTEX
  8
0
 10
1.89632
 20
7.26932
 42
0.0
  0
VERTEX
  8
0
 10
1.86637
 20
7.31651
 42
0.0
  0
VERTEX
  8
0
 10
1.83681
 20
7.3411
 42
0.0
  0
VERTEX
  8
0
 10
1.81049
 20
7.36882
 42
0.0
  0
VERTEX
  8
0
 10
1.77262
 20
7.41233
 42
0.0
  0
VERTEX
  8
0
 10
1.73346
 20
7.45449
 42
0.0
  0
VERTEX
  8
0
 10
1.7321
 20
7.47483
 42
0.0
  0
VERTEX
  8
0
 10
1.74137
 20
7.49035
 42
0.0
  0
VERTEX
  8
0
 10
1.75646
 20
7.50304
 42
0.0
  0
VERTEX
  8
0
 10
1.77262
 20
7.51476
 42
0.0
  0
VERTEX
  8
0
 10
1.77349
 20
7.56381
 42
0.0
  0
VERTEX
  8
0
 10
1.78467
 20
7.61214
 42
0.0
  0
VERTEX
  8
0
 10
1.76563
 20
7.65896
 42
0.0
  0
VERTEX
  8
0
 10
1.73611
 20
7.70068
 42
0.0
  0
VERTEX
  8
0
 10
1.70036
 20
7.77626
 42
0.0
  0
VERTEX
  8
0
 10
1.67606
 20
7.8565
 42
0.0
  0
VERTEX
  8
0
 10
1.61079
 20
7.94135
 42
0.0
  0
VERTEX
  8
0
 10
1.5964
 20
7.97624
 42
0.0
  0
VERTEX
  8
0
 10
1.58074
 20
8.01031
 42
0.0
  0
VERTEX
  8
0
 10
1.48736
 20
8.16108
 42
0.0
  0
VERTEX
  8
0
 10
1.40603
 20
8.31917
 42
0.0
  0
VERTEX
  8
0
 10
1.36795
 20
8.42171
 42
0.0
  0
VERTEX
  8
0
 10
1.34581
 20
8.52826
 42
0.0
  0
VERTEX
  8
0
 10
1.2998
 20
8.60428
 42
0.0
  0
VERTEX
  8
0
 10
1.24826
 20
8.67665
 42
0.0
  0
VERTEX
  8
0
 10
1.17567
 20
8.8016
 42
0.0
  0
VERTEX
  8
0
 10
1.14659
 20
8.85568
 42
0.0
  0
VERTEX
  8
0
 10
1.12429
 20
8.91297
 42
0.0
  0
VERTEX
  8
0
 10
1.10124
 20
8.96983
 42
0.0
  0
VERTEX
  8
0
 10
1.06982
 20
9.02257
 42
0.0
  0
VERTEX
  8
0
 10
1.04503
 20
9.0676
 42
0.0
  0
VERTEX
  8
0
 10
1.0268
 20
9.11604
 42
0.0
  0
VERTEX
  8
0
 10
1.01237
 20
9.16531
 42
0.0
  0
VERTEX
  8
0
 10
0.992188
 20
9.21186
 42
0.0
  0
VERTEX
  8
0
 10
0.963108
 20
9.2474
 42
0.0
  0
VERTEX
  8
0
 10
0.932943
 20
9.28179
 42
0.0
  0
VERTEX
  8
0
 10
0.928711
 20
9.30653
 42
0.0
  0
VERTEX
  8
0
 10
0.933322
 20
9.33154
 42
0.0
  0
VERTEX
  8
0
 10
0.966635
 20
9.35633
 42
0.0
  0
VERTEX
  8
0
 10
1.00472
 20
9.37349
 42
0.0
  0
VERTEX
  8
0
 10
1.04541
 20
9.38021
 42
0.0
  0
VERTEX
  8
0
 10
1.08664
 20
9.37369
 42
0.0
  0
VERTEX
  8
0
 10
1.16238
 20
9.35607
 42
0.0
  0
VERTEX
  8
0
 10
1.23855
 20
9.33974
 42
0.0
  0
VERTEX
  8
0
 10
1.27642
 20
9.33985
 42
0.0
  0
VERTEX
  8
0
 10
1.31169
 20
9.3559
 42
0.0
  0
VERTEX
  8
0
 10
1.34576
 20
9.3571
 42
0.0
  0
VERTEX
  8
0
 10
1.37836
 20
9.34457
 42
0.0
  0
VERTEX
  8
0
 10
1.41075
 20
9.33274
 42
0.0
  0
VERTEX
  8
0
 10
1.44433
 20
9.3361
 42
0.0
  0
VERTEX
  8
0
 10
1.49631
 20
9.34901
 42
0.0
  0
VERTEX
  8
0
 10
1.54904
 20
9.34065
 42
0.0
  0
VERTEX
  8
0
 10
1.84463
 20
9.27251
 42
0.0
  0
VERTEX
  8
0
 10
1.95833
 20
9.25022
 42
0.0
  0
VERTEX
  8
0
 10
2.06569
 20
9.20751
 42
0.0
  0
VERTEX
  8
0
 10
2.10303
 20
9.17025
 42
0.0
  0
VERTEX
  8
0
 10
2.14518
 20
9.13857
 42
0.0
  0
VERTEX
  8
0
 10
2.17947
 20
9.13439
 42
0.0
  0
VERTEX
  8
0
 10
2.21419
 20
9.1289
 42
0.0
  0
VERTEX
  8
0
 10
2.2474
 20
9.11919
 42
0.0
  0
VERTEX
  8
0
 10
2.27713
 20
9.10215
 42
0.0
  0
VERTEX
  8
0
 10
2.30122
 20
9.07731
 42
0.0
  0
VERTEX
  8
0
 10
2.33165
 20
9.06282
 42
0.0
  0
VERTEX
  8
0
 10
2.3654
 20
9.05496
 42
0.0
  0
VERTEX
  8
0
 10
2.39953
 20
9.05013
 42
0.0
  0
VERTEX
  8
0
 10
2.47797
 20
9.03353
 42
0.0
  0
VERTEX
  8
0
 10
2.54818
 20
8.99376
 42
0.0
  0
VERTEX
  8
0
 10
2.58356
 20
9.00049
 42
0.0
  0
VERTEX
  8
0
 10
2.61822
 20
8.99744
 42
0.0
  0
VERTEX
  8
0
 10
2.66081
 20
8.98361
 42
0.0
  0
VERTEX
  8
0
 10
2.70574
 20
8.9834
 42
0.0
  0
VERTEX
  8
0
 10
2.83078
 20
8.93431
 42
0.0
  0
VERTEX
  8
0
 10
2.88531
 20
8.93267
 42
0.0
  0
VERTEX
  8
0
 10
2.93793
 20
8.94499
 42
0.0
  0
VERTEX
  8
0
 10
2.98833
 20
8.96669
 42
0.0
  0
VERTEX
  8
0
 10
3.03603
 20
8.99317
 42
0.0
  0
VERTEX
  8
0
 10
3.0459
 20
9.00629
 42
0.0
  0
VERTEX
  8
0
 10
3.05528
 20
9.02072
 42
0.0
  0
VERTEX
  8
0
 10
3.06651
 20
9.03244
 42
0.0
  0
VERTEX
  8
0
 10
3.08192
 20
9.03749
 42
0.0
  0
VERTEX
  8
0
 10
3.12744
 20
9.04172
 42
0.0
  0
VERTEX
  8
0
 10
3.17014
 20
9.05712
 42
0.0
  0
VERTEX
  8
0
 10
3.20947
 20
9.08078
 42
0.0
  0
VERTEX
  8
0
 10
3.24479
 20
9.10981
 42
0.0
  0
VERTEX
  8
0
 10
3.28999
 20
9.14182
 42
0.0
  0
VERTEX
  8
0
 10
3.33897
 20
9.16644
 42
0.0
  0
VERTEX
  8
0
 10
3.37229
 20
9.1671
 42
0.0
  0
VERTEX
  8
0
 10
3.40614
 20
9.16818
 42
0.0
  0
VERTEX
  8
0
 10
3.43875
 20
9.16411
 42
0.0
  0
VERTEX
  8
0
 10
3.46838
 20
9.14914
 42
0.0
  0
VERTEX
  8
0
 10
3.52561
 20
9.17068
 42
0.0
  0
VERTEX
  8
0
 10
3.57872
 20
9.20117
 42
0.0
  0
VERTEX
  8
0
 10
3.62582
 20
9.22228
 42
0.0
  0
VERTEX
  8
0
 10
3.66846
 20
9.25028
 42
0.0
  0
VERTEX
  8
0
 10
3.73611
 20
9.32519
 42
0.0
  0
VERTEX
  8
0
 10
3.757
 20
9.32579
 42
0.0
  0
VERTEX
  8
0
 10
3.77154
 20
9.30951
 42
0.0
  0
VERTEX
  8
0
 10
3.76426
 20
9.23236
 42
0.0
  0
VERTEX
  8
0
 10
3.78185
 20
9.23654
 42
0.0
  0
VERTEX
  8
0
 10
3.79693
 20
9.25114
 42
0.0
  0
VERTEX
  8
0
 10
3.84347
 20
9.28136
 42
0.0
  0
VERTEX
  8
0
 10
3.89665
 20
9.29949
 42
0.0
  0
VERTEX
  8
0
 10
3.91917
 20
9.30528
 42
0.0
  0
VERTEX
  8
0
 10
3.94271
 20
9.30621
 42
0.0
  0
VERTEX
  8
0
 10
3.96599
 20
9.30794
 42
0.0
  0
VERTEX
  8
0
 10
3.98785
 20
9.31614
 42
0.0
  0
VERTEX
  8
0
 10
4.01421
 20
9.33262
 42
0.0
  0
VERTEX
  8
0
 10
4.03928
 20
9.35232
 42
0.0
  0
VERTEX
  8
0
 10
4.06592
 20
9.36729
 42
0.0
  0
VERTEX
  8
0
 10
4.09711
 20
9.36974
 42
0.0
  0
VERTEX
  8
0
 10
4.10585
 20
9.3361
 42
0.0
  0
VERTEX
  8
0
 10
4.12554
 20
9.30811
 42
0.0
  0
VERTEX
  8
0
 10
4.15121
 20
9.30638
 42
0.0
  0
VERTEX
  8
0
 10
4.17458
 20
9.31554
 42
0.0
  0
VERTEX
  8
0
 10
4.19667
 20
9.32997
 42
0.0
  0
VERTEX
  8
0
 10
4.21837
 20
9.34392
 42
0.0
  0
VERTEX
  8
0
 10
4.23936
 20
9.35938
 42
0.0
  0
VERTEX
  8
0
 10
4.25956
 20
9.37668
 42
0.0
  0
VERTEX
  8
0
 10
4.28065
 20
9.39188
 42
0.0
  0
VERTEX
  8
0
 10
4.30464
 20
9.40099
 42
0.0
  0
VERTEX
  8
0
 10
4.30593
 20
9.36957
 42
0.0
  0
VERTEX
  8
0
 10
4.30219
 20
9.3386
 42
0.0
  0
VERTEX
  8
0
 10
4.29004
 20
9.32574
 42
0.0
  0
VERTEX
  8
0
 10
4.27681
 20
9.31353
 42
0.0
  0
VERTEX
  8
0
 10
4.26617
 20
9.29997
 42
0.0
  0
VERTEX
  8
0
 10
4.26183
 20
9.28288
 42
0.0
  0
VERTEX
  8
0
 10
4.28961
 20
9.26921
 42
0.0
  0
VERTEX
  8
0
 10
4.32081
 20
9.2646
 42
0.0
  0
VERTEX
  8
0
 10
4.35314
 20
9.26492
 42
0.0
  0
VERTEX
  8
0
 10
4.38465
 20
9.26617
 42
0.0
  0
VERTEX
  8
0
 10
4.4611
 20
9.31131
 42
0.0
  0
VERTEX
  8
0
 10
4.52669
 20
9.37142
 42
0.0
  0
VERTEX
  8
0
 10
4.55593
 20
9.40142
 42
0.0
  0
VERTEX
  8
0
 10
4.5784
 20
9.43658
 42
0.0
  0
VERTEX
  8
0
 10
4.59657
 20
9.4745
 42
0.0
  0
VERTEX
  8
0
 10
4.61296
 20
9.51307
 42
0.0
  0
VERTEX
  8
0
 10
4.64361
 20
9.51878
 42
0.0
  0
VERTEX
  8
0
 10
4.66857
 20
9.50082
 42
0.0
  0
VERTEX
  8
0
 10
4.78217
 20
9.45269
 42
0.0
  0
VERTEX
  8
0
 10
4.83985
 20
9.49849
 42
0.0
  0
VERTEX
  8
0
 10
4.90121
 20
9.53868
 42
0.0
  0
VERTEX
  8
0
 10
4.90776
 20
9.51258
 42
0.0
  0
VERTEX
  8
0
 10
4.90511
 20
9.48583
 42
0.0
  0
VERTEX
  8
0
 10
4.89871
 20
9.45899
 42
0.0
  0
VERTEX
  8
0
 10
4.89404
 20
9.43235
 42
0.0
  0
VERTEX
  8
0
 10
4.89968
 20
9.41992
 42
0.0
  0
VERTEX
  8
0
 10
4.912
 20
9.41749
 42
0.0
  0
VERTEX
  8
0
 10
4.92686
 20
9.42019
 42
0.0
  0
VERTEX
  8
0
 10
4.94026
 20
9.42324
 42
0.0
  0
VERTEX
  8
0
 10
5.03207
 20
9.46767
 42
0.0
  0
VERTEX
  8
0
 10
5.11979
 20
9.51969
 42
0.0
  0
VERTEX
  8
0
 10
5.15642
 20
9.54422
 42
0.0
  0
VERTEX
  8
0
 10
5.18533
 20
9.57775
 42
0.0
  0
VERTEX
  8
0
 10
5.21436
 20
9.61122
 42
0.0
  0
VERTEX
  8
0
 10
5.25125
 20
9.63558
 42
0.0
  0
VERTEX
  8
0
 10
5.30578
 20
9.65636
 42
0.0
  0
VERTEX
  8
0
 10
5.36458
 20
9.65597
 42
0.0
  0
VERTEX
  8
0
 10
5.35254
 20
9.62332
 42
0.0
  0
VERTEX
  8
0
 10
5.32835
 20
9.59961
 42
0.0
  0
VERTEX
  8
0
 10
5.30035
 20
9.57835
 42
0.0
  0
VERTEX
  8
0
 10
5.27713
 20
9.55311
 42
0.0
  0
VERTEX
  8
0
 10
5.34804
 20
9.55643
 42
0.0
  0
VERTEX
  8
0
 10
5.41683
 20
9.57406
 42
0.0
  0
VERTEX
  8
0
 10
5.42953
 20
9.55442
 42
0.0
  0
VERTEX
  8
0
 10
5.43946
 20
9.53293
 42
0.0
  0
VERTEX
  8
0
 10
5.4891
 20
9.53879
 42
0.0
  0
VERTEX
  8
0
 10
5.53879
 20
9.53424
 42
0.0
  0
VERTEX
  8
0
 10
5.56244
 20
9.53369
 42
0.0
  0
VERTEX
  8
0
 10
5.58214
 20
9.54492
 42
0.0
  0
VERTEX
  8
0
 10
5.59868
 20
9.56261
 42
0.0
  0
VERTEX
  8
0
 10
5.61274
 20
9.58149
 42
0.0
  0
VERTEX
  8
0
 10
5.64578
 20
9.63726
 42
0.0
  0
VERTEX
  8
0
 10
5.67931
 20
9.6926
 42
0.0
  0
VERTEX
  8
0
 10
5.72954
 20
9.75131
 42
0.0
  0
VERTEX
  8
0
 10
5.78537
 20
9.80447
 42
0.0
  0
VERTEX
  8
0
 10
5.85385
 20
9.86068
 42
0.0
  0
VERTEX
  8
0
 10
5.92589
 20
9.91319
 42
0.0
  0
SEQEND
  0
POLYLINE
  8
0
 66
     1
 10
0.0
 20
0.0
 30
0.0
 70
     1
  0
VERTEX
  8
0
 10
4.92507
 20
2.96099
 42
0.0
  0
VERTEX
  8
0
 10
4.92649
 20
2.98236
 42
0.0
  0
VERTEX
  8
0
 10
4.97825
 20
2.96946
 42
0.0
  0
VERTEX
  8
0
 10
4.97558
 20
2.92469
 42
0.0
  0
VERTEX
  8
0
 10
4.97715
 20
2.88004
 42
0.0
  0
VERTEX
  8
0
 10
4.94146
 20
2.89811
 42
0.0
  0
VERTEX
  8
0
 10
4.86003
 20
2.8559
 42
0.0
  0
VERTEX
  8
0
 10
4.76824
 20
2.83908
 42
0.0
  0
VERTEX
  8
0
 10
4.72336
 20
2.80496
 42
0.0
  0
VERTEX
  8
0
 10
4.67811
 20
2.77143
 42
0.0
  0
VERTEX
  8
0
 10
4.64274
 20
2.77181
 42
0.0
  0
VERTEX
  8
0
 10
4.61029
 20
2.78842
 42
0.0
  0
VERTEX
  8
0
 10
4.56424
 20
2.79183
 42
0.0
  0
VERTEX
  8
0
 10
4.51801
 20
2.78982
 42
0.0
  0
VERTEX
  8
0
 10
4.51313
 20
2.76736
 42
0.0
  0
VERTEX
  8
0
 10
4.52501
 20
2.74522
 42
0.0
  0
VERTEX
  8
0
 10
4.62776
 20
2.69862
 42
0.0
  0
VERTEX
  8
0
 10
4.64985
 20
2.68636
 42
0.0
  0
VERTEX
  8
0
 10
4.66428
 20
2.66629
 42
0.0
  0
VERTEX
  8
0
 10
4.65294
 20
2.65147
 42
0.0
  0
VERTEX
  8
0
 10
4.63678
 20
2.64318
 42
0.0
  0
VERTEX
  8
0
 10
4.61843
 20
2.63824
 42
0.0
  0
VERTEX
  8
0
 10
4.60058
 20
2.63336
 42
0.0
  0
VERTEX
  8
0
 10
4.58111
 20
2.63282
 42
0.0
  0
VERTEX
  8
0
 10
4.56207
 20
2.63971
 42
0.0
  0
VERTEX
  8
0
 10
4.54297
 20
2.64497
 42
0.0
  0
VERTEX
  8
0
 10
4.52354
 20
2.63949
 42
0.0
  0
VERTEX
  8
0
 10
4.50928
 20
2.62651
 42
0.0
  0
VERTEX
  8
0
 10
4.54308
 20
2.59347
 42
0.0
  0
VERTEX
  8
0
 10
4.57553
 20
2.5586
 42
0.0
  0
VERTEX
  8
0
 10
4.60389
 20
2.52056
 42
0.0
  0
VERTEX
  8
0
 10
4.62532
 20
2.47803
 42
0.0
  0
VERTEX
  8
0
 10
4.60325
 20
2.44993
 42
0.0
  0
VERTEX
  8
0
 10
4.57736
 20
2.4656
 42
0.0
  0
VERTEX
  8
0
 10
4.55311
 20
2.48633
 42
0.0
  0
VERTEX
  8
0
 10
4.52783
 20
2.50076
 42
0.0
  0
VERTEX
  8
0
 10
4.49892
 20
2.49735
 42
0.0
  0
VERTEX
  8
0
 10
4.49826
 20
2.47043
 42
0.0
  0
VERTEX
  8
0
 10
4.50157
 20
2.44374
 42
0.0
  0
VERTEX
  8
0
 10
4.52485
 20
2.40549
 42
0.0
  0
VERTEX
  8
0
 10
4.53233
 20
2.36231
 42
0.0
  0
VERTEX
  8
0
 10
4.51074
 20
2.36268
 42
0.0
  0
VERTEX
  8
0
 10
4.493
 20
2.37337
 42
0.0
  0
VERTEX
  8
0
 10
4.477
 20
2.38861
 42
0.0
  0
VERTEX
  8
0
 10
4.46072
 20
2.40246
 42
0.0
  0
VERTEX
  8
0
 10
4.44472
 20
2.4145
 42
0.0
  0
VERTEX
  8
0
 10
4.42882
 20
2.42719
 42
0.0
  0
VERTEX
  8
0
 10
4.41162
 20
2.43608
 42
0.0
  0
VERTEX
  8
0
 10
4.39176
 20
2.43668
 42
0.0
  0
VERTEX
  8
0
 10
4.39133
 20
2.38374
 42
0.0
  0
VERTEX
  8
0
 10
4.39236
 20
2.3304
 42
0.0
  0
VERTEX
  8
0
 10
4.38818
 20
2.27794
 42
0.0
  0
VERTEX
  8
0
 10
4.37218
 20
2.22738
 42
0.0
  0
VERTEX
  8
0
 10
4.36464
 20
2.20449
 42
0.0
  0
VERTEX
  8
0
 10
4.35926
 20
2.17887
 42
0.0
  0
VERTEX
  8
0
 10
4.34924
 20
2.15793
 42
0.0
  0
VERTEX
  8
0
 10
4.32769
 20
2.14903
 42
0.0
  0
VERTEX
  8
0
 10
4.25987
 20
2.15967
 42
0.0
  0
VERTEX
  8
0
 10
4.19119
 20
2.15913
 42
0.0
  0
VERTEX
  8
0
 10
4.08171
 20
2.11274
 42
0.0
  0
VERTEX
  8
0
 10
3.97526
 20
2.05925
 42
0.0
  0
VERTEX
  8
0
 10
3.87435
 20
1.99354
 42
0.0
  0
VERTEX
  8
0
 10
3.78
 20
1.91863
 42
0.0
  0
VERTEX
  8
0
 10
3.76025
 20
1.89887
 42
0.0
  0
VERTEX
  8
0
 10
3.74849
 20
1.87418
 42
0.0
  0
VERTEX
  8
0
 10
3.79883
 20
1.83826
 42
0.0
  0
VERTEX
  8
0
 10
3.85699
 20
1.81749
 42
0.0
  0
VERTEX
  8
0
 10
3.86019
 20
1.80317
 42
0.0
  0
VERTEX
  8
0
 10
3.86903
 20
1.79243
 42
0.0
  0
VERTEX
  8
0
 10
3.87765
 20
1.78162
 42
0.0
  0
VERTEX
  8
0
 10
3.88043
 20
1.76714
 42
0.0
  0
VERTEX
  8
0
 10
3.80518
 20
1.80886
 42
0.0
  0
VERTEX
  8
0
 10
3.72424
 20
1.83897
 42
0.0
  0
VERTEX
  8
0
 10
3.68544
 20
1.84343
 42
0.0
  0
VERTEX
  8
0
 10
3.64481
 20
1.80626
 42
0.0
  0
VERTEX
  8
0
 10
3.59864
 20
1.77686
 42
0.0
  0
VERTEX
  8
0
 10
3.56435
 20
1.80018
 42
0.0
  0
VERTEX
  8
0
 10
3.52474
 20
1.81401
 42
0.0
  0
VERTEX
  8
0
 10
3.51465
 20
1.84651
 42
0.0
  0
VERTEX
  8
0
 10
3.5236
 20
1.87885
 42
0.0
  0
VERTEX
  8
0
 10
3.54449
 20
1.90788
 42
0.0
  0
VERTEX
  8
0
 10
3.57032
 20
1.93044
 42
0.0
  0
VERTEX
  8
0
 10
3.61003
 20
1.93674
 42
0.0
  0
VERTEX
  8
0
 10
3.64671
 20
1.95324
 42
0.0
  0
VERTEX
  8
0
 10
3.79514
 20
2.04167
 42
0.0
  0
VERTEX
  8
0
 10
3.85547
 20
2.12028
 42
0.0
  0
VERTEX
  8
0
 10
3.91336
 20
2.2009
 42
0.0
  0
VERTEX
  8
0
 10
3.91878
 20
2.21647
 42
0.0
  0
VERTEX
  8
0
 10
3.91482
 20
2.23313
 42
0.0
  0
VERTEX
  8
0
 10
3.89274
 20
2.23583
 42
0.0
  0
VERTEX
  8
0
 10
3.86849
 20
2.23519
 42
0.0
  0
VERTEX
  8
0
 10
3.8475
 20
2.23947
 42
0.0
  0
VERTEX
  8
0
 10
3.83529
 20
2.25678
 42
0.0
  0
VERTEX
  8
0
 10
3.89785
 20
2.25663
 42
0.0
  0
VERTEX
  8
0
 10
3.96024
 20
2.25917
 42
0.0
  0
VERTEX
  8
0
 10
3.97564
 20
2.27419
 42
0.0
  0
VERTEX
  8
0
 10
3.99203
 20
2.28911
 42
0.0
  0
VERTEX
  8
0
 10
4.00456
 20
2.30604
 42
0.0
  0
VERTEX
  8
0
 10
4.00851
 20
2.32688
 42
0.0
  0
VERTEX
  8
0
 10
3.95253
 20
2.33421
 42
0.0
  0
VERTEX
  8
0
 10
3.96229
 20
2.35764
 42
0.0
  0
VERTEX
  8
0
 10
3.97086
 20
2.38108
 42
0.0
  0
VERTEX
  8
0
 10
3.97347
 20
2.40489
 42
0.0
  0
VERTEX
  8
0
 10
3.96565
 20
2.42936
 42
0.0
  0
VERTEX
  8
0
 10
3.99696
 20
2.45622
 42
0.0
  0
VERTEX
  8
0
 10
4.02994
 20
2.48161
 42
0.0
  0
VERTEX
  8
0
 10
4.06158
 20
2.50857
 42
0.0
  0
VERTEX
  8
0
 10
4.08882
 20
2.53999
 42
0.0
  0
VERTEX
  8
0
 10
4.13276
 20
2.63846
 42
0.0
  0
VERTEX
  8
0
 10
4.1525
 20
2.6429
 42
0.0
  0
VERTEX
  8
0
 10
4.17258
 20
2.64779
 42
0.0
  0
VERTEX
  8
0
 10
4.19065
 20
2.65614
 42
0.0
  0
VERTEX
  8
0
 10
4.20454
 20
2.6709
 42
0.0
  0
VERTEX
  8
0
 10
4.22347
 20
2.68929
 42
0.0
  0
VERTEX
  8
0
 10
4.24707
 20
2.70356
 42
0.0
  0
VERTEX
  8
0
 10
4.26682
 20
2.72021
 42
0.0
  0
VERTEX
  8
0
 10
4.27431
 20
2.74571
 42
0.0
  0
VERTEX
  8
0
 10
4.24918
 20
2.75999
 42
0.0
  0
VERTEX
  8
0
 10
4.22038
 20
2.7691
 42
0.0
  0
VERTEX
  8
0
 10
4.19536
 20
2.78185
 42
0.0
  0
VERTEX
  8
0
 10
4.18169
 20
2.80701
 42
0.0
  0
VERTEX
  8
0
 10
4.18175
 20
2.81967
 42
0.0
  0
VERTEX
  8
0
 10
4.1894
 20
2.82921
 42
0.0
  0
VERTEX
  8
0
 10
4.20096
 20
2.83604
 42
0.0
  0
VERTEX
  8
0
 10
4.21278
 20
2.84056
 42
0.0
  0
VERTEX
  8
0
 10
4.30354
 20
2.85508
 42
0.0
  0
VERTEX
  8
0
 10
4.39513
 20
2.85075
 42
0.0
  0
VERTEX
  8
0
 10
4.56771
 20
2.85938
 42
0.0
  0
VERTEX
  8
0
 10
4.7366
 20
2.90181
 42
0.0
  0
VERTEX
  8
0
 10
4.76833
 20
2.90821
 42
0.0
  0
VERTEX
  8
0
 10
4.80094
 20
2.90864
 42
0.0
  0
VERTEX
  8
0
 10
4.83356
 20
2.90935
 42
0.0
  0
VERTEX
  8
0
 10
4.86529
 20
2.9165
 42
0.0
  0
VERTEX
  8
0
 10
4.88661
 20
2.91488
 42
0.0
  0
SEQEND
  0
POLYLINE
  8
0
 66
     1
 10
0.0
 20
0.0
 30
0.0
 70
     1
  0
VERTEX
  8
0
 10
7.07493
 20
9.01872
 42
0.0
  0
VERTEX
  8
0
 10
7.03776
 20
9.01969
 42
0.0
  0
VERTEX
  8
0
 10
7.04992
 20
9.03347
 42
0.0
  0
VERTEX
  8
0
 10
7.06739
 20
9.03808
 42
0.0
  0
VERTEX
  8
0
 10
7.15608
 20
9.03879
 42
0.0
  0
VERTEX
  8
0
 10
7.24479
 20
9.03592
 42
0.0
  0
VERTEX
  8
0
 10
7.32758
 20
9.02344
 42
0.0
  0
VERTEX
  8
0
 10
7.40761
 20
9.00131
 42
0.0
  0
VERTEX
  8
0
 10
7.47385
 20
8.98947
 42
0.0
  0
VERTEX
  8
0
 10
7.53907
 20
8.972
 42
0.0
  0
VERTEX
  8
0
 10
7.54096
 20
8.96397
 42
0.0
  0
VERTEX
  8
0
 10
7.46729
 20
8.97194
 42
0.0
  0
VERTEX
  8
0
 10
7.39426
 20
8.98415
 42
0.0
  0
VERTEX
  8
0
 10
7.19385
 20
8.98062
 42
0.0
  0
VERTEX
  8
0
 10
7.14968
 20
8.98736
 42
0.0
  0
VERTEX
  8
0
 10
7.10981
 20
9.0076
 42
0.0
  0
SEQEND
  0
POLYLINE
  8
0
 66
     1
 10
0.0
 20
0.0
 30
0.0
 70
     1
  0
VERTEX
  8
0
 10
6.08669
 20
3.70958
 42
0.0
  0
VERTEX
  8
0
 10
6.12164
 20
3.71392
 42
0.0
  0
VERTEX
  8
0
 10
6.20568
 20
3.74115
 42
0.0
  0
VERTEX
  8
0
 10
6.28901
 20
3.7704
 42
0.0
  0
VERTEX
  8
0
 10
6.3814
 20
3.77274
 42
0.0
  0
VERTEX
  8
0
 10
6.47319
 20
3.76258
 42
0.0
  0
VERTEX
  8
0
 10
6.57454
 20
3.74338
 42
0.0
  0
VERTEX
  8
0
 10
6.67258
 20
3.71257
 42
0.0
  0
VERTEX
  8
0
 10
6.71197
 20
3.69819
 42
0.0
  0
VERTEX
  8
0
 10
6.75265
 20
3.68722
 42
0.0
  0
VERTEX
  8
0
 10
6.79243
 20
3.67437
 42
0.0
  0
VERTEX
  8
0
 10
6.82915
 20
3.65408
 42
0.0
  0
VERTEX
  8
0
 10
6.85949
 20
3.62761
 42
0.0
  0
VERTEX
  8
0
 10
6.88476
 20
3.59619
 42
0.0
  0
VERTEX
  8
0
 10
6.90978
 20
3.56451
 42
0.0
  0
VERTEX
  8
0
 10
6.93956
 20
3.53728
 42
0.0
  0
VERTEX
  8
0
 10
6.9725
 20
3.51264
 42
0.0
  0
VERTEX
  8
0
 10
7.00299
 20
3.48465
 42
0.0
  0
VERTEX
  8
0
 10
7.02826
 20
3.45236
 42
0.0
  0
VERTEX
  8
0
 10
7.04531
 20
3.41471
 42
0.0
  0
VERTEX
  8
0
 10
7.06347
 20
3.36301
 42
0.0
  0
VERTEX
  8
0
 10
7.06907
 20
3.30931
 42
0.0
  0
VERTEX
  8
0
 10
7.0446
 20
3.31494
 42
0.0
  0
VERTEX
  8
0
 10
7.00933
 20
3.36219
 42
0.0
  0
VERTEX
  8
0
 10
6.90653
 20
3.47379
 42
0.0
  0
VERTEX
  8
0
 10
6.86828
 20
3.51064
 42
0.0
  0
VERTEX
  8
0
 10
6.7909
 20
3.57249
 42
0.0
  0
VERTEX
  8
0
 10
6.71272
 20
3.61751
 42
0.0
  0
VERTEX
  8
0
 10
6.63097
 20
3.65549
 42
0.0
  0
VERTEX
  8
0
 10
6.58572
 20
3.65679
 42
0.0
  0
VERTEX
  8
0
 10
6.54688
 20
3.63553
 42
0.0
  0
VERTEX
  8
0
 10
6.56299
 20
3.57861
 42
0.0
  0
VERTEX
  8
0
 10
6.47379
 20
3.58469
 42
0.0
  0
VERTEX
  8
0
 10
6.38476
 20
3.59022
 42
0.0
  0
VERTEX
  8
0
 10
6.36931
 20
3.58772
 42
0.0
  0
VERTEX
  8
0
 10
6.35558
 20
3.57883
 42
0.0
  0
VERTEX
  8
0
 10
6.34733
 20
3.56565
 42
0.0
  0
VERTEX
  8
0
 10
6.34836
 20
3.55024
 42
0.0
  0
VERTEX
  8
0
 10
6.36513
 20
3.53504
 42
0.0
  0
VERTEX
  8
0
 10
6.38564
 20
3.52572
 42
0.0
  0
VERTEX
  8
0
 10
6.40761
 20
3.51887
 42
0.0
  0
VERTEX
  8
0
 10
6.42899
 20
3.51096
 42
0.0
  0
VERTEX
  8
0
 10
6.46864
 20
3.47157
 42
0.0
  0
VERTEX
  8
0
 10
6.50347
 20
3.4274
 42
0.0
  0
VERTEX
  8
0
 10
6.54878
 20
3.37299
 42
0.0
  0
VERTEX
  8
0
 10
6.58951
 20
3.31483
 42
0.0
  0
VERTEX
  8
0
 10
6.60167
 20
3.28142
 42
0.0
  0
VERTEX
  8
0
 10
6.37429
 20
3.38921
 42
0.0
  0
VERTEX
  8
0
 10
6.35699
 20
3.38726
 42
0.0
  0
VERTEX
  8
0
 10
6.36524
 20
3.34663
 42
0.0
  0
VERTEX
  8
0
 10
6.38633
 20
3.31039
 42
0.0
  0
VERTEX
  8
0
 10
6.42481
 20
3.24875
 42
0.0
  0
VERTEX
  8
0
 10
6.45281
 20
3.18121
 42
0.0
  0
VERTEX
  8
0
 10
6.46143
 20
3.12414
 42
0.0
  0
VERTEX
  8
0
 10
6.43414
 20
3.1149
 42
0.0
  0
VERTEX
  8
0
 10
6.36719
 20
3.18435
 42
0.0
  0
VERTEX
  8
0
 10
6.30078
 20
3.25401
 42
0.0
  0
VERTEX
  8
0
 10
6.27626
 20
3.27061
 42
0.0
  0
VERTEX
  8
0
 10
6.25082
 20
3.28706
 42
0.0
  0
VERTEX
  8
0
 10
6.22385
 20
3.29893
 42
0.0
  0
VERTEX
  8
0
 10
6.19488
 20
3.30149
 42
0.0
  0
VERTEX
  8
0
 10
6.20253
 20
3.25276
 42
0.0
  0
VERTEX
  8
0
 10
6.22532
 20
3.20774
 42
0.0
  0
VERTEX
  8
0
 10
6.22949
 20
3.18403
 42
0.0
  0
VERTEX
  8
0
 10
6.21892
 20
3.16401
 42
0.0
  0
VERTEX
  8
0
 10
6.15571
 20
3.21186
 42
0.0
  0
VERTEX
  8
0
 10
6.09119
 20
3.25749
 42
0.0
  0
VERTEX
  8
0
 10
6.05875
 20
3.22987
 42
0.0
  0
VERTEX
  8
0
 10
6.01975
 20
3.24951
 42
0.0
  0
VERTEX
  8
0
 10
5.98063
 20
3.26833
 42
0.0
  0
VERTEX
  8
0
 10
5.99897
 20
3.20404
 42
0.0
  0
VERTEX
  8
0
 10
6.03217
 20
3.1454
 42
0.0
  0
VERTEX
  8
0
 10
6.05046
 20
3.08583
 42
0.0
  0
VERTEX
  8
0
 10
6.05675
 20
3.02376
 42
0.0
  0
VERTEX
  8
0
 10
6.03353
 20
3.03022
 42
0.0
  0
VERTEX
  8
0
 10
6.01264
 20
3.04346
 42
0.0
  0
VERTEX
  8
0
 10
5.99306
 20
3.05974
 42
0.0
  0
VERTEX
  8
0
 10
5.97379
 20
3.07519
 42
0.0
  0
VERTEX
  8
0
 10
5.95687
 20
3.09076
 42
0.0
  0
VERTEX
  8
0
 10
5.93972
 20
3.1071
 42
0.0
  0
VERTEX
  8
0
 10
5.92074
 20
3.11936
 42
0.0
  0
VERTEX
  8
0
 10
5.89833
 20
3.12267
 42
0.0
  0
VERTEX
  8
0
 10
5.89615
 20
3.10271
 42
0.0
  0
VERTEX
  8
0
 10
5.89643
 20
3.08182
 42
0.0
  0
VERTEX
  8
0
 10
5.8929
 20
3.06261
 42
0.0
  0
VERTEX
  8
0
 10
5.87961
 20
3.04769
 42
0.0
  0
VERTEX
  8
0
 10
5.85172
 20
3.04997
 42
0.0
  0
VERTEX
  8
0
 10
5.76531
 20
3.07585
 42
0.0
  0
VERTEX
  8
0
 10
5.72026
 20
3.11996
 42
0.0
  0
VERTEX
  8
0
 10
5.69456
 20
3.11979
 42
0.0
  0
VERTEX
  8
0
 10
5.70301
 20
3.03754
 42
0.0
  0
VERTEX
  8
0
 10
5.7175
 20
2.95589
 42
0.0
  0
VERTEX
  8
0
 10
5.7245
 20
2.92557
 42
0.0
  0
VERTEX
  8
0
 10
5.72401
 20
2.89486
 42
0.0
  0
VERTEX
  8
0
 10
5.68821
 20
2.89882
 42
0.0
  0
VERTEX
  8
0
 10
5.63471
 20
2.98118
 42
0.0
  0
VERTEX
  8
0
 10
5.56407
 20
3.04949
 42
0.0
  0
VERTEX
  8
0
 10
5.55322
 20
3.02171
 42
0.0
  0
VERTEX
  8
0
 10
5.55697
 20
2.99149
 42
0.0
  0
VERTEX
  8
0
 10
5.56679
 20
2.96056
 42
0.0
  0
VERTEX
  8
0
 10
5.574
 20
2.93056
 42
0.0
  0
VERTEX
  8
0
 10
5.55149
 20
2.933
 42
0.0
  0
VERTEX
  8
0
 10
5.53157
 20
2.94417
 42
0.0
  0
VERTEX
  8
0
 10
5.51243
 20
2.95828
 42
0.0
  0
VERTEX
  8
0
 10
5.49229
 20
2.96951
 42
0.0
  0
VERTEX
  8
0
 10
5.37587
 20
3.01611
 42
0.0
  0
VERTEX
  8
0
 10
5.27544
 20
2.99664
 42
0.0
  0
VERTEX
  8
0
 10
5.08772
 20
2.97428
 42
0.0
  0
VERTEX
  8
0
 10
5.11453
 20
2.99783
 42
0.0
  0
VERTEX
  8
0
 10
5.14638
 20
3.01585
 42
0.0
  0
VERTEX
  8
0
 10
5.24826
 20
3.06733
 42
0.0
  0
VERTEX
  8
0
 10
5.35124
 20
3.1166
 42
0.0
  0
VERTEX
  8
0
 10
5.40983
 20
3.14606
 42
0.0
  0
VERTEX
  8
0
 10
5.46599
 20
3.18012
 42
0.0
  0
VERTEX
  8
0
 10
5.47304
 20
3.19536
 42
0.0
  0
VERTEX
  8
0
 10
5.47819
 20
3.21153
 42
0.0
  0
VERTEX
  8
0
 10
5.48525
 20
3.22629
 42
0.0
  0
VERTEX
  8
0
 10
5.49804
 20
3.23708
 42
0.0
  0
VERTEX
  8
0
 10
5.51188
 20
3.24924
 42
0.0
  0
VERTEX
  8
0
 10
5.51856
 20
3.26535
 42
0.0
  0
VERTEX
  8
0
 10
5.52007
 20
3.28347
 42
0.0
  0
VERTEX
  8
0
 10
5.51839
 20
3.3016
 42
0.0
  0
VERTEX
  8
0
 10
5.57113
 20
3.30246
 42
0.0
  0
VERTEX
  8
0
 10
5.6301
 20
3.33615
 42
0.0
  0
VERTEX
  8
0
 10
5.69553
 20
3.35471
 42
0.0
  0
VERTEX
  8
0
 10
5.76833
 20
3.3649
 42
0.0
  0
VERTEX
  8
0
 10
5.83968
 20
3.38172
 42
0.0
  0
VERTEX
  8
0
 10
5.84472
 20
3.39833
 42
0.0
  0
VERTEX
  8
0
 10
5.80931
 20
3.42503
 42
0.0
  0
VERTEX
  8
0
 10
5.76628
 20
3.43272
 42
0.0
  0
VERTEX
  8
0
 10
5.76665
 20
3.44233
 42
0.0
  0
VERTEX
  8
0
 10
5.83539
 20
3.44174
 42
0.0
  0
VERTEX
  8
0
 10
5.90306
 20
3.45204
 42
0.0
  0
VERTEX
  8
0
 10
5.97412
 20
3.45524
 42
0.0
  0
VERTEX
  8
0
 10
6.04254
 20
3.47358
 42
0.0
  0
VERTEX
  8
0
 10
6.04406
 20
3.49571
 42
0.0
  0
VERTEX
  8
0
 10
6.03668
 20
3.51839
 42
0.0
  0
VERTEX
  8
0
 10
6.03515
 20
3.53737
 42
0.0
  0
VERTEX
  8
0
 10
6.0446
 20
3.55333
 42
0.0
  0
VERTEX
  8
0
 10
6.05914
 20
3.56749
 42
0.0
  0
VERTEX
  8
0
 10
6.07297
 20
3.58089
 42
0.0
  0
VERTEX
  8
0
 10
6.09581
 20
3.58236
 42
0.0
  0
VERTEX
  8
0
 10
6.11968
 20
3.58128
 42
0.0
  0
VERTEX
  8
0
 10
6.14219
 20
3.58371
 42
0.0
  0
VERTEX
  8
0
 10
6.16092
 20
3.59576
 42
0.0
  0
VERTEX
  8
0
 10
6.10753
 20
3.64296
 42
0.0
  0
VERTEX
  8
0
 10
6.05181
 20
3.68756
 42
0.0
  0
VERTEX
  8
0
 10
6.05263
 20
3.70329
 42
0.0
  0
SEQEND
  0
POLYLINE
  8
0
 66
     1
 10
0.0
 20
0.0
 30
0.0
 70
     1
  0
VERTEX
  8
0
 10
7.93283
 20
5.33117
 42
0.0
  0
VERTEX
  8
0
 10
7.92996
 20
5.34413
 42
0.0
  0
VERTEX
  8
0
 10
8.24078
 20
5.25319
 42
0.0
  0
VERTEX
  8
0
 10
8.35851
 20
5.20008
 42
0.0
  0
VERTEX
  8
0
 10
8.4719
 20
5.13846
 42
0.0
  0
VERTEX
  8
0
 10
8.51801
 20
5.11014
 42
0.0
  0
VERTEX
  8
0
 10
8.565
 20
5.08306
 42
0.0
  0
VERTEX
  8
0
 10
8.63282
 20
5.03706
 42
0.0
  0
VERTEX
  8
0
 10
8.70199
 20
4.993
 42
0.0
  0
VERTEX
  8
0
 10
8.7264
 20
4.99278
 42
0.0
  0
VERTEX
  8
0
 10
8.71674
 20
5.05626
 42
0.0
  0
VERTEX
  8
0
 10
8.68522
 20
5.11089
 42
0.0
  0
VERTEX
  8
0
 10
8.63997
 20
5.15744
 42
0.0
  0
VERTEX
  8
0
 10
8.58931
 20
5.19646
 42
0.0
  0
VERTEX
  8
0
 10
8.58062
 20
5.2334
 42
0.0
  0
VERTEX
  8
0
 10
8.56142
 20
5.26665
 42
0.0
  0
VERTEX
  8
0
 10
8.61453
 20
5.243
 42
0.0
  0
VERTEX
  8
0
 10
8.66342
 20
5.21089
 42
0.0
  0
VERTEX
  8
0
 10
8.75846
 20
5.13336
 42
0.0
  0
VERTEX
  8
0
 10
8.85135
 20
5.05333
 42
0.0
  0
VERTEX
  8
0
 10
8.96989
 20
4.95426
 42
0.0
  0
VERTEX
  8
0
 10
9.07368
 20
4.84017
 42
0.0
  0
VERTEX
  8
0
 10
9.15424
 20
4.73725
 42
0.0
  0
VERTEX
  8
0
 10
9.23096
 20
4.63135
 42
0.0
  0
VERTEX
  8
0
 10
9.38792
 20
4.39497
 42
0.0
  0
VERTEX
  8
0
 10
9.53114
 20
4.14985
 42
0.0
  0
VERTEX
  8
0
 10
9.56565
 20
4.09299
 42
0.0
  0
VERTEX
  8
0
 10
9.58637
 20
4.03028
 42
0.0
  0
VERTEX
  8
0
 10
9.53956
 20
4.07075
 42
0.0
  0
VERTEX
  8
0
 10
9.49675
 20
4.11583
 42
0.0
  0
VERTEX
  8
0
 10
9.35906
 20
4.25532
 42
0.0
  0
VERTEX
  8
0
 10
9.3201
 20
4.28131
 42
0.0
  0
VERTEX
  8
0
 10
9.27881
 20
4.30354
 42
0.0
  0
VERTEX
  8
0
 10
9.25538
 20
4.34369
 42
0.0
  0
VERTEX
  8
0
 10
9.22949
 20
4.38211
 42
0.0
  0
VERTEX
  8
0
 10
9.20725
 20
4.39578
 42
0.0
  0
VERTEX
  8
0
 10
9.18104
 20
4.403
 42
0.0
  0
VERTEX
  8
0
 10
9.1556
 20
4.41086
 42
0.0
  0
VERTEX
  8
0
 10
9.13553
 20
4.4266
 42
0.0
  0
VERTEX
  8
0
 10
9.11643
 20
4.43701
 42
0.0
  0
VERTEX
  8
0
 10
9.04053
 20
4.49403
 42
0.0
  0
VERTEX
  8
0
 10
8.93056
 20
4.57943
 42
0.0
  0
VERTEX
  8
0
 10
8.81299
 20
4.6741
 42
0.0
  0
VERTEX
  8
0
 10
8.69635
 20
4.76975
 42
0.0
  0
VERTEX
  8
0
 10
8.59158
 20
4.85786
 42
0.0
  0
VERTEX
  8
0
 10
8.48703
 20
4.94601
 42
0.0
  0
VERTEX
  8
0
 10
8.44254
 20
4.98639
 42
0.0
  0
VERTEX
  8
0
 10
8.39415
 20
5.02181
 42
0.0
  0
VERTEX
  8
0
 10
8.34446
 20
5.05567
 42
0.0
  0
VERTEX
  8
0
 10
8.29622
 20
5.09131
 42
0.0
  0
VERTEX
  8
0
 10
8.15983
 20
5.17833
 42
0.0
  0
VERTEX
  8
0
 10
8.02246
 20
5.26361
 42
0.0
  0
VERTEX
  8
0
 10
7.97711
 20
5.29676
 42
0.0
  0
SEQEND
  0
POLYLINE
  8
0
 66
     1
 10
0.0
 20
0.0
 30
0.0
 70
     1
  0
VERTEX
  8
0
 10
2.79671
 20
8.07796
 42
0.0
  0
VERTEX
  8
0
 10
2.81901
 20
8.10189
 42
0.0
  0
VERTEX
  8
0
 10
2.85693
 20
8.13325
 42
0.0
  0
VERTEX
  8
0
 10
2.90013
 20
8.15788
 42
0.0
  0
VERTEX
  8
0
 10
2.90397
 20
8.16015
 42
0.0
  0
VERTEX
  8
0
 10
2.90821
 20
8.16282
 42
0.0
  0
VERTEX
  8
0
 10
2.92156
 20
8.17171
 42
0.0
  0
VERTEX
  8
0
 10
2.9349
 20
8.18061
 42
0.0
  0
VERTEX
  8
0
 10
2.93918
 20
8.18326
 42
0.0
  0
VERTEX
  8
0
 10
2.99582
 20
8.22624
 42
0.0
  0
VERTEX
  8
0
 10
3.04471
 20
8.27821
 42
0.0
  0
VERTEX
  8
0
 10
3.04758
 20
8.28228
 42
0.0
  0
VERTEX
  8
0
 10
3.07531
 20
8.33089
 42
0.0
  0
VERTEX
  8
0
 10
3.10385
 20
8.37901
 42
0.0
  0
VERTEX
  8
0
 10
3.10753
 20
8.38499
 42
0.0
  0
VERTEX
  8
0
 10
3.11317
 20
8.39475
 42
0.0
  0
VERTEX
  8
0
 10
3.11751
 20
8.4024
 42
0.0
  0
VERTEX
  8
0
 10
3.12315
 20
8.41237
 42
0.0
  0
VERTEX
  8
0
 10
3.12679
 20
8.4184
 42
0.0
  0
VERTEX
  8
0
 10
3.13667
 20
8.43332
 42
0.0
  0
VERTEX
  8
0
 10
3.14671
 20
8.44819
 42
0.0
  0
VERTEX
  8
0
 10
3.15067
 20
8.45389
 42
0.0
  0
VERTEX
  8
0
 10
3.15539
 20
8.46132
 42
0.0
  0
VERTEX
  8
0
 10
3.16271
 20
8.47331
 42
0.0
  0
VERTEX
  8
0
 10
3.16797
 20
8.48221
 42
0.0
  0
VERTEX
  8
0
 10
3.17518
 20
8.49517
 42
0.0
  0
VERTEX
  8
0
 10
3.18012
 20
8.50407
 42
0.0
  0
VERTEX
  8
0
 10
3.18375
 20
8.51144
 42
0.0
  0
VERTEX
  8
0
 10
3.18653
 20
8.51818
 42
0.0
  0
VERTEX
  8
0
 10
3.1926
 20
8.53196
 42
0.0
  0
VERTEX
  8
0
 10
3.19661
 20
8.54075
 42
0.0
  0
VERTEX
  8
0
 10
3.2021
 20
8.55165
 42
0.0
  0
VERTEX
  8
0
 10
3.20606
 20
8.55843
 42
0.0
  0
VERTEX
  8
0
 10
3.22287
 20
8.57596
 42
0.0
  0
VERTEX
  8
0
 10
3.2296
 20
8.58003
 42
0.0
  0
VERTEX
  8
0
 10
3.24007
 20
8.58544
 42
0.0
  0
VERTEX
  8
0
 10
3.24804
 20
8.58951
 42
0.0
  0
VERTEX
  8
0
 10
3.25846
 20
8.59457
 42
0.0
  0
VERTEX
  8
0
 10
3.26486
 20
8.59754
 42
0.0
  0
VERTEX
  8
0
 10
3.31185
 20
8.61621
 42
0.0
  0
VERTEX
  8
0
 10
3.31651
 20
8.618
 42
0.0
  0
VERTEX
  8
0
 10
3.37229
 20
8.63906
 42
0.0
  0
VERTEX
  8
0
 10
3.42643
 20
8.66331
 42
0.0
  0
VERTEX
  8
0
 10
3.46474
 20
8.67681
 42
0.0
  0
VERTEX
  8
0
 10
3.50097
 20
8.69476
 42
0.0
  0
VERTEX
  8
0
 10
3.507
 20
8.6984
 42
0.0
  0
VERTEX
  8
0
 10
3.51693
 20
8.70383
 42
0.0
  0
VERTEX
  8
0
 10
3.52501
 20
8.70774
 42
0.0
  0
VERTEX
  8
0
 10
3.53592
 20
8.71197
 42
0.0
  0
VERTEX
  8
0
 10
3.54275
 20
8.71436
 42
0.0
  0
VERTEX
  8
0
 10
3.57753
 20
8.72553
 42
0.0
  0
VERTEX
  8
0
 10
3.60992
 20
8.7424
 42
0.0
  0
VERTEX
  8
0
 10
3.61404
 20
8.74479
 42
0.0
  0
VERTEX
  8
0
 10
3.64106
 20
8.75569
 42
0.0
  0
VERTEX
  8
0
 10
3.71756
 20
8.7819
 42
0.0
  0
VERTEX
  8
0
 10
3.76172
 20
8.80067
 42
0.0
  0
VERTEX
  8
0
 10
3.76736
 20
8.80246
 42
0.0
  0
VERTEX
  8
0
 10
3.77192
 20
8.80388
 42
0.0
  0
VERTEX
  8
0
 10
3.77724
 20
8.80593
 42
0.0
  0
VERTEX
  8
0
 10
3.83046
 20
8.83057
 42
0.0
  0
VERTEX
  8
0
 10
3.83475
 20
8.83251
 42
0.0
  0
VERTEX
  8
0
 10
3.83985
 20
8.83479
 42
0.0
  0
VERTEX
  8
0
 10
3.86328
 20
8.84353
 42
0.0
  0
VERTEX
  8
0
 10
3.86951
 20
8.84532
 42
0.0
  0
VERTEX
  8
0
 10
3.8884
 20
8.84944
 42
0.0
  0
VERTEX
  8
0
 10
3.90733
 20
8.85351
 42
0.0
  0
VERTEX
  8
0
 10
3.91276
 20
8.8546
 42
0.0
  0
VERTEX
  8
0
 10
3.91986
 20
8.85699
 42
0.0
  0
VERTEX
  8
0
 10
3.93164
 20
8.86231
 42
0.0
  0
VERTEX
  8
0
 10
3.94043
 20
8.86638
 42
0.0
  0
VERTEX
  8
0
 10
3.95144
 20
8.87153
 42
0.0
  0
VERTEX
  8
0
 10
3.95893
 20
8.87478
 42
0.0
  0
VERTEX
  8
0
 10
3.98258
 20
8.88319
 42
0.0
  0
VERTEX
  8
0
 10
3.98856
 20
8.88499
 42
0.0
  0
VERTEX
  8
0
 10
4.13938
 20
8.92899
 42
0.0
  0
VERTEX
  8
0
 10
4.14589
 20
8.93044
 42
0.0
  0
VERTEX
  8
0
 10
4.1525
 20
8.93197
 42
0.0
  0
VERTEX
  8
0
 10
4.15913
 20
8.93343
 42
0.0
  0
VERTEX
  8
0
 10
4.16943
 20
8.93826
 42
0.0
  0
VERTEX
  8
0
 10
4.17714
 20
8.94065
 42
0.0
  0
VERTEX
  8
0
 10
4.18772
 20
8.94547
 42
0.0
  0
VERTEX
  8
0
 10
4.19596
 20
8.9465
 42
0.0
  0
VERTEX
  8
0
 10
4.21338
 20
8.94987
 42
0.0
  0
VERTEX
  8
0
 10
4.23085
 20
8.95324
 42
0.0
  0
VERTEX
  8
0
 10
4.24094
 20
8.95736
 42
0.0
  0
VERTEX
  8
0
 10
4.24837
 20
8.95796
 42
0.0
  0
VERTEX
  8
0
 10
4.25244
 20
8.96431
 42
0.0
  0
VERTEX
  8
0
 10
4.26004
 20
8.96707
 42
0.0
  0
VERTEX
  8
0
 10
4.26704
 20
8.96946
 42
0.0
  0
VERTEX
  8
0
 10
4.27279
 20
8.9714
 42
0.0
  0
VERTEX
  8
0
 10
4.27935
 20
8.97428
 42
0.0
  0
VERTEX
  8
0
 10
4.32314
 20
8.99121
 42
0.0
  0
VERTEX
  8
0
 10
4.32801
 20
8.99246
 42
0.0
  0
VERTEX
  8
0
 10
4.33371
 20
8.99408
 42
0.0
  0
VERTEX
  8
0
 10
4.35835
 20
9.00179
 42
0.0
  0
VERTEX
  8
0
 10
4.36518
 20
9.00396
 42
0.0
  0
VERTEX
  8
0
 10
4.38803
 20
9.01139
 42
0.0
  0
VERTEX
  8
0
 10
4.39404
 20
9.01307
 42
0.0
  0
VERTEX
  8
0
 10
4.46137
 20
9.02794
 42
0.0
  0
VERTEX
  8
0
 10
4.52837
 20
9.04471
 42
0.0
  0
VERTEX
  8
0
 10
4.5356
 20
9.04779
 42
0.0
  0
VERTEX
  8
0
 10
4.54107
 20
9.05143
 42
0.0
  0
VERTEX
  8
0
 10
4.56586
 20
9.06207
 42
0.0
  0
VERTEX
  8
0
 10
4.59267
 20
9.06814
 42
0.0
  0
VERTEX
  8
0
 10
4.59831
 20
9.06956
 42
0.0
  0
VERTEX
  8
0
 10
4.60286
 20
9.07075
 42
0.0
  0
VERTEX
  8
0
 10
4.60872
 20
9.07249
 42
0.0
  0
VERTEX
  8
0
 10
4.62879
 20
9.07617
 42
0.0
  0
VERTEX
  8
0
 10
4.64887
 20
9.07981
 42
0.0
  0
VERTEX
  8
0
 10
4.65511
 20
9.07872
 42
0.0
  0
VERTEX
  8
0
 10
4.65744
 20
9.08436
 42
0.0
  0
VERTEX
  8
0
 10
4.66319
 20
9.08507
 42
0.0
  0
VERTEX
  8
0
 10
4.69814
 20
9.08567
 42
0.0
  0
VERTEX
  8
0
 10
4.73264
 20
9.09099
 42
0.0
  0
VERTEX
  8
0
 10
4.73796
 20
9.09347
 42
0.0
  0
VERTEX
  8
0
 10
4.75792
 20
9.09814
 42
0.0
  0
VERTEX
  8
0
 10
4.77794
 20
9.10275
 42
0.0
  0
VERTEX
  8
0
 10
4.82394
 20
9.10699
 42
0.0
  0
VERTEX
  8
0
 10
4.83561
 20
9.10861
 42
0.0
  0
VERTEX
  8
0
 10
4.84185
 20
9.10889
 42
0.0
  0
VERTEX
  8
0
 10
5.09961
 20
9.10829
 42
0.0
  0
VERTEX
  8
0
 10
5.10601
 20
9.10792
 42
0.0
  0
VERTEX
  8
0
 10
5.12369
 20
9.10568
 42
0.0
  0
VERTEX
  8
0
 10
5.14144
 20
9.10346
 42
0.0
  0
VERTEX
  8
0
 10
5.16249
 20
9.097
 42
0.0
  0
VERTEX
  8
0
 10
5.16894
 20
9.09793
 42
0.0
  0
VERTEX
  8
0
 10
5.17654
 20
9.09831
 42
0.0
  0
VERTEX
  8
0
 10
5.19069
 20
9.09039
 42
0.0
  0
VERTEX
  8
0
 10
5.19781
 20
9.08192
 42
0.0
  0
VERTEX
  8
0
 10
5.19922
 20
9.0746
 42
0.0
  0
VERTEX
  8
0
 10
5.19997
 20
9.06717
 42
0.0
  0
VERTEX
  8
0
 10
5.20042
 20
9.05963
 42
0.0
  0
VERTEX
  8
0
 10
5.19911
 20
9.02886
 42
0.0
  0
VERTEX
  8
0
 10
5.19874
 20
9.02257
 42
0.0
  0
VERTEX
  8
0
 10
5.18901
 20
8.98281
 42
0.0
  0
VERTEX
  8
0
 10
5.1741
 20
8.94461
 42
0.0
  0
VERTEX
  8
0
 10
5.16922
 20
8.91297
 42
0.0
  0
VERTEX
  8
0
 10
5.15685
 20
8.88396
 42
0.0
  0
VERTEX
  8
0
 10
5.15468
 20
8.87825
 42
0.0
  0
VERTEX
  8
0
 10
5.14757
 20
8.84418
 42
0.0
  0
VERTEX
  8
0
 10
5.13336
 20
8.81293
 42
0.0
  0
VERTEX
  8
0
 10
5.10726
 20
8.80094
 42
0.0
  0
VERTEX
  8
0
 10
5.08425
 20
8.78444
 42
0.0
  0
VERTEX
  8
0
 10
5.05675
 20
8.73133
 42
0.0
  0
VERTEX
  8
0
 10
5.0345
 20
8.67529
 42
0.0
  0
VERTEX
  8
0
 10
5.03147
 20
8.66932
 42
0.0
  0
VERTEX
  8
0
 10
5.02821
 20
8.6626
 42
0.0
  0
VERTEX
  8
0
 10
5.01693
 20
8.63781
 42
0.0
  0
VERTEX
  8
0
 10
5.01372
 20
8.63049
 42
0.0
  0
VERTEX
  8
0
 10
5.0096
 20
8.62028
 42
0.0
  0
VERTEX
  8
0
 10
5.00683
 20
8.61367
 42
0.0
  0
VERTEX
  8
0
 10
4.99821
 20
8.59299
 42
0.0
  0
VERTEX
  8
0
 10
4.979
 20
8.58436
 42
0.0
  0
VERTEX
  8
0
 10
4.97407
 20
8.58279
 42
0.0
  0
VERTEX
  8
0
 10
4.93522
 20
8.57861
 42
0.0
  0
VERTEX
  8
0
 10
4.89626
 20
8.57536
 42
0.0
  0
VERTEX
  8
0
 10
4.88037
 20
8.55886
 42
0.0
  0
VERTEX
  8
0
 10
4.86854
 20
8.53896
 42
0.0
  0
VERTEX
  8
0
 10
4.86615
 20
8.53461
 42
0.0
  0
VERTEX
  8
0
 10
4.85824
 20
8.52029
 42
0.0
  0
VERTEX
  8
0
 10
4.85037
 20
8.50592
 42
0.0
  0
VERTEX
  8
0
 10
4.84776
 20
8.50179
 42
0.0
  0
VERTEX
  8
0
 10
4.84538
 20
8.49794
 42
0.0
  0
VERTEX
  8
0
 10
4.81842
 20
8.47228
 42
0.0
  0
VERTEX
  8
0
 10
4.81228
 20
8.47222
 42
0.0
  0
VERTEX
  8
0
 10
4.81256
 20
8.49013
 42
0.0
  0
VERTEX
  8
0
 10
4.81256
 20
8.49642
 42
0.0
  0
VERTEX
  8
0
 10
4.81657
 20
8.53674
 42
0.0
  0
VERTEX
  8
0
 10
4.82553
 20
8.57585
 42
0.0
  0
VERTEX
  8
0
 10
4.8284
 20
8.5829
 42
0.0
  0
VERTEX
  8
0
 10
4.829
 20
8.59928
 42
0.0
  0
VERTEX
  8
0
 10
4.82542
 20
8.6065
 42
0.0
  0
VERTEX
  8
0
 10
4.81619
 20
8.62125
 42
0.0
  0
VERTEX
  8
0
 10
4.80701
 20
8.63601
 42
0.0
  0
VERTEX
  8
0
 10
4.80425
 20
8.64085
 42
0.0
  0
VERTEX
  8
0
 10
4.801
 20
8.64122
 42
0.0
  0
VERTEX
  8
0
 10
4.79764
 20
8.64094
 42
0.0
  0
VERTEX
  8
0
 10
4.76893
 20
8.60807
 42
0.0
  0
VERTEX
  8
0
 10
4.75276
 20
8.56728
 42
0.0
  0
VERTEX
  8
0
 10
4.74479
 20
8.52289
 42
0.0
  0
VERTEX
  8
0
 10
4.74067
 20
8.479
 42
0.0
  0
VERTEX
  8
0
 10
4.73958
 20
8.47396
 42
0.0
  0
VERTEX
  8
0
 10
4.72076
 20
8.41792
 42
0.0
  0
VERTEX
  8
0
 10
4.71799
 20
8.41146
 42
0.0
  0
VERTEX
  8
0
 10
4.71354
 20
8.40196
 42
0.0
  0
VERTEX
  8
0
 10
4.7105
 20
8.39594
 42
0.0
  0
VERTEX
  8
0
 10
4.70063
 20
8.38292
 42
0.0
  0
VERTEX
  8
0
 10
4.69092
 20
8.36996
 42
0.0
  0
VERTEX
  8
0
 10
4.68664
 20
8.36724
 42
0.0
  0
VERTEX
  8
0
 10
4.64225
 20
8.36783
 42
0.0
  0
VERTEX
  8
0
 10
4.63569
 20
8.36882
 42
0.0
  0
VERTEX
  8
0
 10
4.61268
 20
8.36263
 42
0.0
  0
VERTEX
  8
0
 10
4.60872
 20
8.36046
 42
0.0
  0
VERTEX
  8
0
 10
4.60851
 20
8.35542
 42
0.0
  0
VERTEX
  8
0
 10
4.60004
 20
8.30057
 42
0.0
  0
VERTEX
  8
0
 10
4.58604
 20
8.24669
 42
0.0
  0
VERTEX
  8
0
 10
4.67318
 20
8.26654
 42
0.0
  0
VERTEX
  8
0
 10
4.68001
 20
8.26758
 42
0.0
  0
VERTEX
  8
0
 10
4.68685
 20
8.26833
 42
0.0
  0
VERTEX
  8
0
 10
4.69385
 20
8.26932
 42
0.0
  0
VERTEX
  8
0
 10
4.70057
 20
8.27035
 42
0.0
  0
VERTEX
  8
0
 10
4.71001
 20
8.27376
 42
0.0
  0
VERTEX
  8
0
 10
4.71679
 20
8.27447
 42
0.0
  0
VERTEX
  8
0
 10
4.89524
 20
8.27518
 42
0.0
  0
VERTEX
  8
0
 10
4.89399
 20
8.26942
 42
0.0
  0
VERTEX
  8
0
 10
4.88482
 20
8.25993
 42
0.0
  0
VERTEX
  8
0
 10
4.87565
 20
8.25032
 42
0.0
  0
VERTEX
  8
0
 10
4.87397
 20
8.22678
 42
0.0
  0
VERTEX
  8
0
 10
4.90631
 20
8.23975
 42
0.0
  0
VERTEX
  8
0
 10
4.91194
 20
8.24311
 42
0.0
  0
VERTEX
  8
0
 10
4.9541
 20
8.24799
 42
0.0
  0
VERTEX
  8
0
 10
4.96061
 20
8.24631
 42
0.0
  0
VERTEX
  8
0
 10
4.97803
 20
8.24468
 42
0.0
  0
VERTEX
  8
0
 10
4.99724
 20
8.23204
 42
0.0
  0
VERTEX
  8
0
 10
5.00412
 20
8.21951
 42
0.0
  0
VERTEX
  8
0
 10
5.00933
 20
8.20503
 42
0.0
  0
VERTEX
  8
0
 10
5.01585
 20
8.19211
 42
0.0
  0
VERTEX
  8
0
 10
5.01812
 20
8.18674
 42
0.0
  0
VERTEX
  8
0
 10
5.02632
 20
8.16536
 42
0.0
  0
VERTEX
  8
0
 10
5.02821
 20
8.15967
 42
0.0
  0
VERTEX
  8
0
 10
5.03331
 20
8.11356
 42
0.0
  0
VERTEX
  8
0
 10
5.03217
 20
8.06694
 42
0.0
  0
VERTEX
  8
0
 10
5.01313
 20
8.04699
 42
0.0
  0
VERTEX
  8
0
 10
5.04096
 20
8.02681
 42
0.0
  0
VERTEX
  8
0
 10
5.05393
 20
7.97456
 42
0.0
  0
VERTEX
  8
0
 10
5.07308
 20
7.92432
 42
0.0
  0
VERTEX
  8
0
 10
5.07568
 20
7.91997
 42
0.0
  0
VERTEX
  8
0
 10
5.10715
 20
7.88129
 42
0.0
  0
VERTEX
  8
0
 10
5.14301
 20
7.84646
 42
0.0
  0
VERTEX
  8
0
 10
5.14529
 20
7.84224
 42
0.0
  0
VERTEX
  8
0
 10
5.14578
 20
7.79731
 42
0.0
  0
VERTEX
  8
0
 10
5.14453
 20
7.79139
 42
0.0
  0
VERTEX
  8
0
 10
5.14133
 20
7.73867
 42
0.0
  0
VERTEX
  8
0
 10
5.14133
 20
7.73335
 42
0.0
  0
VERTEX
  8
0
 10
5.14611
 20
7.73178
 42
0.0
  0
VERTEX
  8
0
 10
5.19021
 20
7.72737
 42
0.0
  0
VERTEX
  8
0
 10
5.23178
 20
7.74576
 42
0.0
  0
VERTEX
  8
0
 10
5.23807
 20
7.74957
 42
0.0
  0
VERTEX
  8
0
 10
5.24914
 20
7.75657
 42
0.0
  0
VERTEX
  8
0
 10
5.25754
 20
7.76292
 42
0.0
  0
VERTEX
  8
0
 10
5.2646
 20
7.76992
 42
0.0
  0
VERTEX
  8
0
 10
5.27083
 20
7.77843
 42
0.0
  0
VERTEX
  8
0
 10
5.27756
 20
7.78971
 42
0.0
  0
VERTEX
  8
0
 10
5.28131
 20
7.79596
 42
0.0
  0
VERTEX
  8
0
 10
5.3189
 20
7.85351
 42
0.0
  0
VERTEX
  8
0
 10
5.32146
 20
7.85758
 42
0.0
  0
VERTEX
  8
0
 10
5.34694
 20
7.90207
 42
0.0
  0
VERTEX
  8
0
 10
5.37901
 20
7.94185
 42
0.0
  0
VERTEX
  8
0
 10
5.38226
 20
7.9451
 42
0.0
  0
VERTEX
  8
0
 10
5.41997
 20
7.97119
 42
0.0
  0
VERTEX
  8
0
 10
5.46576
 20
7.98053
 42
0.0
  0
VERTEX
  8
0
 10
5.55285
 20
7.96739
 42
0.0
  0
VERTEX
  8
0
 10
5.63797
 20
7.9451
 42
0.0
  0
VERTEX
  8
0
 10
5.6441
 20
7.94194
 42
0.0
  0
VERTEX
  8
0
 10
5.65321
 20
7.93631
 42
0.0
  0
VERTEX
  8
0
 10
5.65836
 20
7.93147
 42
0.0
  0
VERTEX
  8
0
 10
5.67497
 20
7.91265
 42
0.0
  0
VERTEX
  8
0
 10
5.69814
 20
7.92106
 42
0.0
  0
VERTEX
  8
0
 10
5.70404
 20
7.91542
 42
0.0
  0
VERTEX
  8
0
 10
5.70594
 20
7.9095
 42
0.0
  0
VERTEX
  8
0
 10
5.71089
 20
7.8904
 42
0.0
  0
VERTEX
  8
0
 10
5.71186
 20
7.88574
 42
0.0
  0
VERTEX
  8
0
 10
5.71642
 20
7.88618
 42
0.0
  0
VERTEX
  8
0
 10
5.72314
 20
7.88704
 42
0.0
  0
VERTEX
  8
0
 10
5.73025
 20
7.88786
 42
0.0
  0
VERTEX
  8
0
 10
5.73514
 20
7.82753
 42
0.0
  0
VERTEX
  8
0
 10
5.7366
 20
7.76699
 42
0.0
  0
VERTEX
  8
0
 10
5.73699
 20
7.76101
 42
0.0
  0
VERTEX
  8
0
 10
5.73796
 20
7.75342
 42
0.0
  0
VERTEX
  8
0
 10
5.73986
 20
7.74126
 42
0.0
  0
VERTEX
  8
0
 10
5.73936
 20
7.73351
 42
0.0
  0
VERTEX
  8
0
 10
5.73465
 20
7.7021
 42
0.0
  0
VERTEX
  8
0
 10
5.72428
 20
7.6716
 42
0.0
  0
VERTEX
  8
0
 10
5.71653
 20
7.64106
 42
0.0
  0
VERTEX
  8
0
 10
5.71957
 20
7.60932
 42
0.0
  0
VERTEX
  8
0
 10
5.72304
 20
7.60189
 42
0.0
  0
VERTEX
  8
0
 10
5.72879
 20
7.59733
 42
0.0
  0
VERTEX
  8
0
 10
5.75911
 20
7.58735
 42
0.0
  0
VERTEX
  8
0
 10
5.79189
 20
7.58643
 42
0.0
  0
VERTEX
  8
0
 10
5.85792
 20
7.5726
 42
0.0
  0
VERTEX
  8
0
 10
5.91581
 20
7.53771
 42
0.0
  0
VERTEX
  8
0
 10
5.92085
 20
7.5339
 42
0.0
  0
VERTEX
  8
0
 10
5.92589
 20
7.53006
 42
0.0
  0
VERTEX
  8
0
 10
5.94069
 20
7.51878
 42
0.0
  0
VERTEX
  8
0
 10
5.95557
 20
7.50743
 42
0.0
  0
VERTEX
  8
0
 10
5.96072
 20
7.50315
 42
0.0
  0
VERTEX
  8
0
 10
5.96446
 20
7.49989
 42
0.0
  0
VERTEX
  8
0
 10
5.97021
 20
7.5
 42
0.0
  0
VERTEX
  8
0
 10
5.98307
 20
7.49978
 42
0.0
  0
VERTEX
  8
0
 10
5.98953
 20
7.49978
 42
0.0
  0
VERTEX
  8
0
 10
5.99761
 20
7.5019
 42
0.0
  0
VERTEX
  8
0
 10
6.00435
 20
7.50543
 42
0.0
  0
VERTEX
  8
0
 10
6.03543
 20
7.51437
 42
0.0
  0
VERTEX
  8
0
 10
6.06429
 20
7.5275
 42
0.0
  0
VERTEX
  8
0
 10
6.07579
 20
7.53771
 42
0.0
  0
VERTEX
  8
0
 10
6.08768
 20
7.54878
 42
0.0
  0
VERTEX
  8
0
 10
6.10069
 20
7.5555
 42
0.0
  0
VERTEX
  8
0
 10
6.11583
 20
7.55263
 42
0.0
  0
VERTEX
  8
0
 10
6.1735
 20
7.50586
 42
0.0
  0
VERTEX
  8
0
 10
6.18072
 20
7.50071
 42
0.0
  0
VERTEX
  8
0
 10
6.18989
 20
7.49567
 42
0.0
  0
VERTEX
  8
0
 10
6.19743
 20
7.4924
 42
0.0
  0
VERTEX
  8
0
 10
6.20833
 20
7.48594
 42
0.0
  0
VERTEX
  8
0
 10
6.21619
 20
7.48296
 42
0.0
  0
VERTEX
  8
0
 10
6.22629
 20
7.47657
 42
0.0
  0
VERTEX
  8
0
 10
6.23313
 20
7.47347
 42
0.0
  0
VERTEX
  8
0
 10
6.24186
 20
7.46615
 42
0.0
  0
VERTEX
  8
0
 10
6.24957
 20
7.45449
 42
0.0
  0
VERTEX
  8
0
 10
6.25304
 20
7.44749
 42
0.0
  0
VERTEX
  8
0
 10
6.26882
 20
7.41075
 42
0.0
  0
VERTEX
  8
0
 10
6.27268
 20
7.40582
 42
0.0
  0
VERTEX
  8
0
 10
6.31179
 20
7.37722
 42
0.0
  0
VERTEX
  8
0
 10
6.31857
 20
7.37213
 42
0.0
  0
VERTEX
  8
0
 10
6.32682
 20
7.36589
 42
0.0
  0
VERTEX
  8
0
 10
6.3355
 20
7.36094
 42
0.0
  0
VERTEX
  8
0
 10
6.34283
 20
7.35818
 42
0.0
  0
VERTEX
  8
0
 10
6.35894
 20
7.35172
 42
0.0
  0
VERTEX
  8
0
 10
6.36746
 20
7.34896
 42
0.0
  0
VERTEX
  8
0
 10
6.37332
 20
7.34787
 42
0.0
  0
VERTEX
  8
0
 10
6.38113
 20
7.3464
 42
0.0
  0
VERTEX
  8
0
 10
6.39751
 20
7.34212
 42
0.0
  0
VERTEX
  8
0
 10
6.40722
 20
7.33908
 42
0.0
  0
VERTEX
  8
0
 10
6.4279
 20
7.33729
 42
0.0
  0
VERTEX
  8
0
 10
6.43608
 20
7.33768
 42
0.0
  0
VERTEX
  8
0
 10
6.44412
 20
7.33778
 42
0.0
  0
VERTEX
  8
0
 10
6.45193
 20
7.33778
 42
0.0
  0
VERTEX
  8
0
 10
6.46001
 20
7.33751
 42
0.0
  0
VERTEX
  8
0
 10
6.49507
 20
7.33692
 42
0.0
  0
VERTEX
  8
0
 10
6.50256
 20
7.33669
 42
0.0
  0
VERTEX
  8
0
 10
6.53381
 20
7.33649
 42
0.0
  0
VERTEX
  8
0
 10
6.54015
 20
7.33649
 42
0.0
  0
VERTEX
  8
0
 10
6.54617
 20
7.3361
 42
0.0
  0
VERTEX
  8
0
 10
6.58231
 20
7.32476
 42
0.0
  0
VERTEX
  8
0
 10
6.61312
 20
7.30333
 42
0.0
  0
VERTEX
  8
0
 10
6.64236
 20
7.27881
 42
0.0
  0
VERTEX
  8
0
 10
6.67399
 20
7.25808
 42
0.0
  0
VERTEX
  8
0
 10
6.71431
 20
7.25672
 42
0.0
  0
VERTEX
  8
0
 10
6.7545
 20
7.25304
 42
0.0
  0
VERTEX
  8
0
 10
6.75896
 20
7.25125
 42
0.0
  0
VERTEX
  8
0
 10
6.78911
 20
7.22287
 42
0.0
  0
VERTEX
  8
0
 10
6.79329
 20
7.21832
 42
0.0
  0
VERTEX
  8
0
 10
6.79812
 20
7.21326
 42
0.0
  0
VERTEX
  8
0
 10
6.80794
 20
7.20275
 42
0.0
  0
VERTEX
  8
0
 10
6.81782
 20
7.19211
 42
0.0
  0
VERTEX
  8
0
 10
6.82383
 20
7.18485
 42
0.0
  0
VERTEX
  8
0
 10
6.83117
 20
7.17606
 42
0.0
  0
VERTEX
  8
0
 10
6.83985
 20
7.16536
 42
0.0
  0
VERTEX
  8
0
 10
6.84413
 20
7.15836
 42
0.0
  0
VERTEX
  8
0
 10
6.85161
 20
7.14914
 42
0.0
  0
VERTEX
  8
0
 10
6.85883
 20
7.13954
 42
0.0
  0
VERTEX
  8
0
 10
6.8654
 20
7.13026
 42
0.0
  0
VERTEX
  8
0
 10
6.87272
 20
7.1174
 42
0.0
  0
VERTEX
  8
0
 10
6.87706
 20
7.10878
 42
0.0
  0
VERTEX
  8
0
 10
6.88211
 20
7.09819
 42
0.0
  0
VERTEX
  8
0
 10
6.88499
 20
7.09158
 42
0.0
  0
VERTEX
  8
0
 10
6.89176
 20
7.04465
 42
0.0
  0
VERTEX
  8
0
 10
6.89279
 20
6.99685
 42
0.0
  0
VERTEX
  8
0
 10
6.89258
 20
6.99089
 42
0.0
  0
VERTEX
  8
0
 10
6.88726
 20
6.97792
 42
0.0
  0
VERTEX
  8
0
 10
6.87597
 20
6.97
 42
0.0
  0
VERTEX
  8
0
 10
6.86193
 20
6.96522
 42
0.0
  0
VERTEX
  8
0
 10
6.84836
 20
6.96164
 42
0.0
  0
VERTEX
  8
0
 10
6.84321
 20
6.96035
 42
0.0
  0
VERTEX
  8
0
 10
6.76644
 20
6.95003
 42
0.0
  0
VERTEX
  8
0
 10
6.69151
 20
6.93306
 42
0.0
  0
VERTEX
  8
0
 10
6.68707
 20
6.93088
 42
0.0
  0
VERTEX
  8
0
 10
6.68804
 20
6.926
 42
0.0
  0
VERTEX
  8
0
 10
6.68892
 20
6.92096
 42
0.0
  0
VERTEX
  8
0
 10
6.68961
 20
6.91672
 42
0.0
  0
VERTEX
  8
0
 10
6.69433
 20
6.91504
 42
0.0
  0
VERTEX
  8
0
 10
6.70167
 20
6.91206
 42
0.0
  0
VERTEX
  8
0
 10
6.71224
 20
6.90761
 42
0.0
  0
VERTEX
  8
0
 10
6.71631
 20
6.90653
 42
0.0
  0
VERTEX
  8
0
 10
6.81353
 20
6.90186
 42
0.0
  0
VERTEX
  8
0
 10
6.81196
 20
6.861
 42
0.0
  0
VERTEX
  8
0
 10
6.70899
 20
6.82254
 42
0.0
  0
VERTEX
  8
0
 10
6.70285
 20
6.81907
 42
0.0
  0
VERTEX
  8
0
 10
6.69829
 20
6.81396
 42
0.0
  0
VERTEX
  8
0
 10
6.67876
 20
6.77886
 42
0.0
  0
VERTEX
  8
0
 10
6.68207
 20
6.73996
 42
0.0
  0
VERTEX
  8
0
 10
6.69954
 20
6.7206
 42
0.0
  0
VERTEX
  8
0
 10
6.72424
 20
6.70871
 42
0.0
  0
VERTEX
  8
0
 10
6.72954
 20
6.70671
 42
0.0
  0
VERTEX
  8
0
 10
6.74778
 20
6.70111
 42
0.0
  0
VERTEX
  8
0
 10
6.76606
 20
6.69536
 42
0.0
  0
VERTEX
  8
0
 10
6.77328
 20
6.69228
 42
0.0
  0
VERTEX
  8
0
 10
6.77974
 20
6.68961
 42
0.0
  0
VERTEX
  8
0
 10
6.80621
 20
6.68311
 42
0.0
  0
VERTEX
  8
0
 10
6.83371
 20
6.68147
 42
0.0
  0
VERTEX
  8
0
 10
6.84033
 20
6.68093
 42
0.0
  0
VERTEX
  8
0
 10
6.84668
 20
6.67822
 42
0.0
  0
VERTEX
  8
0
 10
6.85194
 20
6.67594
 42
0.0
  0
VERTEX
  8
0
 10
6.86193
 20
6.671
 42
0.0
  0
VERTEX
  8
0
 10
6.8719
 20
6.64903
 42
0.0
  0
VERTEX
  8
0
 10
6.82237
 20
6.65539
 42
0.0
  0
VERTEX
  8
0
 10
6.81532
 20
6.65756
 42
0.0
  0
VERTEX
  8
0
 10
6.80979
 20
6.65853
 42
0.0
  0
VERTEX
  8
0
 10
6.80344
 20
6.65944
 42
0.0
  0
VERTEX
  8
0
 10
6.79704
 20
6.66032
 42
0.0
  0
VERTEX
  8
0
 10
6.79053
 20
6.66124
 42
0.0
  0
VERTEX
  8
0
 10
6.71799
 20
6.67421
 42
0.0
  0
VERTEX
  8
0
 10
6.71126
 20
6.67567
 42
0.0
  0
VERTEX
  8
0
 10
6.63314
 20
6.67904
 42
0.0
  0
VERTEX
  8
0
 10
6.62799
 20
6.67904
 42
0.0
  0
VERTEX
  8
0
 10
6.62532
 20
6.67507
 42
0.0
  0
VERTEX
  8
0
 10
6.61621
 20
6.66233
 42
0.0
  0
VERTEX
  8
0
 10
6.63374
 20
6.63162
 42
0.0
  0
VERTEX
  8
0
 10
6.65528
 20
6.60243
 42
0.0
  0
VERTEX
  8
0
 10
6.67475
 20
6.57264
 42
0.0
  0
VERTEX
  8
0
 10
6.68614
 20
6.54004
 42
0.0
  0
VERTEX
  8
0
 10
6.64925
 20
6.54904
 42
0.0
  0
VERTEX
  8
0
 10
6.61322
 20
6.56142
 42
0.0
  0
VERTEX
  8
0
 10
6.61925
 20
6.52572
 42
0.0
  0
VERTEX
  8
0
 10
6.63596
 20
6.49414
 42
0.0
  0
VERTEX
  8
0
 10
6.65929
 20
6.4661
 42
0.0
  0
VERTEX
  8
0
 10
6.68528
 20
6.44086
 42
0.0
  0
VERTEX
  8
0
 10
6.68951
 20
6.43707
 42
0.0
  0
VERTEX
  8
0
 10
6.70671
 20
6.42307
 42
0.0
  0
VERTEX
  8
0
 10
6.71099
 20
6.41976
 42
0.0
  0
VERTEX
  8
0
 10
6.71485
 20
6.4171
 42
0.0
  0
VERTEX
  8
0
 10
6.75786
 20
6.37842
 42
0.0
  0
VERTEX
  8
0
 10
6.80306
 20
6.34233
 42
0.0
  0
VERTEX
  8
0
 10
6.8074
 20
6.33996
 42
0.0
  0
VERTEX
  8
0
 10
6.84321
 20
6.32303
 42
0.0
  0
VERTEX
  8
0
 10
6.8476
 20
6.32096
 42
0.0
  0
VERTEX
  8
0
 10
6.88428
 20
6.30257
 42
0.0
  0
VERTEX
  8
0
 10
6.891
 20
6.29883
 42
0.0
  0
VERTEX
  8
0
 10
6.90294
 20
6.2915
 42
0.0
  0
VERTEX
  8
0
 10
6.91206
 20
6.28515
 42
0.0
  0
VERTEX
  8
0
 10
6.92156
 20
6.27772
 42
0.0
  0
VERTEX
  8
0
 10
6.92979
 20
6.26986
 42
0.0
  0
VERTEX
  8
0
 10
6.93599
 20
6.26508
 42
0.0
  0
VERTEX
  8
0
 10
6.93967
 20
6.25896
 42
0.0
  0
VERTEX
  8
0
 10
6.94412
 20
6.25163
 42
0.0
  0
VERTEX
  8
0
 10
6.9445
 20
6.23757
 42
0.0
  0
VERTEX
  8
0
 10
6.93658
 20
6.23699
 42
0.0
  0
VERTEX
  8
0
 10
6.91581
 20
6.23492
 42
0.0
  0
VERTEX
  8
0
 10
6.90761
 20
6.23469
 42
0.0
  0
VERTEX
  8
0
 10
6.89953
 20
6.23519
 42
0.0
  0
VERTEX
  8
0
 10
6.89111
 20
6.23611
 42
0.0
  0
VERTEX
  8
0
 10
6.88282
 20
6.23742
 42
0.0
  0
VERTEX
  8
0
 10
6.87337
 20
6.24007
 42
0.0
  0
VERTEX
  8
0
 10
6.81928
 20
6.24729
 42
0.0
  0
VERTEX
  8
0
 10
6.81326
 20
6.24804
 42
0.0
  0
VERTEX
  8
0
 10
6.76161
 20
6.25618
 42
0.0
  0
VERTEX
  8
0
 10
6.75586
 20
6.25629
 42
0.0
  0
VERTEX
  8
0
 10
6.6754
 20
6.27376
 42
0.0
  0
VERTEX
  8
0
 10
6.59831
 20
6.30197
 42
0.0
  0
VERTEX
  8
0
 10
6.59267
 20
6.30485
 42
0.0
  0
VERTEX
  8
0
 10
6.58697
 20
6.30772
 42
0.0
  0
VERTEX
  8
0
 10
6.54758
 20
6.32856
 42
0.0
  0
VERTEX
  8
0
 10
6.54144
 20
6.33263
 42
0.0
  0
VERTEX
  8
0
 10
6.53049
 20
6.34044
 42
0.0
  0
VERTEX
  8
0
 10
6.52225
 20
6.3469
 42
0.0
  0
VERTEX
  8
0
 10
6.51443
 20
6.35319
 42
0.0
  0
VERTEX
  8
0
 10
6.50526
 20
6.36003
 42
0.0
  0
VERTEX
  8
0
 10
6.49089
 20
6.36985
 42
0.0
  0
VERTEX
  8
0
 10
6.48128
 20
6.37646
 42
0.0
  0
VERTEX
  8
0
 10
6.47228
 20
6.382
 42
0.0
  0
VERTEX
  8
0
 10
6.46506
 20
6.38574
 42
0.0
  0
VERTEX
  8
0
 10
6.4535
 20
6.39339
 42
0.0
  0
VERTEX
  8
0
 10
6.44439
 20
6.3999
 42
0.0
  0
VERTEX
  8
0
 10
6.43821
 20
6.40306
 42
0.0
  0
VERTEX
  8
0
 10
6.43056
 20
6.40722
 42
0.0
  0
VERTEX
  8
0
 10
6.35965
 20
6.45437
 42
0.0
  0
VERTEX
  8
0
 10
6.35568
 20
6.45708
 42
0.0
  0
VERTEX
  8
0
 10
6.31147
 20
6.48583
 42
0.0
  0
VERTEX
  8
0
 10
6.30761
 20
6.4885
 42
0.0
  0
VERTEX
  8
0
 10
6.27072
 20
6.51633
 42
0.0
  0
VERTEX
  8
0
 10
6.26699
 20
6.51926
 42
0.0
  0
VERTEX
  8
0
 10
6.26329
 20
6.52197
 42
0.0
  0
VERTEX
  8
0
 10
6.19553
 20
6.56961
 42
0.0
  0
VERTEX
  8
0
 10
6.17714
 20
6.55778
 42
0.0
  0
VERTEX
  8
0
 10
6.17529
 20
6.55647
 42
0.0
  0
VERTEX
  8
0
 10
6.17725
 20
6.55263
 42
0.0
  0
VERTEX
  8
0
 10
6.17974
 20
6.54747
 42
0.0
  0
VERTEX
  8
0
 10
6.1836
 20
6.54124
 42
0.0
  0
VERTEX
  8
0
 10
6.21376
 20
6.49306
 42
0.0
  0
VERTEX
  8
0
 10
6.21593
 20
6.48871
 42
0.0
  0
VERTEX
  8
0
 10
6.23383
 20
6.45144
 42
0.0
  0
VERTEX
  8
0
 10
6.23742
 20
6.44472
 42
0.0
  0
VERTEX
  8
0
 10
6.24371
 20
6.43354
 42
0.0
  0
VERTEX
  8
0
 10
6.24849
 20
6.42562
 42
0.0
  0
VERTEX
  8
0
 10
6.25401
 20
6.41749
 42
0.0
  0
VERTEX
  8
0
 10
6.26318
 20
6.40386
 42
0.0
  0
VERTEX
  8
0
 10
6.26942
 20
6.39415
 42
0.0
  0
VERTEX
  8
0
 10
6.27647
 20
6.38368
 42
0.0
  0
VERTEX
  8
0
 10
6.28043
 20
6.37657
 42
0.0
  0
VERTEX
  8
0
 10
6.28792
 20
6.36708
 42
0.0
  0
VERTEX
  8
0
 10
6.29622
 20
6.35618
 42
0.0
  0
VERTEX
  8
0
 10
6.30414
 20
6.34571
 42
0.0
  0
VERTEX
  8
0
 10
6.30821
 20
6.34006
 42
0.0
  0
VERTEX
  8
0
 10
6.31326
 20
6.33356
 42
0.0
  0
VERTEX
  8
0
 10
6.32118
 20
6.32303
 42
0.0
  0
VERTEX
  8
0
 10
6.3291
 20
6.31233
 42
0.0
  0
VERTEX
  8
0
 10
6.33322
 20
6.30593
 42
0.0
  0
VERTEX
  8
0
 10
6.33849
 20
6.29644
 42
0.0
  0
VERTEX
  8
0
 10
6.34136
 20
6.29021
 42
0.0
  0
VERTEX
  8
0
 10
6.34392
 20
6.26736
 42
0.0
  0
VERTEX
  8
0
 10
6.33382
 20
6.27111
 42
0.0
  0
VERTEX
  8
0
 10
6.32915
 20
6.27311
 42
0.0
  0
VERTEX
  8
0
 10
6.28049
 20
6.301
 42
0.0
  0
VERTEX
  8
0
 10
6.27468
 20
6.30485
 42
0.0
  0
VERTEX
  8
0
 10
6.26725
 20
6.30951
 42
0.0
  0
VERTEX
  8
0
 10
6.25549
 20
6.31662
 42
0.0
  0
VERTEX
  8
0
 10
6.24744
 20
6.32156
 42
0.0
  0
VERTEX
  8
0
 10
6.23757
 20
6.32758
 42
0.0
  0
VERTEX
  8
0
 10
6.23118
 20
6.33165
 42
0.0
  0
VERTEX
  8
0
 10
6.21696
 20
6.34022
 42
0.0
  0
VERTEX
  8
0
 10
6.20275
 20
6.34874
 42
0.0
  0
VERTEX
  8
0
 10
6.19635
 20
6.35211
 42
0.0
  0
VERTEX
  8
0
 10
6.18696
 20
6.35688
 42
0.0
  0
VERTEX
  8
0
 10
6.18099
 20
6.35992
 42
0.0
  0
VERTEX
  8
0
 10
6.01503
 20
6.47624
 42
0.0
  0
VERTEX
  8
0
 10
6.01118
 20
6.479
 42
0.0
  0
VERTEX
  8
0
 10
5.99849
 20
6.48763
 42
0.0
  0
VERTEX
  8
0
 10
5.98594
 20
6.49615
 42
0.0
  0
VERTEX
  8
0
 10
5.98182
 20
6.49903
 42
0.0
  0
VERTEX
  8
0
 10
5.96815
 20
6.50917
 42
0.0
  0
VERTEX
  8
0
 10
5.95449
 20
6.51926
 42
0.0
  0
VERTEX
  8
0
 10
5.94965
 20
6.52317
 42
0.0
  0
VERTEX
  8
0
 10
5.94461
 20
6.52692
 42
0.0
  0
VERTEX
  8
0
 10
5.93099
 20
6.53689
 42
0.0
  0
VERTEX
  8
0
 10
5.91743
 20
6.54688
 42
0.0
  0
VERTEX
  8
0
 10
5.91325
 20
6.55035
 42
0.0
  0
VERTEX
  8
0
 10
5.89458
 20
6.56847
 42
0.0
  0
VERTEX
  8
0
 10
5.88824
 20
6.57508
 42
0.0
  0
VERTEX
  8
0
 10
5.88058
 20
6.58279
 42
0.0
  0
VERTEX
  8
0
 10
5.8719
 20
6.5906
 42
0.0
  0
VERTEX
  8
0
 10
5.86268
 20
6.59744
 42
0.0
  0
VERTEX
  8
0
 10
5.84874
 20
6.60704
 42
0.0
  0
VERTEX
  8
0
 10
5.83968
 20
6.61382
 42
0.0
  0
VERTEX
  8
0
 10
5.83154
 20
6.62028
 42
0.0
  0
VERTEX
  8
0
 10
5.82254
 20
6.6269
 42
0.0
  0
VERTEX
  8
0
 10
5.80871
 20
6.63688
 42
0.0
  0
VERTEX
  8
0
 10
5.79969
 20
6.64382
 42
0.0
  0
VERTEX
  8
0
 10
5.79118
 20
6.65104
 42
0.0
  0
VERTEX
  8
0
 10
5.78288
 20
6.65799
 42
0.0
  0
VERTEX
  8
0
 10
5.77615
 20
6.66308
 42
0.0
  0
VERTEX
  8
0
 10
5.7609
 20
6.67529
 42
0.0
  0
VERTEX
  8
0
 10
5.74571
 20
6.68744
 42
0.0
  0
VERTEX
  8
0
 10
5.73975
 20
6.69249
 42
0.0
  0
VERTEX
  8
0
 10
5.73301
 20
6.69781
 42
0.0
  0
VERTEX
  8
0
 10
5.72624
 20
6.70226
 42
0.0
  0
VERTEX
  8
0
 10
5.68576
 20
6.73275
 42
0.0
  0
VERTEX
  8
0
 10
5.68024
 20
6.73708
 42
0.0
  0
VERTEX
  8
0
 10
5.6721
 20
6.74235
 42
0.0
  0
VERTEX
  8
0
 10
5.66656
 20
6.74576
 42
0.0
  0
VERTEX
  8
0
 10
5.65213
 20
6.75472
 42
0.0
  0
VERTEX
  8
0
 10
5.63769
 20
6.76361
 42
0.0
  0
VERTEX
  8
0
 10
5.63157
 20
6.76736
 42
0.0
  0
VERTEX
  8
0
 10
5.62185
 20
6.77311
 42
0.0
  0
VERTEX
  8
0
 10
5.61561
 20
6.77604
 42
0.0
  0
VERTEX
  8
0
 10
5.61079
 20
6.77772
 42
0.0
  0
VERTEX
  8
0
 10
5.56679
 20
6.79514
 42
0.0
  0
VERTEX
  8
0
 10
5.55994
 20
6.7985
 42
0.0
  0
VERTEX
  8
0
 10
5.5541
 20
6.80138
 42
0.0
  0
VERTEX
  8
0
 10
5.54557
 20
6.80474
 42
0.0
  0
VERTEX
  8
0
 10
5.53976
 20
6.80632
 42
0.0
  0
VERTEX
  8
0
 10
5.53342
 20
6.808
 42
0.0
  0
VERTEX
  8
0
 10
5.49149
 20
6.82107
 42
0.0
  0
VERTEX
  8
0
 10
5.48676
 20
6.82264
 42
0.0
  0
VERTEX
  8
0
 10
5.41086
 20
6.84972
 42
0.0
  0
VERTEX
  8
0
 10
5.33371
 20
6.87349
 42
0.0
  0
VERTEX
  8
0
 10
5.32807
 20
6.87538
 42
0.0
  0
VERTEX
  8
0
 10
5.30507
 20
6.88271
 42
0.0
  0
VERTEX
  8
0
 10
5.29839
 20
6.88487
 42
0.0
  0
VERTEX
  8
0
 10
5.27431
 20
6.89318
 42
0.0
  0
VERTEX
  8
0
 10
5.26628
 20
6.89632
 42
0.0
  0
VERTEX
  8
0
 10
5.25439
 20
6.90121
 42
0.0
  0
VERTEX
  8
0
 10
5.24729
 20
6.90386
 42
0.0
  0
VERTEX
  8
0
 10
5.24132
 20
6.90576
 42
0.0
  0
VERTEX
  8
0
 10
5.22831
 20
6.91
 42
0.0
  0
VERTEX
  8
0
 10
5.20714
 20
6.91808
 42
0.0
  0
VERTEX
  8
0
 10
5.20117
 20
6.91769
 42
0.0
  0
VERTEX
  8
0
 10
5.19536
 20
6.91792
 42
0.0
  0
VERTEX
  8
0
 10
5.06694
 20
6.96056
 42
0.0
  0
VERTEX
  8
0
 10
5.06201
 20
6.96224
 42
0.0
  0
VERTEX
  8
0
 10
4.99869
 20
6.97792
 42
0.0
  0
VERTEX
  8
0
 10
4.93847
 20
7.00206
 42
0.0
  0
VERTEX
  8
0
 10
4.93272
 20
7.00424
 42
0.0
  0
VERTEX
  8
0
 10
4.90989
 20
7.01144
 42
0.0
  0
VERTEX
  8
0
 10
4.90365
 20
7.01313
 42
0.0
  0
VERTEX
  8
0
 10
4.88607
 20
7.01731
 42
0.0
  0
VERTEX
  8
0
 10
4.86854
 20
7.02149
 42
0.0
  0
VERTEX
  8
0
 10
4.86214
 20
7.02354
 42
0.0
  0
VERTEX
  8
0
 10
4.85172
 20
7.0286
 42
0.0
  0
VERTEX
  8
0
 10
4.83008
 20
7.03618
 42
0.0
  0
VERTEX
  8
0
 10
4.82264
 20
7.03521
 42
0.0
  0
VERTEX
  8
0
 10
4.80957
 20
7.04047
 42
0.0
  0
VERTEX
  8
0
 10
4.801
 20
7.044
 42
0.0
  0
VERTEX
  8
0
 10
4.78299
 20
7.04531
 42
0.0
  0
VERTEX
  8
0
 10
4.77675
 20
7.04422
 42
0.0
  0
VERTEX
  8
0
 10
4.77143
 20
7.04335
 42
0.0
  0
VERTEX
  8
0
 10
4.77051
 20
7.03831
 42
0.0
  0
VERTEX
  8
0
 10
4.76758
 20
7.02343
 42
0.0
  0
VERTEX
  8
0
 10
4.80544
 20
6.98986
 42
0.0
  0
VERTEX
  8
0
 10
4.84765
 20
6.96143
 42
0.0
  0
VERTEX
  8
0
 10
4.85439
 20
6.95649
 42
0.0
  0
VERTEX
  8
0
 10
4.86219
 20
6.95063
 42
0.0
  0
VERTEX
  8
0
 10
4.86876
 20
6.94618
 42
0.0
  0
VERTEX
  8
0
 10
4.87381
 20
6.94293
 42
0.0
  0
VERTEX
  8
0
 10
4.89139
 20
6.93115
 42
0.0
  0
VERTEX
  8
0
 10
4.88558
 20
6.89415
 42
0.0
  0
VERTEX
  8
0
 10
4.93869
 20
6.88786
 42
0.0
  0
VERTEX
  8
0
 10
4.94542
 20
6.88786
 42
0.0
  0
VERTEX
  8
0
 10
4.95264
 20
6.88743
 42
0.0
  0
VERTEX
  8
0
 10
4.96192
 20
6.88021
 42
0.0
  0
VERTEX
  8
0
 10
4.97092
 20
6.87153
 42
0.0
  0
VERTEX
  8
0
 10
4.9796
 20
6.86388
 42
0.0
  0
VERTEX
  8
0
 10
4.98785
 20
6.85856
 42
0.0
  0
VERTEX
  8
0
 10
5.00119
 20
6.85146
 42
0.0
  0
VERTEX
  8
0
 10
5.01454
 20
6.84424
 42
0.0
  0
VERTEX
  8
0
 10
5.02149
 20
6.84033
 42
0.0
  0
VERTEX
  8
0
 10
5.02919
 20
6.83589
 42
0.0
  0
VERTEX
  8
0
 10
5.04144
 20
6.82889
 42
0.0
  0
VERTEX
  8
0
 10
5.05024
 20
6.82383
 42
0.0
  0
VERTEX
  8
0
 10
5.06222
 20
6.81689
 42
0.0
  0
VERTEX
  8
0
 10
5.06961
 20
6.81244
 42
0.0
  0
VERTEX
  8
0
 10
5.07547
 20
6.80897
 42
0.0
  0
VERTEX
  8
0
 10
5.2009
 20
6.73014
 42
0.0
  0
VERTEX
  8
0
 10
5.22271
 20
6.71283
 42
0.0
  0
VERTEX
  8
0
 10
5.23899
 20
6.70415
 42
0.0
  0
VERTEX
  8
0
 10
5.24126
 20
6.6984
 42
0.0
  0
VERTEX
  8
0
 10
5.243
 20
6.69385
 42
0.0
  0
VERTEX
  8
0
 10
5.24511
 20
6.68853
 42
0.0
  0
VERTEX
  8
0
 10
5.25082
 20
6.66092
 42
0.0
  0
VERTEX
  8
0
 10
5.26199
 20
6.6359
 42
0.0
  0
VERTEX
  8
0
 10
5.28917
 20
6.61535
 42
0.0
  0
VERTEX
  8
0
 10
5.31999
 20
6.59988
 42
0.0
  0
VERTEX
  8
0
 10
5.32406
 20
6.5976
 42
0.0
  0
VERTEX
  8
0
 10
5.33832
 20
6.58811
 42
0.0
  0
VERTEX
  8
0
 10
5.3526
 20
6.57844
 42
0.0
  0
VERTEX
  8
0
 10
5.35786
 20
6.57487
 42
0.0
  0
VERTEX
  8
0
 10
5.36481
 20
6.57113
 42
0.0
  0
VERTEX
  8
0
 10
5.37869
 20
6.56494
 42
0.0
  0
VERTEX
  8
0
 10
5.39268
 20
6.55875
 42
0.0
  0
VERTEX
  8
0
 10
5.40061
 20
6.55518
 42
0.0
  0
VERTEX
  8
0
 10
5.40712
 20
6.5524
 42
0.0
  0
VERTEX
  8
0
 10
5.41749
 20
6.54688
 42
0.0
  0
VERTEX
  8
0
 10
5.42524
 20
6.544
 42
0.0
  0
VERTEX
  8
0
 10
5.43522
 20
6.53797
 42
0.0
  0
VERTEX
  8
0
 10
5.44185
 20
6.53532
 42
0.0
  0
VERTEX
  8
0
 10
5.44976
 20
6.53103
 42
0.0
  0
VERTEX
  8
0
 10
5.4655
 20
6.52149
 42
0.0
  0
VERTEX
  8
0
 10
5.48122
 20
6.51199
 42
0.0
  0
VERTEX
  8
0
 10
5.48557
 20
6.5095
 42
0.0
  0
VERTEX
  8
0
 10
5.48969
 20
6.50771
 42
0.0
  0
VERTEX
  8
0
 10
5.50358
 20
6.50146
 42
0.0
  0
VERTEX
  8
0
 10
5.51921
 20
6.49501
 42
0.0
  0
VERTEX
  8
0
 10
5.53157
 20
6.48606
 42
0.0
  0
VERTEX
  8
0
 10
5.53592
 20
6.47222
 42
0.0
  0
VERTEX
  8
0
 10
5.53364
 20
6.4661
 42
0.0
  0
VERTEX
  8
0
 10
5.52403
 20
6.4611
 42
0.0
  0
VERTEX
  8
0
 10
5.51742
 20
6.45796
 42
0.0
  0
VERTEX
  8
0
 10
5.49317
 20
6.4465
 42
0.0
  0
VERTEX
  8
0
 10
5.48628
 20
6.44222
 42
0.0
  0
VERTEX
  8
0
 10
5.4821
 20
6.4369
 42
0.0
  0
VERTEX
  8
0
 10
5.48019
 20
6.43306
 42
0.0
  0
VERTEX
  8
0
 10
5.48406
 20
6.42958
 42
0.0
  0
VERTEX
  8
0
 10
5.5019
 20
6.41168
 42
0.0
  0
VERTEX
  8
0
 10
5.56814
 20
6.38271
 42
0.0
  0
VERTEX
  8
0
 10
5.57351
 20
6.37999
 42
0.0
  0
VERTEX
  8
0
 10
5.57835
 20
6.37765
 42
0.0
  0
VERTEX
  8
0
 10
5.58914
 20
6.36963
 42
0.0
  0
VERTEX
  8
0
 10
5.59988
 20
6.36154
 42
0.0
  0
VERTEX
  8
0
 10
5.60574
 20
6.35667
 42
0.0
  0
VERTEX
  8
0
 10
5.61317
 20
6.35101
 42
0.0
  0
VERTEX
  8
0
 10
5.62608
 20
6.34136
 42
0.0
  0
VERTEX
  8
0
 10
5.6346
 20
6.33464
 42
0.0
  0
VERTEX
  8
0
 10
5.64182
 20
6.32829
 42
0.0
  0
VERTEX
  8
0
 10
5.64828
 20
6.32215
 42
0.0
  0
VERTEX
  8
0
 10
5.6575
 20
6.31233
 42
0.0
  0
VERTEX
  8
0
 10
5.66678
 20
6.30246
 42
0.0
  0
VERTEX
  8
0
 10
5.67199
 20
6.29611
 42
0.0
  0
VERTEX
  8
0
 10
5.68012
 20
6.28575
 42
0.0
  0
VERTEX
  8
0
 10
5.68712
 20
6.27881
 42
0.0
  0
VERTEX
  8
0
 10
5.69308
 20
6.27468
 42
0.0
  0
VERTEX
  8
0
 10
5.70356
 20
6.26736
 42
0.0
  0
VERTEX
  8
0
 10
5.71257
 20
6.26101
 42
0.0
  0
VERTEX
  8
0
 10
5.71869
 20
6.25765
 42
0.0
  0
VERTEX
  8
0
 10
5.7264
 20
6.25331
 42
0.0
  0
VERTEX
  8
0
 10
5.74203
 20
6.24436
 42
0.0
  0
VERTEX
  8
0
 10
5.75765
 20
6.23529
 42
0.0
  0
VERTEX
  8
0
 10
5.76351
 20
6.23182
 42
0.0
  0
VERTEX
  8
0
 10
5.77251
 20
6.22661
 42
0.0
  0
VERTEX
  8
0
 10
5.77843
 20
6.22304
 42
0.0
  0
VERTEX
  8
0
 10
5.79275
 20
6.21403
 42
0.0
  0
VERTEX
  8
0
 10
5.80713
 20
6.20503
 42
0.0
  0
VERTEX
  8
0
 10
5.81293
 20
6.2015
 42
0.0
  0
VERTEX
  8
0
 10
5.82183
 20
6.19646
 42
0.0
  0
VERTEX
  8
0
 10
5.82747
 20
6.19308
 42
0.0
  0
VERTEX
  8
0
 10
5.86556
 20
6.16585
 42
0.0
  0
VERTEX
  8
0
 10
5.86936
 20
6.16303
 42
0.0
  0
VERTEX
  8
0
 10
5.95285
 20
6.09153
 42
0.0
  0
VERTEX
  8
0
 10
6.03364
 20
6.01671
 42
0.0
  0
VERTEX
  8
0
 10
6.03776
 20
6.01313
 42
0.0
  0
VERTEX
  8
0
 10
6.05322
 20
5.99881
 42
0.0
  0
VERTEX
  8
0
 10
6.05718
 20
5.99496
 42
0.0
  0
VERTEX
  8
0
 10
6.08317
 20
5.96804
 42
0.0
  0
VERTEX
  8
0
 10
6.08892
 20
5.9655
 42
0.0
  0
VERTEX
  8
0
 10
6.09369
 20
5.97032
 42
0.0
  0
VERTEX
  8
0
 10
6.09912
 20
5.9911
 42
0.0
  0
VERTEX
  8
0
 10
6.08333
 20
6.03592
 42
0.0
  0
VERTEX
  8
0
 10
6.06956
 20
6.07579
 42
0.0
  0
VERTEX
  8
0
 10
6.06853
 20
6.08192
 42
0.0
  0
VERTEX
  8
0
 10
6.06765
 20
6.11128
 42
0.0
  0
VERTEX
  8
0
 10
6.06754
 20
6.11822
 42
0.0
  0
VERTEX
  8
0
 10
6.06765
 20
6.12494
 42
0.0
  0
VERTEX
  8
0
 10
6.07351
 20
6.12651
 42
0.0
  0
VERTEX
  8
0
 10
6.10926
 20
6.09858
 42
0.0
  0
VERTEX
  8
0
 10
6.14165
 20
6.06538
 42
0.0
  0
VERTEX
  8
0
 10
6.14551
 20
6.06153
 42
0.0
  0
VERTEX
  8
0
 10
6.16357
 20
6.04362
 42
0.0
  0
VERTEX
  8
0
 10
6.17003
 20
6.03728
 42
0.0
  0
VERTEX
  8
0
 10
6.17796
 20
6.03076
 42
0.0
  0
VERTEX
  8
0
 10
6.18468
 20
6.0261
 42
0.0
  0
VERTEX
  8
0
 10
6.19032
 20
6.02262
 42
0.0
  0
VERTEX
  8
0
 10
6.20156
 20
6.01531
 42
0.0
  0
VERTEX
  8
0
 10
6.21294
 20
6.00792
 42
0.0
  0
VERTEX
  8
0
 10
6.21739
 20
6.00467
 42
0.0
  0
VERTEX
  8
0
 10
6.22157
 20
6.00168
 42
0.0
  0
VERTEX
  8
0
 10
6.23936
 20
5.98736
 42
0.0
  0
VERTEX
  8
0
 10
6.24408
 20
5.98389
 42
0.0
  0
VERTEX
  8
0
 10
6.27789
 20
5.96929
 42
0.0
  0
VERTEX
  8
0
 10
6.31342
 20
5.95828
 42
0.0
  0
VERTEX
  8
0
 10
6.34771
 20
5.94493
 42
0.0
  0
VERTEX
  8
0
 10
6.37804
 20
5.92344
 42
0.0
  0
VERTEX
  8
0
 10
6.41872
 20
5.89122
 42
0.0
  0
VERTEX
  8
0
 10
6.45925
 20
5.85915
 42
0.0
  0
VERTEX
  8
0
 10
6.46262
 20
5.85542
 42
0.0
  0
VERTEX
  8
0
 10
6.53201
 20
5.79329
 42
0.0
  0
VERTEX
  8
0
 10
6.59506
 20
5.72493
 42
0.0
  0
VERTEX
  8
0
 10
6.5976
 20
5.7206
 42
0.0
  0
VERTEX
  8
0
 10
6.60092
 20
5.715
 42
0.0
  0
VERTEX
  8
0
 10
6.60644
 20
5.70514
 42
0.0
  0
VERTEX
  8
0
 10
6.60986
 20
5.69889
 42
0.0
  0
VERTEX
  8
0
 10
6.62978
 20
5.65056
 42
0.0
  0
VERTEX
  8
0
 10
6.63232
 20
5.64361
 42
0.0
  0
VERTEX
  8
0
 10
6.63639
 20
5.63374
 42
0.0
  0
VERTEX
  8
0
 10
6.63917
 20
5.62728
 42
0.0
  0
VERTEX
  8
0
 10
6.66601
 20
5.558
 42
0.0
  0
VERTEX
  8
0
 10
6.67697
 20
5.48497
 42
0.0
  0
VERTEX
  8
0
 10
6.68576
 20
5.42339
 42
0.0
  0
VERTEX
  8
0
 10
6.71506
 20
5.36783
 42
0.0
  0
VERTEX
  8
0
 10
6.71821
 20
5.36263
 42
0.0
  0
VERTEX
  8
0
 10
6.72304
 20
5.35542
 42
0.0
  0
VERTEX
  8
0
 10
6.73058
 20
5.34478
 42
0.0
  0
VERTEX
  8
0
 10
6.7341
 20
5.3374
 42
0.0
  0
VERTEX
  8
0
 10
6.73996
 20
5.32781
 42
0.0
  0
VERTEX
  8
0
 10
6.74294
 20
5.32156
 42
0.0
  0
VERTEX
  8
0
 10
6.74636
 20
5.31472
 42
0.0
  0
VERTEX
  8
0
 10
6.77647
 20
5.23574
 42
0.0
  0
VERTEX
  8
0
 10
6.77806
 20
5.23068
 42
0.0
  0
VERTEX
  8
0
 10
6.78103
 20
5.22097
 42
0.0
  0
VERTEX
  8
0
 10
6.76546
 20
5.21414
 42
0.0
  0
VERTEX
  8
0
 10
6.74935
 20
5.2181
 42
0.0
  0
VERTEX
  8
0
 10
6.73394
 20
5.22775
 42
0.0
  0
VERTEX
  8
0
 10
6.72026
 20
5.2379
 42
0.0
  0
VERTEX
  8
0
 10
6.65332
 20
5.27192
 42
0.0
  0
VERTEX
  8
0
 10
6.64144
 20
5.27903
 42
0.0
  0
VERTEX
  8
0
 10
6.63254
 20
5.28429
 42
0.0
  0
VERTEX
  8
0
 10
6.61968
 20
5.29199
 42
0.0
  0
VERTEX
  8
0
 10
6.611
 20
5.29861
 42
0.0
  0
VERTEX
  8
0
 10
6.60275
 20
5.30593
 42
0.0
  0
VERTEX
  8
0
 10
6.59386
 20
5.31267
 42
0.0
  0
VERTEX
  8
0
 10
6.58653
 20
5.31689
 42
0.0
  0
VERTEX
  8
0
 10
6.54579
 20
5.34967
 42
0.0
  0
VERTEX
  8
0
 10
6.54194
 20
5.35411
 42
0.0
  0
VERTEX
  8
0
 10
6.53569
 20
5.35818
 42
0.0
  0
VERTEX
  8
0
 10
6.48583
 20
5.38428
 42
0.0
  0
VERTEX
  8
0
 10
6.44015
 20
5.41758
 42
0.0
  0
VERTEX
  8
0
 10
6.43599
 20
5.42036
 42
0.0
  0
VERTEX
  8
0
 10
6.42274
 20
5.42942
 42
0.0
  0
VERTEX
  8
0
 10
6.4095
 20
5.43837
 42
0.0
  0
VERTEX
  8
0
 10
6.40522
 20
5.44103
 42
0.0
  0
VERTEX
  8
0
 10
6.40121
 20
5.44303
 42
0.0
  0
VERTEX
  8
0
 10
6.36149
 20
5.45844
 42
0.0
  0
VERTEX
  8
0
 10
6.3189
 20
5.46213
 42
0.0
  0
VERTEX
  8
0
 10
6.32997
 20
5.43007
 42
0.0
  0
VERTEX
  8
0
 10
6.33165
 20
5.42535
 42
0.0
  0
VERTEX
  8
0
 10
6.33382
 20
5.41938
 42
0.0
  0
VERTEX
  8
0
 10
6.338
 20
5.4081
 42
0.0
  0
VERTEX
  8
0
 10
6.3374
 20
5.40121
 42
0.0
  0
VERTEX
  8
0
 10
6.31956
 20
5.38618
 42
0.0
  0
VERTEX
  8
0
 10
6.29546
 20
5.38189
 42
0.0
  0
VERTEX
  8
0
 10
6.21875
 20
5.38396
 42
0.0
  0
VERTEX
  8
0
 10
6.14621
 20
5.41069
 42
0.0
  0
VERTEX
  8
0
 10
6.14025
 20
5.41217
 42
0.0
  0
VERTEX
  8
0
 10
6.02317
 20
5.41238
 42
0.0
  0
VERTEX
  8
0
 10
6.00553
 20
5.37131
 42
0.0
  0
VERTEX
  8
0
 10
6.03299
 20
5.368
 42
0.0
  0
VERTEX
  8
0
 10
6.05507
 20
5.35135
 42
0.0
  0
VERTEX
  8
0
 10
6.05957
 20
5.3469
 42
0.0
  0
VERTEX
  8
0
 10
6.06429
 20
5.34196
 42
0.0
  0
VERTEX
  8
0
 10
6.08122
 20
5.32454
 42
0.0
  0
VERTEX
  8
0
 10
6.08507
 20
5.32069
 42
0.0
  0
VERTEX
  8
0
 10
6.13411
 20
5.27219
 42
0.0
  0
VERTEX
  8
0
 10
6.1384
 20
5.26785
 42
0.0
  0
VERTEX
  8
0
 10
6.14324
 20
5.26303
 42
0.0
  0
VERTEX
  8
0
 10
6.15332
 20
5.25261
 42
0.0
  0
VERTEX
  8
0
 10
6.16342
 20
5.24214
 42
0.0
  0
VERTEX
  8
0
 10
6.16954
 20
5.23492
 42
0.0
  0
VERTEX
  8
0
 10
6.17606
 20
5.22569
 42
0.0
  0
VERTEX
  8
0
 10
6.17746
 20
5.21783
 42
0.0
  0
VERTEX
  8
0
 10
6.17806
 20
5.21029
 42
0.0
  0
VERTEX
  8
0
 10
6.17796
 20
5.20307
 42
0.0
  0
VERTEX
  8
0
 10
6.17763
 20
5.19586
 42
0.0
  0
VERTEX
  8
0
 10
6.16488
 20
5.19358
 42
0.0
  0
VERTEX
  8
0
 10
6.15847
 20
5.19444
 42
0.0
  0
VERTEX
  8
0
 10
6.09939
 20
5.19743
 42
0.0
  0
VERTEX
  8
0
 10
6.09375
 20
5.19764
 42
0.0
  0
VERTEX
  8
0
 10
6.02642
 20
5.21951
 42
0.0
  0
VERTEX
  8
0
 10
6.02126
 20
5.22108
 42
0.0
  0
VERTEX
  8
0
 10
5.86833
 20
5.25082
 42
0.0
  0
VERTEX
  8
0
 10
5.86279
 20
5.25201
 42
0.0
  0
VERTEX
  8
0
 10
5.80604
 20
5.25683
 42
0.0
  0
VERTEX
  8
0
 10
5.74957
 20
5.26232
 42
0.0
  0
VERTEX
  8
0
 10
5.74403
 20
5.2634
 42
0.0
  0
VERTEX
  8
0
 10
5.69325
 20
5.26568
 42
0.0
  0
VERTEX
  8
0
 10
5.70801
 20
5.23731
 42
0.0
  0
VERTEX
  8
0
 10
5.71158
 20
5.23275
 42
0.0
  0
VERTEX
  8
0
 10
5.72433
 20
5.21815
 42
0.0
  0
VERTEX
  8
0
 10
5.72721
 20
5.19879
 42
0.0
  0
VERTEX
  8
0
 10
5.64794
 20
5.20415
 42
0.0
  0
VERTEX
  8
0
 10
5.63867
 20
5.19233
 42
0.0
  0
VERTEX
  8
0
 10
5.62944
 20
5.18033
 42
0.0
  0
VERTEX
  8
0
 10
5.62631
 20
5.17686
 42
0.0
  0
VERTEX
  8
0
 10
5.62668
 20
5.17193
 42
0.0
  0
VERTEX
  8
0
 10
5.62701
 20
5.16536
 42
0.0
  0
VERTEX
  8
0
 10
5.62728
 20
5.15815
 42
0.0
  0
VERTEX
  8
0
 10
5.6275
 20
5.15082
 42
0.0
  0
VERTEX
  8
0
 10
5.62776
 20
5.14421
 42
0.0
  0
VERTEX
  8
0
 10
5.63015
 20
5.13482
 42
0.0
  0
VERTEX
  8
0
 10
5.63553
 20
5.12175
 42
0.0
  0
VERTEX
  8
0
 10
5.64117
 20
5.11404
 42
0.0
  0
VERTEX
  8
0
 10
5.6536
 20
5.10504
 42
0.0
  0
VERTEX
  8
0
 10
5.66607
 20
5.09603
 42
0.0
  0
VERTEX
  8
0
 10
5.67258
 20
5.09315
 42
0.0
  0
VERTEX
  8
0
 10
5.69683
 20
5.08626
 42
0.0
  0
VERTEX
  8
0
 10
5.70226
 20
5.08415
 42
0.0
  0
VERTEX
  8
0
 10
5.70692
 20
5.08231
 42
0.0
  0
VERTEX
  8
0
 10
5.72233
 20
5.06207
 42
0.0
  0
VERTEX
  8
0
 10
5.72765
 20
5.03662
 42
0.0
  0
VERTEX
  8
0
 10
5.73232
 20
5.01047
 42
0.0
  0
VERTEX
  8
0
 10
5.74588
 20
4.98801
 42
0.0
  0
VERTEX
  8
0
 10
5.74908
 20
4.98426
 42
0.0
  0
VERTEX
  8
0
 10
5.77387
 20
4.95665
 42
0.0
  0
VERTEX
  8
0
 10
5.77311
 20
4.95074
 42
0.0
  0
VERTEX
  8
0
 10
5.7806
 20
4.91986
 42
0.0
  0
VERTEX
  8
0
 10
5.78467
 20
4.90869
 42
0.0
  0
VERTEX
  8
0
 10
5.78646
 20
4.90315
 42
0.0
  0
VERTEX
  8
0
 10
5.78944
 20
4.89751
 42
0.0
  0
VERTEX
  8
0
 10
5.83708
 20
4.84185
 42
0.0
  0
VERTEX
  8
0
 10
5.84044
 20
4.8386
 42
0.0
  0
VERTEX
  8
0
 10
5.87717
 20
4.808
 42
0.0
  0
VERTEX
  8
0
 10
5.88211
 20
4.80425
 42
0.0
  0
VERTEX
  8
0
 10
5.88726
 20
4.80067
 42
0.0
  0
VERTEX
  8
0
 10
5.90104
 20
4.79135
 42
0.0
  0
VERTEX
  8
0
 10
5.91493
 20
4.78201
 42
0.0
  0
VERTEX
  8
0
 10
5.91911
 20
4.7794
 42
0.0
  0
VERTEX
  8
0
 10
5.98367
 20
4.73313
 42
0.0
  0
VERTEX
  8
0
 10
6.04471
 20
4.68181
 42
0.0
  0
VERTEX
  8
0
 10
6.04844
 20
4.67882
 42
0.0
  0
VERTEX
  8
0
 10
6.05225
 20
4.67606
 42
0.0
  0
VERTEX
  8
0
 10
6.08242
 20
4.65126
 42
0.0
  0
VERTEX
  8
0
 10
6.08578
 20
4.64806
 42
0.0
  0
VERTEX
  8
0
 10
6.13276
 20
4.59011
 42
0.0
  0
VERTEX
  8
0
 10
6.16351
 20
4.52197
 42
0.0
  0
VERTEX
  8
0
 10
6.16607
 20
4.51514
 42
0.0
  0
VERTEX
  8
0
 10
6.17051
 20
4.50325
 42
0.0
  0
VERTEX
  8
0
 10
6.17231
 20
4.49735
 42
0.0
  0
VERTEX
  8
0
 10
6.1741
 20
4.491
 42
0.0
  0
VERTEX
  8
0
 10
6.17567
 20
4.46587
 42
0.0
  0
VERTEX
  8
0
 10
6.17557
 20
4.45975
 42
0.0
  0
VERTEX
  8
0
 10
6.17546
 20
4.44162
 42
0.0
  0
VERTEX
  8
0
 10
6.17546
 20
4.43549
 42
0.0
  0
VERTEX
  8
0
 10
6.16824
 20
4.43571
 42
0.0
  0
VERTEX
  8
0
 10
6.15479
 20
4.44125
 42
0.0
  0
VERTEX
  8
0
 10
6.14621
 20
4.44786
 42
0.0
  0
VERTEX
  8
0
 10
6.13747
 20
4.45557
 42
0.0
  0
VERTEX
  8
0
 10
6.12869
 20
4.46338
 42
0.0
  0
VERTEX
  8
0
 10
6.11957
 20
4.47032
 42
0.0
  0
VERTEX
  8
0
 10
6.10563
 20
4.48042
 42
0.0
  0
VERTEX
  8
0
 10
6.09646
 20
4.48742
 42
0.0
  0
VERTEX
  8
0
 10
6.08751
 20
4.49408
 42
0.0
  0
VERTEX
  8
0
 10
6.07883
 20
4.49914
 42
0.0
  0
VERTEX
  8
0
 10
6.07172
 20
4.50179
 42
0.0
  0
VERTEX
  8
0
 10
6.05718
 20
4.50771
 42
0.0
  0
VERTEX
  8
0
 10
6.05046
 20
4.51036
 42
0.0
  0
VERTEX
  8
0
 10
6.04551
 20
4.51215
 42
0.0
  0
VERTEX
  8
0
 10
6.00424
 20
4.53668
 42
0.0
  0
VERTEX
  8
0
 10
6.00071
 20
4.53956
 42
0.0
  0
VERTEX
  8
0
 10
5.96913
 20
4.56685
 42
0.0
  0
VERTEX
  8
0
 10
5.94162
 20
4.59771
 42
0.0
  0
VERTEX
  8
0
 10
5.93782
 20
4.6384
 42
0.0
  0
VERTEX
  8
0
 10
5.92936
 20
4.67796
 42
0.0
  0
VERTEX
  8
0
 10
5.9279
 20
4.68207
 42
0.0
  0
VERTEX
  8
0
 10
5.92367
 20
4.68326
 42
0.0
  0
VERTEX
  8
0
 10
5.87756
 20
4.69092
 42
0.0
  0
VERTEX
  8
0
 10
5.83057
 20
4.69308
 42
0.0
  0
VERTEX
  8
0
 10
5.82379
 20
4.72835
 42
0.0
  0
VERTEX
  8
0
 10
5.80339
 20
4.75754
 42
0.0
  0
VERTEX
  8
0
 10
5.79742
 20
4.76329
 42
0.0
  0
VERTEX
  8
0
 10
5.78971
 20
4.76714
 42
0.0
  0
VERTEX
  8
0
 10
5.78347
 20
4.76882
 42
0.0
  0
VERTEX
  8
0
 10
5.77588
 20
4.77094
 42
0.0
  0
VERTEX
  8
0
 10
5.76112
 20
4.77567
 42
0.0
  0
VERTEX
  8
0
 10
5.7545
 20
4.77815
 42
0.0
  0
VERTEX
  8
0
 10
5.74972
 20
4.77989
 42
0.0
  0
VERTEX
  8
0
 10
5.73475
 20
4.78683
 42
0.0
  0
VERTEX
  8
0
 10
5.71869
 20
4.794
 42
0.0
  0
VERTEX
  8
0
 10
5.70578
 20
4.80393
 42
0.0
  0
VERTEX
  8
0
 10
5.70042
 20
4.81901
 42
0.0
  0
VERTEX
  8
0
 10
5.70008
 20
4.82482
 42
0.0
  0
VERTEX
  8
0
 10
5.69993
 20
4.83035
 42
0.0
  0
VERTEX
  8
0
 10
5.69982
 20
4.83637
 42
0.0
  0
VERTEX
  8
0
 10
5.69982
 20
4.86817
 42
0.0
  0
VERTEX
  8
0
 10
5.68901
 20
4.87685
 42
0.0
  0
VERTEX
  8
0
 10
5.67833
 20
4.88547
 42
0.0
  0
VERTEX
  8
0
 10
5.67063
 20
4.88954
 42
0.0
  0
VERTEX
  8
0
 10
5.65826
 20
4.89404
 42
0.0
  0
VERTEX
  8
0
 10
5.65056
 20
4.89654
 42
0.0
  0
VERTEX
  8
0
 10
5.64469
 20
4.89789
 42
0.0
  0
VERTEX
  8
0
 10
5.63678
 20
4.89968
 42
0.0
  0
VERTEX
  8
0
 10
5.61996
 20
4.90543
 42
0.0
  0
VERTEX
  8
0
 10
5.61019
 20
4.90913
 42
0.0
  0
VERTEX
  8
0
 10
5.60308
 20
4.91075
 42
0.0
  0
VERTEX
  8
0
 10
5.59879
 20
4.91433
 42
0.0
  0
VERTEX
  8
0
 10
5.59256
 20
4.91411
 42
0.0
  0
VERTEX
  8
0
 10
5.58594
 20
4.91396
 42
0.0
  0
VERTEX
  8
0
 10
5.57585
 20
4.91168
 42
0.0
  0
VERTEX
  8
0
 10
5.56912
 20
4.91
 42
0.0
  0
VERTEX
  8
0
 10
5.56131
 20
4.90543
 42
0.0
  0
VERTEX
  8
0
 10
5.54893
 20
4.89176
 42
0.0
  0
VERTEX
  8
0
 10
5.58333
 20
4.83154
 42
0.0
  0
VERTEX
  8
0
 10
5.6104
 20
4.76714
 42
0.0
  0
VERTEX
  8
0
 10
5.61464
 20
4.75917
 42
0.0
  0
VERTEX
  8
0
 10
5.61822
 20
4.75304
 42
0.0
  0
VERTEX
  8
0
 10
5.625
 20
4.74408
 42
0.0
  0
VERTEX
  8
0
 10
5.63325
 20
4.73264
 42
0.0
  0
VERTEX
  8
0
 10
5.63721
 20
4.72521
 42
0.0
  0
VERTEX
  8
0
 10
5.64492
 20
4.71556
 42
0.0
  0
VERTEX
  8
0
 10
5.65381
 20
4.70454
 42
0.0
  0
VERTEX
  8
0
 10
5.66351
 20
4.69428
 42
0.0
  0
VERTEX
  8
0
 10
5.67339
 20
4.68425
 42
0.0
  0
VERTEX
  8
0
 10
5.68326
 20
4.67437
 42
0.0
  0
VERTEX
  8
0
 10
5.69319
 20
4.66439
 42
0.0
  0
VERTEX
  8
0
 10
5.70318
 20
4.65451
 42
0.0
  0
VERTEX
  8
0
 10
5.71294
 20
4.64458
 42
0.0
  0
VERTEX
  8
0
 10
5.72287
 20
4.63482
 42
0.0
  0
VERTEX
  8
0
 10
5.73253
 20
4.625
 42
0.0
  0
VERTEX
  8
0
 10
5.74203
 20
4.61561
 42
0.0
  0
VERTEX
  8
0
 10
5.75125
 20
4.60764
 42
0.0
  0
VERTEX
  8
0
 10
5.76053
 20
4.60092
 42
0.0
  0
VERTEX
  8
0
 10
5.77387
 20
4.59119
 42
0.0
  0
VERTEX
  8
0
 10
5.78103
 20
4.58399
 42
0.0
  0
VERTEX
  8
0
 10
5.78271
 20
4.57764
 42
0.0
  0
VERTEX
  8
0
 10
5.7844
 20
4.57124
 42
0.0
  0
VERTEX
  8
0
 10
5.77154
 20
4.5586
 42
0.0
  0
VERTEX
  8
0
 10
5.75874
 20
4.5459
 42
0.0
  0
VERTEX
  8
0
 10
5.75304
 20
4.54107
 42
0.0
  0
VERTEX
  8
0
 10
5.74897
 20
4.53831
 42
0.0
  0
VERTEX
  8
0
 10
5.74799
 20
4.53271
 42
0.0
  0
VERTEX
  8
0
 10
5.74658
 20
4.52561
 42
0.0
  0
VERTEX
  8
0
 10
5.74658
 20
4.50424
 42
0.0
  0
VERTEX
  8
0
 10
5.74804
 20
4.49653
 42
0.0
  0
VERTEX
  8
0
 10
5.75319
 20
4.48568
 42
0.0
  0
VERTEX
  8
0
 10
5.75581
 20
4.47765
 42
0.0
  0
VERTEX
  8
0
 10
5.76199
 20
4.46647
 42
0.0
  0
VERTEX
  8
0
 10
5.76568
 20
4.45888
 42
0.0
  0
VERTEX
  8
0
 10
5.77279
 20
4.44894
 42
0.0
  0
VERTEX
  8
0
 10
5.78093
 20
4.43989
 42
0.0
  0
VERTEX
  8
0
 10
5.79042
 20
4.43224
 42
0.0
  0
VERTEX
  8
0
 10
5.80474
 20
4.42253
 42
0.0
  0
VERTEX
  8
0
 10
5.81424
 20
4.41612
 42
0.0
  0
VERTEX
  8
0
 10
5.82264
 20
4.41108
 42
0.0
  0
VERTEX
  8
0
 10
5.82899
 20
4.40771
 42
0.0
  0
VERTEX
  8
0
 10
5.83908
 20
4.40186
 42
0.0
  0
VERTEX
  8
0
 10
5.85374
 20
4.39268
 42
0.0
  0
VERTEX
  8
0
 10
5.8629
 20
4.38558
 42
0.0
  0
VERTEX
  8
0
 10
5.87153
 20
4.37717
 42
0.0
  0
VERTEX
  8
0
 10
5.87961
 20
4.36708
 42
0.0
  0
VERTEX
  8
0
 10
5.88308
 20
4.361
 42
0.0
  0
VERTEX
  8
0
 10
5.88732
 20
4.35374
 42
0.0
  0
VERTEX
  8
0
 10
5.89464
 20
4.33985
 42
0.0
  0
VERTEX
  8
0
 10
5.88911
 20
4.32688
 42
0.0
  0
VERTEX
  8
0
 10
5.88428
 20
4.32237
 42
0.0
  0
VERTEX
  8
0
 10
5.85835
 20
4.31651
 42
0.0
  0
VERTEX
  8
0
 10
5.83143
 20
4.31625
 42
0.0
  0
VERTEX
  8
0
 10
5.63292
 20
4.31674
 42
0.0
  0
VERTEX
  8
0
 10
5.61046
 20
4.31494
 42
0.0
  0
VERTEX
  8
0
 10
5.5905
 20
4.30496
 42
0.0
  0
VERTEX
  8
0
 10
5.58811
 20
4.30344
 42
0.0
  0
VERTEX
  8
0
 10
5.58942
 20
4.30171
 42
0.0
  0
VERTEX
  8
0
 10
5.62907
 20
4.24799
 42
0.0
  0
VERTEX
  8
0
 10
5.63276
 20
4.24442
 42
0.0
  0
VERTEX
  8
0
 10
5.68858
 20
4.20958
 42
0.0
  0
VERTEX
  8
0
 10
5.74636
 20
4.17736
 42
0.0
  0
VERTEX
  8
0
 10
5.75028
 20
4.17486
 42
0.0
  0
VERTEX
  8
0
 10
5.78982
 20
4.14589
 42
0.0
  0
VERTEX
  8
0
 10
5.79557
 20
4.14165
 42
0.0
  0
VERTEX
  8
0
 10
5.80067
 20
4.13786
 42
0.0
  0
VERTEX
  8
0
 10
5.80892
 20
4.13206
 42
0.0
  0
VERTEX
  8
0
 10
5.81565
 20
4.12722
 42
0.0
  0
VERTEX
  8
0
 10
5.82915
 20
4.11649
 42
0.0
  0
VERTEX
  8
0
 10
5.84272
 20
4.10574
 42
0.0
  0
VERTEX
  8
0
 10
5.84321
 20
4.09988
 42
0.0
  0
VERTEX
  8
0
 10
5.84364
 20
4.09407
 42
0.0
  0
VERTEX
  8
0
 10
5.82411
 20
4.0905
 42
0.0
  0
VERTEX
  8
0
 10
5.80474
 20
4.08686
 42
0.0
  0
VERTEX
  8
0
 10
5.79801
 20
4.08686
 42
0.0
  0
VERTEX
  8
0
 10
5.79199
 20
4.08697
 42
0.0
  0
VERTEX
  8
0
 10
5.78586
 20
4.08697
 42
0.0
  0
VERTEX
  8
0
 10
5.77914
 20
4.08703
 42
0.0
  0
VERTEX
  8
0
 10
5.75672
 20
4.08697
 42
0.0
  0
VERTEX
  8
0
 10
5.73432
 20
4.08686
 42
0.0
  0
VERTEX
  8
0
 10
5.72721
 20
4.08664
 42
0.0
  0
VERTEX
  8
0
 10
5.72049
 20
4.08643
 42
0.0
  0
VERTEX
  8
0
 10
5.71376
 20
4.08604
 42
0.0
  0
VERTEX
  8
0
 10
5.70751
 20
4.08567
 42
0.0
  0
VERTEX
  8
0
 10
5.69824
 20
4.0829
 42
0.0
  0
VERTEX
  8
0
 10
5.68539
 20
4.07715
 42
0.0
  0
VERTEX
  8
0
 10
5.67774
 20
4.07428
 42
0.0
  0
VERTEX
  8
0
 10
5.64182
 20
4.06868
 42
0.0
  0
VERTEX
  8
0
 10
5.6071
 20
4.07736
 42
0.0
  0
VERTEX
  8
0
 10
5.59928
 20
4.08171
 42
0.0
  0
VERTEX
  8
0
 10
5.59033
 20
4.08583
 42
0.0
  0
VERTEX
  8
0
 10
5.5829
 20
4.08843
 42
0.0
  0
VERTEX
  8
0
 10
5.5746
 20
4.09131
 42
0.0
  0
VERTEX
  8
0
 10
5.56299
 20
4.097
 42
0.0
  0
VERTEX
  8
0
 10
5.5549
 20
4.09928
 42
0.0
  0
VERTEX
  8
0
 10
5.54443
 20
4.10417
 42
0.0
  0
VERTEX
  8
0
 10
5.53738
 20
4.10574
 42
0.0
  0
VERTEX
  8
0
 10
5.52886
 20
4.10781
 42
0.0
  0
VERTEX
  8
0
 10
5.51096
 20
4.11307
 42
0.0
  0
VERTEX
  8
0
 10
5.50206
 20
4.11546
 42
0.0
  0
VERTEX
  8
0
 10
5.49636
 20
4.11621
 42
0.0
  0
VERTEX
  8
0
 10
5.49018
 20
4.11703
 42
0.0
  0
VERTEX
  8
0
 10
5.48367
 20
4.118
 42
0.0
  0
VERTEX
  8
0
 10
5.40657
 20
4.13331
 42
0.0
  0
VERTEX
  8
0
 10
5.32807
 20
4.13504
 42
0.0
  0
VERTEX
  8
0
 10
5.34256
 20
4.10656
 42
0.0
  0
VERTEX
  8
0
 10
5.34836
 20
4.10069
 42
0.0
  0
VERTEX
  8
0
 10
5.35568
 20
4.09651
 42
0.0
  0
VERTEX
  8
0
 10
5.36675
 20
4.09022
 42
0.0
  0
VERTEX
  8
0
 10
5.37369
 20
4.08583
 42
0.0
  0
VERTEX
  8
0
 10
5.38932
 20
4.06754
 42
0.0
  0
VERTEX
  8
0
 10
5.38932
 20
4.06104
 42
0.0
  0
VERTEX
  8
0
 10
5.38921
 20
4.05501
 42
0.0
  0
VERTEX
  8
0
 10
5.34933
 20
4.04818
 42
0.0
  0
VERTEX
  8
0
 10
5.30832
 20
4.04812
 42
0.0
  0
VERTEX
  8
0
 10
5.26704
 20
4.0491
 42
0.0
  0
VERTEX
  8
0
 10
5.22629
 20
4.04531
 42
0.0
  0
VERTEX
  8
0
 10
5.22076
 20
4.04422
 42
0.0
  0
VERTEX
  8
0
 10
5.14806
 20
4.03668
 42
0.0
  0
VERTEX
  8
0
 10
5.14393
 20
4.03651
 42
0.0
  0
VERTEX
  8
0
 10
5.14117
 20
4.03381
 42
0.0
  0
VERTEX
  8
0
 10
5.11996
 20
4.00549
 42
0.0
  0
VERTEX
  8
0
 10
5.12631
 20
3.97006
 42
0.0
  0
VERTEX
  8
0
 10
5.13232
 20
3.96371
 42
0.0
  0
VERTEX
  8
0
 10
5.13807
 20
3.96121
 42
0.0
  0
VERTEX
  8
0
 10
5.13629
 20
3.95443
 42
0.0
  0
VERTEX
  8
0
 10
5.13015
 20
3.94667
 42
0.0
  0
VERTEX
  8
0
 10
5.11789
 20
3.93739
 42
0.0
  0
VERTEX
  8
0
 10
5.11046
 20
3.93224
 42
0.0
  0
VERTEX
  8
0
 10
5.10454
 20
3.92817
 42
0.0
  0
VERTEX
  8
0
 10
5.05826
 20
3.91818
 42
0.0
  0
VERTEX
  8
0
 10
5.05225
 20
3.91829
 42
0.0
  0
VERTEX
  8
0
 10
4.99994
 20
3.91986
 42
0.0
  0
VERTEX
  8
0
 10
4.94879
 20
3.92671
 42
0.0
  0
VERTEX
  8
0
 10
4.94499
 20
3.92936
 42
0.0
  0
VERTEX
  8
0
 10
4.91525
 20
3.95329
 42
0.0
  0
VERTEX
  8
0
 10
4.91433
 20
3.9541
 42
0.0
  0
VERTEX
  8
0
 10
4.91129
 20
3.95329
 42
0.0
  0
VERTEX
  8
0
 10
4.8974
 20
3.94993
 42
0.0
  0
VERTEX
  8
0
 10
4.89008
 20
3.94824
 42
0.0
  0
VERTEX
  8
0
 10
4.88439
 20
3.947
 42
0.0
  0
VERTEX
  8
0
 10
4.87636
 20
3.94422
 42
0.0
  0
VERTEX
  8
0
 10
4.86312
 20
3.93875
 42
0.0
  0
VERTEX
  8
0
 10
4.85389
 20
3.9344
 42
0.0
  0
VERTEX
  8
0
 10
4.84381
 20
3.92899
 42
0.0
  0
VERTEX
  8
0
 10
4.83751
 20
3.92535
 42
0.0
  0
VERTEX
  8
0
 10
4.78342
 20
3.90337
 42
0.0
  0
VERTEX
  8
0
 10
4.72586
 20
3.9025
 42
0.0
  0
VERTEX
  8
0
 10
4.66715
 20
3.91194
 42
0.0
  0
VERTEX
  8
0
 10
4.6096
 20
3.92096
 42
0.0
  0
VERTEX
  8
0
 10
4.60226
 20
3.89236
 42
0.0
  0
VERTEX
  8
0
 10
4.56728
 20
3.89518
 42
0.0
  0
VERTEX
  8
0
 10
4.53256
 20
3.90543
 42
0.0
  0
VERTEX
  8
0
 10
4.52669
 20
3.90722
 42
0.0
  0
VERTEX
  8
0
 10
4.50396
 20
3.91411
 42
0.0
  0
VERTEX
  8
0
 10
4.49832
 20
3.91581
 42
0.0
  0
VERTEX
  8
0
 10
4.41407
 20
3.94542
 42
0.0
  0
VERTEX
  8
0
 10
4.4081
 20
3.947
 42
0.0
  0
VERTEX
  8
0
 10
4.37961
 20
3.94938
 42
0.0
  0
VERTEX
  8
0
 10
4.39111
 20
3.91465
 42
0.0
  0
VERTEX
  8
0
 10
4.3999
 20
3.87983
 42
0.0
  0
VERTEX
  8
0
 10
4.36669
 20
3.87901
 42
0.0
  0
VERTEX
  8
0
 10
4.33578
 20
3.88971
 42
0.0
  0
VERTEX
  8
0
 10
4.30561
 20
3.90468
 42
0.0
  0
VERTEX
  8
0
 10
4.27479
 20
3.91694
 42
0.0
  0
VERTEX
  8
0
 10
4.26818
 20
3.91971
 42
0.0
  0
VERTEX
  8
0
 10
4.25749
 20
3.92475
 42
0.0
  0
VERTEX
  8
0
 10
4.24914
 20
3.92865
 42
0.0
  0
VERTEX
  8
0
 10
4.23768
 20
3.9344
 42
0.0
  0
VERTEX
  8
0
 10
4.22879
 20
3.93918
 42
0.0
  0
VERTEX
  8
0
 10
4.2156
 20
3.94678
 42
0.0
  0
VERTEX
  8
0
 10
4.20611
 20
3.95275
 42
0.0
  0
VERTEX
  8
0
 10
4.19715
 20
3.95796
 42
0.0
  0
VERTEX
  8
0
 10
4.19032
 20
3.9611
 42
0.0
  0
VERTEX
  8
0
 10
4.18121
 20
3.96539
 42
0.0
  0
VERTEX
  8
0
 10
4.17421
 20
3.96793
 42
0.0
  0
VERTEX
  8
0
 10
4.16081
 20
3.97331
 42
0.0
  0
VERTEX
  8
0
 10
4.15403
 20
3.97635
 42
0.0
  0
VERTEX
  8
0
 10
4.11356
 20
3.99815
 42
0.0
  0
VERTEX
  8
0
 10
4.07189
 20
4.01719
 42
0.0
  0
VERTEX
  8
0
 10
4.06489
 20
3.99083
 42
0.0
  0
VERTEX
  8
0
 10
4.07742
 20
3.96658
 42
0.0
  0
VERTEX
  8
0
 10
4.09819
 20
3.94379
 42
0.0
  0
VERTEX
  8
0
 10
4.11572
 20
3.92176
 42
0.0
  0
VERTEX
  8
0
 10
4.109
 20
3.91135
 42
0.0
  0
VERTEX
  8
0
 10
4.09825
 20
3.91189
 42
0.0
  0
VERTEX
  8
0
 10
4.08637
 20
3.91792
 42
0.0
  0
VERTEX
  8
0
 10
4.07607
 20
3.92383
 42
0.0
  0
VERTEX
  8
0
 10
4.07161
 20
3.92622
 42
0.0
  0
VERTEX
  8
0
 10
4.00444
 20
3.95757
 42
0.0
  0
VERTEX
  8
0
 10
3.99685
 20
3.96072
 42
0.0
  0
VERTEX
  8
0
 10
3.99018
 20
3.96311
 42
0.0
  0
VERTEX
  8
0
 10
3.97944
 20
3.96778
 42
0.0
  0
VERTEX
  8
0
 10
3.97131
 20
3.96972
 42
0.0
  0
VERTEX
  8
0
 10
3.96251
 20
3.97211
 42
0.0
  0
VERTEX
  8
0
 10
3.95156
 20
3.97786
 42
0.0
  0
VERTEX
  8
0
 10
3.94379
 20
3.98019
 42
0.0
  0
VERTEX
  8
0
 10
3.93549
 20
3.98296
 42
0.0
  0
VERTEX
  8
0
 10
3.9254
 20
3.98953
 42
0.0
  0
VERTEX
  8
0
 10
3.91803
 20
3.99447
 42
0.0
  0
VERTEX
  8
0
 10
3.90261
 20
4.00564
 42
0.0
  0
VERTEX
  8
0
 10
3.88732
 20
4.01682
 42
0.0
  0
VERTEX
  8
0
 10
3.8826
 20
4.02094
 42
0.0
  0
VERTEX
  8
0
 10
3.87765
 20
4.02572
 42
0.0
  0
VERTEX
  8
0
 10
3.86794
 20
4.03575
 42
0.0
  0
VERTEX
  8
0
 10
3.85824
 20
4.04579
 42
0.0
  0
VERTEX
  8
0
 10
3.85331
 20
4.05083
 42
0.0
  0
VERTEX
  8
0
 10
3.8481
 20
4.05501
 42
0.0
  0
VERTEX
  8
0
 10
3.82742
 20
4.06793
 42
0.0
  0
VERTEX
  8
0
 10
3.81901
 20
4.04378
 42
0.0
  0
VERTEX
  8
0
 10
3.81685
 20
4.01839
 42
0.0
  0
VERTEX
  8
0
 10
3.81538
 20
3.99289
 42
0.0
  0
VERTEX
  8
0
 10
3.8094
 20
3.96843
 42
0.0
  0
VERTEX
  8
0
 10
3.79779
 20
3.97646
 42
0.0
  0
VERTEX
  8
0
 10
3.79129
 20
3.98101
 42
0.0
  0
VERTEX
  8
0
 10
3.78597
 20
3.98465
 42
0.0
  0
VERTEX
  8
0
 10
3.78119
 20
3.98785
 42
0.0
  0
VERTEX
  8
0
 10
3.7551
 20
4.0154
 42
0.0
  0
VERTEX
  8
0
 10
3.72965
 20
4.04362
 42
0.0
  0
VERTEX
  8
0
 10
3.72314
 20
4.04856
 42
0.0
  0
VERTEX
  8
0
 10
3.71158
 20
4.0561
 42
0.0
  0
VERTEX
  8
0
 10
3.70318
 20
4.06239
 42
0.0
  0
VERTEX
  8
0
 10
3.69526
 20
4.07015
 42
0.0
  0
VERTEX
  8
0
 10
3.68756
 20
4.07764
 42
0.0
  0
VERTEX
  8
0
 10
3.67925
 20
4.08279
 42
0.0
  0
VERTEX
  8
0
 10
3.65826
 20
4.09033
 42
0.0
  0
VERTEX
  8
0
 10
3.65153
 20
4.01069
 42
0.0
  0
VERTEX
  8
0
 10
3.64757
 20
3.95915
 42
0.0
  0
VERTEX
  8
0
 10
3.64806
 20
3.95324
 42
0.0
  0
VERTEX
  8
0
 10
3.64839
 20
3.94678
 42
0.0
  0
VERTEX
  8
0
 10
3.64344
 20
3.92139
 42
0.0
  0
VERTEX
  8
0
 10
3.63672
 20
3.92156
 42
0.0
  0
VERTEX
  8
0
 10
3.62446
 20
3.93946
 42
0.0
  0
VERTEX
  8
0
 10
3.62207
 20
3.94374
 42
0.0
  0
VERTEX
  8
0
 10
3.61957
 20
3.94786
 42
0.0
  0
VERTEX
  8
0
 10
3.58539
 20
3.99035
 42
0.0
  0
VERTEX
  8
0
 10
3.53907
 20
4.01958
 42
0.0
  0
VERTEX
  8
0
 10
3.55246
 20
3.92671
 42
0.0
  0
VERTEX
  8
0
 10
3.55985
 20
3.83333
 42
0.0
  0
VERTEX
  8
0
 10
3.56017
 20
3.76736
 42
0.0
  0
VERTEX
  8
0
 10
3.55442
 20
3.70199
 42
0.0
  0
VERTEX
  8
0
 10
3.55322
 20
3.69624
 42
0.0
  0
VERTEX
  8
0
 10
3.54975
 20
3.67068
 42
0.0
  0
VERTEX
  8
0
 10
3.55072
 20
3.64253
 42
0.0
  0
VERTEX
  8
0
 10
3.54606
 20
3.61806
 42
0.0
  0
VERTEX
  8
0
 10
3.52599
 20
3.60346
 42
0.0
  0
VERTEX
  8
0
 10
3.52518
 20
3.68201
 42
0.0
  0
VERTEX
  8
0
 10
3.52154
 20
3.76004
 42
0.0
  0
VERTEX
  8
0
 10
3.48469
 20
3.82671
 42
0.0
  0
VERTEX
  8
0
 10
3.46528
 20
3.90039
 42
0.0
  0
VERTEX
  8
0
 10
3.46397
 20
3.90603
 42
0.0
  0
VERTEX
  8
0
 10
3.46278
 20
3.9106
 42
0.0
  0
VERTEX
  8
0
 10
3.46072
 20
3.91624
 42
0.0
  0
VERTEX
  8
0
 10
3.44726
 20
3.96707
 42
0.0
  0
VERTEX
  8
0
 10
3.44726
 20
3.97282
 42
0.0
  0
VERTEX
  8
0
 10
3.43896
 20
4.01275
 42
0.0
  0
VERTEX
  8
0
 10
3.43403
 20
4.02322
 42
0.0
  0
VERTEX
  8
0
 10
3.43044
 20
4.03174
 42
0.0
  0
VERTEX
  8
0
 10
3.426
 20
4.04628
 42
0.0
  0
VERTEX
  8
0
 10
3.42481
 20
4.0541
 42
0.0
  0
VERTEX
  8
0
 10
3.42383
 20
4.06082
 42
0.0
  0
VERTEX
  8
0
 10
3.42296
 20
4.06679
 42
0.0
  0
VERTEX
  8
0
 10
3.42046
 20
4.07536
 42
0.0
  0
VERTEX
  8
0
 10
3.41553
 20
4.08854
 42
0.0
  0
VERTEX
  8
0
 10
3.41303
 20
4.09625
 42
0.0
  0
VERTEX
  8
0
 10
3.38103
 20
4.23074
 42
0.0
  0
VERTEX
  8
0
 10
3.37983
 20
4.236
 42
0.0
  0
VERTEX
  8
0
 10
3.3801
 20
4.27328
 42
0.0
  0
VERTEX
  8
0
 10
3.38872
 20
4.31022
 42
0.0
  0
VERTEX
  8
0
 10
3.39632
 20
4.34733
 42
0.0
  0
VERTEX
  8
0
 10
3.39344
 20
4.38499
 42
0.0
  0
VERTEX
  8
0
 10
3.38917
 20
4.40099
 42
0.0
  0
VERTEX
  8
0
 10
3.38428
 20
4.41786
 42
0.0
  0
VERTEX
  8
0
 10
3.37537
 20
4.43056
 42
0.0
  0
VERTEX
  8
0
 10
3.35915
 20
4.43414
 42
0.0
  0
VERTEX
  8
0
 10
3.34956
 20
4.43056
 42
0.0
  0
VERTEX
  8
0
 10
3.34451
 20
4.42144
 42
0.0
  0
VERTEX
  8
0
 10
3.34115
 20
4.41032
 42
0.0
  0
VERTEX
  8
0
 10
3.33681
 20
4.40072
 42
0.0
  0
VERTEX
  8
0
 10
3.33442
 20
4.39464
 42
0.0
  0
VERTEX
  8
0
 10
3.33247
 20
4.38921
 42
0.0
  0
VERTEX
  8
0
 10
3.32915
 20
4.3711
 42
0.0
  0
VERTEX
  8
0
 10
3.32878
 20
4.36447
 42
0.0
  0
VERTEX
  8
0
 10
3.31657
 20
4.30838
 42
0.0
  0
VERTEX
  8
0
 10
3.29633
 20
4.25461
 42
0.0
  0
VERTEX
  8
0
 10
3.29281
 20
4.24858
 42
0.0
  0
VERTEX
  8
0
 10
3.28504
 20
4.23807
 42
0.0
  0
VERTEX
  8
0
 10
3.27815
 20
4.23828
 42
0.0
  0
VERTEX
  8
0
 10
3.2716
 20
4.23856
 42
0.0
  0
VERTEX
  8
0
 10
3.26497
 20
4.23888
 42
0.0
  0
VERTEX
  8
0
 10
3.25569
 20
4.24767
 42
0.0
  0
VERTEX
  8
0
 10
3.2525
 20
4.25076
 42
0.0
  0
VERTEX
  8
0
 10
3.25114
 20
4.24864
 42
0.0
  0
VERTEX
  8
0
 10
3.23699
 20
4.21224
 42
0.0
  0
VERTEX
  8
0
 10
3.23167
 20
4.17165
 42
0.0
  0
VERTEX
  8
0
 10
3.22271
 20
4.13308
 42
0.0
  0
VERTEX
  8
0
 10
3.19781
 20
4.10265
 42
0.0
  0
VERTEX
  8
0
 10
3.17389
 20
4.11236
 42
0.0
  0
VERTEX
  8
0
 10
3.16689
 20
4.11376
 42
0.0
  0
VERTEX
  8
0
 10
3.162
 20
4.11356
 42
0.0
  0
VERTEX
  8
0
 10
3.15451
 20
4.11029
 42
0.0
  0
VERTEX
  8
0
 10
3.14996
 20
4.1026
 42
0.0
  0
VERTEX
  8
0
 10
3.13743
 20
4.04292
 42
0.0
  0
VERTEX
  8
0
 10
3.10742
 20
3.9899
 42
0.0
  0
VERTEX
  8
0
 10
3.10514
 20
3.98389
 42
0.0
  0
VERTEX
  8
0
 10
3.09733
 20
3.93858
 42
0.0
  0
VERTEX
  8
0
 10
3.09397
 20
3.93381
 42
0.0
  0
VERTEX
  8
0
 10
3.08686
 20
3.92632
 42
0.0
  0
VERTEX
  8
0
 10
3.07422
 20
3.93289
 42
0.0
  0
VERTEX
  8
0
 10
3.06233
 20
3.94211
 42
0.0
  0
VERTEX
  8
0
 10
3.05012
 20
3.94889
 42
0.0
  0
VERTEX
  8
0
 10
3.0364
 20
3.94808
 42
0.0
  0
VERTEX
  8
0
 10
2.97618
 20
3.86882
 42
0.0
  0
VERTEX
  8
0
 10
2.91938
 20
3.78662
 42
0.0
  0
VERTEX
  8
0
 10
2.91575
 20
3.78142
 42
0.0
  0
VERTEX
  8
0
 10
2.91288
 20
3.77696
 42
0.0
  0
VERTEX
  8
0
 10
2.90901
 20
3.77072
 42
0.0
  0
VERTEX
  8
0
 10
2.88206
 20
3.7206
 42
0.0
  0
VERTEX
  8
0
 10
2.85824
 20
3.66883
 42
0.0
  0
VERTEX
  8
0
 10
2.85314
 20
3.66249
 42
0.0
  0
VERTEX
  8
0
 10
2.84657
 20
3.65631
 42
0.0
  0
VERTEX
  8
0
 10
2.83919
 20
3.65093
 42
0.0
  0
VERTEX
  8
0
 10
2.82557
 20
3.64404
 42
0.0
  0
VERTEX
  8
0
 10
2.81196
 20
3.6371
 42
0.0
  0
VERTEX
  8
0
 10
2.80365
 20
3.63167
 42
0.0
  0
VERTEX
  8
0
 10
2.79633
 20
3.62424
 42
0.0
  0
VERTEX
  8
0
 10
2.79118
 20
3.6161
 42
0.0
  0
VERTEX
  8
0
 10
2.78814
 20
3.6091
 42
0.0
  0
VERTEX
  8
0
 10
2.78071
 20
3.59337
 42
0.0
  0
VERTEX
  8
0
 10
2.77322
 20
3.59239
 42
0.0
  0
VERTEX
  8
0
 10
2.77328
 20
3.61367
 42
0.0
  0
VERTEX
  8
0
 10
2.773
 20
3.62076
 42
0.0
  0
VERTEX
  8
0
 10
2.77311
 20
3.6275
 42
0.0
  0
VERTEX
  8
0
 10
2.78874
 20
3.68522
 42
0.0
  0
VERTEX
  8
0
 10
2.81494
 20
3.73915
 42
0.0
  0
VERTEX
  8
0
 10
2.81711
 20
3.74354
 42
0.0
  0
VERTEX
  8
0
 10
2.85053
 20
3.80333
 42
0.0
  0
VERTEX
  8
0
 10
2.8896
 20
3.85975
 42
0.0
  0
VERTEX
  8
0
 10
2.89378
 20
3.86529
 42
0.0
  0
VERTEX
  8
0
 10
2.89725
 20
3.87044
 42
0.0
  0
VERTEX
  8
0
 10
2.90013
 20
3.875
 42
0.0
  0
VERTEX
  8
0
 10
2.93707
 20
3.93474
 42
0.0
  0
VERTEX
  8
0
 10
2.94038
 20
3.93896
 42
0.0
  0
VERTEX
  8
0
 10
2.95449
 20
3.95665
 42
0.0
  0
VERTEX
  8
0
 10
2.95904
 20
3.96349
 42
0.0
  0
VERTEX
  8
0
 10
2.96457
 20
3.97342
 42
0.0
  0
VERTEX
  8
0
 10
2.96897
 20
3.9815
 42
0.0
  0
VERTEX
  8
0
 10
2.9745
 20
3.99246
 42
0.0
  0
VERTEX
  8
0
 10
2.97846
 20
4.00071
 42
0.0
  0
VERTEX
  8
0
 10
2.9834
 20
4.01129
 42
0.0
  0
VERTEX
  8
0
 10
2.98606
 20
4.01878
 42
0.0
  0
VERTEX
  8
0
 10
2.99061
 20
4.03646
 42
0.0
  0
VERTEX
  8
0
 10
2.99522
 20
4.0541
 42
0.0
  0
VERTEX
  8
0
 10
2.99701
 20
4.06022
 42
0.0
  0
VERTEX
  8
0
 10
3.00483
 20
4.08268
 42
0.0
  0
VERTEX
  8
0
 10
3.00722
 20
4.08806
 42
0.0
  0
VERTEX
  8
0
 10
3.0159
 20
4.10194
 42
0.0
  0
VERTEX
  8
0
 10
3.02462
 20
4.11583
 42
0.0
  0
VERTEX
  8
0
 10
3.0275
 20
4.1199
 42
0.0
  0
VERTEX
  8
0
 10
3.03006
 20
4.12354
 42
0.0
  0
VERTEX
  8
0
 10
3.05946
 20
4.16303
 42
0.0
  0
VERTEX
  8
0
 10
3.09185
 20
4.20036
 42
0.0
  0
VERTEX
  8
0
 10
3.12229
 20
4.23893
 42
0.0
  0
VERTEX
  8
0
 10
3.146
 20
4.28201
 42
0.0
  0
VERTEX
  8
0
 10
3.14914
 20
4.2895
 42
0.0
  0
VERTEX
  8
0
 10
3.15462
 20
4.30285
 42
0.0
  0
VERTEX
  8
0
 10
3.15815
 20
4.31233
 42
0.0
  0
VERTEX
  8
0
 10
3.16015
 20
4.31939
 42
0.0
  0
VERTEX
  8
0
 10
3.16428
 20
4.32986
 42
0.0
  0
VERTEX
  8
0
 10
3.16525
 20
4.33708
 42
0.0
  0
VERTEX
  8
0
 10
3.16639
 20
4.34472
 42
0.0
  0
VERTEX
  8
0
 10
3.16775
 20
4.35362
 42
0.0
  0
VERTEX
  8
0
 10
3.17258
 20
4.37212
 42
0.0
  0
VERTEX
  8
0
 10
3.17626
 20
4.38167
 42
0.0
  0
VERTEX
  8
0
 10
3.17763
 20
4.38851
 42
0.0
  0
VERTEX
  8
0
 10
3.17925
 20
4.39654
 42
0.0
  0
VERTEX
  8
0
 10
3.18099
 20
4.40494
 42
0.0
  0
VERTEX
  8
0
 10
3.18587
 20
4.41612
 42
0.0
  0
VERTEX
  8
0
 10
3.19021
 20
4.43821
 42
0.0
  0
VERTEX
  8
0
 10
3.19129
 20
4.44656
 42
0.0
  0
VERTEX
  8
0
 10
3.19433
 20
4.45568
 42
0.0
  0
VERTEX
  8
0
 10
3.19575
 20
4.46164
 42
0.0
  0
VERTEX
  8
0
 10
3.19721
 20
4.46804
 42
0.0
  0
VERTEX
  8
0
 10
3.20654
 20
4.50011
 42
0.0
  0
VERTEX
  8
0
 10
3.23074
 20
4.54096
 42
0.0
  0
VERTEX
  8
0
 10
3.23292
 20
4.54904
 42
0.0
  0
VERTEX
  8
0
 10
3.25174
 20
4.59571
 42
0.0
  0
VERTEX
  8
0
 10
3.26481
 20
4.64421
 42
0.0
  0
VERTEX
  8
0
 10
3.26975
 20
4.6939
 42
0.0
  0
VERTEX
  8
0
 10
3.26421
 20
4.74393
 42
0.0
  0
VERTEX
  8
0
 10
3.26329
 20
4.74914
 42
0.0
  0
VERTEX
  8
0
 10
3.25749
 20
4.75103
 42
0.0
  0
VERTEX
  8
0
 10
3.24669
 20
4.75478
 42
0.0
  0
VERTEX
  8
0
 10
3.24246
 20
4.75472
 42
0.0
  0
VERTEX
  8
0
 10
3.23096
 20
4.75103
 42
0.0
  0
VERTEX
  8
0
 10
3.22374
 20
4.74849
 42
0.0
  0
VERTEX
  8
0
 10
3.21018
 20
4.743
 42
0.0
  0
VERTEX
  8
0
 10
3.19661
 20
4.73747
 42
0.0
  0
VERTEX
  8
0
 10
3.18571
 20
4.6721
 42
0.0
  0
VERTEX
  8
0
 10
3.18517
 20
4.60514
 42
0.0
  0
VERTEX
  8
0
 10
3.17437
 20
4.58197
 42
0.0
  0
VERTEX
  8
0
 10
3.15793
 20
4.56244
 42
0.0
  0
VERTEX
  8
0
 10
3.1396
 20
4.54411
 42
0.0
  0
VERTEX
  8
0
 10
3.12304
 20
4.52453
 42
0.0
  0
VERTEX
  8
0
 10
3.14264
 20
4.47586
 42
0.0
  0
VERTEX
  8
0
 10
3.13286
 20
4.45796
 42
0.0
  0
VERTEX
  8
0
 10
3.12218
 20
4.44049
 42
0.0
  0
VERTEX
  8
0
 10
3.11447
 20
4.4221
 42
0.0
  0
VERTEX
  8
0
 10
3.11393
 20
4.40147
 42
0.0
  0
VERTEX
  8
0
 10
3.11367
 20
4.39556
 42
0.0
  0
VERTEX
  8
0
 10
3.11333
 20
4.39003
 42
0.0
  0
VERTEX
  8
0
 10
3.11285
 20
4.38417
 42
0.0
  0
VERTEX
  8
0
 10
3.07801
 20
4.34289
 42
0.0
  0
VERTEX
  8
0
 10
3.03907
 20
4.30464
 42
0.0
  0
VERTEX
  8
0
 10
3.03592
 20
4.30078
 42
0.0
  0
VERTEX
  8
0
 10
3.02735
 20
4.28863
 42
0.0
  0
VERTEX
  8
0
 10
3.01878
 20
4.27647
 42
0.0
  0
VERTEX
  8
0
 10
3.016
 20
4.27219
 42
0.0
  0
VERTEX
  8
0
 10
3.00803
 20
4.25933
 42
0.0
  0
VERTEX
  8
0
 10
3.00011
 20
4.24631
 42
0.0
  0
VERTEX
  8
0
 10
2.99783
 20
4.24056
 42
0.0
  0
VERTEX
  8
0
 10
2.99393
 20
4.22336
 42
0.0
  0
VERTEX
  8
0
 10
2.99001
 20
4.20611
 42
0.0
  0
VERTEX
  8
0
 10
2.98813
 20
4.19997
 42
0.0
  0
VERTEX
  8
0
 10
2.97933
 20
4.17763
 42
0.0
  0
VERTEX
  8
0
 10
2.97428
 20
4.17307
 42
0.0
  0
VERTEX
  8
0
 10
2.95133
 20
4.16331
 42
0.0
  0
VERTEX
  8
0
 10
2.9439
 20
4.16004
 42
0.0
  0
VERTEX
  8
0
 10
2.93321
 20
4.155
 42
0.0
  0
VERTEX
  8
0
 10
2.92453
 20
4.15007
 42
0.0
  0
VERTEX
  8
0
 10
2.91254
 20
4.14231
 42
0.0
  0
VERTEX
  8
0
 10
2.90397
 20
4.13601
 42
0.0
  0
VERTEX
  8
0
 10
2.89714
 20
4.12836
 42
0.0
  0
VERTEX
  8
0
 10
2.89296
 20
4.12218
 42
0.0
  0
VERTEX
  8
0
 10
2.88667
 20
4.11274
 42
0.0
  0
VERTEX
  8
0
 10
2.8826
 20
4.10444
 42
0.0
  0
VERTEX
  8
0
 10
2.86854
 20
4.05431
 42
0.0
  0
VERTEX
  8
0
 10
2.90256
 20
4.02474
 42
0.0
  0
VERTEX
  8
0
 10
2.90039
 20
4.01742
 42
0.0
  0
VERTEX
  8
0
 10
2.89903
 20
4.01324
 42
0.0
  0
VERTEX
  8
0
 10
2.88878
 20
3.99897
 42
0.0
  0
VERTEX
  8
0
 10
2.87853
 20
3.98465
 42
0.0
  0
VERTEX
  8
0
 10
2.87261
 20
3.97851
 42
0.0
  0
VERTEX
  8
0
 10
2.86496
 20
3.97081
 42
0.0
  0
VERTEX
  8
0
 10
2.85736
 20
3.96229
 42
0.0
  0
VERTEX
  8
0
 10
2.85075
 20
3.95383
 42
0.0
  0
VERTEX
  8
0
 10
2.84174
 20
3.94233
 42
0.0
  0
VERTEX
  8
0
 10
2.83479
 20
3.93539
 42
0.0
  0
VERTEX
  8
0
 10
2.82574
 20
3.92719
 42
0.0
  0
VERTEX
  8
0
 10
2.81901
 20
3.92008
 42
0.0
  0
VERTEX
  8
0
 10
2.81039
 20
3.90978
 42
0.0
  0
VERTEX
  8
0
 10
2.80485
 20
3.90349
 42
0.0
  0
VERTEX
  8
0
 10
2.80029
 20
3.89844
 42
0.0
  0
VERTEX
  8
0
 10
2.76606
 20
3.86974
 42
0.0
  0
VERTEX
  8
0
 10
2.76064
 20
3.86686
 42
0.0
  0
VERTEX
  8
0
 10
2.75304
 20
3.86263
 42
0.0
  0
VERTEX
  8
0
 10
2.7461
 20
3.85975
 42
0.0
  0
VERTEX
  8
0
 10
2.7366
 20
3.85487
 42
0.0
  0
VERTEX
  8
0
 10
2.73008
 20
3.85243
 42
0.0
  0
VERTEX
  8
0
 10
2.72265
 20
3.84787
 42
0.0
  0
VERTEX
  8
0
 10
2.69715
 20
3.82297
 42
0.0
  0
VERTEX
  8
0
 10
2.71978
 20
3.79764
 42
0.0
  0
VERTEX
  8
0
 10
2.73958
 20
3.77051
 42
0.0
  0
VERTEX
  8
0
 10
2.74035
 20
3.76421
 42
0.0
  0
VERTEX
  8
0
 10
2.73324
 20
3.74294
 42
0.0
  0
VERTEX
  8
0
 10
2.73096
 20
3.73768
 42
0.0
  0
VERTEX
  8
0
 10
2.65272
 20
3.63514
 42
0.0
  0
VERTEX
  8
0
 10
2.64481
 20
3.62185
 42
0.0
  0
VERTEX
  8
0
 10
2.64361
 20
3.62007
 42
0.0
  0
VERTEX
  8
0
 10
2.64421
 20
3.61908
 42
0.0
  0
VERTEX
  8
0
 10
2.66049
 20
3.59229
 42
0.0
  0
VERTEX
  8
0
 10
2.67253
 20
3.56369
 42
0.0
  0
VERTEX
  8
0
 10
2.6556
 20
3.55057
 42
0.0
  0
VERTEX
  8
0
 10
2.65126
 20
3.54769
 42
0.0
  0
VERTEX
  8
0
 10
2.63769
 20
3.53988
 42
0.0
  0
VERTEX
  8
0
 10
2.62414
 20
3.53196
 42
0.0
  0
VERTEX
  8
0
 10
2.61979
 20
3.52957
 42
0.0
  0
VERTEX
  8
0
 10
2.56754
 20
3.49978
 42
0.0
  0
VERTEX
  8
0
 10
2.56347
 20
3.49675
 42
0.0
  0
VERTEX
  8
0
 10
2.53386
 20
3.46793
 42
0.0
  0
VERTEX
  8
0
 10
2.52849
 20
3.46263
 42
0.0
  0
VERTEX
  8
0
 10
2.52485
 20
3.45942
 42
0.0
  0
VERTEX
  8
0
 10
2.52462
 20
3.45421
 42
0.0
  0
VERTEX
  8
0
 10
2.52431
 20
3.44819
 42
0.0
  0
VERTEX
  8
0
 10
2.52403
 20
3.44265
 42
0.0
  0
VERTEX
  8
0
 10
2.52582
 20
3.43485
 42
0.0
  0
VERTEX
  8
0
 10
2.5345
 20
3.40685
 42
0.0
  0
VERTEX
  8
0
 10
2.51921
 20
3.40782
 42
0.0
  0
VERTEX
  8
0
 10
2.50683
 20
3.41732
 42
0.0
  0
VERTEX
  8
0
 10
2.49599
 20
3.43028
 42
0.0
  0
VERTEX
  8
0
 10
2.48525
 20
3.44174
 42
0.0
  0
VERTEX
  8
0
 10
2.4904
 20
3.46408
 42
0.0
  0
VERTEX
  8
0
 10
2.4924
 20
3.46946
 42
0.0
  0
VERTEX
  8
0
 10
2.49397
 20
3.4739
 42
0.0
  0
VERTEX
  8
0
 10
2.49604
 20
3.47944
 42
0.0
  0
VERTEX
  8
0
 10
2.51357
 20
3.50358
 42
0.0
  0
VERTEX
  8
0
 10
2.53765
 20
3.52078
 42
0.0
  0
VERTEX
  8
0
 10
2.56538
 20
3.53321
 42
0.0
  0
VERTEX
  8
0
 10
2.59358
 20
3.54281
 42
0.0
  0
VERTEX
  8
0
 10
2.59418
 20
3.57829
 42
0.0
  0
VERTEX
  8
0
 10
2.58567
 20
3.61307
 42
0.0
  0
VERTEX
  8
0
 10
2.58664
 20
3.61968
 42
0.0
  0
VERTEX
  8
0
 10
2.58822
 20
3.62651
 42
0.0
  0
VERTEX
  8
0
 10
2.59418
 20
3.63519
 42
0.0
  0
VERTEX
  8
0
 10
2.60038
 20
3.64432
 42
0.0
  0
VERTEX
  8
0
 10
2.61019
 20
3.65815
 42
0.0
  0
VERTEX
  8
0
 10
2.61719
 20
3.66656
 42
0.0
  0
VERTEX
  8
0
 10
2.62326
 20
3.67361
 42
0.0
  0
VERTEX
  8
0
 10
2.6281
 20
3.6811
 42
0.0
  0
VERTEX
  8
0
 10
2.64962
 20
3.73122
 42
0.0
  0
VERTEX
  8
0
 10
2.65192
 20
3.73807
 42
0.0
  0
VERTEX
  8
0
 10
2.65332
 20
3.74419
 42
0.0
  0
VERTEX
  8
0
 10
2.65321
 20
3.76361
 42
0.0
  0
VERTEX
  8
0
 10
2.65186
 20
3.76964
 42
0.0
  0
VERTEX
  8
0
 10
2.64849
 20
3.77686
 42
0.0
  0
VERTEX
  8
0
 10
2.64133
 20
3.78819
 42
0.0
  0
VERTEX
  8
0
 10
2.63422
 20
3.79949
 42
0.0
  0
VERTEX
  8
0
 10
2.6334
 20
3.80604
 42
0.0
  0
VERTEX
  8
0
 10
2.63292
 20
3.81158
 42
0.0
  0
VERTEX
  8
0
 10
2.63265
 20
3.8176
 42
0.0
  0
VERTEX
  8
0
 10
2.63807
 20
3.83333
 42
0.0
  0
VERTEX
  8
0
 10
2.65072
 20
3.84435
 42
0.0
  0
VERTEX
  8
0
 10
2.66635
 20
3.85303
 42
0.0
  0
VERTEX
  8
0
 10
2.68083
 20
3.86171
 42
0.0
  0
VERTEX
  8
0
 10
2.68756
 20
3.86578
 42
0.0
  0
VERTEX
  8
0
 10
2.69586
 20
3.87121
 42
0.0
  0
VERTEX
  8
0
 10
2.70101
 20
3.87478
 42
0.0
  0
VERTEX
  8
0
 10
2.70671
 20
3.8801
 42
0.0
  0
VERTEX
  8
0
 10
2.71912
 20
3.89458
 42
0.0
  0
VERTEX
  8
0
 10
2.73156
 20
3.90913
 42
0.0
  0
VERTEX
  8
0
 10
2.73731
 20
3.91542
 42
0.0
  0
VERTEX
  8
0
 10
2.74442
 20
3.92333
 42
0.0
  0
VERTEX
  8
0
 10
2.75196
 20
3.93201
 42
0.0
  0
VERTEX
  8
0
 10
2.75874
 20
3.94114
 42
0.0
  0
VERTEX
  8
0
 10
2.76872
 20
3.95481
 42
0.0
  0
VERTEX
  8
0
 10
2.77588
 20
3.96311
 42
0.0
  0
VERTEX
  8
0
 10
2.78213
 20
3.97011
 42
0.0
  0
VERTEX
  8
0
 10
2.78717
 20
3.97775
 42
0.0
  0
VERTEX
  8
0
 10
2.81099
 20
4.03597
 42
0.0
  0
VERTEX
  8
0
 10
2.83621
 20
4.09358
 42
0.0
  0
VERTEX
  8
0
 10
2.83817
 20
4.09879
 42
0.0
  0
VERTEX
  8
0
 10
2.84304
 20
4.11632
 42
0.0
  0
VERTEX
  8
0
 10
2.84799
 20
4.13385
 42
0.0
  0
VERTEX
  8
0
 10
2.85101
 20
4.14106
 42
0.0
  0
VERTEX
  8
0
 10
2.85807
 20
4.1525
 42
0.0
  0
VERTEX
  8
0
 10
2.86322
 20
4.16015
 42
0.0
  0
VERTEX
  8
0
 10
2.86817
 20
4.16726
 42
0.0
  0
VERTEX
  8
0
 10
2.87549
 20
4.17796
 42
0.0
  0
VERTEX
  8
0
 10
2.87912
 20
4.18653
 42
0.0
  0
VERTEX
  8
0
 10
2.88276
 20
4.22428
 42
0.0
  0
VERTEX
  8
0
 10
2.88803
 20
4.2615
 42
0.0
  0
VERTEX
  8
0
 10
2.89068
 20
4.26531
 42
0.0
  0
VERTEX
  8
0
 10
2.92356
 20
4.29921
 42
0.0
  0
VERTEX
  8
0
 10
2.9566
 20
4.33306
 42
0.0
  0
VERTEX
  8
0
 10
2.96994
 20
4.37349
 42
0.0
  0
VERTEX
  8
0
 10
2.97011
 20
4.41721
 42
0.0
  0
VERTEX
  8
0
 10
2.97433
 20
4.45236
 42
0.0
  0
VERTEX
  8
0
 10
2.97667
 20
4.48742
 42
0.0
  0
VERTEX
  8
0
 10
2.97547
 20
4.49365
 42
0.0
  0
VERTEX
  8
0
 10
2.97065
 20
4.51986
 42
0.0
  0
VERTEX
  8
0
 10
2.97874
 20
4.53054
 42
0.0
  0
VERTEX
  8
0
 10
2.98574
 20
4.53618
 42
0.0
  0
VERTEX
  8
0
 10
2.99149
 20
4.53956
 42
0.0
  0
VERTEX
  8
0
 10
2.99892
 20
4.54482
 42
0.0
  0
VERTEX
  8
0
 10
3.00532
 20
4.55046
 42
0.0
  0
VERTEX
  8
0
 10
3.02306
 20
4.56717
 42
0.0
  0
VERTEX
  8
0
 10
3.03168
 20
4.5779
 42
0.0
  0
VERTEX
  8
0
 10
3.03276
 20
4.59071
 42
0.0
  0
VERTEX
  8
0
 10
3.0286
 20
4.60385
 42
0.0
  0
VERTEX
  8
0
 10
3.02154
 20
4.61546
 42
0.0
  0
VERTEX
  8
0
 10
3.0185
 20
4.62125
 42
0.0
  0
VERTEX
  8
0
 10
3.01139
 20
4.63721
 42
0.0
  0
VERTEX
  8
0
 10
3.00435
 20
4.653
 42
0.0
  0
VERTEX
  8
0
 10
3.0025
 20
4.65776
 42
0.0
  0
VERTEX
  8
0
 10
2.99772
 20
4.65647
 42
0.0
  0
VERTEX
  8
0
 10
2.98953
 20
4.65354
 42
0.0
  0
VERTEX
  8
0
 10
2.98236
 20
4.65082
 42
0.0
  0
VERTEX
  8
0
 10
2.97233
 20
4.64578
 42
0.0
  0
VERTEX
  8
0
 10
2.96479
 20
4.64324
 42
0.0
  0
VERTEX
  8
0
 10
2.95844
 20
4.64122
 42
0.0
  0
VERTEX
  8
0
 10
2.95107
 20
4.63758
 42
0.0
  0
VERTEX
  8
0
 10
2.93929
 20
4.63032
 42
0.0
  0
VERTEX
  8
0
 10
2.92757
 20
4.62304
 42
0.0
  0
VERTEX
  8
0
 10
2.92296
 20
4.62056
 42
0.0
  0
VERTEX
  8
0
 10
2.91851
 20
4.61822
 42
0.0
  0
VERTEX
  8
0
 10
2.86253
 20
4.60021
 42
0.0
  0
VERTEX
  8
0
 10
2.8565
 20
4.59722
 42
0.0
  0
VERTEX
  8
0
 10
2.83176
 20
4.5715
 42
0.0
  0
VERTEX
  8
0
 10
2.82878
 20
4.56754
 42
0.0
  0
VERTEX
  8
0
 10
2.80425
 20
4.53819
 42
0.0
  0
VERTEX
  8
0
 10
2.80018
 20
4.53435
 42
0.0
  0
VERTEX
  8
0
 10
2.78369
 20
4.52046
 42
0.0
  0
VERTEX
  8
0
 10
2.77924
 20
4.51753
 42
0.0
  0
VERTEX
  8
0
 10
2.73888
 20
4.50038
 42
0.0
  0
VERTEX
  8
0
 10
2.73335
 20
4.49821
 42
0.0
  0
VERTEX
  8
0
 10
2.72601
 20
4.49365
 42
0.0
  0
VERTEX
  8
0
 10
2.71869
 20
4.48665
 42
0.0
  0
VERTEX
  8
0
 10
2.71218
 20
4.47786
 42
0.0
  0
VERTEX
  8
0
 10
2.70546
 20
4.46615
 42
0.0
  0
VERTEX
  8
0
 10
2.70167
 20
4.45806
 42
0.0
  0
VERTEX
  8
0
 10
2.69265
 20
4.43332
 42
0.0
  0
VERTEX
  8
0
 10
2.68929
 20
4.42475
 42
0.0
  0
VERTEX
  8
0
 10
2.68338
 20
4.41118
 42
0.0
  0
VERTEX
  8
0
 10
2.67964
 20
4.40256
 42
0.0
  0
VERTEX
  8
0
 10
2.67725
 20
4.39594
 42
0.0
  0
VERTEX
  8
0
 10
2.67437
 20
4.38835
 42
0.0
  0
VERTEX
  8
0
 10
2.66824
 20
4.38004
 42
0.0
  0
VERTEX
  8
0
 10
2.66342
 20
4.37358
 42
0.0
  0
VERTEX
  8
0
 10
2.62451
 20
4.35314
 42
0.0
  0
VERTEX
  8
0
 10
2.61942
 20
4.34978
 42
0.0
  0
VERTEX
  8
0
 10
2.57172
 20
4.30007
 42
0.0
  0
VERTEX
  8
0
 10
2.52154
 20
4.25271
 42
0.0
  0
VERTEX
  8
0
 10
2.51764
 20
4.24849
 42
0.0
  0
VERTEX
  8
0
 10
2.51346
 20
4.24371
 42
0.0
  0
VERTEX
  8
0
 10
2.4975
 20
4.22569
 42
0.0
  0
VERTEX
  8
0
 10
2.49388
 20
4.22125
 42
0.0
  0
VERTEX
  8
0
 10
2.4101
 20
4.10742
 42
0.0
  0
VERTEX
  8
0
 10
2.40631
 20
4.10308
 42
0.0
  0
VERTEX
  8
0
 10
2.40181
 20
4.09771
 42
0.0
  0
VERTEX
  8
0
 10
2.39844
 20
4.09435
 42
0.0
  0
VERTEX
  8
0
 10
2.39844
 20
4.08931
 42
0.0
  0
VERTEX
  8
0
 10
2.39833
 20
4.08388
 42
0.0
  0
VERTEX
  8
0
 10
2.39811
 20
4.07904
 42
0.0
  0
VERTEX
  8
0
 10
2.40278
 20
4.07736
 42
0.0
  0
VERTEX
  8
0
 10
2.40918
 20
4.07487
 42
0.0
  0
VERTEX
  8
0
 10
2.42969
 20
4.06972
 42
0.0
  0
VERTEX
  8
0
 10
2.43799
 20
4.06847
 42
0.0
  0
VERTEX
  8
0
 10
2.44667
 20
4.06526
 42
0.0
  0
VERTEX
  8
0
 10
2.45242
 20
4.06342
 42
0.0
  0
VERTEX
  8
0
 10
2.45876
 20
4.06131
 42
0.0
  0
VERTEX
  8
0
 10
2.47151
 20
4.04232
 42
0.0
  0
VERTEX
  8
0
 10
2.41743
 20
4.04531
 42
0.0
  0
VERTEX
  8
0
 10
2.41135
 20
4.04449
 42
0.0
  0
VERTEX
  8
0
 10
2.36431
 20
4.03494
 42
0.0
  0
VERTEX
  8
0
 10
2.34538
 20
4.00976
 42
0.0
  0
VERTEX
  8
0
 10
2.34283
 20
4.00592
 42
0.0
  0
VERTEX
  8
0
 10
2.32861
 20
3.98144
 42
0.0
  0
VERTEX
  8
0
 10
2.32275
 20
3.95449
 42
0.0
  0
VERTEX
  8
0
 10
2.33669
 20
3.93435
 42
0.0
  0
VERTEX
  8
0
 10
2.34978
 20
3.91363
 42
0.0
  0
VERTEX
  8
0
 10
2.33371
 20
3.89675
 42
0.0
  0
VERTEX
  8
0
 10
2.3125
 20
3.88992
 42
0.0
  0
VERTEX
  8
0
 10
2.2889
 20
3.88769
 42
0.0
  0
VERTEX
  8
0
 10
2.26594
 20
3.88465
 42
0.0
  0
VERTEX
  8
0
 10
2.25646
 20
3.8814
 42
0.0
  0
VERTEX
  8
0
 10
2.25043
 20
3.87804
 42
0.0
  0
VERTEX
  8
0
 10
2.24175
 20
3.87121
 42
0.0
  0
VERTEX
  8
0
 10
2.23178
 20
3.86231
 42
0.0
  0
VERTEX
  8
0
 10
2.22174
 20
3.85281
 42
0.0
  0
VERTEX
  8
0
 10
2.21235
 20
3.84369
 42
0.0
  0
VERTEX
  8
0
 10
2.20497
 20
3.83479
 42
0.0
  0
VERTEX
  8
0
 10
2.20053
 20
3.82747
 42
0.0
  0
VERTEX
  8
0
 10
2.17979
 20
3.78982
 42
0.0
  0
VERTEX
  8
0
 10
2.17763
 20
3.7844
 42
0.0
  0
VERTEX
  8
0
 10
2.17296
 20
3.76774
 42
0.0
  0
VERTEX
  8
0
 10
2.16835
 20
3.75103
 42
0.0
  0
VERTEX
  8
0
 10
2.16618
 20
3.74463
 42
0.0
  0
VERTEX
  8
0
 10
2.16114
 20
3.73503
 42
0.0
  0
VERTEX
  8
0
 10
2.15321
 20
3.70383
 42
0.0
  0
VERTEX
  8
0
 10
2.15381
 20
3.69715
 42
0.0
  0
VERTEX
  8
0
 10
2.14849
 20
3.66982
 42
0.0
  0
VERTEX
  8
0
 10
2.14649
 20
3.66308
 42
0.0
  0
VERTEX
  8
0
 10
2.14469
 20
3.65647
 42
0.0
  0
VERTEX
  8
0
 10
2.13949
 20
3.64057
 42
0.0
  0
VERTEX
  8
0
 10
2.1371
 20
3.63108
 42
0.0
  0
VERTEX
  8
0
 10
2.13672
 20
3.62494
 42
0.0
  0
VERTEX
  8
0
 10
2.13639
 20
3.61828
 42
0.0
  0
VERTEX
  8
0
 10
2.13601
 20
3.61214
 42
0.0
  0
VERTEX
  8
0
 10
2.0376
 20
3.48188
 42
0.0
  0
VERTEX
  8
0
 10
2.01665
 20
3.45931
 42
0.0
  0
VERTEX
  8
0
 10
2.00037
 20
3.43294
 42
0.0
  0
VERTEX
  8
0
 10
1.99724
 20
3.42719
 42
0.0
  0
VERTEX
  8
0
 10
1.99257
 20
3.4184
 42
0.0
  0
VERTEX
  8
0
 10
1.98378
 20
3.38764
 42
0.0
  0
VERTEX
  8
0
 10
1.98236
 20
3.35508
 42
0.0
  0
VERTEX
  8
0
 10
1.98079
 20
3.34799
 42
0.0
  0
VERTEX
  8
0
 10
1.97174
 20
3.33925
 42
0.0
  0
VERTEX
  8
0
 10
1.96479
 20
3.33524
 42
0.0
  0
VERTEX
  8
0
 10
1.95529
 20
3.32769
 42
0.0
  0
VERTEX
  8
0
 10
1.94353
 20
3.31999
 42
0.0
  0
VERTEX
  8
0
 10
1.93653
 20
3.31592
 42
0.0
  0
VERTEX
  8
0
 10
1.92817
 20
3.30931
 42
0.0
  0
VERTEX
  8
0
 10
1.92156
 20
3.301
 42
0.0
  0
VERTEX
  8
0
 10
1.91417
 20
3.2901
 42
0.0
  0
VERTEX
  8
0
 10
1.91037
 20
3.28201
 42
0.0
  0
VERTEX
  8
0
 10
1.89171
 20
3.20692
 42
0.0
  0
VERTEX
  8
0
 10
1.88981
 20
3.20247
 42
0.0
  0
VERTEX
  8
0
 10
1.88053
 20
3.19006
 42
0.0
  0
VERTEX
  8
0
 10
1.87131
 20
3.17763
 42
0.0
  0
VERTEX
  8
0
 10
1.86817
 20
3.17389
 42
0.0
  0
VERTEX
  8
0
 10
1.8374
 20
3.12506
 42
0.0
  0
VERTEX
  8
0
 10
1.82167
 20
3.06896
 42
0.0
  0
VERTEX
  8
0
 10
1.82557
 20
3.04688
 42
0.0
  0
VERTEX
  8
0
 10
1.83826
 20
3.02658
 42
0.0
  0
VERTEX
  8
0
 10
1.83296
 20
3.01981
 42
0.0
  0
VERTEX
  8
0
 10
1.82986
 20
3.016
 42
0.0
  0
VERTEX
  8
0
 10
1.78136
 20
2.97569
 42
0.0
  0
VERTEX
  8
0
 10
1.74132
 20
2.92731
 42
0.0
  0
VERTEX
  8
0
 10
1.74263
 20
2.91097
 42
0.0
  0
VERTEX
  8
0
 10
1.74451
 20
2.90349
 42
0.0
  0
VERTEX
  8
0
 10
1.74875
 20
2.8929
 42
0.0
  0
VERTEX
  8
0
 10
1.74778
 20
2.88624
 42
0.0
  0
VERTEX
  8
0
 10
1.75293
 20
2.86529
 42
0.0
  0
VERTEX
  8
0
 10
1.76085
 20
2.83811
 42
0.0
  0
VERTEX
  8
0
 10
1.82075
 20
2.83117
 42
0.0
  0
VERTEX
  8
0
 10
1.82601
 20
2.82997
 42
0.0
  0
VERTEX
  8
0
 10
1.83117
 20
2.82878
 42
0.0
  0
VERTEX
  8
0
 10
1.8431
 20
2.82493
 42
0.0
  0
VERTEX
  8
0
 10
1.85064
 20
2.81136
 42
0.0
  0
VERTEX
  8
0
 10
1.8431
 20
2.80197
 42
0.0
  0
VERTEX
  8
0
 10
1.83919
 20
2.79779
 42
0.0
  0
VERTEX
  8
0
 10
1.82374
 20
2.78922
 42
0.0
  0
VERTEX
  8
0
 10
1.80832
 20
2.7806
 42
0.0
  0
VERTEX
  8
0
 10
1.80268
 20
2.77843
 42
0.0
  0
VERTEX
  8
0
 10
1.79525
 20
2.77556
 42
0.0
  0
VERTEX
  8
0
 10
1.78743
 20
2.77468
 42
0.0
  0
VERTEX
  8
0
 10
1.76714
 20
2.77001
 42
0.0
  0
VERTEX
  8
0
 10
1.75846
 20
2.76497
 42
0.0
  0
VERTEX
  8
0
 10
1.75233
 20
2.75944
 42
0.0
  0
VERTEX
  8
0
 10
1.73406
 20
2.74262
 42
0.0
  0
VERTEX
  8
0
 10
1.73008
 20
2.73888
 42
0.0
  0
VERTEX
  8
0
 10
1.64551
 20
2.66189
 42
0.0
  0
VERTEX
  8
0
 10
1.64204
 20
2.65799
 42
0.0
  0
VERTEX
  8
0
 10
1.63368
 20
2.64546
 42
0.0
  0
VERTEX
  8
0
 10
1.62543
 20
2.63292
 42
0.0
  0
VERTEX
  8
0
 10
1.62267
 20
2.62858
 42
0.0
  0
VERTEX
  8
0
 10
1.61333
 20
2.61393
 42
0.0
  0
VERTEX
  8
0
 10
1.60406
 20
2.59912
 42
0.0
  0
VERTEX
  8
0
 10
1.60032
 20
2.59267
 42
0.0
  0
VERTEX
  8
0
 10
1.5976
 20
2.58712
 42
0.0
  0
VERTEX
  8
0
 10
1.59397
 20
2.57824
 42
0.0
  0
VERTEX
  8
0
 10
1.59104
 20
2.56201
 42
0.0
  0
VERTEX
  8
0
 10
1.58811
 20
2.54568
 42
0.0
  0
VERTEX
  8
0
 10
1.58746
 20
2.53879
 42
0.0
  0
VERTEX
  8
0
 10
1.58306
 20
2.53244
 42
0.0
  0
VERTEX
  8
0
 10
1.55931
 20
2.52214
 42
0.0
  0
VERTEX
  8
0
 10
1.53375
 20
2.51633
 42
0.0
  0
VERTEX
  8
0
 10
1.52778
 20
2.51525
 42
0.0
  0
VERTEX
  8
0
 10
1.41889
 20
2.51058
 42
0.0
  0
VERTEX
  8
0
 10
1.40967
 20
2.5076
 42
0.0
  0
VERTEX
  8
0
 10
1.40099
 20
2.50265
 42
0.0
  0
VERTEX
  8
0
 10
1.38536
 20
2.49544
 42
0.0
  0
VERTEX
  8
0
 10
1.37684
 20
2.49576
 42
0.0
  0
VERTEX
  8
0
 10
1.36925
 20
2.49636
 42
0.0
  0
VERTEX
  8
0
 10
1.36122
 20
2.49735
 42
0.0
  0
VERTEX
  8
0
 10
1.35292
 20
2.49892
 42
0.0
  0
VERTEX
  8
0
 10
1.34304
 20
2.50564
 42
0.0
  0
VERTEX
  8
0
 10
1.33643
 20
2.51199
 42
0.0
  0
VERTEX
  8
0
 10
1.32753
 20
2.52632
 42
0.0
  0
VERTEX
  8
0
 10
1.3291
 20
2.54194
 42
0.0
  0
VERTEX
  8
0
 10
1.33854
 20
2.55544
 42
0.0
  0
VERTEX
  8
0
 10
1.35314
 20
2.56321
 42
0.0
  0
VERTEX
  8
0
 10
1.35796
 20
2.56478
 42
0.0
  0
VERTEX
  8
0
 10
1.37446
 20
2.56868
 42
0.0
  0
VERTEX
  8
0
 10
1.391
 20
2.57243
 42
0.0
  0
VERTEX
  8
0
 10
1.39512
 20
2.57308
 42
0.0
  0
VERTEX
  8
0
 10
1.39785
 20
2.57628
 42
0.0
  0
VERTEX
  8
0
 10
1.41135
 20
2.59147
 42
0.0
  0
VERTEX
  8
0
 10
1.41357
 20
2.59386
 42
0.0
  0
VERTEX
  8
0
 10
1.41168
 20
2.59603
 42
0.0
  0
VERTEX
  8
0
 10
1.40424
 20
2.60487
 42
0.0
  0
VERTEX
  8
0
 10
1.39703
 20
2.61154
 42
0.0
  0
VERTEX
  8
0
 10
1.38732
 20
2.61871
 42
0.0
  0
VERTEX
  8
0
 10
1.38173
 20
2.62315
 42
0.0
  0
VERTEX
  8
0
 10
1.37706
 20
2.6269
 42
0.0
  0
VERTEX
  8
0
 10
1.37489
 20
2.63699
 42
0.0
  0
VERTEX
  8
0
 10
1.37755
 20
2.64264
 42
0.0
  0
VERTEX
  8
0
 10
1.39219
 20
2.65115
 42
0.0
  0
VERTEX
  8
0
 10
1.4069
 20
2.65956
 42
0.0
  0
VERTEX
  8
0
 10
1.41168
 20
2.66174
 42
0.0
  0
VERTEX
  8
0
 10
1.41769
 20
2.66461
 42
0.0
  0
VERTEX
  8
0
 10
1.4291
 20
2.67003
 42
0.0
  0
VERTEX
  8
0
 10
1.43739
 20
2.67389
 42
0.0
  0
VERTEX
  8
0
 10
1.44775
 20
2.67865
 42
0.0
  0
VERTEX
  8
0
 10
1.45469
 20
2.68289
 42
0.0
  0
VERTEX
  8
0
 10
1.484
 20
2.71158
 42
0.0
  0
VERTEX
  8
0
 10
1.48703
 20
2.71463
 42
0.0
  0
VERTEX
  8
0
 10
1.48703
 20
2.71892
 42
0.0
  0
VERTEX
  8
0
 10
1.48714
 20
2.72424
 42
0.0
  0
VERTEX
  8
0
 10
1.48736
 20
2.72976
 42
0.0
  0
VERTEX
  8
0
 10
1.48232
 20
2.73133
 42
0.0
  0
VERTEX
  8
0
 10
1.39849
 20
2.74837
 42
0.0
  0
VERTEX
  8
0
 10
1.3986
 20
2.7545
 42
0.0
  0
VERTEX
  8
0
 10
1.39871
 20
2.76053
 42
0.0
  0
VERTEX
  8
0
 10
1.39903
 20
2.76687
 42
0.0
  0
VERTEX
  8
0
 10
1.41303
 20
2.77724
 42
0.0
  0
VERTEX
  8
0
 10
1.42708
 20
2.78754
 42
0.0
  0
VERTEX
  8
0
 10
1.43186
 20
2.78982
 42
0.0
  0
VERTEX
  8
0
 10
1.43761
 20
2.79275
 42
0.0
  0
VERTEX
  8
0
 10
1.4476
 20
2.79833
 42
0.0
  0
VERTEX
  8
0
 10
1.45383
 20
2.80208
 42
0.0
  0
VERTEX
  8
0
 10
1.46832
 20
2.81099
 42
0.0
  0
VERTEX
  8
0
 10
1.48281
 20
2.81988
 42
0.0
  0
VERTEX
  8
0
 10
1.48872
 20
2.82303
 42
0.0
  0
VERTEX
  8
0
 10
1.49783
 20
2.82758
 42
0.0
  0
VERTEX
  8
0
 10
1.50407
 20
2.83137
 42
0.0
  0
VERTEX
  8
0
 10
1.55072
 20
2.88053
 42
0.0
  0
VERTEX
  8
0
 10
1.553
 20
2.88379
 42
0.0
  0
VERTEX
  8
0
 10
1.55132
 20
2.88753
 42
0.0
  0
VERTEX
  8
0
 10
1.54856
 20
2.89378
 42
0.0
  0
VERTEX
  8
0
 10
1.54617
 20
2.89953
 42
0.0
  0
VERTEX
  8
0
 10
1.54313
 20
2.90653
 42
0.0
  0
VERTEX
  8
0
 10
1.53287
 20
2.93778
 42
0.0
  0
VERTEX
  8
0
 10
1.54144
 20
2.96897
 42
0.0
  0
VERTEX
  8
0
 10
1.54372
 20
2.9751
 42
0.0
  0
VERTEX
  8
0
 10
1.54579
 20
2.98122
 42
0.0
  0
VERTEX
  8
0
 10
1.55062
 20
2.99485
 42
0.0
  0
VERTEX
  8
0
 10
1.55322
 20
3.00157
 42
0.0
  0
VERTEX
  8
0
 10
1.55518
 20
3.007
 42
0.0
  0
VERTEX
  8
0
 10
1.56364
 20
3.01828
 42
0.0
  0
VERTEX
  8
0
 10
1.5721
 20
3.02957
 42
0.0
  0
VERTEX
  8
0
 10
1.57844
 20
3.03521
 42
0.0
  0
VERTEX
  8
0
 10
1.58469
 20
3.04096
 42
0.0
  0
VERTEX
  8
0
 10
1.58979
 20
3.04839
 42
0.0
  0
VERTEX
  8
0
 10
1.60579
 20
3.09901
 42
0.0
  0
VERTEX
  8
0
 10
1.61367
 20
3.15142
 42
0.0
  0
VERTEX
  8
0
 10
1.60965
 20
3.18321
 42
0.0
  0
VERTEX
  8
0
 10
1.61106
 20
3.21403
 42
0.0
  0
VERTEX
  8
0
 10
1.6186
 20
3.21533
 42
0.0
  0
VERTEX
  8
0
 10
1.63038
 20
3.21789
 42
0.0
  0
VERTEX
  8
0
 10
1.6346
 20
3.2194
 42
0.0
  0
VERTEX
  8
0
 10
1.64828
 20
3.22613
 42
0.0
  0
VERTEX
  8
0
 10
1.65815
 20
3.23253
 42
0.0
  0
VERTEX
  8
0
 10
1.66667
 20
3.24035
 42
0.0
  0
VERTEX
  8
0
 10
1.67458
 20
3.24886
 42
0.0
  0
VERTEX
  8
0
 10
1.6811
 20
3.25786
 42
0.0
  0
VERTEX
  8
0
 10
1.68881
 20
3.27024
 42
0.0
  0
VERTEX
  8
0
 10
1.69379
 20
3.27903
 42
0.0
  0
VERTEX
  8
0
 10
1.69949
 20
3.29058
 42
0.0
  0
VERTEX
  8
0
 10
1.70378
 20
3.29992
 42
0.0
  0
VERTEX
  8
0
 10
1.70969
 20
3.31338
 42
0.0
  0
VERTEX
  8
0
 10
1.71246
 20
3.32156
 42
0.0
  0
VERTEX
  8
0
 10
1.71343
 20
3.3271
 42
0.0
  0
VERTEX
  8
0
 10
1.71446
 20
3.33306
 42
0.0
  0
VERTEX
  8
0
 10
1.71556
 20
3.33925
 42
0.0
  0
VERTEX
  8
0
 10
1.72
 20
3.36843
 42
0.0
  0
VERTEX
  8
0
 10
1.7206
 20
3.39968
 42
0.0
  0
VERTEX
  8
0
 10
1.72607
 20
3.42822
 42
0.0
  0
VERTEX
  8
0
 10
1.74501
 20
3.44937
 42
0.0
  0
VERTEX
  8
0
 10
1.75125
 20
3.45161
 42
0.0
  0
VERTEX
  8
0
 10
1.75678
 20
3.45372
 42
0.0
  0
VERTEX
  8
0
 10
1.76449
 20
3.45697
 42
0.0
  0
VERTEX
  8
0
 10
1.77051
 20
3.45942
 42
0.0
  0
VERTEX
  8
0
 10
1.77539
 20
3.46132
 42
0.0
  0
VERTEX
  8
0
 10
1.77746
 20
3.46625
 42
0.0
  0
VERTEX
  8
0
 10
1.78911
 20
3.4899
 42
0.0
  0
VERTEX
  8
0
 10
1.79269
 20
3.49735
 42
0.0
  0
VERTEX
  8
0
 10
1.79775
 20
3.50831
 42
0.0
  0
VERTEX
  8
0
 10
1.80176
 20
3.51671
 42
0.0
  0
VERTEX
  8
0
 10
1.80751
 20
3.5281
 42
0.0
  0
VERTEX
  8
0
 10
1.81218
 20
3.53689
 42
0.0
  0
VERTEX
  8
0
 10
1.81999
 20
3.54964
 42
0.0
  0
VERTEX
  8
0
 10
1.82671
 20
3.55843
 42
0.0
  0
VERTEX
  8
0
 10
1.83453
 20
3.56668
 42
0.0
  0
VERTEX
  8
0
 10
1.84244
 20
3.57428
 42
0.0
  0
VERTEX
  8
0
 10
1.84874
 20
3.58089
 42
0.0
  0
VERTEX
  8
0
 10
1.86518
 20
3.59901
 42
0.0
  0
VERTEX
  8
0
 10
1.86865
 20
3.60476
 42
0.0
  0
VERTEX
  8
0
 10
1.8929
 20
3.66764
 42
0.0
  0
VERTEX
  8
0
 10
1.93728
 20
3.71799
 42
0.0
  0
VERTEX
  8
0
 10
1.94075
 20
3.72136
 42
0.0
  0
VERTEX
  8
0
 10
1.97618
 20
3.75993
 42
0.0
  0
VERTEX
  8
0
 10
1.97911
 20
3.76361
 42
0.0
  0
VERTEX
  8
0
 10
1.98182
 20
3.76725
 42
0.0
  0
VERTEX
  8
0
 10
2.01232
 20
3.80317
 42
0.0
  0
VERTEX
  8
0
 10
2.04492
 20
3.83729
 42
0.0
  0
VERTEX
  8
0
 10
2.04779
 20
3.84115
 42
0.0
  0
VERTEX
  8
0
 10
2.07607
 20
3.87674
 42
0.0
  0
VERTEX
  8
0
 10
2.07981
 20
3.88069
 42
0.0
  0
VERTEX
  8
0
 10
2.09706
 20
3.8986
 42
0.0
  0
VERTEX
  8
0
 10
2.10226
 20
3.90474
 42
0.0
  0
VERTEX
  8
0
 10
2.10613
 20
3.9101
 42
0.0
  0
VERTEX
  8
0
 10
2.10969
 20
3.91531
 42
0.0
  0
VERTEX
  8
0
 10
2.11811
 20
3.92638
 42
0.0
  0
VERTEX
  8
0
 10
2.12651
 20
3.93739
 42
0.0
  0
VERTEX
  8
0
 10
2.13075
 20
3.94271
 42
0.0
  0
VERTEX
  8
0
 10
2.13444
 20
3.94824
 42
0.0
  0
VERTEX
  8
0
 10
2.14844
 20
3.97364
 42
0.0
  0
VERTEX
  8
0
 10
2.15739
 20
4.00082
 42
0.0
  0
VERTEX
  8
0
 10
2.14785
 20
4.05806
 42
0.0
  0
VERTEX
  8
0
 10
2.15419
 20
4.1149
 42
0.0
  0
VERTEX
  8
0
 10
2.15776
 20
4.12207
 42
0.0
  0
VERTEX
  8
0
 10
2.16536
 20
4.13374
 42
0.0
  0
VERTEX
  8
0
 10
2.17258
 20
4.14204
 42
0.0
  0
VERTEX
  8
0
 10
2.1805
 20
4.15033
 42
0.0
  0
VERTEX
  8
0
 10
2.18821
 20
4.15907
 42
0.0
  0
VERTEX
  8
0
 10
2.19476
 20
4.16813
 42
0.0
  0
VERTEX
  8
0
 10
2.20236
 20
4.1805
 42
0.0
  0
VERTEX
  8
0
 10
2.20731
 20
4.18924
 42
0.0
  0
VERTEX
  8
0
 10
2.21294
 20
4.20047
 42
0.0
  0
VERTEX
  8
0
 10
2.21724
 20
4.2091
 42
0.0
  0
VERTEX
  8
0
 10
2.22276
 20
4.22049
 42
0.0
  0
VERTEX
  8
0
 10
2.227
 20
4.22917
 42
0.0
  0
VERTEX
  8
0
 10
2.23301
 20
4.24132
 42
0.0
  0
VERTEX
  8
0
 10
2.23699
 20
4.25006
 42
0.0
  0
VERTEX
  8
0
 10
2.24024
 20
4.26893
 42
0.0
  0
VERTEX
  8
0
 10
2.24046
 20
4.27653
 42
0.0
  0
VERTEX
  8
0
 10
2.24908
 20
4.29883
 42
0.0
  0
VERTEX
  8
0
 10
2.24897
 20
4.30507
 42
0.0
  0
VERTEX
  8
0
 10
2.24924
 20
4.31119
 42
0.0
  0
VERTEX
  8
0
 10
2.26579
 20
4.38997
 42
0.0
  0
VERTEX
  8
0
 10
2.28754
 20
4.46729
 42
0.0
  0
VERTEX
  8
0
 10
2.29818
 20
4.51546
 42
0.0
  0
VERTEX
  8
0
 10
2.29764
 20
4.56526
 42
0.0
  0
VERTEX
  8
0
 10
2.28435
 20
4.61865
 42
0.0
  0
VERTEX
  8
0
 10
2.26243
 20
4.66971
 42
0.0
  0
VERTEX
  8
0
 10
2.25982
 20
4.67774
 42
0.0
  0
VERTEX
  8
0
 10
2.25797
 20
4.68419
 42
0.0
  0
VERTEX
  8
0
 10
2.25629
 20
4.68989
 42
0.0
  0
VERTEX
  8
0
 10
2.25401
 20
4.69656
 42
0.0
  0
VERTEX
  8
0
 10
2.24832
 20
4.71322
 42
0.0
  0
VERTEX
  8
0
 10
2.24262
 20
4.72987
 42
0.0
  0
VERTEX
  8
0
 10
2.22174
 20
4.71431
 42
0.0
  0
VERTEX
  8
0
 10
2.20811
 20
4.69119
 42
0.0
  0
VERTEX
  8
0
 10
2.20594
 20
4.68685
 42
0.0
  0
VERTEX
  8
0
 10
2.18842
 20
4.64974
 42
0.0
  0
VERTEX
  8
0
 10
2.18528
 20
4.6435
 42
0.0
  0
VERTEX
  8
0
 10
2.17979
 20
4.63314
 42
0.0
  0
VERTEX
  8
0
 10
2.17546
 20
4.62494
 42
0.0
  0
VERTEX
  8
0
 10
2.16954
 20
4.61367
 42
0.0
  0
VERTEX
  8
0
 10
2.16476
 20
4.60493
 42
0.0
  0
VERTEX
  8
0
 10
2.15756
 20
4.59239
 42
0.0
  0
VERTEX
  8
0
 10
2.15261
 20
4.58436
 42
0.0
  0
VERTEX
  8
0
 10
2.14746
 20
4.57617
 42
0.0
  0
VERTEX
  8
0
 10
2.13878
 20
4.56272
 42
0.0
  0
VERTEX
  8
0
 10
2.13325
 20
4.55458
 42
0.0
  0
VERTEX
  8
0
 10
2.12776
 20
4.5466
 42
0.0
  0
VERTEX
  8
0
 10
2.11888
 20
4.53375
 42
0.0
  0
VERTEX
  8
0
 10
2.11382
 20
4.5261
 42
0.0
  0
VERTEX
  8
0
 10
2.1104
 20
4.52018
 42
0.0
  0
VERTEX
  8
0
 10
2.02078
 20
4.37061
 42
0.0
  0
VERTEX
  8
0
 10
2.01779
 20
4.36529
 42
0.0
  0
VERTEX
  8
0
 10
2.0154
 20
4.35965
 42
0.0
  0
VERTEX
  8
0
 10
2.00999
 20
4.34739
 42
0.0
  0
VERTEX
  8
0
 10
2.00575
 20
4.33826
 42
0.0
  0
VERTEX
  8
0
 10
1.99843
 20
4.32471
 42
0.0
  0
VERTEX
  8
0
 10
1.99257
 20
4.31521
 42
0.0
  0
VERTEX
  8
0
 10
1.98753
 20
4.30632
 42
0.0
  0
VERTEX
  8
0
 10
1.98449
 20
4.29969
 42
0.0
  0
VERTEX
  8
0
 10
1.98068
 20
4.29189
 42
0.0
  0
VERTEX
  8
0
 10
1.97825
 20
4.28608
 42
0.0
  0
VERTEX
  8
0
 10
1.97076
 20
4.27007
 42
0.0
  0
VERTEX
  8
0
 10
1.96332
 20
4.25401
 42
0.0
  0
VERTEX
  8
0
 10
1.9611
 20
4.24968
 42
0.0
  0
VERTEX
  8
0
 10
1.94862
 20
4.22629
 42
0.0
  0
VERTEX
  8
0
 10
1.92887
 20
4.21018
 42
0.0
  0
VERTEX
  8
0
 10
1.92285
 20
4.20942
 42
0.0
  0
VERTEX
  8
0
 10
1.91949
 20
4.21593
 42
0.0
  0
VERTEX
  8
0
 10
1.90901
 20
4.23947
 42
0.0
  0
VERTEX
  8
0
 10
1.9069
 20
4.24528
 42
0.0
  0
VERTEX
  8
0
 10
1.90164
 20
4.32406
 42
0.0
  0
VERTEX
  8
0
 10
1.898
 20
4.40294
 42
0.0
  0
VERTEX
  8
0
 10
1.85786
 20
4.5275
 42
0.0
  0
VERTEX
  8
0
 10
1.85607
 20
4.53207
 42
0.0
  0
VERTEX
  8
0
 10
1.84293
 20
4.57449
 42
0.0
  0
VERTEX
  8
0
 10
1.84174
 20
4.58122
 42
0.0
  0
VERTEX
  8
0
 10
1.84065
 20
4.58794
 42
0.0
  0
VERTEX
  8
0
 10
1.83957
 20
4.59467
 42
0.0
  0
VERTEX
  8
0
 10
1.83589
 20
4.60487
 42
0.0
  0
VERTEX
  8
0
 10
1.83361
 20
4.61247
 42
0.0
  0
VERTEX
  8
0
 10
1.83176
 20
4.61882
 42
0.0
  0
VERTEX
  8
0
 10
1.8284
 20
4.62651
 42
0.0
  0
VERTEX
  8
0
 10
1.82146
 20
4.63971
 42
0.0
  0
VERTEX
  8
0
 10
1.81456
 20
4.65294
 42
0.0
  0
VERTEX
  8
0
 10
1.81256
 20
4.65972
 42
0.0
  0
VERTEX
  8
0
 10
1.81076
 20
4.66607
 42
0.0
  0
VERTEX
  8
0
 10
1.80919
 20
4.6721
 42
0.0
  0
VERTEX
  8
0
 10
1.80621
 20
4.68001
 42
0.0
  0
VERTEX
  8
0
 10
1.80279
 20
4.68761
 42
0.0
  0
VERTEX
  8
0
 10
1.79438
 20
4.72081
 42
0.0
  0
VERTEX
  8
0
 10
1.79021
 20
4.75489
 42
0.0
  0
VERTEX
  8
0
 10
1.78922
 20
4.76064
 42
0.0
  0
VERTEX
  8
0
 10
1.77951
 20
4.82394
 42
0.0
  0
VERTEX
  8
0
 10
1.77854
 20
4.82958
 42
0.0
  0
VERTEX
  8
0
 10
1.77382
 20
4.87983
 42
0.0
  0
VERTEX
  8
0
 10
1.77262
 20
4.93033
 42
0.0
  0
VERTEX
  8
0
 10
1.73986
 20
5.04221
 42
0.0
  0
VERTEX
  8
0
 10
1.73807
 20
5.0471
 42
0.0
  0
VERTEX
  8
0
 10
1.71268
 20
5.1174
 42
0.0
  0
VERTEX
  8
0
 10
1.71067
 20
5.12326
 42
0.0
  0
VERTEX
  8
0
 10
1.70665
 20
5.13194
 42
0.0
  0
VERTEX
  8
0
 10
1.70383
 20
5.13938
 42
0.0
  0
VERTEX
  8
0
 10
1.69754
 20
5.15022
 42
0.0
  0
VERTEX
  8
0
 10
1.69515
 20
5.15907
 42
0.0
  0
VERTEX
  8
0
 10
1.69308
 20
5.16715
 42
0.0
  0
VERTEX
  8
0
 10
1.68772
 20
5.17844
 42
0.0
  0
VERTEX
  8
0
 10
1.68544
 20
5.18664
 42
0.0
  0
VERTEX
  8
0
 10
1.68349
 20
5.19358
 42
0.0
  0
VERTEX
  8
0
 10
1.67979
 20
5.20258
 42
0.0
  0
VERTEX
  8
0
 10
1.67389
 20
5.2156
 42
0.0
  0
VERTEX
  8
0
 10
1.67085
 20
5.22293
 42
0.0
  0
VERTEX
  8
0
 10
1.65224
 20
5.27914
 42
0.0
  0
VERTEX
  8
0
 10
1.65153
 20
5.28336
 42
0.0
  0
VERTEX
  8
0
 10
1.65614
 20
5.35124
 42
0.0
  0
VERTEX
  8
0
 10
1.65115
 20
5.41878
 42
0.0
  0
VERTEX
  8
0
 10
1.65033
 20
5.42367
 42
0.0
  0
VERTEX
  8
0
 10
1.64626
 20
5.42589
 42
0.0
  0
VERTEX
  8
0
 10
1.64133
 20
5.42887
 42
0.0
  0
VERTEX
  8
0
 10
1.6281
 20
5.43733
 42
0.0
  0
VERTEX
  8
0
 10
1.6149
 20
5.44569
 42
0.0
  0
VERTEX
  8
0
 10
1.61768
 20
5.4624
 42
0.0
  0
VERTEX
  8
0
 10
1.6205
 20
5.47911
 42
0.0
  0
VERTEX
  8
0
 10
1.62364
 20
5.48535
 42
0.0
  0
VERTEX
  8
0
 10
1.62869
 20
5.49485
 42
0.0
  0
VERTEX
  8
0
 10
1.63157
 20
5.50256
 42
0.0
  0
VERTEX
  8
0
 10
1.6365
 20
5.53065
 42
0.0
  0
VERTEX
  8
0
 10
1.59706
 20
5.53581
 42
0.0
  0
VERTEX
  8
0
 10
1.59972
 20
5.56244
 42
0.0
  0
VERTEX
  8
0
 10
1.61089
 20
5.58811
 42
0.0
  0
VERTEX
  8
0
 10
1.61367
 20
5.59435
 42
0.0
  0
VERTEX
  8
0
 10
1.61822
 20
5.60406
 42
0.0
  0
VERTEX
  8
0
 10
1.6211
 20
5.6104
 42
0.0
  0
VERTEX
  8
0
 10
1.63997
 20
5.65657
 42
0.0
  0
VERTEX
  8
0
 10
1.64165
 20
5.66151
 42
0.0
  0
VERTEX
  8
0
 10
1.64958
 20
5.68869
 42
0.0
  0
VERTEX
  8
0
 10
1.64974
 20
5.71631
 42
0.0
  0
VERTEX
  8
0
 10
1.64865
 20
5.72125
 42
0.0
  0
VERTEX
  8
0
 10
1.64393
 20
5.72396
 42
0.0
  0
VERTEX
  8
0
 10
1.63721
 20
5.72749
 42
0.0
  0
VERTEX
  8
0
 10
1.63167
 20
5.72999
 42
0.0
  0
VERTEX
  8
0
 10
1.62511
 20
5.73275
 42
0.0
  0
VERTEX
  8
0
 10
1.62088
 20
5.74311
 42
0.0
  0
VERTEX
  8
0
 10
1.62175
 20
5.74924
 42
0.0
  0
VERTEX
  8
0
 10
1.64501
 20
5.79362
 42
0.0
  0
VERTEX
  8
0
 10
1.66965
 20
5.83729
 42
0.0
  0
VERTEX
  8
0
 10
1.67329
 20
5.84429
 42
0.0
  0
VERTEX
  8
0
 10
1.67974
 20
5.85667
 42
0.0
  0
VERTEX
  8
0
 10
1.6836
 20
5.86567
 42
0.0
  0
VERTEX
  8
0
 10
1.68544
 20
5.87272
 42
0.0
  0
VERTEX
  8
0
 10
1.68772
 20
5.88092
 42
0.0
  0
VERTEX
  8
0
 10
1.69299
 20
5.89247
 42
0.0
  0
VERTEX
  8
0
 10
1.69456
 20
5.90088
 42
0.0
  0
VERTEX
  8
0
 10
1.69646
 20
5.91026
 42
0.0
  0
VERTEX
  8
0
 10
1.7009
 20
5.91531
 42
0.0
  0
VERTEX
  8
0
 10
1.7009
 20
5.92264
 42
0.0
  0
VERTEX
  8
0
 10
1.7009
 20
5.93093
 42
0.0
  0
VERTEX
  8
0
 10
1.70101
 20
5.93967
 42
0.0
  0
VERTEX
  8
0
 10
1.70117
 20
5.94797
 42
0.0
  0
VERTEX
  8
0
 10
1.70139
 20
5.95529
 42
0.0
  0
VERTEX
  8
0
 10
1.69721
 20
5.96044
 42
0.0
  0
VERTEX
  8
0
 10
1.69586
 20
5.97006
 42
0.0
  0
VERTEX
  8
0
 10
1.69467
 20
5.979
 42
0.0
  0
VERTEX
  8
0
 10
1.69347
 20
5.98725
 42
0.0
  0
VERTEX
  8
0
 10
1.69239
 20
5.99414
 42
0.0
  0
VERTEX
  8
0
 10
1.68961
 20
6.00358
 42
0.0
  0
VERTEX
  8
0
 10
1.68479
 20
6.01899
 42
0.0
  0
VERTEX
  8
0
 10
1.68485
 20
6.02669
 42
0.0
  0
VERTEX
  8
0
 10
1.68506
 20
6.09169
 42
0.0
  0
VERTEX
  8
0
 10
1.68539
 20
6.10037
 42
0.0
  0
VERTEX
  8
0
 10
1.68733
 20
6.11208
 42
0.0
  0
VERTEX
  8
0
 10
1.68756
 20
6.11719
 42
0.0
  0
VERTEX
  8
0
 10
1.68722
 20
6.12304
 42
0.0
  0
VERTEX
  8
0
 10
1.68614
 20
6.16965
 42
0.0
  0
VERTEX
  8
0
 10
1.68674
 20
6.17638
 42
0.0
  0
VERTEX
  8
0
 10
1.69299
 20
6.18024
 42
0.0
  0
VERTEX
  8
0
 10
1.72222
 20
6.20156
 42
0.0
  0
VERTEX
  8
0
 10
1.74246
 20
6.23215
 42
0.0
  0
VERTEX
  8
0
 10
1.74621
 20
6.23708
 42
0.0
  0
VERTEX
  8
0
 10
1.75065
 20
6.24154
 42
0.0
  0
VERTEX
  8
0
 10
1.76633
 20
6.25071
 42
0.0
  0
VERTEX
  8
0
 10
1.78201
 20
6.25982
 42
0.0
  0
VERTEX
  8
0
 10
1.78635
 20
6.26193
 42
0.0
  0
VERTEX
  8
0
 10
1.79081
 20
6.26411
 42
0.0
  0
VERTEX
  8
0
 10
1.80621
 20
6.27138
 42
0.0
  0
VERTEX
  8
0
 10
1.82156
 20
6.27865
 42
0.0
  0
VERTEX
  8
0
 10
1.82601
 20
6.2806
 42
0.0
  0
VERTEX
  8
0
 10
1.83057
 20
6.28358
 42
0.0
  0
VERTEX
  8
0
 10
1.85747
 20
6.31082
 42
0.0
  0
VERTEX
  8
0
 10
1.87147
 20
6.3456
 42
0.0
  0
VERTEX
  8
0
 10
1.87879
 20
6.38379
 42
0.0
  0
VERTEX
  8
0
 10
1.88585
 20
6.42117
 42
0.0
  0
VERTEX
  8
0
 10
1.91769
 20
6.57644
 42
0.0
  0
VERTEX
  8
0
 10
1.91928
 20
6.58257
 42
0.0
  0
VERTEX
  8
0
 10
1.9274
 20
6.60601
 42
0.0
  0
VERTEX
  8
0
 10
1.93044
 20
6.61344
 42
0.0
  0
VERTEX
  8
0
 10
1.93549
 20
6.6244
 42
0.0
  0
VERTEX
  8
0
 10
1.93967
 20
6.63282
 42
0.0
  0
VERTEX
  8
0
 10
1.94542
 20
6.64399
 42
0.0
  0
VERTEX
  8
0
 10
1.94976
 20
6.65201
 42
0.0
  0
VERTEX
  8
0
 10
1.95518
 20
6.662
 42
0.0
  0
VERTEX
  8
0
 10
1.95833
 20
6.66894
 42
0.0
  0
VERTEX
  8
0
 10
1.96733
 20
6.70622
 42
0.0
  0
VERTEX
  8
0
 10
1.96772
 20
6.74507
 42
0.0
  0
VERTEX
  8
0
 10
1.96972
 20
6.78342
 42
0.0
  0
VERTEX
  8
0
 10
1.98356
 20
6.81901
 42
0.0
  0
VERTEX
  8
0
 10
1.99599
 20
6.83811
 42
0.0
  0
VERTEX
  8
0
 10
2.009
 20
6.85742
 42
0.0
  0
VERTEX
  8
0
 10
2.01764
 20
6.87799
 42
0.0
  0
VERTEX
  8
0
 10
2.01682
 20
6.90076
 42
0.0
  0
VERTEX
  8
0
 10
2.01551
 20
6.9069
 42
0.0
  0
VERTEX
  8
0
 10
2.01535
 20
6.94146
 42
0.0
  0
VERTEX
  8
0
 10
2.01594
 20
6.94749
 42
0.0
  0
VERTEX
  8
0
 10
2.01585
 20
6.99078
 42
0.0
  0
VERTEX
  8
0
 10
2.02821
 20
7.03196
 42
0.0
  0
VERTEX
  8
0
 10
2.03424
 20
7.04824
 42
0.0
  0
VERTEX
  8
0
 10
2.03353
 20
7.06554
 42
0.0
  0
VERTEX
  8
0
 10
2.03179
 20
7.08311
 42
0.0
  0
VERTEX
  8
0
 10
2.03494
 20
7.10021
 42
0.0
  0
VERTEX
  8
0
 10
2.03668
 20
7.10536
 42
0.0
  0
VERTEX
  8
0
 10
2.05832
 20
7.14925
 42
0.0
  0
VERTEX
  8
0
 10
2.08447
 20
7.1906
 42
0.0
  0
VERTEX
  8
0
 10
2.08724
 20
7.19476
 42
0.0
  0
VERTEX
  8
0
 10
2.09631
 20
7.20801
 42
0.0
  0
VERTEX
  8
0
 10
2.10536
 20
7.22125
 42
0.0
  0
VERTEX
  8
0
 10
2.10792
 20
7.22601
 42
0.0
  0
VERTEX
  8
0
 10
2.10949
 20
7.23025
 42
0.0
  0
VERTEX
  8
0
 10
2.12771
 20
7.28261
 42
0.0
  0
VERTEX
  8
0
 10
2.15381
 20
7.33117
 42
0.0
  0
VERTEX
  8
0
 10
2.15804
 20
7.33718
 42
0.0
  0
VERTEX
  8
0
 10
2.16585
 20
7.3481
 42
0.0
  0
VERTEX
  8
0
 10
2.17219
 20
7.35607
 42
0.0
  0
VERTEX
  8
0
 10
2.17811
 20
7.3635
 42
0.0
  0
VERTEX
  8
0
 10
2.18397
 20
7.37033
 42
0.0
  0
VERTEX
  8
0
 10
2.1945
 20
7.38103
 42
0.0
  0
VERTEX
  8
0
 10
2.20514
 20
7.39171
 42
0.0
  0
VERTEX
  8
0
 10
2.21218
 20
7.39789
 42
0.0
  0
VERTEX
  8
0
 10
2.2206
 20
7.40603
 42
0.0
  0
VERTEX
  8
0
 10
2.22939
 20
7.41624
 42
0.0
  0
VERTEX
  8
0
 10
2.23731
 20
7.42529
 42
0.0
  0
VERTEX
  8
0
 10
2.24175
 20
7.43246
 42
0.0
  0
VERTEX
  8
0
 10
2.25233
 20
7.44271
 42
0.0
  0
VERTEX
  8
0
 10
2.25933
 20
7.44715
 42
0.0
  0
VERTEX
  8
0
 10
2.26856
 20
7.45529
 42
0.0
  0
VERTEX
  8
0
 10
2.27924
 20
7.46431
 42
0.0
  0
VERTEX
  8
0
 10
2.2895
 20
7.47396
 42
0.0
  0
VERTEX
  8
0
 10
2.29943
 20
7.48389
 42
0.0
  0
VERTEX
  8
0
 10
2.30919
 20
7.49365
 42
0.0
  0
VERTEX
  8
0
 10
2.31858
 20
7.50304
 42
0.0
  0
VERTEX
  8
0
 10
2.32622
 20
7.51156
 42
0.0
  0
VERTEX
  8
0
 10
2.33236
 20
7.5185
 42
0.0
  0
VERTEX
  8
0
 10
2.4344
 20
7.63482
 42
0.0
  0
VERTEX
  8
0
 10
2.43175
 20
7.64008
 42
0.0
  0
VERTEX
  8
0
 10
2.43435
 20
7.65793
 42
0.0
  0
VERTEX
  8
0
 10
2.44461
 20
7.67426
 42
0.0
  0
VERTEX
  8
0
 10
2.4656
 20
7.71511
 42
0.0
  0
VERTEX
  8
0
 10
2.48525
 20
7.75657
 42
0.0
  0
VERTEX
  8
0
 10
2.48964
 20
7.76367
 42
0.0
  0
VERTEX
  8
0
 10
2.49436
 20
7.77171
 42
0.0
  0
VERTEX
  8
0
 10
2.49761
 20
7.77806
 42
0.0
  0
VERTEX
  8
0
 10
2.50146
 20
7.78575
 42
0.0
  0
VERTEX
  8
0
 10
2.50396
 20
7.7915
 42
0.0
  0
VERTEX
  8
0
 10
2.51329
 20
7.80832
 42
0.0
  0
VERTEX
  8
0
 10
2.52262
 20
7.82514
 42
0.0
  0
VERTEX
  8
0
 10
2.52669
 20
7.82975
 42
0.0
  0
VERTEX
  8
0
 10
2.53088
 20
7.83421
 42
0.0
  0
VERTEX
  8
0
 10
2.56754
 20
7.86328
 42
0.0
  0
VERTEX
  8
0
 10
2.57883
 20
7.87494
 42
0.0
  0
VERTEX
  8
0
 10
2.60069
 20
7.90126
 42
0.0
  0
VERTEX
  8
0
 10
2.60476
 20
7.90375
 42
0.0
  0
VERTEX
  8
0
 10
2.63965
 20
7.92513
 42
0.0
  0
VERTEX
  8
0
 10
2.64492
 20
7.93093
 42
0.0
  0
VERTEX
  8
0
 10
2.64746
 20
7.93582
 42
0.0
  0
VERTEX
  8
0
 10
2.65104
 20
7.94185
 42
0.0
  0
VERTEX
  8
0
 10
2.72136
 20
8.01079
 42
0.0
  0
VERTEX
  8
0
 10
2.72521
 20
8.01383
 42
0.0
  0
VERTEX
  8
0
 10
2.73008
 20
8.01878
 42
0.0
  0
VERTEX
  8
0
 10
2.73708
 20
8.0275
 42
0.0
  0
VERTEX
  8
0
 10
2.74192
 20
8.03326
 42
0.0
  0
VERTEX
  8
0
 10
2.75776
 20
8.04953
 42
0.0
  0
VERTEX
  8
0
 10
2.76204
 20
8.053
 42
0.0
  0
VERTEX
  8
0
 10
2.77615
 20
8.06337
 42
0.0
  0
VERTEX
  8
0
 10
2.79031
 20
8.07368
 42
0.0
  0
SEQEND
  0
POLYLINE
  8
0
 66
     1
 10
0.0
 20
0.0
 30
0.0
 70
     1
  0
VERTEX
  8
0
 10
6.4541
 20
8.12668
 42
0.0
  0
VERTEX
  8
0
 10
6.47456
 20
8.14903
 42
0.0
  0
VERTEX
  8
0
 10
6.48964
 20
8.14817
 42
0.0
  0
VERTEX
  8
0
 10
6.50228
 20
8.1396
 42
0.0
  0
VERTEX
  8
0
 10
6.51303
 20
8.12722
 42
0.0
  0
VERTEX
  8
0
 10
6.52246
 20
8.1149
 42
0.0
  0
VERTEX
  8
0
 10
6.51421
 20
8.06862
 42
0.0
  0
VERTEX
  8
0
 10
6.49685
 20
8.02522
 42
0.0
  0
VERTEX
  8
0
 10
6.51357
 20
7.98861
 42
0.0
  0
VERTEX
  8
0
 10
6.49869
 20
7.96322
 42
0.0
  0
VERTEX
  8
0
 10
6.48514
 20
7.93701
 42
0.0
  0
VERTEX
  8
0
 10
6.4776
 20
7.9094
 42
0.0
  0
VERTEX
  8
0
 10
6.48079
 20
7.87972
 42
0.0
  0
VERTEX
  8
0
 10
6.44461
 20
7.85915
 42
0.0
  0
VERTEX
  8
0
 10
6.4356
 20
7.83262
 42
0.0
  0
VERTEX
  8
0
 10
6.38043
 20
7.83344
 42
0.0
  0
VERTEX
  8
0
 10
6.36936
 20
7.80507
 42
0.0
  0
VERTEX
  8
0
 10
6.36643
 20
7.7749
 42
0.0
  0
VERTEX
  8
0
 10
6.36762
 20
7.74408
 42
0.0
  0
VERTEX
  8
0
 10
6.36893
 20
7.71365
 42
0.0
  0
VERTEX
  8
0
 10
6.35406
 20
7.72222
 42
0.0
  0
VERTEX
  8
0
 10
6.34136
 20
7.7346
 42
0.0
  0
VERTEX
  8
0
 10
6.32785
 20
7.74468
 42
0.0
  0
VERTEX
  8
0
 10
6.31076
 20
7.74636
 42
0.0
  0
VERTEX
  8
0
 10
6.2959
 20
7.72325
 42
0.0
  0
VERTEX
  8
0
 10
6.29221
 20
7.69607
 42
0.0
  0
VERTEX
  8
0
 10
6.29183
 20
7.66758
 42
0.0
  0
VERTEX
  8
0
 10
6.28694
 20
7.64063
 42
0.0
  0
VERTEX
  8
0
 10
6.25553
 20
7.6524
 42
0.0
  0
VERTEX
  8
0
 10
6.22999
 20
7.67437
 42
0.0
  0
VERTEX
  8
0
 10
6.22999
 20
7.74393
 42
0.0
  0
VERTEX
  8
0
 10
6.25439
 20
7.74994
 42
0.0
  0
VERTEX
  8
0
 10
6.25412
 20
7.77279
 42
0.0
  0
VERTEX
  8
0
 10
6.26313
 20
7.79286
 42
0.0
  0
VERTEX
  8
0
 10
6.28754
 20
7.82237
 42
0.0
  0
VERTEX
  8
0
 10
6.30849
 20
7.85449
 42
0.0
  0
VERTEX
  8
0
 10
6.33029
 20
7.88585
 42
0.0
  0
VERTEX
  8
0
 10
6.35726
 20
7.91303
 42
0.0
  0
VERTEX
  8
0
 10
6.38037
 20
7.90782
 42
0.0
  0
VERTEX
  8
0
 10
6.40375
 20
7.90799
 42
0.0
  0
VERTEX
  8
0
 10
6.42383
 20
7.99517
 42
0.0
  0
VERTEX
  8
0
 10
6.43007
 20
8.08469
 42
0.0
  0
VERTEX
  8
0
 10
6.43756
 20
8.10786
 42
0.0
  0
SEQEND
  0
POLYLINE
  8
0
 66
     1
 10
0.0
 20
0.0
 30
0.0
 70
     1
  0
VERTEX
  8
0
 10
5.9796
 20
9.72043
 42
0.0
  0
VERTEX
  8
0
 10
6.04254
 20
9.75331
 42
0.0
  0
VERTEX
  8
0
 10
6.11724
 20
9.75157
 42
0.0
  0
VERTEX
  8
0
 10
6.18853
 20
9.73025
 42
0.0
  0
VERTEX
  8
0
 10
6.22831
 20
9.68192
 42
0.0
  0
VERTEX
  8
0
 10
6.25683
 20
9.62543
 42
0.0
  0
VERTEX
  8
0
 10
6.28575
 20
9.56917
 42
0.0
  0
VERTEX
  8
0
 10
6.32682
 20
9.52154
 42
0.0
  0
VERTEX
  8
0
 10
6.34603
 20
9.4974
 42
0.0
  0
VERTEX
  8
0
 10
6.35411
 20
9.46826
 42
0.0
  0
VERTEX
  8
0
 10
6.35444
 20
9.4369
 42
0.0
  0
VERTEX
  8
0
 10
6.35053
 20
9.40631
 42
0.0
  0
VERTEX
  8
0
 10
6.34381
 20
9.32921
 42
0.0
  0
VERTEX
  8
0
 10
6.33501
 20
9.25244
 42
0.0
  0
VERTEX
  8
0
 10
6.32232
 20
9.18272
 42
0.0
  0
VERTEX
  8
0
 10
6.30176
 20
9.11475
 42
0.0
  0
VERTEX
  8
0
 10
6.30544
 20
9.09304
 42
0.0
  0
VERTEX
  8
0
 10
6.31825
 20
9.0765
 42
0.0
  0
VERTEX
  8
0
 10
6.33615
 20
9.06369
 42
0.0
  0
VERTEX
  8
0
 10
6.35542
 20
9.05322
 42
0.0
  0
VERTEX
  8
0
 10
6.34028
 20
9.00179
 42
0.0
  0
VERTEX
  8
0
 10
6.32406
 20
8.96593
 42
0.0
  0
VERTEX
  8
0
 10
6.32183
 20
8.92649
 42
0.0
  0
VERTEX
  8
0
 10
6.32183
 20
8.88613
 42
0.0
  0
VERTEX
  8
0
 10
6.31256
 20
8.84728
 42
0.0
  0
VERTEX
  8
0
 10
6.32835
 20
8.82194
 42
0.0
  0
VERTEX
  8
0
 10
6.34413
 20
8.79665
 42
0.0
  0
VERTEX
  8
0
 10
6.34136
 20
8.7666
 42
0.0
  0
VERTEX
  8
0
 10
6.32781
 20
8.73915
 42
0.0
  0
VERTEX
  8
0
 10
6.31467
 20
8.71169
 42
0.0
  0
VERTEX
  8
0
 10
6.31304
 20
8.68158
 42
0.0
  0
VERTEX
  8
0
 10
6.34332
 20
8.65956
 42
0.0
  0
VERTEX
  8
0
 10
6.28944
 20
8.57281
 42
0.0
  0
VERTEX
  8
0
 10
6.22581
 20
8.49268
 42
0.0
  0
VERTEX
  8
0
 10
6.23822
 20
8.52675
 42
0.0
  0
VERTEX
  8
0
 10
6.25863
 20
8.55724
 42
0.0
  0
VERTEX
  8
0
 10
6.27886
 20
8.58763
 42
0.0
  0
VERTEX
  8
0
 10
6.29081
 20
8.62099
 42
0.0
  0
VERTEX
  8
0
 10
6.28011
 20
8.62793
 42
0.0
  0
VERTEX
  8
0
 10
6.26807
 20
8.63493
 42
0.0
  0
VERTEX
  8
0
 10
6.25976
 20
8.64378
 42
0.0
  0
VERTEX
  8
0
 10
6.26053
 20
8.65636
 42
0.0
  0
VERTEX
  8
0
 10
6.28033
 20
8.68772
 42
0.0
  0
VERTEX
  8
0
 10
6.30057
 20
8.71918
 42
0.0
  0
VERTEX
  8
0
 10
6.31625
 20
8.75244
 42
0.0
  0
VERTEX
  8
0
 10
6.32226
 20
8.78911
 42
0.0
  0
VERTEX
  8
0
 10
6.26064
 20
8.81304
 42
0.0
  0
VERTEX
  8
0
 10
6.26828
 20
8.84472
 42
0.0
  0
VERTEX
  8
0
 10
6.28153
 20
8.87549
 42
0.0
  0
VERTEX
  8
0
 10
6.27968
 20
8.91163
 42
0.0
  0
VERTEX
  8
0
 10
6.26932
 20
8.9471
 42
0.0
  0
VERTEX
  8
0
 10
6.29947
 20
8.99713
 42
0.0
  0
VERTEX
  8
0
 10
6.28239
 20
9.08143
 42
0.0
  0
VERTEX
  8
0
 10
6.28212
 20
9.10704
 42
0.0
  0
VERTEX
  8
0
 10
6.27349
 20
9.13108
 42
0.0
  0
VERTEX
  8
0
 10
6.28119
 20
9.16303
 42
0.0
  0
VERTEX
  8
0
 10
6.27983
 20
9.18371
 42
0.0
  0
VERTEX
  8
0
 10
6.29688
 20
9.2654
 42
0.0
  0
VERTEX
  8
0
 10
6.32465
 20
9.34392
 42
0.0
  0
VERTEX
  8
0
 10
6.32058
 20
9.4471
 42
0.0
  0
VERTEX
  8
0
 10
6.28765
 20
9.49799
 42
0.0
  0
VERTEX
  8
0
 10
6.24778
 20
9.53222
 42
0.0
  0
VERTEX
  8
0
 10
6.22743
 20
9.56104
 42
0.0
  0
VERTEX
  8
0
 10
6.20746
 20
9.59033
 42
0.0
  0
VERTEX
  8
0
 10
6.18414
 20
9.6161
 42
0.0
  0
VERTEX
  8
0
 10
6.15381
 20
9.63433
 42
0.0
  0
VERTEX
  8
0
 10
6.05225
 20
9.64285
 42
0.0
  0
VERTEX
  8
0
 10
6.00342
 20
9.6365
 42
0.0
  0
VERTEX
  8
0
 10
5.95443
 20
9.63303
 42
0.0
  0
VERTEX
  8
0
 10
5.903
 20
9.60835
 42
0.0
  0
VERTEX
  8
0
 10
5.85628
 20
9.57574
 42
0.0
  0
VERTEX
  8
0
 10
5.77522
 20
9.4821
 42
0.0
  0
VERTEX
  8
0
 10
5.70546
 20
9.38021
 42
0.0
  0
VERTEX
  8
0
 10
5.70458
 20
9.34338
 42
0.0
  0
VERTEX
  8
0
 10
5.6984
 20
9.3074
 42
0.0
  0
VERTEX
  8
0
 10
5.68631
 20
9.2724
 42
0.0
  0
VERTEX
  8
0
 10
5.67796
 20
9.23611
 42
0.0
  0
VERTEX
  8
0
 10
5.66754
 20
9.20079
 42
0.0
  0
VERTEX
  8
0
 10
5.64903
 20
9.16857
 42
0.0
  0
VERTEX
  8
0
 10
5.55871
 20
9.05393
 42
0.0
  0
VERTEX
  8
0
 10
5.48643
 20
8.9279
 42
0.0
  0
VERTEX
  8
0
 10
5.47353
 20
8.89811
 42
0.0
  0
VERTEX
  8
0
 10
5.46733
 20
8.866
 42
0.0
  0
VERTEX
  8
0
 10
5.47114
 20
8.83464
 42
0.0
  0
VERTEX
  8
0
 10
5.48822
 20
8.80681
 42
0.0
  0
VERTEX
  8
0
 10
5.47726
 20
8.76964
 42
0.0
  0
VERTEX
  8
0
 10
5.45313
 20
8.74104
 42
0.0
  0
VERTEX
  8
0
 10
5.42231
 20
8.71733
 42
0.0
  0
VERTEX
  8
0
 10
5.39122
 20
8.69476
 42
0.0
  0
VERTEX
  8
0
 10
5.36951
 20
8.67751
 42
0.0
  0
VERTEX
  8
0
 10
5.34521
 20
8.66569
 42
0.0
  0
VERTEX
  8
0
 10
5.39085
 20
8.74274
 42
0.0
  0
VERTEX
  8
0
 10
5.43371
 20
8.82118
 42
0.0
  0
VERTEX
  8
0
 10
5.43804
 20
8.88282
 42
0.0
  0
VERTEX
  8
0
 10
5.43994
 20
8.94482
 42
0.0
  0
VERTEX
  8
0
 10
5.45882
 20
9.0089
 42
0.0
  0
VERTEX
  8
0
 10
5.48112
 20
9.072
 42
0.0
  0
VERTEX
  8
0
 10
5.51997
 20
9.148
 42
0.0
  0
VERTEX
  8
0
 10
5.5726
 20
9.2156
 42
0.0
  0
VERTEX
  8
0
 10
5.58942
 20
9.24744
 42
0.0
  0
VERTEX
  8
0
 10
5.59825
 20
9.28212
 42
0.0
  0
VERTEX
  8
0
 10
5.60504
 20
9.31771
 42
0.0
  0
VERTEX
  8
0
 10
5.61561
 20
9.35206
 42
0.0
  0
VERTEX
  8
0
 10
5.64399
 20
9.40082
 42
0.0
  0
VERTEX
  8
0
 10
5.67746
 20
9.44667
 42
0.0
  0
VERTEX
  8
0
 10
5.74274
 20
9.53424
 42
0.0
  0
VERTEX
  8
0
 10
5.81293
 20
9.61822
 42
0.0
  0
VERTEX
  8
0
 10
5.83589
 20
9.63362
 42
0.0
  0
VERTEX
  8
0
 10
5.86458
 20
9.63504
 42
0.0
  0
VERTEX
  8
0
 10
5.85542
 20
9.59961
 42
0.0
  0
VERTEX
  8
0
 10
5.89333
 20
9.63331
 42
0.0
  0
VERTEX
  8
0
 10
5.93153
 20
9.66754
 42
0.0
  0
SEQEND
  0
POLYLINE
  8
0
 66
     1
 10
0.0
 20
0.0
 30
0.0
 70
     1
  0
VERTEX
  8
0
 10
3.43778
 20
6.51394
 42
0.0
  0
VERTEX
  8
0
 10
3.44401
 20
6.5179
 42
0.0
  0
VERTEX
  8
0
 10
3.48236
 20
6.53114
 42
0.0
  0
VERTEX
  8
0
 10
3.48426
 20
6.47526
 42
0.0
  0
VERTEX
  8
0
 10
3.50635
 20
6.46408
 42
0.0
  0
VERTEX
  8
0
 10
3.53071
 20
6.46793
 42
0.0
  0
VERTEX
  8
0
 10
3.55572
 20
6.47825
 42
0.0
  0
VERTEX
  8
0
 10
3.57981
 20
6.48628
 42
0.0
  0
VERTEX
  8
0
 10
3.58518
 20
6.48796
 42
0.0
  0
VERTEX
  8
0
 10
3.609
 20
6.49365
 42
0.0
  0
VERTEX
  8
0
 10
3.62642
 20
6.49576
 42
0.0
  0
VERTEX
  8
0
 10
3.63422
 20
6.49804
 42
0.0
  0
VERTEX
  8
0
 10
3.646
 20
6.49582
 42
0.0
  0
VERTEX
  8
0
 10
3.6524
 20
6.49149
 42
0.0
  0
VERTEX
  8
0
 10
3.65739
 20
6.48628
 42
0.0
  0
VERTEX
  8
0
 10
3.66581
 20
6.45817
 42
0.0
  0
VERTEX
  8
0
 10
3.66656
 20
6.45156
 42
0.0
  0
VERTEX
  8
0
 10
3.66704
 20
6.44607
 42
0.0
  0
VERTEX
  8
0
 10
3.66737
 20
6.44162
 42
0.0
  0
VERTEX
  8
0
 10
3.6709
 20
6.43896
 42
0.0
  0
VERTEX
  8
0
 10
3.6824
 20
6.43104
 42
0.0
  0
VERTEX
  8
0
 10
3.69396
 20
6.42307
 42
0.0
  0
VERTEX
  8
0
 10
3.78922
 20
6.44282
 42
0.0
  0
VERTEX
  8
0
 10
3.78803
 20
6.39681
 42
0.0
  0
VERTEX
  8
0
 10
3.78874
 20
6.39079
 42
0.0
  0
VERTEX
  8
0
 10
3.78933
 20
6.38514
 42
0.0
  0
VERTEX
  8
0
 10
3.78993
 20
6.37993
 42
0.0
  0
VERTEX
  8
0
 10
3.79021
 20
6.37668
 42
0.0
  0
VERTEX
  8
0
 10
3.79497
 20
6.37983
 42
0.0
  0
VERTEX
  8
0
 10
3.80399
 20
6.38596
 42
0.0
  0
VERTEX
  8
0
 10
3.81625
 20
6.39296
 42
0.0
  0
VERTEX
  8
0
 10
3.82374
 20
6.39681
 42
0.0
  0
VERTEX
  8
0
 10
3.83356
 20
6.40435
 42
0.0
  0
VERTEX
  8
0
 10
3.8444
 20
6.41325
 42
0.0
  0
VERTEX
  8
0
 10
3.85449
 20
6.42253
 42
0.0
  0
VERTEX
  8
0
 10
3.86328
 20
6.43033
 42
0.0
  0
VERTEX
  8
0
 10
3.8719
 20
6.43668
 42
0.0
  0
VERTEX
  8
0
 10
3.88368
 20
6.44379
 42
0.0
  0
VERTEX
  8
0
 10
3.89122
 20
6.44737
 42
0.0
  0
VERTEX
  8
0
 10
3.91396
 20
6.45617
 42
0.0
  0
VERTEX
  8
0
 10
3.91976
 20
6.45806
 42
0.0
  0
VERTEX
  8
0
 10
3.99621
 20
6.46326
 42
0.0
  0
VERTEX
  8
0
 10
4.07269
 20
6.45481
 42
0.0
  0
VERTEX
  8
0
 10
4.0874
 20
6.45497
 42
0.0
  0
VERTEX
  8
0
 10
4.10275
 20
6.45719
 42
0.0
  0
VERTEX
  8
0
 10
4.11719
 20
6.45654
 42
0.0
  0
VERTEX
  8
0
 10
4.12918
 20
6.44797
 42
0.0
  0
VERTEX
  8
0
 10
4.12701
 20
6.44233
 42
0.0
  0
VERTEX
  8
0
 10
4.12414
 20
6.43608
 42
0.0
  0
VERTEX
  8
0
 10
4.11811
 20
6.43261
 42
0.0
  0
VERTEX
  8
0
 10
4.11019
 20
6.428
 42
0.0
  0
VERTEX
  8
0
 10
4.10406
 20
6.4254
 42
0.0
  0
VERTEX
  8
0
 10
4.09694
 20
6.42079
 42
0.0
  0
VERTEX
  8
0
 10
4.07943
 20
6.40403
 42
0.0
  0
VERTEX
  8
0
 10
4.21197
 20
6.35915
 42
0.0
  0
VERTEX
  8
0
 10
4.22108
 20
6.36035
 42
0.0
  0
VERTEX
  8
0
 10
4.22629
 20
6.36074
 42
0.0
  0
VERTEX
  8
0
 10
4.25076
 20
6.36094
 42
0.0
  0
VERTEX
  8
0
 10
4.2564
 20
6.35846
 42
0.0
  0
VERTEX
  8
0
 10
4.26074
 20
6.3565
 42
0.0
  0
VERTEX
  8
0
 10
4.27285
 20
6.34364
 42
0.0
  0
VERTEX
  8
0
 10
4.28504
 20
6.33068
 42
0.0
  0
VERTEX
  8
0
 10
4.29058
 20
6.32471
 42
0.0
  0
VERTEX
  8
0
 10
4.29606
 20
6.32118
 42
0.0
  0
VERTEX
  8
0
 10
4.30328
 20
6.32075
 42
0.0
  0
VERTEX
  8
0
 10
4.32937
 20
6.32688
 42
0.0
  0
VERTEX
  8
0
 10
4.33561
 20
6.329
 42
0.0
  0
VERTEX
  8
0
 10
4.39199
 20
6.35678
 42
0.0
  0
VERTEX
  8
0
 10
4.39626
 20
6.35906
 42
0.0
  0
VERTEX
  8
0
 10
4.44894
 20
6.38764
 42
0.0
  0
VERTEX
  8
0
 10
4.4534
 20
6.39122
 42
0.0
  0
VERTEX
  8
0
 10
4.47103
 20
6.40858
 42
0.0
  0
VERTEX
  8
0
 10
4.49826
 20
6.41043
 42
0.0
  0
VERTEX
  8
0
 10
4.52582
 20
6.41639
 42
0.0
  0
VERTEX
  8
0
 10
4.55274
 20
6.41922
 42
0.0
  0
VERTEX
  8
0
 10
4.57813
 20
6.41135
 42
0.0
  0
VERTEX
  8
0
 10
4.58132
 20
6.40869
 42
0.0
  0
VERTEX
  8
0
 10
4.59082
 20
6.39442
 42
0.0
  0
VERTEX
  8
0
 10
4.5931
 20
6.37771
 42
0.0
  0
VERTEX
  8
0
 10
4.59174
 20
6.36003
 42
0.0
  0
VERTEX
  8
0
 10
4.59039
 20
6.34283
 42
0.0
  0
VERTEX
  8
0
 10
4.5899
 20
6.33849
 42
0.0
  0
VERTEX
  8
0
 10
4.59337
 20
6.33849
 42
0.0
  0
VERTEX
  8
0
 10
4.60374
 20
6.33817
 42
0.0
  0
VERTEX
  8
0
 10
4.61199
 20
6.33968
 42
0.0
  0
VERTEX
  8
0
 10
4.64925
 20
6.3534
 42
0.0
  0
VERTEX
  8
0
 10
4.67421
 20
6.35807
 42
0.0
  0
VERTEX
  8
0
 10
4.68072
 20
6.36035
 42
0.0
  0
VERTEX
  8
0
 10
4.70307
 20
6.35975
 42
0.0
  0
VERTEX
  8
0
 10
4.74311
 20
6.3526
 42
0.0
  0
VERTEX
  8
0
 10
4.75439
 20
6.35064
 42
0.0
  0
VERTEX
  8
0
 10
4.76258
 20
6.34956
 42
0.0
  0
VERTEX
  8
0
 10
4.77322
 20
6.34907
 42
0.0
  0
VERTEX
  8
0
 10
4.78217
 20
6.35015
 42
0.0
  0
VERTEX
  8
0
 10
4.79178
 20
6.35292
 42
0.0
  0
VERTEX
  8
0
 10
4.7979
 20
6.35271
 42
0.0
  0
VERTEX
  8
0
 10
4.85129
 20
6.33762
 42
0.0
  0
VERTEX
  8
0
 10
4.90294
 20
6.31831
 42
0.0
  0
VERTEX
  8
0
 10
4.90685
 20
6.31304
 42
0.0
  0
VERTEX
  8
0
 10
4.91217
 20
6.30365
 42
0.0
  0
VERTEX
  8
0
 10
4.91612
 20
6.29606
 42
0.0
  0
VERTEX
  8
0
 10
4.92139
 20
6.28597
 42
0.0
  0
VERTEX
  8
0
 10
4.92503
 20
6.27951
 42
0.0
  0
VERTEX
  8
0
 10
4.95171
 20
6.24126
 42
0.0
  0
VERTEX
  8
0
 10
4.956
 20
6.23671
 42
0.0
  0
VERTEX
  8
0
 10
4.9731
 20
6.22233
 42
0.0
  0
VERTEX
  8
0
 10
4.97874
 20
6.21897
 42
0.0
  0
VERTEX
  8
0
 10
4.9834
 20
6.21739
 42
0.0
  0
VERTEX
  8
0
 10
5.00375
 20
6.20643
 42
0.0
  0
VERTEX
  8
0
 10
5.02138
 20
6.19069
 42
0.0
  0
VERTEX
  8
0
 10
5.02522
 20
6.18696
 42
0.0
  0
VERTEX
  8
0
 10
5.04036
 20
6.17085
 42
0.0
  0
VERTEX
  8
0
 10
5.04503
 20
6.1651
 42
0.0
  0
VERTEX
  8
0
 10
5.05083
 20
6.15538
 42
0.0
  0
VERTEX
  8
0
 10
5.05501
 20
6.14768
 42
0.0
  0
VERTEX
  8
0
 10
5.06006
 20
6.13758
 42
0.0
  0
VERTEX
  8
0
 10
5.06332
 20
6.13135
 42
0.0
  0
VERTEX
  8
0
 10
5.09131
 20
6.08425
 42
0.0
  0
VERTEX
  8
0
 10
5.09386
 20
6.08024
 42
0.0
  0
VERTEX
  8
0
 10
5.12283
 20
6.0364
 42
0.0
  0
VERTEX
  8
0
 10
5.12642
 20
6.03163
 42
0.0
  0
VERTEX
  8
0
 10
5.14274
 20
6.01346
 42
0.0
  0
VERTEX
  8
0
 10
5.14746
 20
6.0084
 42
0.0
  0
VERTEX
  8
0
 10
5.15201
 20
6.00407
 42
0.0
  0
VERTEX
  8
0
 10
5.18386
 20
5.97618
 42
0.0
  0
VERTEX
  8
0
 10
5.18772
 20
5.97331
 42
0.0
  0
VERTEX
  8
0
 10
5.19151
 20
5.97081
 42
0.0
  0
VERTEX
  8
0
 10
5.23215
 20
5.93381
 42
0.0
  0
VERTEX
  8
0
 10
5.26042
 20
5.88607
 42
0.0
  0
VERTEX
  8
0
 10
5.26351
 20
5.87999
 42
0.0
  0
VERTEX
  8
0
 10
5.26833
 20
5.87061
 42
0.0
  0
VERTEX
  8
0
 10
5.27387
 20
5.8635
 42
0.0
  0
VERTEX
  8
0
 10
5.29178
 20
5.84776
 42
0.0
  0
VERTEX
  8
0
 10
5.29622
 20
5.84424
 42
0.0
  0
VERTEX
  8
0
 10
5.30051
 20
5.84125
 42
0.0
  0
VERTEX
  8
0
 10
5.31901
 20
5.82758
 42
0.0
  0
VERTEX
  8
0
 10
5.32351
 20
5.82374
 42
0.0
  0
VERTEX
  8
0
 10
5.33925
 20
5.80892
 42
0.0
  0
VERTEX
  8
0
 10
5.34304
 20
5.80512
 42
0.0
  0
VERTEX
  8
0
 10
5.37983
 20
5.75965
 42
0.0
  0
VERTEX
  8
0
 10
5.38319
 20
5.7551
 42
0.0
  0
VERTEX
  8
0
 10
5.39681
 20
5.73671
 42
0.0
  0
VERTEX
  8
0
 10
5.40158
 20
5.73008
 42
0.0
  0
VERTEX
  8
0
 10
5.4095
 20
5.71858
 42
0.0
  0
VERTEX
  8
0
 10
5.41601
 20
5.70969
 42
0.0
  0
VERTEX
  8
0
 10
5.42421
 20
5.70057
 42
0.0
  0
VERTEX
  8
0
 10
5.43371
 20
5.6914
 42
0.0
  0
VERTEX
  8
0
 10
5.44282
 20
5.68326
 42
0.0
  0
VERTEX
  8
0
 10
5.45204
 20
5.67617
 42
0.0
  0
VERTEX
  8
0
 10
5.46576
 20
5.66618
 42
0.0
  0
VERTEX
  8
0
 10
5.47418
 20
5.65944
 42
0.0
  0
VERTEX
  8
0
 10
5.48139
 20
5.65343
 42
0.0
  0
VERTEX
  8
0
 10
5.48801
 20
5.64817
 42
0.0
  0
VERTEX
  8
0
 10
5.50244
 20
5.63818
 42
0.0
  0
VERTEX
  8
0
 10
5.51693
 20
5.6281
 42
0.0
  0
VERTEX
  8
0
 10
5.52149
 20
5.62554
 42
0.0
  0
VERTEX
  8
0
 10
5.55404
 20
5.61025
 42
0.0
  0
VERTEX
  8
0
 10
5.58279
 20
5.59033
 42
0.0
  0
VERTEX
  8
0
 10
5.58279
 20
5.56728
 42
0.0
  0
VERTEX
  8
0
 10
5.5829
 20
5.55886
 42
0.0
  0
VERTEX
  8
0
 10
5.54878
 20
5.5446
 42
0.0
  0
VERTEX
  8
0
 10
5.51204
 20
5.54215
 42
0.0
  0
VERTEX
  8
0
 10
5.50782
 20
5.54335
 42
0.0
  0
VERTEX
  8
0
 10
5.47444
 20
5.55453
 42
0.0
  0
VERTEX
  8
0
 10
5.43832
 20
5.558
 42
0.0
  0
VERTEX
  8
0
 10
5.40533
 20
5.54932
 42
0.0
  0
VERTEX
  8
0
 10
5.38162
 20
5.52382
 42
0.0
  0
VERTEX
  8
0
 10
5.39182
 20
5.514
 42
0.0
  0
VERTEX
  8
0
 10
5.40679
 20
5.51079
 42
0.0
  0
VERTEX
  8
0
 10
5.42275
 20
5.50819
 42
0.0
  0
VERTEX
  8
0
 10
5.43593
 20
5.50028
 42
0.0
  0
VERTEX
  8
0
 10
5.4279
 20
5.48172
 42
0.0
  0
VERTEX
  8
0
 10
5.42285
 20
5.47786
 42
0.0
  0
VERTEX
  8
0
 10
5.41683
 20
5.47726
 42
0.0
  0
VERTEX
  8
0
 10
5.37608
 20
5.47239
 42
0.0
  0
VERTEX
  8
0
 10
5.36903
 20
5.47071
 42
0.0
  0
VERTEX
  8
0
 10
5.35656
 20
5.46778
 42
0.0
  0
VERTEX
  8
0
 10
5.308
 20
5.46169
 42
0.0
  0
VERTEX
  8
0
 10
5.30285
 20
5.46001
 42
0.0
  0
VERTEX
  8
0
 10
5.26764
 20
5.45253
 42
0.0
  0
VERTEX
  8
0
 10
4.97803
 20
5.45014
 42
0.0
  0
VERTEX
  8
0
 10
4.97174
 20
5.44472
 42
0.0
  0
VERTEX
  8
0
 10
4.97081
 20
5.4369
 42
0.0
  0
VERTEX
  8
0
 10
4.97575
 20
5.43235
 42
0.0
  0
VERTEX
  8
0
 10
4.9821
 20
5.43078
 42
0.0
  0
VERTEX
  8
0
 10
4.98893
 20
5.42919
 42
0.0
  0
VERTEX
  8
0
 10
4.99582
 20
5.4274
 42
0.0
  0
VERTEX
  8
0
 10
5.00396
 20
5.42524
 42
0.0
  0
VERTEX
  8
0
 10
5.02029
 20
5.41862
 42
0.0
  0
VERTEX
  8
0
 10
5.02935
 20
5.41217
 42
0.0
  0
VERTEX
  8
0
 10
5.0376
 20
5.40593
 42
0.0
  0
VERTEX
  8
0
 10
5.0466
 20
5.39931
 42
0.0
  0
VERTEX
  8
0
 10
5.05985
 20
5.3896
 42
0.0
  0
VERTEX
  8
0
 10
5.06685
 20
5.38249
 42
0.0
  0
VERTEX
  8
0
 10
5.06825
 20
5.37625
 42
0.0
  0
VERTEX
  8
0
 10
5.06944
 20
5.37022
 42
0.0
  0
VERTEX
  8
0
 10
5.07042
 20
5.36436
 42
0.0
  0
VERTEX
  8
0
 10
5.04601
 20
5.32579
 42
0.0
  0
VERTEX
  8
0
 10
5.0619
 20
5.31375
 42
0.0
  0
VERTEX
  8
0
 10
5.06694
 20
5.30979
 42
0.0
  0
VERTEX
  8
0
 10
5.0709
 20
5.30556
 42
0.0
  0
VERTEX
  8
0
 10
5.07417
 20
5.30208
 42
0.0
  0
VERTEX
  8
0
 10
5.07883
 20
5.3016
 42
0.0
  0
VERTEX
  8
0
 10
5.14497
 20
5.29682
 42
0.0
  0
VERTEX
  8
0
 10
5.21149
 20
5.29656
 42
0.0
  0
VERTEX
  8
0
 10
5.22065
 20
5.29308
 42
0.0
  0
VERTEX
  8
0
 10
5.24164
 20
5.28717
 42
0.0
  0
VERTEX
  8
0
 10
5.24778
 20
5.28803
 42
0.0
  0
VERTEX
  8
0
 10
5.25364
 20
5.28825
 42
0.0
  0
VERTEX
  8
0
 10
5.25993
 20
5.28825
 42
0.0
  0
VERTEX
  8
0
 10
5.27203
 20
5.28782
 42
0.0
  0
VERTEX
  8
0
 10
5.27024
 20
5.25629
 42
0.0
  0
VERTEX
  8
0
 10
5.26986
 20
5.24983
 42
0.0
  0
VERTEX
  8
0
 10
5.27192
 20
5.23313
 42
0.0
  0
VERTEX
  8
0
 10
5.29449
 20
5.22439
 42
0.0
  0
VERTEX
  8
0
 10
5.31853
 20
5.21929
 42
0.0
  0
VERTEX
  8
0
 10
5.32406
 20
5.21821
 42
0.0
  0
VERTEX
  8
0
 10
5.36242
 20
5.21099
 42
0.0
  0
VERTEX
  8
0
 10
5.36496
 20
5.19108
 42
0.0
  0
VERTEX
  8
0
 10
5.36481
 20
5.18479
 42
0.0
  0
VERTEX
  8
0
 10
5.36388
 20
5.17822
 42
0.0
  0
VERTEX
  8
0
 10
5.36242
 20
5.17122
 42
0.0
  0
VERTEX
  8
0
 10
5.35579
 20
5.16292
 42
0.0
  0
VERTEX
  8
0
 10
5.34799
 20
5.15608
 42
0.0
  0
VERTEX
  8
0
 10
5.3361
 20
5.14925
 42
0.0
  0
VERTEX
  8
0
 10
5.32829
 20
5.14611
 42
0.0
  0
VERTEX
  8
0
 10
5.30512
 20
5.13786
 42
0.0
  0
VERTEX
  8
0
 10
5.29943
 20
5.13569
 42
0.0
  0
VERTEX
  8
0
 10
5.21001
 20
5.09831
 42
0.0
  0
VERTEX
  8
0
 10
5.20514
 20
5.09651
 42
0.0
  0
VERTEX
  8
0
 10
5.19851
 20
5.09375
 42
0.0
  0
VERTEX
  8
0
 10
5.18419
 20
5.08832
 42
0.0
  0
VERTEX
  8
0
 10
5.17736
 20
5.08583
 42
0.0
  0
VERTEX
  8
0
 10
5.16992
 20
5.08231
 42
0.0
  0
VERTEX
  8
0
 10
5.16379
 20
5.0746
 42
0.0
  0
VERTEX
  8
0
 10
5.16564
 20
5.05285
 42
0.0
  0
VERTEX
  8
0
 10
5.18289
 20
5.03618
 42
0.0
  0
VERTEX
  8
0
 10
5.18733
 20
5.03293
 42
0.0
  0
VERTEX
  8
0
 10
5.19157
 20
5.03065
 42
0.0
  0
VERTEX
  8
0
 10
5.20464
 20
5.01465
 42
0.0
  0
VERTEX
  8
0
 10
5.20068
 20
5.00467
 42
0.0
  0
VERTEX
  8
0
 10
5.19721
 20
4.99843
 42
0.0
  0
VERTEX
  8
0
 10
5.19417
 20
4.99289
 42
0.0
  0
VERTEX
  8
0
 10
5.18712
 20
4.98508
 42
0.0
  0
VERTEX
  8
0
 10
5.17882
 20
4.97786
 42
0.0
  0
VERTEX
  8
0
 10
5.16569
 20
4.96804
 42
0.0
  0
VERTEX
  8
0
 10
5.15776
 20
4.96213
 42
0.0
  0
VERTEX
  8
0
 10
5.15104
 20
4.95421
 42
0.0
  0
VERTEX
  8
0
 10
5.14453
 20
4.94319
 42
0.0
  0
VERTEX
  8
0
 10
5.14106
 20
4.93642
 42
0.0
  0
VERTEX
  8
0
 10
5.13015
 20
4.90929
 42
0.0
  0
VERTEX
  8
0
 10
5.13064
 20
4.88081
 42
0.0
  0
VERTEX
  8
0
 10
5.134
 20
4.87446
 42
0.0
  0
VERTEX
  8
0
 10
5.14399
 20
4.86382
 42
0.0
  0
VERTEX
  8
0
 10
5.11578
 20
4.84153
 42
0.0
  0
VERTEX
  8
0
 10
5.08436
 20
4.82433
 42
0.0
  0
VERTEX
  8
0
 10
5.06885
 20
4.81999
 42
0.0
  0
VERTEX
  8
0
 10
5.06239
 20
4.81494
 42
0.0
  0
VERTEX
  8
0
 10
5.04628
 20
4.79833
 42
0.0
  0
VERTEX
  8
0
 10
5.04264
 20
4.79497
 42
0.0
  0
VERTEX
  8
0
 10
5.04303
 20
4.79081
 42
0.0
  0
VERTEX
  8
0
 10
5.0434
 20
4.78504
 42
0.0
  0
VERTEX
  8
0
 10
5.04389
 20
4.77507
 42
0.0
  0
VERTEX
  8
0
 10
5.044
 20
4.77051
 42
0.0
  0
VERTEX
  8
0
 10
5.04688
 20
4.76676
 42
0.0
  0
VERTEX
  8
0
 10
5.05962
 20
4.74756
 42
0.0
  0
VERTEX
  8
0
 10
5.05946
 20
4.74067
 42
0.0
  0
VERTEX
  8
0
 10
5.05794
 20
4.72174
 42
0.0
  0
VERTEX
  8
0
 10
5.05718
 20
4.71446
 42
0.0
  0
VERTEX
  8
0
 10
5.05285
 20
4.70742
 42
0.0
  0
VERTEX
  8
0
 10
5.04915
 20
4.7015
 42
0.0
  0
VERTEX
  8
0
 10
5.03819
 20
4.69299
 42
0.0
  0
VERTEX
  8
0
 10
5.03006
 20
4.68832
 42
0.0
  0
VERTEX
  8
0
 10
5.01878
 20
4.6824
 42
0.0
  0
VERTEX
  8
0
 10
5.00976
 20
4.67774
 42
0.0
  0
VERTEX
  8
0
 10
4.99625
 20
4.67063
 42
0.0
  0
VERTEX
  8
0
 10
4.98617
 20
4.66547
 42
0.0
  0
VERTEX
  8
0
 10
4.9796
 20
4.66243
 42
0.0
  0
VERTEX
  8
0
 10
4.97054
 20
4.65756
 42
0.0
  0
VERTEX
  8
0
 10
4.96457
 20
4.65451
 42
0.0
  0
VERTEX
  8
0
 10
4.95806
 20
4.65115
 42
0.0
  0
VERTEX
  8
0
 10
4.90506
 20
4.62733
 42
0.0
  0
VERTEX
  8
0
 10
4.85221
 20
4.60335
 42
0.0
  0
VERTEX
  8
0
 10
4.85835
 20
4.56685
 42
0.0
  0
VERTEX
  8
0
 10
4.84581
 20
4.55979
 42
0.0
  0
VERTEX
  8
0
 10
4.83322
 20
4.55274
 42
0.0
  0
VERTEX
  8
0
 10
4.82758
 20
4.55057
 42
0.0
  0
VERTEX
  8
0
 10
4.82021
 20
4.54758
 42
0.0
  0
VERTEX
  8
0
 10
4.81337
 20
4.54551
 42
0.0
  0
VERTEX
  8
0
 10
4.8074
 20
4.54372
 42
0.0
  0
VERTEX
  8
0
 10
4.80089
 20
4.54124
 42
0.0
  0
VERTEX
  8
0
 10
4.7404
 20
4.51546
 42
0.0
  0
VERTEX
  8
0
 10
4.67714
 20
4.49517
 42
0.0
  0
VERTEX
  8
0
 10
4.61686
 20
4.46994
 42
0.0
  0
VERTEX
  8
0
 10
4.5656
 20
4.42925
 42
0.0
  0
VERTEX
  8
0
 10
4.55507
 20
4.42697
 42
0.0
  0
VERTEX
  8
0
 10
4.54844
 20
4.42589
 42
0.0
  0
VERTEX
  8
0
 10
4.54172
 20
4.42503
 42
0.0
  0
VERTEX
  8
0
 10
4.5344
 20
4.42421
 42
0.0
  0
VERTEX
  8
0
 10
4.52729
 20
4.42333
 42
0.0
  0
VERTEX
  8
0
 10
4.5166
 20
4.4196
 42
0.0
  0
VERTEX
  8
0
 10
4.50819
 20
4.41862
 42
0.0
  0
VERTEX
  8
0
 10
4.48833
 20
4.41422
 42
0.0
  0
VERTEX
  8
0
 10
4.47982
 20
4.40771
 42
0.0
  0
VERTEX
  8
0
 10
4.47271
 20
4.39833
 42
0.0
  0
VERTEX
  8
0
 10
4.46853
 20
4.39318
 42
0.0
  0
VERTEX
  8
0
 10
4.45111
 20
4.38363
 42
0.0
  0
VERTEX
  8
0
 10
4.4305
 20
4.38151
 42
0.0
  0
VERTEX
  8
0
 10
4.40983
 20
4.38601
 42
0.0
  0
VERTEX
  8
0
 10
4.39247
 20
4.39626
 42
0.0
  0
VERTEX
  8
0
 10
4.38624
 20
4.4005
 42
0.0
  0
VERTEX
  8
0
 10
4.37842
 20
4.40408
 42
0.0
  0
VERTEX
  8
0
 10
4.3711
 20
4.40625
 42
0.0
  0
VERTEX
  8
0
 10
4.35422
 20
4.41146
 42
0.0
  0
VERTEX
  8
0
 10
4.34403
 20
4.41287
 42
0.0
  0
VERTEX
  8
0
 10
4.33806
 20
4.41189
 42
0.0
  0
VERTEX
  8
0
 10
4.32829
 20
4.40712
 42
0.0
  0
VERTEX
  8
0
 10
4.31739
 20
4.39919
 42
0.0
  0
VERTEX
  8
0
 10
4.30897
 20
4.39122
 42
0.0
  0
VERTEX
  8
0
 10
4.30317
 20
4.38525
 42
0.0
  0
VERTEX
  8
0
 10
4.27246
 20
4.37164
 42
0.0
  0
VERTEX
  8
0
 10
4.23796
 20
4.37056
 42
0.0
  0
VERTEX
  8
0
 10
4.20324
 20
4.37875
 42
0.0
  0
VERTEX
  8
0
 10
4.17199
 20
4.39296
 42
0.0
  0
VERTEX
  8
0
 10
4.16607
 20
4.39643
 42
0.0
  0
VERTEX
  8
0
 10
4.16092
 20
4.39942
 42
0.0
  0
VERTEX
  8
0
 10
4.15354
 20
4.40315
 42
0.0
  0
VERTEX
  8
0
 10
4.14768
 20
4.40522
 42
0.0
  0
VERTEX
  8
0
 10
4.11794
 20
4.41282
 42
0.0
  0
VERTEX
  8
0
 10
4.08735
 20
4.40978
 42
0.0
  0
VERTEX
  8
0
 10
4.03185
 20
4.4069
 42
0.0
  0
VERTEX
  8
0
 10
4.02621
 20
4.40744
 42
0.0
  0
VERTEX
  8
0
 10
3.99072
 20
4.42333
 42
0.0
  0
VERTEX
  8
0
 10
3.98633
 20
4.42535
 42
0.0
  0
VERTEX
  8
0
 10
3.92958
 20
4.44461
 42
0.0
  0
VERTEX
  8
0
 10
3.92307
 20
4.447
 42
0.0
  0
VERTEX
  8
0
 10
3.91287
 20
4.45085
 42
0.0
  0
VERTEX
  8
0
 10
3.90543
 20
4.45361
 42
0.0
  0
VERTEX
  8
0
 10
3.88113
 20
4.46289
 42
0.0
  0
VERTEX
  8
0
 10
3.87369
 20
4.4661
 42
0.0
  0
VERTEX
  8
0
 10
3.8629
 20
4.47103
 42
0.0
  0
VERTEX
  8
0
 10
3.85471
 20
4.47499
 42
0.0
  0
VERTEX
  8
0
 10
3.84424
 20
4.48014
 42
0.0
  0
VERTEX
  8
0
 10
3.83789
 20
4.48351
 42
0.0
  0
VERTEX
  8
0
 10
3.8234
 20
4.49322
 42
0.0
  0
VERTEX
  8
0
 10
3.80892
 20
4.50288
 42
0.0
  0
VERTEX
  8
0
 10
3.80436
 20
4.50694
 42
0.0
  0
VERTEX
  8
0
 10
3.79992
 20
4.51096
 42
0.0
  0
VERTEX
  8
0
 10
3.72194
 20
4.58882
 42
0.0
  0
VERTEX
  8
0
 10
3.71907
 20
4.59239
 42
0.0
  0
VERTEX
  8
0
 10
3.69168
 20
4.63678
 42
0.0
  0
VERTEX
  8
0
 10
3.68853
 20
4.64106
 42
0.0
  0
VERTEX
  8
0
 10
3.66368
 20
4.66932
 42
0.0
  0
VERTEX
  8
0
 10
3.66075
 20
4.67367
 42
0.0
  0
VERTEX
  8
0
 10
3.653
 20
4.69547
 42
0.0
  0
VERTEX
  8
0
 10
3.65132
 20
4.7015
 42
0.0
  0
VERTEX
  8
0
 10
3.64789
 20
4.71864
 42
0.0
  0
VERTEX
  8
0
 10
3.64453
 20
4.73579
 42
0.0
  0
VERTEX
  8
0
 10
3.64382
 20
4.74007
 42
0.0
  0
VERTEX
  8
0
 10
3.64046
 20
4.74262
 42
0.0
  0
VERTEX
  8
0
 10
3.62858
 20
4.75179
 42
0.0
  0
VERTEX
  8
0
 10
3.61669
 20
4.7609
 42
0.0
  0
VERTEX
  8
0
 10
3.61654
 20
4.76606
 42
0.0
  0
VERTEX
  8
0
 10
3.61621
 20
4.81999
 42
0.0
  0
VERTEX
  8
0
 10
3.61703
 20
4.82519
 42
0.0
  0
VERTEX
  8
0
 10
3.6435
 20
4.85628
 42
0.0
  0
VERTEX
  8
0
 10
3.64794
 20
4.8616
 42
0.0
  0
VERTEX
  8
0
 10
3.65354
 20
4.86914
 42
0.0
  0
VERTEX
  8
0
 10
3.6626
 20
4.88222
 42
0.0
  0
VERTEX
  8
0
 10
3.66922
 20
4.89079
 42
0.0
  0
VERTEX
  8
0
 10
3.67567
 20
4.89882
 42
0.0
  0
VERTEX
  8
0
 10
3.68251
 20
4.90771
 42
0.0
  0
VERTEX
  8
0
 10
3.69189
 20
4.92085
 42
0.0
  0
VERTEX
  8
0
 10
3.69721
 20
4.92865
 42
0.0
  0
VERTEX
  8
0
 10
3.7009
 20
4.93549
 42
0.0
  0
VERTEX
  8
0
 10
3.713
 20
4.96408
 42
0.0
  0
VERTEX
  8
0
 10
3.71317
 20
4.99354
 42
0.0
  0
VERTEX
  8
0
 10
3.71115
 20
4.99881
 42
0.0
  0
VERTEX
  8
0
 10
3.70514
 20
4.99832
 42
0.0
  0
VERTEX
  8
0
 10
3.69476
 20
4.99761
 42
0.0
  0
VERTEX
  8
0
 10
3.68875
 20
4.99744
 42
0.0
  0
VERTEX
  8
0
 10
3.68576
 20
4.99169
 42
0.0
  0
VERTEX
  8
0
 10
3.67974
 20
4.9809
 42
0.0
  0
VERTEX
  8
0
 10
3.67546
 20
4.9726
 42
0.0
  0
VERTEX
  8
0
 10
3.66982
 20
4.96121
 42
0.0
  0
VERTEX
  8
0
 10
3.66581
 20
4.95264
 42
0.0
  0
VERTEX
  8
0
 10
3.66032
 20
4.94114
 42
0.0
  0
VERTEX
  8
0
 10
3.65619
 20
4.93306
 42
0.0
  0
VERTEX
  8
0
 10
3.65067
 20
4.92296
 42
0.0
  0
VERTEX
  8
0
 10
3.64649
 20
4.91672
 42
0.0
  0
VERTEX
  8
0
 10
3.63206
 20
4.8999
 42
0.0
  0
VERTEX
  8
0
 10
3.6281
 20
4.89643
 42
0.0
  0
VERTEX
  8
0
 10
3.61481
 20
4.88781
 42
0.0
  0
VERTEX
  8
0
 10
3.60151
 20
4.87912
 42
0.0
  0
VERTEX
  8
0
 10
3.59526
 20
4.87597
 42
0.0
  0
VERTEX
  8
0
 10
3.58518
 20
4.87142
 42
0.0
  0
VERTEX
  8
0
 10
3.57796
 20
4.86854
 42
0.0
  0
VERTEX
  8
0
 10
3.55458
 20
4.86051
 42
0.0
  0
VERTEX
  8
0
 10
3.54878
 20
4.85883
 42
0.0
  0
VERTEX
  8
0
 10
3.49517
 20
4.84353
 42
0.0
  0
VERTEX
  8
0
 10
3.44211
 20
4.82682
 42
0.0
  0
VERTEX
  8
0
 10
3.43425
 20
4.82406
 42
0.0
  0
VERTEX
  8
0
 10
3.4291
 20
4.82206
 42
0.0
  0
VERTEX
  8
0
 10
3.42225
 20
4.81939
 42
0.0
  0
VERTEX
  8
0
 10
3.39415
 20
4.81853
 42
0.0
  0
VERTEX
  8
0
 10
3.38786
 20
4.82047
 42
0.0
  0
VERTEX
  8
0
 10
3.38172
 20
4.82243
 42
0.0
  0
VERTEX
  8
0
 10
3.36794
 20
4.82867
 42
0.0
  0
VERTEX
  8
0
 10
3.36062
 20
4.83344
 42
0.0
  0
VERTEX
  8
0
 10
3.35487
 20
4.83806
 42
0.0
  0
VERTEX
  8
0
 10
3.34597
 20
4.84928
 42
0.0
  0
VERTEX
  8
0
 10
3.33708
 20
4.86051
 42
0.0
  0
VERTEX
  8
0
 10
3.33356
 20
4.866
 42
0.0
  0
VERTEX
  8
0
 10
3.32878
 20
4.8725
 42
0.0
  0
VERTEX
  8
0
 10
3.32206
 20
4.88004
 42
0.0
  0
VERTEX
  8
0
 10
3.31629
 20
4.88585
 42
0.0
  0
VERTEX
  8
0
 10
3.3035
 20
4.91476
 42
0.0
  0
VERTEX
  8
0
 10
3.29719
 20
4.94661
 42
0.0
  0
VERTEX
  8
0
 10
3.29372
 20
4.97954
 42
0.0
  0
VERTEX
  8
0
 10
3.28933
 20
5.01167
 42
0.0
  0
VERTEX
  8
0
 10
3.23096
 20
5.01708
 42
0.0
  0
VERTEX
  8
0
 10
3.22797
 20
5.02463
 42
0.0
  0
VERTEX
  8
0
 10
3.2264
 20
5.02881
 42
0.0
  0
VERTEX
  8
0
 10
3.22353
 20
5.0364
 42
0.0
  0
VERTEX
  8
0
 10
3.23649
 20
5.05132
 42
0.0
  0
VERTEX
  8
0
 10
3.24018
 20
5.05393
 42
0.0
  0
VERTEX
  8
0
 10
3.24393
 20
5.05658
 42
0.0
  0
VERTEX
  8
0
 10
3.28321
 20
5.0816
 42
0.0
  0
VERTEX
  8
0
 10
3.28722
 20
5.08388
 42
0.0
  0
VERTEX
  8
0
 10
3.28814
 20
5.08806
 42
0.0
  0
VERTEX
  8
0
 10
3.2921
 20
5.10596
 42
0.0
  0
VERTEX
  8
0
 10
3.2724
 20
5.14442
 42
0.0
  0
VERTEX
  8
0
 10
3.27576
 20
5.15072
 42
0.0
  0
VERTEX
  8
0
 10
3.27783
 20
5.15462
 42
0.0
  0
VERTEX
  8
0
 10
3.28797
 20
5.16813
 42
0.0
  0
VERTEX
  8
0
 10
3.29812
 20
5.18169
 42
0.0
  0
VERTEX
  8
0
 10
3.30344
 20
5.18636
 42
0.0
  0
VERTEX
  8
0
 10
3.30772
 20
5.18913
 42
0.0
  0
VERTEX
  8
0
 10
3.31287
 20
5.19228
 42
0.0
  0
VERTEX
  8
0
 10
3.34565
 20
5.20649
 42
0.0
  0
VERTEX
  8
0
 10
3.37853
 20
5.22065
 42
0.0
  0
VERTEX
  8
0
 10
3.37717
 20
5.24046
 42
0.0
  0
VERTEX
  8
0
 10
3.37674
 20
5.24599
 42
0.0
  0
VERTEX
  8
0
 10
3.37121
 20
5.24636
 42
0.0
  0
VERTEX
  8
0
 10
3.31108
 20
5.25103
 42
0.0
  0
VERTEX
  8
0
 10
3.28808
 20
5.26329
 42
0.0
  0
VERTEX
  8
0
 10
3.26915
 20
5.28076
 42
0.0
  0
VERTEX
  8
0
 10
3.25217
 20
5.30072
 42
0.0
  0
VERTEX
  8
0
 10
3.23519
 20
5.32026
 42
0.0
  0
VERTEX
  8
0
 10
3.23085
 20
5.32374
 42
0.0
  0
VERTEX
  8
0
 10
3.22672
 20
5.32622
 42
0.0
  0
VERTEX
  8
0
 10
3.19467
 20
5.352
 42
0.0
  0
VERTEX
  8
0
 10
3.16411
 20
5.38037
 42
0.0
  0
VERTEX
  8
0
 10
3.13775
 20
5.41217
 42
0.0
  0
VERTEX
  8
0
 10
3.11822
 20
5.44824
 42
0.0
  0
VERTEX
  8
0
 10
3.1166
 20
5.45301
 42
0.0
  0
VERTEX
  8
0
 10
3.1071
 20
5.49962
 42
0.0
  0
VERTEX
  8
0
 10
3.10346
 20
5.50732
 42
0.0
  0
VERTEX
  8
0
 10
3.09543
 20
5.51118
 42
0.0
  0
VERTEX
  8
0
 10
3.08653
 20
5.51156
 42
0.0
  0
VERTEX
  8
0
 10
3.06629
 20
5.48633
 42
0.0
  0
VERTEX
  8
0
 10
3.06044
 20
5.48606
 42
0.0
  0
VERTEX
  8
0
 10
3.05251
 20
5.49013
 42
0.0
  0
VERTEX
  8
0
 10
3.04807
 20
5.493
 42
0.0
  0
VERTEX
  8
0
 10
3.02713
 20
5.521
 42
0.0
  0
VERTEX
  8
0
 10
3.00396
 20
5.54665
 42
0.0
  0
VERTEX
  8
0
 10
2.9866
 20
5.55974
 42
0.0
  0
VERTEX
  8
0
 10
2.97017
 20
5.57449
 42
0.0
  0
VERTEX
  8
0
 10
2.95774
 20
5.59196
 42
0.0
  0
VERTEX
  8
0
 10
2.95253
 20
5.61296
 42
0.0
  0
VERTEX
  8
0
 10
2.95161
 20
5.6199
 42
0.0
  0
VERTEX
  8
0
 10
2.95096
 20
5.62679
 42
0.0
  0
VERTEX
  8
0
 10
2.95014
 20
5.634
 42
0.0
  0
VERTEX
  8
0
 10
2.94937
 20
5.64117
 42
0.0
  0
VERTEX
  8
0
 10
2.94569
 20
5.65142
 42
0.0
  0
VERTEX
  8
0
 10
2.94488
 20
5.65886
 42
0.0
  0
VERTEX
  8
0
 10
2.91194
 20
5.75136
 42
0.0
  0
VERTEX
  8
0
 10
2.90674
 20
5.75233
 42
0.0
  0
VERTEX
  8
0
 10
2.89632
 20
5.76465
 42
0.0
  0
VERTEX
  8
0
 10
2.89475
 20
5.78385
 42
0.0
  0
VERTEX
  8
0
 10
2.89475
 20
5.78961
 42
0.0
  0
VERTEX
  8
0
 10
2.91363
 20
5.8546
 42
0.0
  0
VERTEX
  8
0
 10
2.9165
 20
5.86083
 42
0.0
  0
VERTEX
  8
0
 10
2.92068
 20
5.86936
 42
0.0
  0
VERTEX
  8
0
 10
2.9286
 20
5.88406
 42
0.0
  0
VERTEX
  8
0
 10
2.93321
 20
5.89328
 42
0.0
  0
VERTEX
  8
0
 10
2.93593
 20
5.90012
 42
0.0
  0
VERTEX
  8
0
 10
2.94135
 20
5.91069
 42
0.0
  0
VERTEX
  8
0
 10
2.94379
 20
5.9184
 42
0.0
  0
VERTEX
  8
0
 10
2.94928
 20
5.92947
 42
0.0
  0
VERTEX
  8
0
 10
2.95193
 20
5.95047
 42
0.0
  0
VERTEX
  8
0
 10
2.95193
 20
5.95785
 42
0.0
  0
VERTEX
  8
0
 10
2.95221
 20
5.96442
 42
0.0
  0
VERTEX
  8
0
 10
2.95264
 20
5.97081
 42
0.0
  0
VERTEX
  8
0
 10
2.96175
 20
5.98763
 42
0.0
  0
VERTEX
  8
0
 10
2.97558
 20
6.00119
 42
0.0
  0
VERTEX
  8
0
 10
2.99061
 20
6.01411
 42
0.0
  0
VERTEX
  8
0
 10
3.00336
 20
6.02886
 42
0.0
  0
VERTEX
  8
0
 10
3.02268
 20
6.06733
 42
0.0
  0
VERTEX
  8
0
 10
3.03028
 20
6.11019
 42
0.0
  0
VERTEX
  8
0
 10
3.03162
 20
6.11501
 42
0.0
  0
VERTEX
  8
0
 10
3.04443
 20
6.15913
 42
0.0
  0
VERTEX
  8
0
 10
3.0561
 20
6.20329
 42
0.0
  0
VERTEX
  8
0
 10
3.05843
 20
6.20719
 42
0.0
  0
VERTEX
  8
0
 10
3.06125
 20
6.21137
 42
0.0
  0
VERTEX
  8
0
 10
3.07053
 20
6.22076
 42
0.0
  0
VERTEX
  8
0
 10
3.07992
 20
6.23008
 42
0.0
  0
VERTEX
  8
0
 10
3.08469
 20
6.2341
 42
0.0
  0
VERTEX
  8
0
 10
3.08903
 20
6.23915
 42
0.0
  0
VERTEX
  8
0
 10
3.09239
 20
6.24463
 42
0.0
  0
VERTEX
  8
0
 10
3.09625
 20
6.25293
 42
0.0
  0
VERTEX
  8
0
 10
3.09782
 20
6.25896
 42
0.0
  0
VERTEX
  8
0
 10
3.1186
 20
6.31065
 42
0.0
  0
VERTEX
  8
0
 10
3.14768
 20
6.35867
 42
0.0
  0
VERTEX
  8
0
 10
3.15115
 20
6.3641
 42
0.0
  0
VERTEX
  8
0
 10
3.15647
 20
6.37229
 42
0.0
  0
VERTEX
  8
0
 10
3.16021
 20
6.37744
 42
0.0
  0
VERTEX
  8
0
 10
3.20383
 20
6.41661
 42
0.0
  0
VERTEX
  8
0
 10
3.20774
 20
6.419
 42
0.0
  0
VERTEX
  8
0
 10
3.2424
 20
6.43554
 42
0.0
  0
VERTEX
  8
0
 10
3.28
 20
6.44211
 42
0.0
  0
VERTEX
  8
0
 10
3.31461
 20
6.43707
 42
0.0
  0
VERTEX
  8
0
 10
3.34933
 20
6.43539
 42
0.0
  0
VERTEX
  8
0
 10
3.35362
 20
6.43582
 42
0.0
  0
VERTEX
  8
0
 10
3.35618
 20
6.43989
 42
0.0
  0
VERTEX
  8
0
 10
3.36681
 20
6.45415
 42
0.0
  0
VERTEX
  8
0
 10
3.37744
 20
6.46837
 42
0.0
  0
VERTEX
  8
0
 10
3.38282
 20
6.47428
 42
0.0
  0
VERTEX
  8
0
 10
3.38954
 20
6.48042
 42
0.0
  0
VERTEX
  8
0
 10
3.39794
 20
6.48703
 42
0.0
  0
VERTEX
  8
0
 10
3.41135
 20
6.49625
 42
0.0
  0
VERTEX
  8
0
 10
3.41938
 20
6.50168
 42
0.0
  0
VERTEX
  8
0
 10
3.42692
 20
6.50672
 42
0.0
  0
SEQEND
  0
POLYLINE
  8
0
 66
     1
 10
0.0
 20
0.0
 30
0.0
 70
     1
  0
VERTEX
  8
0
 10
7.35406
 20
8.50418
 42
0.0
  0
VERTEX
  8
0
 10
7.25976
 20
8.52214
 42
0.0
  0
VERTEX
  8
0
 10
7.27658
 20
8.54438
 42
0.0
  0
VERTEX
  8
0
 10
7.30013
 20
8.55746
 42
0.0
  0
VERTEX
  8
0
 10
7.32715
 20
8.5644
 42
0.0
  0
VERTEX
  8
0
 10
7.35471
 20
8.56788
 42
0.0
  0
VERTEX
  8
0
 10
7.44271
 20
8.56218
 42
0.0
  0
VERTEX
  8
0
 10
7.528
 20
8.53868
 42
0.0
  0
VERTEX
  8
0
 10
7.66271
 20
8.50694
 42
0.0
  0
VERTEX
  8
0
 10
7.79497
 20
8.46658
 42
0.0
  0
VERTEX
  8
0
 10
7.89481
 20
8.43099
 42
0.0
  0
VERTEX
  8
0
 10
7.9924
 20
8.39003
 42
0.0
  0
VERTEX
  8
0
 10
8.04292
 20
8.36615
 42
0.0
  0
VERTEX
  8
0
 10
8.09521
 20
8.34565
 42
0.0
  0
VERTEX
  8
0
 10
8.14594
 20
8.3226
 42
0.0
  0
VERTEX
  8
0
 10
8.19189
 20
8.29101
 42
0.0
  0
VERTEX
  8
0
 10
8.25103
 20
8.23156
 42
0.0
  0
VERTEX
  8
0
 10
8.30729
 20
8.16883
 42
0.0
  0
VERTEX
  8
0
 10
8.35221
 20
8.12272
 42
0.0
  0
VERTEX
  8
0
 10
8.38331
 20
8.06728
 42
0.0
  0
VERTEX
  8
0
 10
8.35846
 20
8.07661
 42
0.0
  0
VERTEX
  8
0
 10
8.33886
 20
8.09467
 42
0.0
  0
VERTEX
  8
0
 10
8.32021
 20
8.11464
 42
0.0
  0
VERTEX
  8
0
 10
8.27132
 20
8.14958
 42
0.0
  0
VERTEX
  8
0
 10
8.25114
 20
8.15707
 42
0.0
  0
VERTEX
  8
0
 10
8.23025
 20
8.16292
 42
0.0
  0
VERTEX
  8
0
 10
8.21083
 20
8.17111
 42
0.0
  0
VERTEX
  8
0
 10
8.19504
 20
8.18565
 42
0.0
  0
VERTEX
  8
0
 10
8.13764
 20
8.23708
 42
0.0
  0
VERTEX
  8
0
 10
8.07497
 20
8.28228
 42
0.0
  0
VERTEX
  8
0
 10
8.00662
 20
8.31565
 42
0.0
  0
VERTEX
  8
0
 10
7.93474
 20
8.34017
 42
0.0
  0
VERTEX
  8
0
 10
7.69851
 20
8.43696
 42
0.0
  0
VERTEX
  8
0
 10
7.44943
 20
8.48931
 42
0.0
  0
SEQEND
  0
POLYLINE
  8
0
 66
     1
 10
0.0
 20
0.0
 30
0.0
 70
     1
  0
VERTEX
  8
0
 10
6.86903
 20
2.53662
 42
0.0
  0
VERTEX
  8
0
 10
6.86219
 20
2.61257
 42
0.0
  0
VERTEX
  8
0
 10
6.91612
 20
2.61285
 42
0.0
  0
VERTEX
  8
0
 10
6.91581
 20
2.56131
 42
0.0
  0
VERTEX
  8
0
 10
6.92057
 20
2.51019
 42
0.0
  0
VERTEX
  8
0
 10
6.93853
 20
2.44814
 42
0.0
  0
VERTEX
  8
0
 10
6.96044
 20
2.38726
 42
0.0
  0
VERTEX
  8
0
 10
6.97076
 20
2.32926
 42
0.0
  0
VERTEX
  8
0
 10
6.97499
 20
2.27051
 42
0.0
  0
VERTEX
  8
0
 10
6.98551
 20
2.10286
 42
0.0
  0
VERTEX
  8
0
 10
6.98508
 20
1.93425
 42
0.0
  0
VERTEX
  8
0
 10
6.98019
 20
1.84521
 42
0.0
  0
VERTEX
  8
0
 10
6.97478
 20
1.75608
 42
0.0
  0
VERTEX
  8
0
 10
6.97504
 20
1.63812
 42
0.0
  0
VERTEX
  8
0
 10
6.95204
 20
1.52393
 42
0.0
  0
VERTEX
  8
0
 10
6.94706
 20
1.51579
 42
0.0
  0
VERTEX
  8
0
 10
6.93821
 20
1.51253
 42
0.0
  0
VERTEX
  8
0
 10
6.92931
 20
1.51471
 42
0.0
  0
VERTEX
  8
0
 10
6.92421
 20
1.52262
 42
0.0
  0
VERTEX
  8
0
 10
6.93381
 20
1.5644
 42
0.0
  0
VERTEX
  8
0
 10
6.93044
 20
1.59278
 42
0.0
  0
VERTEX
  8
0
 10
6.93522
 20
1.61865
 42
0.0
  0
VERTEX
  8
0
 10
6.93511
 20
1.67449
 42
0.0
  0
VERTEX
  8
0
 10
6.93033
 20
2.00276
 42
0.0
  0
VERTEX
  8
0
 10
6.9215
 20
2.09581
 42
0.0
  0
VERTEX
  8
0
 10
6.91732
 20
2.18929
 42
0.0
  0
VERTEX
  8
0
 10
6.90451
 20
2.26878
 42
0.0
  0
VERTEX
  8
0
 10
6.89703
 20
2.34868
 42
0.0
  0
VERTEX
  8
0
 10
6.88753
 20
2.41851
 42
0.0
  0
VERTEX
  8
0
 10
6.87597
 20
2.48774
 42
0.0
  0
SEQEND
  0
POLYLINE
  8
0
 66
     1
 10
0.0
 20
0.0
 30
0.0
 70
     1
  0
VERTEX
  8
0
 10
5.97775
 20
9.10769
 42
0.0
  0
VERTEX
  8
0
 10
6.03939
 20
9.12451
 42
0.0
  0
VERTEX
  8
0
 10
6.05121
 20
9.15267
 42
0.0
  0
VERTEX
  8
0
 10
6.07042
 20
9.17486
 42
0.0
  0
VERTEX
  8
0
 10
6.09424
 20
9.17828
 42
0.0
  0
VERTEX
  8
0
 10
6.11871
 20
9.17665
 42
0.0
  0
VERTEX
  8
0
 10
6.13618
 20
9.08014
 42
0.0
  0
VERTEX
  8
0
 10
6.07958
 20
9.08029
 42
0.0
  0
VERTEX
  8
0
 10
6.0249
 20
9.06836
 42
0.0
  0
VERTEX
  8
0
 10
6.02826
 20
9.03033
 42
0.0
  0
VERTEX
  8
0
 10
6.03424
 20
8.9924
 42
0.0
  0
VERTEX
  8
0
 10
6.02408
 20
8.97835
 42
0.0
  0
VERTEX
  8
0
 10
5.99875
 20
8.91743
 42
0.0
  0
VERTEX
  8
0
 10
6.00483
 20
8.87744
 42
0.0
  0
VERTEX
  8
0
 10
5.97314
 20
8.84239
 42
0.0
  0
VERTEX
  8
0
 10
5.94185
 20
8.80724
 42
0.0
  0
VERTEX
  8
0
 10
5.92736
 20
8.75797
 42
0.0
  0
VERTEX
  8
0
 10
5.91108
 20
8.70921
 42
0.0
  0
VERTEX
  8
0
 10
5.92085
 20
8.67681
 42
0.0
  0
VERTEX
  8
0
 10
5.93218
 20
8.64328
 42
0.0
  0
VERTEX
  8
0
 10
5.8941
 20
8.60644
 42
0.0
  0
VERTEX
  8
0
 10
5.86897
 20
8.58632
 42
0.0
  0
VERTEX
  8
0
 10
5.8481
 20
8.56054
 42
0.0
  0
VERTEX
  8
0
 10
5.82949
 20
8.53331
 42
0.0
  0
VERTEX
  8
0
 10
5.81793
 20
8.50808
 42
0.0
  0
VERTEX
  8
0
 10
5.81033
 20
8.48122
 42
0.0
  0
VERTEX
  8
0
 10
5.80132
 20
8.45508
 42
0.0
  0
VERTEX
  8
0
 10
5.78554
 20
8.43197
 42
0.0
  0
VERTEX
  8
0
 10
5.79943
 20
8.38021
 42
0.0
  0
VERTEX
  8
0
 10
5.75868
 20
8.20432
 42
0.0
  0
VERTEX
  8
0
 10
5.72038
 20
8.18864
 42
0.0
  0
VERTEX
  8
0
 10
5.68257
 20
8.19303
 42
0.0
  0
VERTEX
  8
0
 10
5.64626
 20
8.20344
 42
0.0
  0
VERTEX
  8
0
 10
5.65788
 20
8.21213
 42
0.0
  0
VERTEX
  8
0
 10
5.66997
 20
8.22086
 42
0.0
  0
VERTEX
  8
0
 10
5.67931
 20
8.23144
 42
0.0
  0
VERTEX
  8
0
 10
5.68261
 20
8.24571
 42
0.0
  0
VERTEX
  8
0
 10
5.68881
 20
8.29156
 42
0.0
  0
VERTEX
  8
0
 10
5.68664
 20
8.33692
 42
0.0
  0
VERTEX
  8
0
 10
5.66536
 20
8.35265
 42
0.0
  0
VERTEX
  8
0
 10
5.64231
 20
8.36806
 42
0.0
  0
VERTEX
  8
0
 10
5.62451
 20
8.38678
 42
0.0
  0
VERTEX
  8
0
 10
5.61919
 20
8.41237
 42
0.0
  0
VERTEX
  8
0
 10
5.68408
 20
8.59028
 42
0.0
  0
VERTEX
  8
0
 10
5.72424
 20
8.64817
 42
0.0
  0
VERTEX
  8
0
 10
5.76764
 20
8.70383
 42
0.0
  0
VERTEX
  8
0
 10
5.778
 20
8.73139
 42
0.0
  0
VERTEX
  8
0
 10
5.77826
 20
8.76156
 42
0.0
  0
VERTEX
  8
0
 10
5.77924
 20
8.7915
 42
0.0
  0
VERTEX
  8
0
 10
5.79199
 20
8.81819
 42
0.0
  0
VERTEX
  8
0
 10
5.8226
 20
8.84185
 42
0.0
  0
VERTEX
  8
0
 10
5.85482
 20
8.86421
 42
0.0
  0
VERTEX
  8
0
 10
5.884
 20
8.88932
 42
0.0
  0
VERTEX
  8
0
 10
5.90533
 20
8.92128
 42
0.0
  0
VERTEX
  8
0
 10
5.90756
 20
8.95574
 42
0.0
  0
VERTEX
  8
0
 10
5.91336
 20
8.99001
 42
0.0
  0
VERTEX
  8
0
 10
5.92535
 20
9.02208
 42
0.0
  0
VERTEX
  8
0
 10
5.94607
 20
9.04975
 42
0.0
  0
VERTEX
  8
0
 10
5.9661
 20
9.07628
 42
0.0
  0
SEQEND
  0
ENDSEC
  0
EOF
