0
SECTION
2
HEADER
9
$ACADVER
1
AC1009
9
$ANGDIR
70
0
9
$EXTMIN
10
0
20
0
9
$EXTMAX
10
24.0000
20
18.0000
0
ENDSEC
0
SECTION
2
ENTITIES
0
POLYLINE
8
Layer 1
66
1
0
VERTEX
8
0
10
6.3155
20
11.9926
42
-0.3015
0
VERTEX
8
0
10
6.2978
20
11.9911
42
-0.3546
0
VERTEX
8
0
10
6.3130
20
11.9993
42
-0.7758
0
VERTEX
8
0
10
6.3155
20
11.9926
0
SEQEND
8
0
0
POLYLINE
8
Layer 1
66
1
0
VERTEX
8
0
10
7.2217
20
10.1763
42
0.1304
0
VERTEX
8
0
10
7.2710
20
10.1896
42
0.1141
0
VERTEX
8
0
10
7.3868
20
10.3353
42
-0.0160
0
VERTEX
8
0
10
7.4137
20
10.3908
42
-0.3089
0
VERTEX
8
0
10
7.4583
20
10.3830
42
0.8056
0
VERTEX
8
0
10
7.4936
20
10.3734
42
0.2033
0
VERTEX
8
0
10
7.4680
20
10.4692
42
-0.1594
0
VERTEX
8
0
10
7.4596
20
10.5126
42
0.1544
0
VERTEX
8
0
10
7.4431
20
10.5715
42
0.0301
0
VERTEX
8
0
10
7.4009
20
10.6288
42
-0.0516
0
VERTEX
8
0
10
7.3635
20
10.6834
42
0.0648
0
VERTEX
8
0
10
7.3252
20
10.7357
42
-0.2492
0
VERTEX
8
0
10
7.3019
20
10.7673
42
0.6818
0
VERTEX
8
0
10
7.2807
20
10.7840
42
0.6167
0
VERTEX
8
0
10
7.2832
20
10.7579
42
-0.2837
0
VERTEX
8
0
10
7.2913
20
10.7453
42
0.0385
0
VERTEX
8
0
10
7.3153
20
10.6911
42
-0.1661
0
VERTEX
8
0
10
7.3393
20
10.6373
42
0.2007
0
VERTEX
8
0
10
7.3441
20
10.6232
42
-0.0287
0
VERTEX
8
0
10
7.3633
20
10.5817
42
-0.0786
0
VERTEX
8
0
10
7.3646
20
10.4416
42
-0.1171
0
VERTEX
8
0
10
7.3483
20
10.3721
42
0.0284
0
VERTEX
8
0
10
7.3312
20
10.3306
42
-0.1327
0
VERTEX
8
0
10
7.2712
20
10.2367
42
0.2604
0
VERTEX
8
0
10
7.2217
20
10.1763
0
SEQEND
8
0
0
POLYLINE
8
Layer 1
66
1
0
VERTEX
8
0
10
7.2163
20
9.9547
42
-0.5983
0
VERTEX
8
0
10
7.2511
20
9.9737
42
0.2878
0
VERTEX
8
0
10
7.2858
20
9.9955
42
0.2672
0
VERTEX
8
0
10
7.2743
20
10.0098
42
-0.3816
0
VERTEX
8
0
10
7.2618
20
10.0867
42
0.1588
0
VERTEX
8
0
10
7.2805
20
10.1284
42
-0.2765
0
VERTEX
8
0
10
7.3049
20
10.1694
42
0.0996
0
VERTEX
8
0
10
7.3410
20
10.2136
42
-0.1900
0
VERTEX
8
0
10
7.3748
20
10.2448
42
-0.3228
0
VERTEX
8
0
10
7.3712
20
10.2129
42
0.1327
0
VERTEX
8
0
10
7.3717
20
10.0372
42
0.4500
0
VERTEX
8
0
10
7.4929
20
9.9722
42
0.2590
0
VERTEX
8
0
10
7.5586
20
10.0283
42
-0.4890
0
VERTEX
8
0
10
7.5836
20
10.0478
42
-0.1558
0
VERTEX
8
0
10
7.6051
20
10.0119
42
0.0488
0
VERTEX
8
0
10
7.6393
20
9.9516
42
-0.0950
0
VERTEX
8
0
10
7.6575
20
9.9094
42
-0.6808
0
VERTEX
8
0
10
7.6198
20
9.9067
42
0.3642
0
VERTEX
8
0
10
7.5588
20
9.9035
42
-0.2262
0
VERTEX
8
0
10
7.4961
20
9.8911
42
-0.0267
0
VERTEX
8
0
10
7.4183
20
9.8938
42
-0.0585
0
VERTEX
8
0
10
7.3808
20
9.9027
42
0.2200
0
VERTEX
8
0
10
7.2712
20
9.9256
42
-0.2490
0
VERTEX
8
0
10
7.2163
20
9.9547
0
SEQEND
8
0
0
POLYLINE
8
Layer 1
66
1
0
VERTEX
8
0
10
6.5571
20
9.7598
42
0.1572
0
VERTEX
8
0
10
6.5211
20
9.7464
42
-0.1943
0
VERTEX
8
0
10
6.4783
20
9.7427
42
-0.3857
0
VERTEX
8
0
10
6.5291
20
9.7944
42
0.0872
0
VERTEX
8
0
10
6.6576
20
9.9075
42
0.0535
0
VERTEX
8
0
10
6.7778
20
10.0549
42
-0.1377
0
VERTEX
8
0
10
6.7997
20
10.0962
42
-0.2100
0
VERTEX
8
0
10
6.9197
20
10.1821
42
-0.6670
0
VERTEX
8
0
10
6.8908
20
10.0879
42
-0.0194
0
VERTEX
8
0
10
6.8288
20
10.0025
42
-0.0962
0
VERTEX
8
0
10
6.5571
20
9.7598
0
SEQEND
8
0
0
POLYLINE
8
Layer 1
66
1
0
VERTEX
8
0
10
6.6067
20
9.6972
42
0.1814
0
VERTEX
8
0
10
6.6627
20
9.7062
42
0.0613
0
VERTEX
8
0
10
6.7820
20
9.7871
42
-0.2204
0
VERTEX
8
0
10
6.8051
20
9.8026
42
0.0664
0
VERTEX
8
0
10
6.9944
20
9.9979
42
-0.0213
0
VERTEX
8
0
10
7.0359
20
10.0515
42
0.1005
0
VERTEX
8
0
10
7.0569
20
10.0868
42
-0.0544
0
VERTEX
8
0
10
7.0759
20
10.1242
42
0.0694
0
VERTEX
8
0
10
7.0958
20
10.1670
42
-0.0400
0
VERTEX
8
0
10
7.1124
20
10.2104
42
0.7949
0
VERTEX
8
0
10
7.0976
20
10.2393
42
0.1370
0
VERTEX
8
0
10
6.9984
20
10.1675
42
0.1505
0
VERTEX
8
0
10
6.9917
20
10.1461
42
-0.1068
0
VERTEX
8
0
10
6.9495
20
10.0541
42
0.0155
0
VERTEX
8
0
10
6.9195
20
10.0109
42
-0.1181
0
VERTEX
8
0
10
6.7270
20
9.7989
42
0.0657
0
VERTEX
8
0
10
6.6273
20
9.7243
42
0.2618
0
VERTEX
8
0
10
6.6067
20
9.6972
0
SEQEND
8
0
0
POLYLINE
8
Layer 1
66
1
0
VERTEX
8
0
10
5.9656
20
6.7705
42
-0.1324
0
VERTEX
8
0
10
6.0423
20
6.8398
42
-0.1992
0
VERTEX
8
0
10
6.1922
20
6.8424
42
-0.1180
0
VERTEX
8
0
10
6.2843
20
6.7626
42
-0.1487
0
VERTEX
8
0
10
6.2945
20
6.7047
42
-0.4224
0
VERTEX
8
0
10
6.1200
20
6.5675
42
-0.0746
0
VERTEX
8
0
10
6.0571
20
6.5779
42
-0.3094
0
VERTEX
8
0
10
5.9472
20
6.7052
42
-0.1491
0
VERTEX
8
0
10
5.9656
20
6.7705
0
SEQEND
8
0
0
POLYLINE
8
Layer 1
66
1
0
VERTEX
8
0
10
4.8419
20
7.6742
42
-0.8272
0
VERTEX
8
0
10
4.8868
20
7.6774
42
-0.0227
0
VERTEX
8
0
10
4.9331
20
7.6694
42
-0.0407
0
VERTEX
8
0
10
5.0235
20
7.6423
42
0.0303
0
VERTEX
8
0
10
5.0826
20
7.6207
42
-0.0570
0
VERTEX
8
0
10
5.1452
20
7.5961
42
0.0443
0
VERTEX
8
0
10
5.1948
20
7.5779
42
-0.1741
0
VERTEX
8
0
10
5.2341
20
7.5618
42
0.0436
0
VERTEX
8
0
10
5.2694
20
7.5458
42
-0.1553
0
VERTEX
8
0
10
5.4422
20
7.4709
42
0.0311
0
VERTEX
8
0
10
5.4909
20
7.4495
42
-0.2198
0
VERTEX
8
0
10
5.5217
20
7.4309
42
0.0747
0
VERTEX
8
0
10
5.5601
20
7.4091
42
-0.1621
0
VERTEX
8
0
10
5.5992
20
7.3849
42
0.0611
0
VERTEX
8
0
10
5.6304
20
7.3640
42
-0.2729
0
VERTEX
8
0
10
5.8143
20
7.2263
42
-0.0850
0
VERTEX
8
0
10
5.8518
20
7.1764
42
-0.7412
0
VERTEX
8
0
10
5.7844
20
7.1658
42
0.1063
0
VERTEX
8
0
10
5.6701
20
7.1810
0
VERTEX
8
0
10
5.5912
20
7.1836
0
VERTEX
8
0
10
5.5445
20
7.1608
42
0.1465
0
VERTEX
8
0
10
5.3223
20
6.9559
42
0.0652
0
VERTEX
8
0
10
5.2936
20
6.8886
42
0.1093
0
VERTEX
8
0
10
5.2805
20
6.7457
42
0.0529
0
VERTEX
8
0
10
5.2971
20
6.5906
42
0.0422
0
VERTEX
8
0
10
5.3330
20
6.5030
42
0.1270
0
VERTEX
8
0
10
5.5140
20
6.3123
42
-0.0862
0
VERTEX
8
0
10
5.5398
20
6.2973
42
0.0766
0
VERTEX
8
0
10
5.6865
20
6.2223
42
-0.0365
0
VERTEX
8
0
10
5.7319
20
6.2034
42
0.0681
0
VERTEX
8
0
10
5.7938
20
6.1795
42
-0.0259
0
VERTEX
8
0
10
5.8591
20
6.1547
42
0.0905
0
VERTEX
8
0
10
5.9099
20
6.1396
42
-0.0386
0
VERTEX
8
0
10
6.0157
20
6.1138
42
0.2235
0
VERTEX
8
0
10
6.1307
20
6.1042
42
0.0423
0
VERTEX
8
0
10
6.3286
20
6.1200
42
-0.0148
0
VERTEX
8
0
10
6.3981
20
6.1424
42
0.0398
0
VERTEX
8
0
10
6.4516
20
6.1634
42
-0.0777
0
VERTEX
8
0
10
6.4890
20
6.1862
42
0.0455
0
VERTEX
8
0
10
6.6168
20
6.2702
42
-0.0285
0
VERTEX
8
0
10
6.6767
20
6.3199
42
0.0763
0
VERTEX
8
0
10
6.7109
20
6.3516
42
-0.0230
0
VERTEX
8
0
10
6.7402
20
6.3933
42
0.1194
0
VERTEX
8
0
10
6.8024
20
6.5404
42
0.0957
0
VERTEX
8
0
10
6.7968
20
6.6901
42
-0.1342
0
VERTEX
8
0
10
6.7911
20
6.7455
42
-0.6284
0
VERTEX
8
0
10
6.8363
20
6.7033
42
-0.1248
0
VERTEX
8
0
10
6.8780
20
6.4923
42
-0.1312
0
VERTEX
8
0
10
6.7824
20
6.1814
42
-0.0872
0
VERTEX
8
0
10
6.5923
20
5.9618
42
0.0345
0
VERTEX
8
0
10
6.5611
20
5.9413
42
-0.2064
0
VERTEX
8
0
10
6.5384
20
5.9303
42
0.0847
0
VERTEX
8
0
10
6.5008
20
5.9104
42
-0.1427
0
VERTEX
8
0
10
6.3983
20
5.8719
42
0.1476
0
VERTEX
8
0
10
6.3634
20
5.8587
42
-0.2431
0
VERTEX
8
0
10
6.2633
20
5.8605
42
0.0551
0
VERTEX
8
0
10
6.2277
20
5.8850
42
-0.0448
0
VERTEX
8
0
10
6.1843
20
5.9125
42
0.0373
0
VERTEX
8
0
10
6.1544
20
5.9308
42
-0.1561
0
VERTEX
8
0
10
6.1203
20
5.9514
42
0.0517
0
VERTEX
8
0
10
6.0768
20
5.9753
42
-0.1364
0
VERTEX
8
0
10
6.0426
20
5.9948
42
0.0552
0
VERTEX
8
0
10
6.0168
20
6.0110
42
-0.1207
0
VERTEX
8
0
10
5.9627
20
6.0344
42
0.0143
0
VERTEX
8
0
10
5.8007
20
6.1069
42
-0.0727
0
VERTEX
8
0
10
5.7751
20
6.1179
42
0.2101
0
VERTEX
8
0
10
5.7308
20
6.1361
42
-0.0270
0
VERTEX
8
0
10
5.6592
20
6.1632
42
0.0574
0
VERTEX
8
0
10
5.5763
20
6.1904
42
-0.0204
0
VERTEX
8
0
10
5.5024
20
6.2122
42
0.1246
0
VERTEX
8
0
10
5.3267
20
6.2355
42
-0.0594
0
VERTEX
8
0
10
5.2560
20
6.2441
42
-0.1713
0
VERTEX
8
0
10
5.1949
20
6.3053
42
0.1752
0
VERTEX
8
0
10
5.1735
20
6.3425
42
-0.0311
0
VERTEX
8
0
10
5.1521
20
6.3786
42
0.1187
0
VERTEX
8
0
10
5.1334
20
6.4204
42
-0.0467
0
VERTEX
8
0
10
5.1116
20
6.4762
42
0.0419
0
VERTEX
8
0
10
5.0973
20
6.5324
42
-0.1121
0
VERTEX
8
0
10
5.0871
20
6.6794
42
-0.0367
0
VERTEX
8
0
10
5.1009
20
6.8426
42
-0.0595
0
VERTEX
8
0
10
5.1555
20
6.9907
42
0.0299
0
VERTEX
8
0
10
5.1762
20
7.0335
42
-0.1139
0
VERTEX
8
0
10
5.1943
20
7.0645
42
0.0859
0
VERTEX
8
0
10
5.2946
20
7.2570
42
0.1684
0
VERTEX
8
0
10
5.2932
20
7.3985
42
0.1647
0
VERTEX
8
0
10
5.2159
20
7.4763
42
-0.0219
0
VERTEX
8
0
10
5.1714
20
7.5092
42
0.0851
0
VERTEX
8
0
10
5.1134
20
7.5426
42
-0.0273
0
VERTEX
8
0
10
5.0526
20
7.5752
42
0.0786
0
VERTEX
8
0
10
5.0242
20
7.5886
42
-0.1937
0
VERTEX
8
0
10
4.9961
20
7.6018
42
0.1156
0
VERTEX
8
0
10
4.9306
20
7.6265
42
-0.1240
0
VERTEX
8
0
10
4.8419
20
7.6742
0
SEQEND
8
0
0
POLYLINE
8
Layer 1
66
1
0
VERTEX
8
0
10
4.2133
20
7.9664
42
-0.8855
0
VERTEX
8
0
10
4.1955
20
7.8909
42
0.0596
0
VERTEX
8
0
10
4.1656
20
7.8103
42
-0.0531
0
VERTEX
8
0
10
4.1543
20
7.7622
42
0.1101
0
VERTEX
8
0
10
4.1466
20
7.7184
42
-0.0705
0
VERTEX
8
0
10
4.1387
20
7.6634
42
0.2244
0
VERTEX
8
0
10
4.1873
20
7.3949
42
-0.0815
0
VERTEX
8
0
10
4.2086
20
7.3618
42
-0.1557
0
VERTEX
8
0
10
4.1980
20
7.2169
42
0.1070
0
VERTEX
8
0
10
4.1897
20
7.1593
42
-0.0699
0
VERTEX
8
0
10
4.1777
20
7.0791
42
0.1150
0
VERTEX
8
0
10
4.1728
20
6.9254
42
-0.0751
0
VERTEX
8
0
10
4.1787
20
6.8552
42
0.0702
0
VERTEX
8
0
10
4.1861
20
6.8030
42
0.6586
0
VERTEX
8
0
10
4.2213
20
6.8207
42
-0.1116
0
VERTEX
8
0
10
4.2634
20
6.8632
42
0.0477
0
VERTEX
8
0
10
4.3718
20
6.9689
42
-0.0727
0
VERTEX
8
0
10
4.5215
20
7.0859
42
-0.6337
0
VERTEX
8
0
10
4.5476
20
7.0324
42
0.0491
0
VERTEX
8
0
10
4.5856
20
6.9174
42
-0.0120
0
VERTEX
8
0
10
4.6072
20
6.8615
42
0.0378
0
VERTEX
8
0
10
4.6392
20
6.7928
42
-0.0663
0
VERTEX
8
0
10
4.6578
20
6.7524
42
0.0624
0
VERTEX
8
0
10
4.6690
20
6.7208
42
-0.0917
0
VERTEX
8
0
10
4.6821
20
6.6753
42
0.0729
0
VERTEX
8
0
10
4.6985
20
6.6272
42
-0.0927
0
VERTEX
8
0
10
4.7403
20
6.5156
42
-0.9952
0
VERTEX
8
0
10
4.7076
20
6.5149
42
0.0698
0
VERTEX
8
0
10
4.6547
20
6.5376
42
-0.3156
0
VERTEX
8
0
10
4.5875
20
6.6286
42
0.0253
0
VERTEX
8
0
10
4.5634
20
6.6901
42
-0.0332
0
VERTEX
8
0
10
4.5424
20
6.7383
42
0.2336
0
VERTEX
8
0
10
4.4229
20
6.8486
42
0.1247
0
VERTEX
8
0
10
4.3613
20
6.8013
42
-0.0029
0
VERTEX
8
0
10
4.2958
20
6.7409
42
0.0571
0
VERTEX
8
0
10
4.2561
20
6.6955
42
-0.1041
0
VERTEX
8
0
10
4.2206
20
6.6610
0
VERTEX
8
0
10
4.2012
20
6.6505
0
VERTEX
8
0
10
4.1461
20
6.6635
42
-0.0551
0
VERTEX
8
0
10
4.0776
20
6.6881
42
-0.3251
0
VERTEX
8
0
10
4.0712
20
6.7149
42
0.1022
0
VERTEX
8
0
10
4.0931
20
6.8105
42
0.0567
0
VERTEX
8
0
10
4.0982
20
6.8989
42
0.0878
0
VERTEX
8
0
10
4.0722
20
7.0511
42
-0.0144
0
VERTEX
8
0
10
4.0338
20
7.1902
42
0.0513
0
VERTEX
8
0
10
4.0184
20
7.2356
42
-0.1799
0
VERTEX
8
0
10
4.0058
20
7.3586
42
-0.0580
0
VERTEX
8
0
10
4.0261
20
7.5963
42
0.0413
0
VERTEX
8
0
10
4.0449
20
7.6623
42
-0.1202
0
VERTEX
8
0
10
4.1416
20
7.8800
42
0.0213
0
VERTEX
8
0
10
4.1695
20
7.9255
42
-0.1561
0
VERTEX
8
0
10
4.2133
20
7.9664
0
SEQEND
8
0
0
POLYLINE
8
Layer 1
66
1
0
VERTEX
8
0
10
4.0059
20
8.7673
42
-0.5618
0
VERTEX
8
0
10
3.9620
20
8.7126
42
0.0102
0
VERTEX
8
0
10
3.8928
20
8.6617
42
-0.0798
0
VERTEX
8
0
10
3.7450
20
8.5833
42
0.0837
0
VERTEX
8
0
10
3.6911
20
8.5721
42
-0.0128
0
VERTEX
8
0
10
3.6242
20
8.5569
42
0.0819
0
VERTEX
8
0
10
3.5935
20
8.5461
42
0.5740
0
VERTEX
8
0
10
3.6037
20
8.4838
42
0.0742
0
VERTEX
8
0
10
3.6507
20
8.4340
42
-0.1200
0
VERTEX
8
0
10
3.7242
20
8.3348
42
-0.2222
0
VERTEX
8
0
10
3.6724
20
8.2253
42
0.0248
0
VERTEX
8
0
10
3.6494
20
8.1867
42
-0.7003
0
VERTEX
8
0
10
3.6237
20
8.1783
42
-0.1961
0
VERTEX
8
0
10
3.5941
20
8.2918
42
-0.0507
0
VERTEX
8
0
10
3.5443
20
8.7481
42
-0.0329
0
VERTEX
8
0
10
3.5615
20
9.1394
42
0.0300
0
VERTEX
8
0
10
3.5691
20
9.1992
42
-0.0559
0
VERTEX
8
0
10
3.5743
20
9.2446
42
0.0084
0
VERTEX
8
0
10
3.5907
20
9.3346
42
-0.0180
0
VERTEX
8
0
10
3.6385
20
9.5592
42
-0.0292
0
VERTEX
8
0
10
3.7621
20
9.9362
42
0.0154
0
VERTEX
8
0
10
3.7858
20
9.9951
42
-0.0584
0
VERTEX
8
0
10
3.8164
20
10.0643
42
0.0718
0
VERTEX
8
0
10
3.8370
20
10.1303
42
0.6405
0
VERTEX
8
0
10
3.7670
20
10.1239
42
-0.0153
0
VERTEX
8
0
10
3.6868
20
10.1041
42
0.0706
0
VERTEX
8
0
10
3.6226
20
10.0804
42
-0.0588
0
VERTEX
8
0
10
3.5825
20
10.0615
42
0.1229
0
VERTEX
8
0
10
3.5510
20
10.0448
42
-0.0615
0
VERTEX
8
0
10
3.5136
20
10.0209
42
0.0543
0
VERTEX
8
0
10
3.4702
20
9.9928
42
-0.0337
0
VERTEX
8
0
10
3.4247
20
9.9613
42
0.0271
0
VERTEX
8
0
10
3.3465
20
9.9081
0
VERTEX
8
0
10
3.2699
20
9.8534
42
0.0170
0
VERTEX
8
0
10
3.2298
20
9.8226
42
-0.0918
0
VERTEX
8
0
10
3.2034
20
9.8079
42
-1.0899
0
VERTEX
8
0
10
3.2055
20
9.8358
42
-0.0153
0
VERTEX
8
0
10
3.2258
20
9.8667
42
-0.0039
0
VERTEX
8
0
10
3.2677
20
9.9270
42
-0.0139
0
VERTEX
8
0
10
3.4136
20
10.1234
42
0.0200
0
VERTEX
8
0
10
3.4698
20
10.1948
42
-0.0280
0
VERTEX
8
0
10
3.5545
20
10.2964
42
0.0168
0
VERTEX
8
0
10
3.6214
20
10.3761
42
-0.0605
0
VERTEX
8
0
10
3.6385
20
10.3962
42
0.1667
0
VERTEX
8
0
10
3.6838
20
10.4429
42
-0.0298
0
VERTEX
8
0
10
3.9782
20
10.7379
0
VERTEX
8
0
10
4.0692
20
10.8197
42
-0.0214
0
VERTEX
8
0
10
4.1818
20
10.9149
42
0.0143
0
VERTEX
8
0
10
4.2295
20
10.9550
42
-0.0454
0
VERTEX
8
0
10
4.3793
20
11.0695
42
0.0067
0
VERTEX
8
0
10
4.4549
20
11.1257
42
-0.0439
0
VERTEX
8
0
10
4.5296
20
11.1769
42
0.1308
0
VERTEX
8
0
10
4.5634
20
11.1976
42
-0.0236
0
VERTEX
8
0
10
4.6122
20
11.2278
42
0.0543
0
VERTEX
8
0
10
4.6460
20
11.2501
42
-0.0767
0
VERTEX
8
0
10
4.6807
20
11.2710
42
0.0721
0
VERTEX
8
0
10
4.7108
20
11.2891
42
-0.0854
0
VERTEX
8
0
10
4.7545
20
11.3169
42
0.0105
0
VERTEX
8
0
10
4.8321
20
11.3610
42
-0.0167
0
VERTEX
8
0
10
4.9034
20
11.3999
42
0.0134
0
VERTEX
8
0
10
4.9489
20
11.4229
42
-0.0180
0
VERTEX
8
0
10
4.9970
20
11.4473
42
0.0380
0
VERTEX
8
0
10
5.0353
20
11.4692
42
-0.1195
0
VERTEX
8
0
10
5.0822
20
11.4927
42
0.0440
0
VERTEX
8
0
10
5.1375
20
11.5210
42
-0.0844
0
VERTEX
8
0
10
5.1699
20
11.5374
42
0.0971
0
VERTEX
8
0
10
5.2047
20
11.5534
42
-0.0482
0
VERTEX
8
0
10
5.2644
20
11.5834
42
0.0193
0
VERTEX
8
0
10
5.3152
20
11.6079
42
-0.0761
0
VERTEX
8
0
10
5.3633
20
11.6290
42
0.0278
0
VERTEX
8
0
10
5.4168
20
11.6526
42
-0.0507
0
VERTEX
8
0
10
5.4649
20
11.6746
42
0.0356
0
VERTEX
8
0
10
5.5104
20
11.6962
42
-0.0970
0
VERTEX
8
0
10
5.5479
20
11.7117
42
0.0668
0
VERTEX
8
0
10
5.6061
20
11.7363
42
-0.0371
0
VERTEX
8
0
10
5.6474
20
11.7545
42
0.1364
0
VERTEX
8
0
10
5.6945
20
11.7732
42
-0.0367
0
VERTEX
8
0
10
5.7441
20
11.7921
42
0.1656
0
VERTEX
8
0
10
5.7885
20
11.8110
42
-0.0541
0
VERTEX
8
0
10
5.8473
20
11.8350
42
0.0658
0
VERTEX
8
0
10
5.9034
20
11.8555
42
-0.0395
0
VERTEX
8
0
10
6.0030
20
11.8935
42
0.1602
0
VERTEX
8
0
10
6.0355
20
11.9063
42
-0.0575
0
VERTEX
8
0
10
6.0777
20
11.9228
42
0.0579
0
VERTEX
8
0
10
6.1733
20
11.9544
42
-0.2027
0
VERTEX
8
0
10
6.2547
20
11.9790
0
VERTEX
8
0
10
6.2724
20
11.9789
0
VERTEX
8
0
10
6.2591
20
11.9682
42
-0.0776
0
VERTEX
8
0
10
6.2056
20
11.9383
42
0.0257
0
VERTEX
8
0
10
6.1575
20
11.9121
42
-0.1142
0
VERTEX
8
0
10
6.1120
20
11.8896
42
0.0393
0
VERTEX
8
0
10
5.9335
20
11.7993
42
-0.0037
0
VERTEX
8
0
10
5.7486
20
11.7013
42
0.0165
0
VERTEX
8
0
10
5.6608
20
11.6515
42
-0.0510
0
VERTEX
8
0
10
5.6152
20
11.6266
42
0.0598
0
VERTEX
8
0
10
5.5288
20
11.5795
42
-0.0128
0
VERTEX
8
0
10
5.4539
20
11.5373
42
0.0909
0
VERTEX
8
0
10
5.4195
20
11.5163
42
-0.0493
0
VERTEX
8
0
10
5.3749
20
11.4904
42
0.0737
0
VERTEX
8
0
10
5.3340
20
11.4658
42
-0.0524
0
VERTEX
8
0
10
5.3086
20
11.4497
42
0.2028
0
VERTEX
8
0
10
5.2169
20
11.3931
42
-0.0116
0
VERTEX
8
0
10
5.1160
20
11.3291
42
0.0426
0
VERTEX
8
0
10
5.0826
20
11.3057
42
-0.2703
0
VERTEX
8
0
10
5.0545
20
11.2864
42
0.0407
0
VERTEX
8
0
10
4.9934
20
11.2468
42
-0.0074
0
VERTEX
8
0
10
4.9407
20
11.2090
42
0.0320
0
VERTEX
8
0
10
4.8988
20
11.1765
42
-0.0312
0
VERTEX
8
0
10
4.8499
20
11.1394
42
0.0525
0
VERTEX
8
0
10
4.6422
20
10.9659
42
0.0419
0
VERTEX
8
0
10
4.3553
20
10.6665
42
-0.0148
0
VERTEX
8
0
10
4.3139
20
10.6173
42
0.3963
0
VERTEX
8
0
10
4.3131
20
10.5887
42
0.1440
0
VERTEX
8
0
10
4.3684
20
10.6234
42
-0.0214
0
VERTEX
8
0
10
4.4241
20
10.6582
42
0.1673
0
VERTEX
8
0
10
4.4943
20
10.6931
42
-0.1050
0
VERTEX
8
0
10
4.5371
20
10.7116
42
0.0218
0
VERTEX
8
0
10
4.5906
20
10.7333
42
-0.0697
0
VERTEX
8
0
10
4.6467
20
10.7520
42
0.0417
0
VERTEX
8
0
10
4.7082
20
10.7731
42
-0.0614
0
VERTEX
8
0
10
4.7697
20
10.7940
42
0.0416
0
VERTEX
8
0
10
4.8374
20
10.8171
42
-0.5823
0
VERTEX
8
0
10
4.8648
20
10.7972
42
0.0910
0
VERTEX
8
0
10
4.6896
20
10.6231
42
-0.0434
0
VERTEX
8
0
10
4.6357
20
10.5619
42
0.0729
0
VERTEX
8
0
10
4.4006
20
10.2329
42
0.0338
0
VERTEX
8
0
10
4.2746
20
9.9774
42
-0.0504
0
VERTEX
8
0
10
4.2586
20
9.9354
42
0.0689
0
VERTEX
8
0
10
4.2109
20
9.7957
42
-0.0920
0
VERTEX
8
0
10
4.2007
20
9.7540
42
0.0429
0
VERTEX
8
0
10
4.1654
20
9.5833
42
-0.0295
0
VERTEX
8
0
10
4.1548
20
9.5191
42
0.0722
0
VERTEX
8
0
10
4.1311
20
9.1780
0
VERTEX
8
0
10
4.1323
20
9.1055
0
VERTEX
8
0
10
4.1176
20
9.0938
42
-0.0933
0
VERTEX
8
0
10
3.9583
20
9.0111
42
0.1613
0
VERTEX
8
0
10
3.9215
20
8.9958
42
-0.0358
0
VERTEX
8
0
10
3.8713
20
8.9737
42
0.0509
0
VERTEX
8
0
10
3.8086
20
8.9462
42
-0.0311
0
VERTEX
8
0
10
3.7596
20
8.9255
42
0.1942
0
VERTEX
8
0
10
3.7234
20
8.9062
42
-0.0405
0
VERTEX
8
0
10
3.6750
20
8.8790
42
0.9595
0
VERTEX
8
0
10
3.6986
20
8.8122
42
0.1008
0
VERTEX
8
0
10
3.8593
20
8.7677
42
0.0298
0
VERTEX
8
0
10
3.9667
20
8.7692
42
-0.0904
0
VERTEX
8
0
10
4.0059
20
8.7673
0
SEQEND
8
0
0
POLYLINE
8
Layer 1
66
1
0
VERTEX
8
0
10
4.7339
20
8.6605
42
-0.2310
0
VERTEX
8
0
10
4.7178
20
8.6177
42
-0.1656
0
VERTEX
8
0
10
4.6708
20
8.5816
42
0.0775
0
VERTEX
8
0
10
4.6280
20
8.5596
42
-0.0810
0
VERTEX
8
0
10
4.5314
20
8.4964
42
-0.0520
0
VERTEX
8
0
10
4.4935
20
8.4850
42
0.1104
0
VERTEX
8
0
10
4.4604
20
8.4707
42
-0.0943
0
VERTEX
8
0
10
4.4238
20
8.4519
42
0.0665
0
VERTEX
8
0
10
4.3812
20
8.4303
42
-0.0774
0
VERTEX
8
0
10
4.3384
20
8.4097
42
0.0611
0
VERTEX
8
0
10
4.2911
20
8.3887
42
-0.1716
0
VERTEX
8
0
10
4.2408
20
8.3793
42
-0.6945
0
VERTEX
8
0
10
4.2775
20
8.4151
42
-0.0308
0
VERTEX
8
0
10
4.3234
20
8.4416
42
0.0509
0
VERTEX
8
0
10
4.3699
20
8.4714
42
-0.1152
0
VERTEX
8
0
10
4.4098
20
8.4926
42
0.0893
0
VERTEX
8
0
10
4.4540
20
8.5135
42
-0.0527
0
VERTEX
8
0
10
4.4890
20
8.5324
42
0.1126
0
VERTEX
8
0
10
4.5219
20
8.5520
42
-0.0649
0
VERTEX
8
0
10
4.5620
20
8.5758
42
0.1001
0
VERTEX
8
0
10
4.6013
20
8.6022
42
-0.0872
0
VERTEX
8
0
10
4.6414
20
8.6291
42
0.0996
0
VERTEX
8
0
10
4.6857
20
8.6591
42
-0.3732
0
VERTEX
8
0
10
4.7339
20
8.6605
0
SEQEND
8
0
0
POLYLINE
8
Layer 1
66
1
0
VERTEX
8
0
10
4.7057
20
8.8131
42
-0.5097
0
VERTEX
8
0
10
4.7025
20
8.7572
42
-0.1259
0
VERTEX
8
0
10
4.6717
20
8.7130
42
0.0304
0
VERTEX
8
0
10
4.6180
20
8.6677
42
-0.0398
0
VERTEX
8
0
10
4.5592
20
8.6227
42
0.0409
0
VERTEX
8
0
10
4.5168
20
8.5931
42
-0.0764
0
VERTEX
8
0
10
4.4927
20
8.5779
42
0.2144
0
VERTEX
8
0
10
4.4674
20
8.5630
42
-0.0318
0
VERTEX
8
0
10
4.4208
20
8.5303
42
0.0528
0
VERTEX
8
0
10
4.3927
20
8.5082
42
-0.3207
0
VERTEX
8
0
10
4.3619
20
8.4923
42
0.0596
0
VERTEX
8
0
10
4.3205
20
8.4710
42
-0.1289
0
VERTEX
8
0
10
4.2795
20
8.4498
42
0.0672
0
VERTEX
8
0
10
4.2421
20
8.4297
42
-0.1859
0
VERTEX
8
0
10
4.1491
20
8.3833
42
-0.2570
0
VERTEX
8
0
10
4.1277
20
8.3880
42
-0.6200
0
VERTEX
8
0
10
4.1316
20
8.4081
42
-0.0530
0
VERTEX
8
0
10
4.2053
20
8.4581
42
0.0284
0
VERTEX
8
0
10
4.4401
20
8.6071
42
-0.0678
0
VERTEX
8
0
10
4.4715
20
8.6283
42
0.1280
0
VERTEX
8
0
10
4.5054
20
8.6504
42
-0.0468
0
VERTEX
8
0
10
4.5321
20
8.6688
42
0.2529
0
VERTEX
8
0
10
4.6544
20
8.7761
42
-0.0810
0
VERTEX
8
0
10
4.7057
20
8.8131
0
SEQEND
8
0
0
POLYLINE
8
Layer 1
66
1
0
VERTEX
8
0
10
4.7305
20
9.0271
42
-0.9028
0
VERTEX
8
0
10
4.7360
20
8.9801
42
-0.0315
0
VERTEX
8
0
10
4.7212
20
8.9300
42
-0.0695
0
VERTEX
8
0
10
4.6824
20
8.8541
42
-0.0401
0
VERTEX
8
0
10
4.4911
20
8.6834
42
0.0246
0
VERTEX
8
0
10
4.4515
20
8.6501
42
-0.1275
0
VERTEX
8
0
10
4.3475
20
8.5791
42
0.0552
0
VERTEX
8
0
10
4.3203
20
8.5596
42
-0.1685
0
VERTEX
8
0
10
4.2796
20
8.5364
42
0.0453
0
VERTEX
8
0
10
4.2407
20
8.5144
42
-0.3142
0
VERTEX
8
0
10
4.2239
20
8.5084
42
-0.3474
0
VERTEX
8
0
10
4.2109
20
8.5186
42
-0.4229
0
VERTEX
8
0
10
4.2822
20
8.5814
42
0.0379
0
VERTEX
8
0
10
4.3123
20
8.6055
42
-0.0277
0
VERTEX
8
0
10
4.4240
20
8.7001
42
0.0301
0
VERTEX
8
0
10
4.4676
20
8.7384
42
-0.2894
0
VERTEX
8
0
10
4.4860
20
8.7542
42
0.1199
0
VERTEX
8
0
10
4.5167
20
8.7854
42
-0.0526
0
VERTEX
8
0
10
4.5557
20
8.8356
42
0.0056
0
VERTEX
8
0
10
4.6159
20
8.9051
42
-0.0242
0
VERTEX
8
0
10
4.7305
20
9.0271
0
SEQEND
8
0
0
POLYLINE
8
Layer 1
66
1
0
VERTEX
8
0
10
4.7962
20
9.4897
42
-0.0152
0
VERTEX
8
0
10
4.7982
20
9.4107
42
-0.0217
0
VERTEX
8
0
10
4.7944
20
9.2690
42
0.0128
0
VERTEX
8
0
10
4.7837
20
9.2143
42
-0.1610
0
VERTEX
8
0
10
4.7327
20
9.1189
42
-0.7807
0
VERTEX
8
0
10
4.7136
20
9.1591
42
0.1390
0
VERTEX
8
0
10
4.6958
20
9.2208
42
0.3784
0
VERTEX
8
0
10
4.6225
20
9.2089
42
0.1605
0
VERTEX
8
0
10
4.4860
20
9.0726
42
-0.0131
0
VERTEX
8
0
10
4.4322
20
9.0046
42
0.0674
0
VERTEX
8
0
10
4.2706
20
8.7638
42
0.0078
0
VERTEX
8
0
10
4.2326
20
8.6902
0
VERTEX
8
0
10
4.1996
20
8.6250
42
0.0622
0
VERTEX
8
0
10
4.1895
20
8.5973
42
-0.1519
0
VERTEX
8
0
10
4.1683
20
8.5476
42
0.0373
0
VERTEX
8
0
10
4.1093
20
8.4062
42
-0.1993
0
VERTEX
8
0
10
4.0920
20
8.3666
42
0.6724
0
VERTEX
8
0
10
4.1205
20
8.3221
42
0.0819
0
VERTEX
8
0
10
4.2938
20
8.3408
42
-0.1017
0
VERTEX
8
0
10
4.3927
20
8.3661
42
0.0885
0
VERTEX
8
0
10
4.6611
20
8.4710
42
0.1735
0
VERTEX
8
0
10
4.7471
20
8.5670
42
-0.2423
0
VERTEX
8
0
10
4.7733
20
8.6046
42
-0.6453
0
VERTEX
8
0
10
4.8050
20
8.5331
42
-0.0671
0
VERTEX
8
0
10
4.8048
20
8.4511
42
-0.1381
0
VERTEX
8
0
10
4.7494
20
8.3301
42
-0.1188
0
VERTEX
8
0
10
4.6399
20
8.2615
42
-0.0833
0
VERTEX
8
0
10
4.4087
20
8.2308
42
0.0497
0
VERTEX
8
0
10
4.2510
20
8.2090
42
0.0360
0
VERTEX
8
0
10
4.1662
20
8.1671
42
0.2015
0
VERTEX
8
0
10
4.1166
20
8.1015
42
-0.1819
0
VERTEX
8
0
10
4.1116
20
8.0728
42
0.1296
0
VERTEX
8
0
10
4.1039
20
8.0373
42
-0.2085
0
VERTEX
8
0
10
4.0526
20
7.9206
42
0.0385
0
VERTEX
8
0
10
4.0237
20
7.8827
42
-0.0551
0
VERTEX
8
0
10
4.0018
20
7.8506
42
0.0768
0
VERTEX
8
0
10
3.9378
20
7.7356
42
0.0400
0
VERTEX
8
0
10
3.8451
20
7.5111
42
-0.0905
0
VERTEX
8
0
10
3.7772
20
7.3886
42
-0.3272
0
VERTEX
8
0
10
3.7736
20
7.5275
42
-0.0300
0
VERTEX
8
0
10
3.7935
20
7.6661
42
0.0240
0
VERTEX
8
0
10
3.8090
20
7.7517
42
-0.0847
0
VERTEX
8
0
10
3.8671
20
7.9402
42
0.1107
0
VERTEX
8
0
10
3.8712
20
7.9630
42
0.6115
0
VERTEX
8
0
10
3.8359
20
7.9594
42
-0.1067
0
VERTEX
8
0
10
3.7435
20
7.8886
42
0.0366
0
VERTEX
8
0
10
3.6917
20
7.8485
42
-0.0311
0
VERTEX
8
0
10
3.6436
20
7.8106
42
0.0412
0
VERTEX
8
0
10
3.5503
20
7.7356
42
-0.0275
0
VERTEX
8
0
10
3.4966
20
7.6902
42
0.0100
0
VERTEX
8
0
10
3.4422
20
7.6461
42
-0.1996
0
VERTEX
8
0
10
3.4034
20
7.6335
42
-0.1875
0
VERTEX
8
0
10
3.4328
20
7.6844
42
0.0130
0
VERTEX
8
0
10
3.4622
20
7.7303
42
-0.0933
0
VERTEX
8
0
10
3.4862
20
7.7704
42
0.0188
0
VERTEX
8
0
10
3.5103
20
7.8111
42
-0.1482
0
VERTEX
8
0
10
3.5256
20
7.8338
42
0.0381
0
VERTEX
8
0
10
3.5697
20
7.9005
42
-0.0047
0
VERTEX
8
0
10
3.6199
20
7.9813
0
VERTEX
8
0
10
3.6528
20
8.0330
42
0.0087
0
VERTEX
8
0
10
3.6849
20
8.0857
42
-0.0174
0
VERTEX
8
0
10
3.7643
20
8.2090
42
0.0029
0
VERTEX
8
0
10
3.8285
20
8.3067
42
-0.0177
0
VERTEX
8
0
10
3.8855
20
8.3919
42
0.0034
0
VERTEX
8
0
10
3.9258
20
8.4526
42
0.2911
0
VERTEX
8
0
10
3.9259
20
8.4927
42
-0.1115
0
VERTEX
8
0
10
3.8552
20
8.4812
42
0.0053
0
VERTEX
8
0
10
3.7516
20
8.4715
42
-0.0782
0
VERTEX
8
0
10
3.6740
20
8.4752
42
-0.1522
0
VERTEX
8
0
10
3.6467
20
8.4949
42
-0.7247
0
VERTEX
8
0
10
3.7349
20
8.5240
42
0.0183
0
VERTEX
8
0
10
3.7857
20
8.5344
42
-0.0228
0
VERTEX
8
0
10
3.8266
20
8.5430
42
0.1141
0
VERTEX
8
0
10
3.8643
20
8.5584
42
-0.0583
0
VERTEX
8
0
10
3.9000
20
8.5769
42
0.1396
0
VERTEX
8
0
10
3.9565
20
8.6179
42
-0.0569
0
VERTEX
8
0
10
4.0060
20
8.6528
42
-0.2523
0
VERTEX
8
0
10
4.0289
20
8.6396
42
0.1922
0
VERTEX
8
0
10
4.0485
20
8.6304
42
0.1917
0
VERTEX
8
0
10
4.0879
20
8.6884
42
-0.1609
0
VERTEX
8
0
10
4.1060
20
8.7116
42
0.0555
0
VERTEX
8
0
10
4.1390
20
8.7577
42
-0.0465
0
VERTEX
8
0
10
4.1720
20
8.8042
42
0.0721
0
VERTEX
8
0
10
4.2648
20
8.9460
42
0.8149
0
VERTEX
8
0
10
4.2395
20
8.9653
42
-0.0201
0
VERTEX
8
0
10
4.1960
20
8.9152
42
-0.1385
0
VERTEX
8
0
10
4.1345
20
8.8767
42
-0.1049
0
VERTEX
8
0
10
3.8008
20
8.8749
42
-0.7491
0
VERTEX
8
0
10
3.8566
20
8.9067
42
-0.0399
0
VERTEX
8
0
10
3.9211
20
8.9227
42
0.0636
0
VERTEX
8
0
10
4.0040
20
8.9466
42
-0.0524
0
VERTEX
8
0
10
4.0484
20
8.9654
42
0.1239
0
VERTEX
8
0
10
4.1000
20
8.9913
42
-0.0030
0
VERTEX
8
0
10
4.1501
20
9.0232
42
0.0491
0
VERTEX
8
0
10
4.2293
20
9.0836
42
0.0526
0
VERTEX
8
0
10
4.2722
20
9.1369
42
-0.0382
0
VERTEX
8
0
10
4.3029
20
9.1800
42
0.0904
0
VERTEX
8
0
10
4.3178
20
9.2049
42
-0.2053
0
VERTEX
8
0
10
4.3283
20
9.2262
42
0.2098
0
VERTEX
8
0
10
4.3764
20
9.4108
42
-0.0498
0
VERTEX
8
0
10
4.3878
20
9.4742
42
-0.2703
0
VERTEX
8
0
10
4.4595
20
9.5005
42
0.0237
0
VERTEX
8
0
10
4.5130
20
9.5131
42
-0.0998
0
VERTEX
8
0
10
4.7592
20
9.5459
42
-0.5386
0
VERTEX
8
0
10
4.7962
20
9.4897
0
SEQEND
8
0
0
POLYLINE
8
Layer 1
66
1
0
VERTEX
8
0
10
5.3421
20
9.5822
42
-0.2192
0
VERTEX
8
0
10
5.3025
20
9.5472
42
-0.0387
0
VERTEX
8
0
10
5.2457
20
9.5267
42
0.0399
0
VERTEX
8
0
10
5.1868
20
9.5065
42
-0.0440
0
VERTEX
8
0
10
5.0505
20
9.4634
42
-0.0945
0
VERTEX
8
0
10
4.9831
20
9.4573
42
-1.1553
0
VERTEX
8
0
10
5.0148
20
9.4901
42
0.0815
0
VERTEX
8
0
10
5.1521
20
9.5609
42
0.0522
0
VERTEX
8
0
10
5.2639
20
9.6446
42
-0.0082
0
VERTEX
8
0
10
5.3039
20
9.6874
42
0.0431
0
VERTEX
8
0
10
5.3963
20
9.8013
42
-0.1092
0
VERTEX
8
0
10
5.6580
20
10.0887
42
0.1695
0
VERTEX
8
0
10
5.7510
20
10.1832
42
0.4605
0
VERTEX
8
0
10
5.7272
20
10.2036
42
0.1397
0
VERTEX
8
0
10
5.4859
20
10.1202
42
-0.0515
0
VERTEX
8
0
10
5.3790
20
10.0594
42
0.0488
0
VERTEX
8
0
10
5.3398
20
10.0358
42
-0.1143
0
VERTEX
8
0
10
5.3083
20
10.0132
42
0.0887
0
VERTEX
8
0
10
5.1344
20
9.8641
42
0.0579
0
VERTEX
8
0
10
5.0475
20
9.7525
42
0.0243
0
VERTEX
8
0
10
5.0237
20
9.6986
42
-0.5713
0
VERTEX
8
0
10
4.9649
20
9.6641
42
0.0078
0
VERTEX
8
0
10
4.9088
20
9.6467
42
-0.0144
0
VERTEX
8
0
10
4.7777
20
9.6048
42
-0.0743
0
VERTEX
8
0
10
4.6504
20
9.5924
42
-0.3952
0
VERTEX
8
0
10
4.7542
20
9.7220
42
-0.0396
0
VERTEX
8
0
10
4.8797
20
9.8322
42
0.0754
0
VERTEX
8
0
10
4.9149
20
9.8574
42
-0.1011
0
VERTEX
8
0
10
5.0394
20
9.9601
42
0.0845
0
VERTEX
8
0
10
5.0888
20
9.9980
42
-0.0602
0
VERTEX
8
0
10
5.1601
20
10.0469
42
0.0253
0
VERTEX
8
0
10
5.2202
20
10.0816
42
-0.0589
0
VERTEX
8
0
10
5.2649
20
10.1049
42
0.0976
0
VERTEX
8
0
10
5.3053
20
10.1287
42
-0.0995
0
VERTEX
8
0
10
5.3333
20
10.1448
42
0.1672
0
VERTEX
8
0
10
5.3742
20
10.1614
42
-0.0659
0
VERTEX
8
0
10
5.5398
20
10.2234
0
VERTEX
8
0
10
5.6307
20
10.2518
42
-0.0435
0
VERTEX
8
0
10
5.7510
20
10.2784
42
0.0885
0
VERTEX
8
0
10
5.9462
20
10.3373
0
VERTEX
8
0
10
5.9911
20
10.3672
42
0.0276
0
VERTEX
8
0
10
6.0749
20
10.4296
42
-0.0281
0
VERTEX
8
0
10
6.2430
20
10.5726
42
0.0945
0
VERTEX
8
0
10
6.3215
20
10.6378
42
-0.0228
0
VERTEX
8
0
10
6.4168
20
10.7166
42
0.0077
0
VERTEX
8
0
10
6.4783
20
10.7594
42
-0.0265
0
VERTEX
8
0
10
6.5291
20
10.7923
42
0.0291
0
VERTEX
8
0
10
6.5666
20
10.8155
42
-0.0802
0
VERTEX
8
0
10
6.6094
20
10.8371
42
0.0665
0
VERTEX
8
0
10
6.6572
20
10.8622
42
-0.0918
0
VERTEX
8
0
10
6.6895
20
10.8775
42
0.1515
0
VERTEX
8
0
10
6.7192
20
10.8873
42
0.0137
0
VERTEX
8
0
10
6.8398
20
10.9559
42
-0.0778
0
VERTEX
8
0
10
6.8745
20
10.9744
42
0.0947
0
VERTEX
8
0
10
6.9120
20
10.9953
42
-0.0580
0
VERTEX
8
0
10
6.9562
20
11.0220
42
0.0467
0
VERTEX
8
0
10
6.9841
20
11.0385
42
-0.6073
0
VERTEX
8
0
10
7.0298
20
11.0334
42
0.1049
0
VERTEX
8
0
10
7.0586
20
11.0196
42
-0.2332
0
VERTEX
8
0
10
7.1568
20
10.9331
42
-0.0609
0
VERTEX
8
0
10
7.2360
20
10.8314
42
-0.2801
0
VERTEX
8
0
10
7.1072
20
10.6828
42
-0.5800
0
VERTEX
8
0
10
7.0928
20
10.7811
42
0.0633
0
VERTEX
8
0
10
7.0929
20
10.8272
42
0.3660
0
VERTEX
8
0
10
7.0144
20
10.8308
42
0.0500
0
VERTEX
8
0
10
6.9207
20
10.8181
42
-0.1092
0
VERTEX
8
0
10
6.8806
20
10.8079
42
0.2405
0
VERTEX
8
0
10
6.8233
20
10.7785
42
0.6292
0
VERTEX
8
0
10
6.8527
20
10.7636
42
-0.1155
0
VERTEX
8
0
10
6.9590
20
10.7223
42
-0.2129
0
VERTEX
8
0
10
6.9810
20
10.6720
42
-0.2947
0
VERTEX
8
0
10
6.9342
20
10.5998
42
-0.6456
0
VERTEX
8
0
10
6.9312
20
10.6421
42
0.1760
0
VERTEX
8
0
10
6.9310
20
10.6819
42
0.1458
0
VERTEX
8
0
10
6.9072
20
10.7018
42
0.2086
0
VERTEX
8
0
10
6.6509
20
10.6901
42
-0.1578
0
VERTEX
8
0
10
6.6118
20
10.6894
42
-0.8340
0
VERTEX
8
0
10
6.6381
20
10.7380
42
0.1203
0
VERTEX
8
0
10
6.6848
20
10.7897
42
0.5247
0
VERTEX
8
0
10
6.6626
20
10.7956
42
0.1905
0
VERTEX
8
0
10
6.5216
20
10.7107
42
-0.0325
0
VERTEX
8
0
10
6.4701
20
10.6662
42
0.0190
0
VERTEX
8
0
10
6.3522
20
10.5757
42
-0.0278
0
VERTEX
8
0
10
6.2399
20
10.4924
42
0.0075
0
VERTEX
8
0
10
6.1111
20
10.4035
42
-0.0144
0
VERTEX
8
0
10
5.9869
20
10.3213
42
0.0219
0
VERTEX
8
0
10
5.9389
20
10.2905
42
-0.0535
0
VERTEX
8
0
10
5.8955
20
10.2678
42
0.2033
0
VERTEX
8
0
10
5.8728
20
10.2573
42
0.3549
0
VERTEX
8
0
10
5.8609
20
10.2051
42
0.0028
0
VERTEX
8
0
10
5.8629
20
10.1592
42
0.3052
0
VERTEX
8
0
10
5.8834
20
10.1467
42
-0.2225
0
VERTEX
8
0
10
5.9249
20
10.1016
42
0.0899
0
VERTEX
8
0
10
5.9336
20
10.0775
42
0.7707
0
VERTEX
8
0
10
5.9703
20
10.1130
42
-0.2035
0
VERTEX
8
0
10
6.0103
20
10.1542
42
-0.3546
0
VERTEX
8
0
10
6.0897
20
10.1407
42
-0.3551
0
VERTEX
8
0
10
6.0020
20
10.0327
42
-0.0392
0
VERTEX
8
0
10
5.8569
20
9.9037
42
0.0163
0
VERTEX
8
0
10
5.7964
20
9.8613
42
-0.1583
0
VERTEX
8
0
10
5.7495
20
9.8346
42
0.0154
0
VERTEX
8
0
10
5.6655
20
9.7896
42
-0.0112
0
VERTEX
8
0
10
5.5933
20
9.7497
42
0.0134
0
VERTEX
8
0
10
5.5315
20
9.7157
0
VERTEX
8
0
10
5.4619
20
9.6748
42
0.0263
0
VERTEX
8
0
10
5.4088
20
9.6395
42
-0.0645
0
VERTEX
8
0
10
5.3735
20
9.6156
42
0.1586
0
VERTEX
8
0
10
5.3421
20
9.5822
0
SEQEND
8
0
0
POLYLINE
8
Layer 1
66
1
0
VERTEX
8
0
10
5.5140
20
9.4248
42
-0.1996
0
VERTEX
8
0
10
5.4850
20
9.4157
42
-0.2723
0
VERTEX
8
0
10
5.4783
20
9.4246
42
-0.3726
0
VERTEX
8
0
10
5.5452
20
9.4867
42
0.0182
0
VERTEX
8
0
10
5.5826
20
9.5139
42
-0.0907
0
VERTEX
8
0
10
5.6441
20
9.5482
42
0.0029
0
VERTEX
8
0
10
5.7266
20
9.5897
42
-0.0460
0
VERTEX
8
0
10
5.7832
20
9.6127
42
0.0868
0
VERTEX
8
0
10
5.8434
20
9.6406
42
-0.0571
0
VERTEX
8
0
10
5.9045
20
9.6685
42
0.0416
0
VERTEX
8
0
10
5.9382
20
9.6800
42
-0.0307
0
VERTEX
8
0
10
5.9944
20
9.7093
42
0.1159
0
VERTEX
8
0
10
6.1791
20
9.8648
42
0.0676
0
VERTEX
8
0
10
6.2187
20
9.9977
42
-0.1084
0
VERTEX
8
0
10
6.2843
20
10.1603
42
0.5628
0
VERTEX
8
0
10
6.2702
20
10.1908
42
-0.9227
0
VERTEX
8
0
10
6.2624
20
10.2262
42
-0.1001
0
VERTEX
8
0
10
6.3935
20
10.3159
42
0.1617
0
VERTEX
8
0
10
6.4370
20
10.3329
42
-0.0565
0
VERTEX
8
0
10
6.6120
20
10.3987
42
0.0107
0
VERTEX
8
0
10
6.6735
20
10.4191
42
-0.0459
0
VERTEX
8
0
10
6.8166
20
10.4580
42
0.0578
0
VERTEX
8
0
10
6.8646
20
10.4734
42
-0.1861
0
VERTEX
8
0
10
6.9007
20
10.4818
42
0.1575
0
VERTEX
8
0
10
7.0291
20
10.5236
42
0.1691
0
VERTEX
8
0
10
7.1156
20
10.6301
42
-0.1190
0
VERTEX
8
0
10
7.1333
20
10.6529
42
-0.3175
0
VERTEX
8
0
10
7.1531
20
10.6355
42
-0.2696
0
VERTEX
8
0
10
7.1639
20
10.5218
42
-0.0119
0
VERTEX
8
0
10
7.1595
20
10.4162
42
-1.0099
0
VERTEX
8
0
10
7.1167
20
10.4289
0
VERTEX
8
0
10
7.0912
20
10.4509
0
VERTEX
8
0
10
7.0535
20
10.4477
42
0.0247
0
VERTEX
8
0
10
6.9031
20
10.4271
42
-0.0928
0
VERTEX
8
0
10
6.8500
20
10.4128
42
0.0297
0
VERTEX
8
0
10
6.7244
20
10.3828
42
-0.0795
0
VERTEX
8
0
10
6.6729
20
10.3663
42
0.0774
0
VERTEX
8
0
10
6.5452
20
10.3129
42
0.0494
0
VERTEX
8
0
10
6.4088
20
10.2288
42
0.0503
0
VERTEX
8
0
10
6.3272
20
10.1418
42
0.0880
0
VERTEX
8
0
10
6.3097
20
10.0749
42
0.0645
0
VERTEX
8
0
10
6.2944
20
9.9202
42
-0.0580
0
VERTEX
8
0
10
6.2754
20
9.7721
42
-0.0722
0
VERTEX
8
0
10
6.2395
20
9.7002
42
-0.1696
0
VERTEX
8
0
10
6.1361
20
9.6525
42
0.0051
0
VERTEX
8
0
10
6.0665
20
9.6340
42
-0.0382
0
VERTEX
8
0
10
5.9783
20
9.6171
42
0.0573
0
VERTEX
8
0
10
5.9168
20
9.6047
0
VERTEX
8
0
10
5.8632
20
9.5840
42
-0.0323
0
VERTEX
8
0
10
5.8270
20
9.5726
42
0.1469
0
VERTEX
8
0
10
5.7929
20
9.5588
42
-0.0675
0
VERTEX
8
0
10
5.6944
20
9.5245
42
0.1941
0
VERTEX
8
0
10
5.5881
20
9.4714
42
-0.0862
0
VERTEX
8
0
10
5.5532
20
9.4495
42
0.0485
0
VERTEX
8
0
10
5.5140
20
9.4248
0
SEQEND
8
0
0
POLYLINE
8
Layer 1
66
1
0
VERTEX
8
0
10
5.9258
20
8.7876
42
-0.1239
0
VERTEX
8
0
10
5.8752
20
8.7564
42
0.1845
0
VERTEX
8
0
10
5.7038
20
8.6260
42
0.1825
0
VERTEX
8
0
10
5.6668
20
8.4778
42
0.0654
0
VERTEX
8
0
10
5.6785
20
8.3575
42
0.0242
0
VERTEX
8
0
10
5.7036
20
8.2906
42
-0.2609
0
VERTEX
8
0
10
5.7010
20
8.2473
42
-0.5099
0
VERTEX
8
0
10
5.6296
20
8.3156
42
0.0410
0
VERTEX
8
0
10
5.5588
20
8.3953
42
0.1181
0
VERTEX
8
0
10
5.3098
20
8.5428
42
-0.0740
0
VERTEX
8
0
10
5.2613
20
8.5574
42
0.8673
0
VERTEX
8
0
10
5.2234
20
8.5021
42
-0.1793
0
VERTEX
8
0
10
5.2747
20
8.2920
42
-0.1395
0
VERTEX
8
0
10
5.2569
20
8.1919
42
-0.2273
0
VERTEX
8
0
10
5.1897
20
8.1373
42
0.0475
0
VERTEX
8
0
10
5.1543
20
8.1229
42
-0.1619
0
VERTEX
8
0
10
5.1014
20
8.1070
42
0.0402
0
VERTEX
8
0
10
5.0303
20
8.0854
42
-0.0531
0
VERTEX
8
0
10
4.9836
20
8.0698
42
0.0552
0
VERTEX
8
0
10
4.8915
20
8.0421
42
-0.1597
0
VERTEX
8
0
10
4.8104
20
8.0107
42
0.0516
0
VERTEX
8
0
10
4.7676
20
7.9931
42
-0.2184
0
VERTEX
8
0
10
4.6957
20
7.9718
42
-0.8953
0
VERTEX
8
0
10
4.7391
20
8.0312
42
0.0357
0
VERTEX
8
0
10
4.7949
20
8.0973
42
0.0552
0
VERTEX
8
0
10
4.8503
20
8.2517
42
0.0495
0
VERTEX
8
0
10
4.8482
20
8.4763
42
0.0535
0
VERTEX
8
0
10
4.8173
20
8.6437
42
-0.0639
0
VERTEX
8
0
10
4.8045
20
8.7032
42
0.0847
0
VERTEX
8
0
10
4.7967
20
8.7484
42
-0.0851
0
VERTEX
8
0
10
4.7823
20
8.8365
42
-0.0933
0
VERTEX
8
0
10
4.8022
20
9.0670
42
-0.1926
0
VERTEX
8
0
10
4.9783
20
9.3158
42
-0.5127
0
VERTEX
8
0
10
4.9757
20
9.2760
42
0.1955
0
VERTEX
8
0
10
4.9425
20
9.0806
42
0.1775
0
VERTEX
8
0
10
5.0944
20
8.8787
42
-0.0466
0
VERTEX
8
0
10
5.1302
20
8.8539
42
0.1420
0
VERTEX
8
0
10
5.1430
20
8.8453
42
-0.1296
0
VERTEX
8
0
10
5.1731
20
8.8340
0
VERTEX
8
0
10
5.2191
20
8.8127
42
0.0316
0
VERTEX
8
0
10
5.2645
20
8.7950
42
-0.0250
0
VERTEX
8
0
10
5.3226
20
8.7730
42
0.0859
0
VERTEX
8
0
10
5.3717
20
8.7617
42
-0.1471
0
VERTEX
8
0
10
5.4167
20
8.7569
42
0.1284
0
VERTEX
8
0
10
5.6970
20
8.7573
42
0.0303
0
VERTEX
8
0
10
5.7463
20
8.7708
42
0.4207
0
VERTEX
8
0
10
5.7724
20
8.8640
42
-0.0873
0
VERTEX
8
0
10
5.8190
20
9.0351
42
-0.0288
0
VERTEX
8
0
10
5.9043
20
9.1836
42
0.0548
0
VERTEX
8
0
10
5.9222
20
9.2086
42
-0.2795
0
VERTEX
8
0
10
6.0874
20
9.3572
42
0.0630
0
VERTEX
8
0
10
6.1238
20
9.3780
42
-0.1035
0
VERTEX
8
0
10
6.1586
20
9.3943
42
0.0608
0
VERTEX
8
0
10
6.1895
20
9.4043
42
-0.0898
0
VERTEX
8
0
10
6.2270
20
9.4148
42
0.0635
0
VERTEX
8
0
10
6.2663
20
9.4266
42
-0.1760
0
VERTEX
8
0
10
6.3599
20
9.4372
42
-0.0912
0
VERTEX
8
0
10
6.4663
20
9.4215
42
-0.4798
0
VERTEX
8
0
10
6.3803
20
9.4020
42
0.1191
0
VERTEX
8
0
10
6.3179
20
9.3854
42
-0.0530
0
VERTEX
8
0
10
6.2670
20
9.3694
42
0.2783
0
VERTEX
8
0
10
6.1393
20
9.2921
42
0.0632
0
VERTEX
8
0
10
6.0416
20
9.1769
42
0.1084
0
VERTEX
8
0
10
5.9618
20
8.9389
42
-0.0961
0
VERTEX
8
0
10
5.9258
20
8.7876
0
SEQEND
8
0
0
POLYLINE
8
Layer 1
66
1
0
VERTEX
8
0
10
6.3767
20
8.5222
42
-0.3325
0
VERTEX
8
0
10
6.3087
20
8.4314
42
-0.1957
0
VERTEX
8
0
10
6.2186
20
8.4244
42
-0.1260
0
VERTEX
8
0
10
6.1494
20
8.4934
0
VERTEX
8
0
10
6.1357
20
8.5196
0
VERTEX
8
0
10
6.1497
20
8.5509
42
-0.1384
0
VERTEX
8
0
10
6.1926
20
8.6020
42
-0.1760
0
VERTEX
8
0
10
6.2603
20
8.6197
42
-0.3315
0
VERTEX
8
0
10
6.3767
20
8.5222
0
SEQEND
8
0
0
POLYLINE
8
Layer 1
66
1
0
VERTEX
8
0
10
6.7390
20
8.5846
42
-0.4258
0
VERTEX
8
0
10
6.7062
20
8.5823
42
-0.2493
0
VERTEX
8
0
10
6.7115
20
8.6131
42
0.0866
0
VERTEX
8
0
10
6.7166
20
8.6544
42
-0.1703
0
VERTEX
8
0
10
6.7222
20
8.6892
42
0.0655
0
VERTEX
8
0
10
6.7571
20
8.8159
42
-0.0394
0
VERTEX
8
0
10
6.7777
20
8.8988
42
0.0237
0
VERTEX
8
0
10
6.8127
20
9.0378
42
-0.0142
0
VERTEX
8
0
10
6.8454
20
9.1685
42
-0.0743
0
VERTEX
8
0
10
6.8659
20
9.2150
42
-0.1612
0
VERTEX
8
0
10
7.0987
20
9.3978
42
0.0354
0
VERTEX
8
0
10
7.1726
20
9.4418
42
-0.0271
0
VERTEX
8
0
10
7.2704
20
9.5006
42
0.1003
0
VERTEX
8
0
10
7.2992
20
9.5169
42
-0.0624
0
VERTEX
8
0
10
7.3304
20
9.5348
42
0.0776
0
VERTEX
8
0
10
7.4096
20
9.5820
0
VERTEX
8
0
10
7.5089
20
9.6461
42
-0.0296
0
VERTEX
8
0
10
7.5492
20
9.6689
42
0.1609
0
VERTEX
8
0
10
7.5997
20
9.7017
42
-0.0294
0
VERTEX
8
0
10
7.7547
20
9.8005
42
0.7703
0
VERTEX
8
0
10
7.7503
20
9.8427
42
-0.2446
0
VERTEX
8
0
10
7.7137
20
9.8751
42
-0.9531
0
VERTEX
8
0
10
7.7637
20
9.8782
42
0.0549
0
VERTEX
8
0
10
7.8130
20
9.8667
42
-0.0624
0
VERTEX
8
0
10
7.8601
20
9.8606
42
0.1103
0
VERTEX
8
0
10
7.9123
20
9.8616
42
-0.1714
0
VERTEX
8
0
10
7.9482
20
9.8609
42
-0.1450
0
VERTEX
8
0
10
7.9639
20
9.8446
42
-0.6449
0
VERTEX
8
0
10
7.9020
20
9.8032
42
0.0963
0
VERTEX
8
0
10
7.8393
20
9.7800
42
-0.0164
0
VERTEX
8
0
10
7.6831
20
9.7064
42
0.0906
0
VERTEX
8
0
10
7.6594
20
9.6920
42
-0.1352
0
VERTEX
8
0
10
7.5663
20
9.6313
42
0.1139
0
VERTEX
8
0
10
7.4136
20
9.5276
42
-0.0207
0
VERTEX
8
0
10
7.3619
20
9.4904
42
0.0588
0
VERTEX
8
0
10
7.3331
20
9.4672
42
-0.0910
0
VERTEX
8
0
10
7.3062
20
9.4428
42
0.0788
0
VERTEX
8
0
10
7.1827
20
9.3159
42
-0.0171
0
VERTEX
8
0
10
7.1195
20
9.2384
42
0.0291
0
VERTEX
8
0
10
7.0021
20
9.0870
42
0.0349
0
VERTEX
8
0
10
6.9567
20
9.0141
42
-0.0147
0
VERTEX
8
0
10
6.9027
20
8.9252
42
0.0439
0
VERTEX
8
0
10
6.8580
20
8.8414
42
-0.0201
0
VERTEX
8
0
10
6.8360
20
8.7939
42
0.1107
0
VERTEX
8
0
10
6.8208
20
8.7576
42
-0.0511
0
VERTEX
8
0
10
6.8000
20
8.7127
42
0.0788
0
VERTEX
8
0
10
6.7670
20
8.6448
42
-0.0176
0
VERTEX
8
0
10
6.7390
20
8.5846
0
SEQEND
8
0
0
POLYLINE
8
Layer 1
66
1
0
VERTEX
8
0
10
7.2078
20
7.8584
0
VERTEX
8
0
10
7.1281
20
7.9079
42
-0.0248
0
VERTEX
8
0
10
7.0606
20
7.9543
42
0.0101
0
VERTEX
8
0
10
7.0084
20
7.9974
42
-0.0602
0
VERTEX
8
0
10
6.8639
20
8.1451
42
-0.0696
0
VERTEX
8
0
10
6.7772
20
8.2892
42
-0.0978
0
VERTEX
8
0
10
6.7591
20
8.3907
42
-0.0703
0
VERTEX
8
0
10
6.7771
20
8.5244
42
-0.0397
0
VERTEX
8
0
10
6.8356
20
8.6715
42
-0.0774
0
VERTEX
8
0
10
6.8724
20
8.7213
42
-0.8586
0
VERTEX
8
0
10
6.9003
20
8.6302
42
-0.0058
0
VERTEX
8
0
10
6.9024
20
8.5244
42
0.0622
0
VERTEX
8
0
10
6.9414
20
8.2432
42
0.1298
0
VERTEX
8
0
10
7.1074
20
8.0518
42
-0.0203
0
VERTEX
8
0
10
7.3083
20
7.8667
42
-0.0523
0
VERTEX
8
0
10
7.4222
20
7.7329
42
-0.8676
0
VERTEX
8
0
10
7.3676
20
7.7560
42
0.0462
0
VERTEX
8
0
10
7.2536
20
7.8346
42
-0.0943
0
VERTEX
8
0
10
7.2078
20
7.8584
0
SEQEND
8
0
0
POLYLINE
8
Layer 1
66
1
0
VERTEX
8
0
10
7.0656
20
7.6968
42
-0.7497
0
VERTEX
8
0
10
7.0252
20
7.6929
42
0.0930
0
VERTEX
8
0
10
6.9828
20
7.7119
42
-0.0490
0
VERTEX
8
0
10
6.9440
20
7.7297
42
0.1637
0
VERTEX
8
0
10
6.7471
20
7.8104
42
-0.0465
0
VERTEX
8
0
10
6.5417
20
7.8856
42
0.0818
0
VERTEX
8
0
10
6.5194
20
7.8934
42
-0.2161
0
VERTEX
8
0
10
6.4961
20
7.9056
42
0.1068
0
VERTEX
8
0
10
6.3601
20
7.9733
42
-0.0757
0
VERTEX
8
0
10
6.3200
20
7.9957
42
0.1174
0
VERTEX
8
0
10
6.2833
20
8.0203
42
-0.0442
0
VERTEX
8
0
10
6.2379
20
8.0486
42
0.0657
0
VERTEX
8
0
10
6.2064
20
8.0672
42
-0.1517
0
VERTEX
8
0
10
6.0980
20
8.1457
42
-0.0771
0
VERTEX
8
0
10
5.9290
20
8.3489
42
-0.0719
0
VERTEX
8
0
10
5.8794
20
8.4531
42
0.1511
0
VERTEX
8
0
10
5.8687
20
8.4817
42
-0.3709
0
VERTEX
8
0
10
5.8828
20
8.5391
42
-0.0528
0
VERTEX
8
0
10
5.9514
20
8.4415
42
0.1362
0
VERTEX
8
0
10
6.1468
20
8.2463
42
-0.0150
0
VERTEX
8
0
10
6.1859
20
8.2210
42
0.0091
0
VERTEX
8
0
10
6.2270
20
8.1932
42
-0.0142
0
VERTEX
8
0
10
6.2728
20
8.1611
42
0.0674
0
VERTEX
8
0
10
6.3156
20
8.1375
42
-0.0503
0
VERTEX
8
0
10
6.3575
20
8.1177
42
0.1586
0
VERTEX
8
0
10
6.4220
20
8.1030
42
0.3513
0
VERTEX
8
0
10
6.5191
20
8.1726
0
VERTEX
8
0
10
6.5398
20
8.2276
0
VERTEX
8
0
10
6.5391
20
8.3538
42
0.0271
0
VERTEX
8
0
10
6.5298
20
8.5097
42
-0.0397
0
VERTEX
8
0
10
6.5211
20
8.5516
42
0.2413
0
VERTEX
8
0
10
6.4371
20
8.7127
42
0.1176
0
VERTEX
8
0
10
6.3162
20
8.7939
42
-0.1802
0
VERTEX
8
0
10
6.2921
20
8.8199
42
-1.1711
0
VERTEX
8
0
10
6.3522
20
8.8176
42
-0.0785
0
VERTEX
8
0
10
6.4981
20
8.7223
42
-0.1038
0
VERTEX
8
0
10
6.6285
20
8.5218
42
0.0083
0
VERTEX
8
0
10
6.6441
20
8.4683
42
-0.0746
0
VERTEX
8
0
10
6.6606
20
8.3533
42
0.0328
0
VERTEX
8
0
10
6.6952
20
8.0928
42
-0.1057
0
VERTEX
8
0
10
6.7029
20
8.0726
42
0.2688
0
VERTEX
8
0
10
6.8096
20
7.8997
42
0.0502
0
VERTEX
8
0
10
6.8558
20
7.8627
42
-0.0089
0
VERTEX
8
0
10
6.9088
20
7.8264
42
0.0156
0
VERTEX
8
0
10
6.9513
20
7.7983
42
-0.0685
0
VERTEX
8
0
10
6.9807
20
7.7750
42
0.0763
0
VERTEX
8
0
10
7.0104
20
7.7526
42
-0.1559
0
VERTEX
8
0
10
7.0656
20
7.6968
0
SEQEND
8
0
0
POLYLINE
8
Layer 1
66
1
0
VERTEX
8
0
10
7.1655
20
7.4691
42
-1.0501
0
VERTEX
8
0
10
7.1284
20
7.4707
42
0.0940
0
VERTEX
8
0
10
7.0860
20
7.4928
42
-0.0571
0
VERTEX
8
0
10
7.0387
20
7.5116
42
0.0513
0
VERTEX
8
0
10
6.9851
20
7.5321
42
-0.0220
0
VERTEX
8
0
10
6.9168
20
7.5538
42
0.0435
0
VERTEX
8
0
10
6.7810
20
7.5886
42
-0.1428
0
VERTEX
8
0
10
6.7397
20
7.6017
42
0.0808
0
VERTEX
8
0
10
6.6521
20
7.6255
42
-0.0107
0
VERTEX
8
0
10
6.5585
20
7.6446
42
0.0266
0
VERTEX
8
0
10
6.4837
20
7.6584
42
-0.0151
0
VERTEX
8
0
10
6.4008
20
7.6722
42
0.0261
0
VERTEX
8
0
10
6.3152
20
7.6844
42
-0.0533
0
VERTEX
8
0
10
6.2591
20
7.6955
42
0.1868
0
VERTEX
8
0
10
6.0879
20
7.7167
42
-0.0213
0
VERTEX
8
0
10
6.0037
20
7.7272
42
0.0563
0
VERTEX
8
0
10
5.9863
20
7.7302
42
-0.2359
0
VERTEX
8
0
10
5.9643
20
7.7359
42
0.0980
0
VERTEX
8
0
10
5.9084
20
7.7437
42
-0.0419
0
VERTEX
8
0
10
5.8489
20
7.7486
42
0.0183
0
VERTEX
8
0
10
5.7591
20
7.7625
42
-0.0366
0
VERTEX
8
0
10
5.6698
20
7.7816
42
0.0608
0
VERTEX
8
0
10
5.6324
20
7.7918
42
-0.3984
0
VERTEX
8
0
10
5.5307
20
7.8987
42
0.0600
0
VERTEX
8
0
10
5.5105
20
7.9335
42
-0.1264
0
VERTEX
8
0
10
5.4302
20
8.0892
42
0.1602
0
VERTEX
8
0
10
5.4230
20
8.1101
42
-0.0929
0
VERTEX
8
0
10
5.4063
20
8.1501
42
0.0165
0
VERTEX
8
0
10
5.3894
20
8.1971
42
-0.0878
0
VERTEX
8
0
10
5.3820
20
8.2298
42
0.1406
0
VERTEX
8
0
10
5.3685
20
8.2747
42
-0.2289
0
VERTEX
8
0
10
5.3696
20
8.3357
42
-0.6164
0
VERTEX
8
0
10
5.4120
20
8.2952
42
0.0873
0
VERTEX
8
0
10
5.5036
20
8.1659
42
0.0525
0
VERTEX
8
0
10
5.5582
20
8.1167
42
-0.0238
0
VERTEX
8
0
10
5.6040
20
8.0800
42
0.1099
0
VERTEX
8
0
10
5.6438
20
8.0566
42
-0.0587
0
VERTEX
8
0
10
5.6759
20
8.0408
42
0.1168
0
VERTEX
8
0
10
5.8245
20
7.9629
42
-0.1927
0
VERTEX
8
0
10
5.8515
20
7.9495
42
0.0626
0
VERTEX
8
0
10
5.8776
20
7.9362
42
-0.1309
0
VERTEX
8
0
10
5.9259
20
7.9169
42
0.0494
0
VERTEX
8
0
10
6.0394
20
7.8774
42
-0.1476
0
VERTEX
8
0
10
6.0735
20
7.8666
42
0.0883
0
VERTEX
8
0
10
6.1643
20
7.8375
42
-0.0177
0
VERTEX
8
0
10
6.2548
20
7.8110
42
0.0791
0
VERTEX
8
0
10
6.3243
20
7.7941
42
-0.0353
0
VERTEX
8
0
10
6.4195
20
7.7707
42
0.0244
0
VERTEX
8
0
10
6.5077
20
7.7464
42
-0.0310
0
VERTEX
8
0
10
6.5612
20
7.7313
42
0.1049
0
VERTEX
8
0
10
6.5960
20
7.7216
42
-0.0433
0
VERTEX
8
0
10
6.6922
20
7.6972
0
VERTEX
8
0
10
6.7618
20
7.6734
42
-0.0299
0
VERTEX
8
0
10
6.8321
20
7.6446
42
0.0722
0
VERTEX
8
0
10
6.8973
20
7.6212
42
-0.0612
0
VERTEX
8
0
10
6.9543
20
7.5993
42
0.1005
0
VERTEX
8
0
10
7.0033
20
7.5776
42
-0.0590
0
VERTEX
8
0
10
7.0552
20
7.5549
42
0.0461
0
VERTEX
8
0
10
7.0863
20
7.5383
42
-0.2050
0
VERTEX
8
0
10
7.1655
20
7.4691
0
SEQEND
8
0
0
POLYLINE
8
Layer 1
66
1
0
VERTEX
8
0
10
7.8446
20
7.0185
42
-0.0140
0
VERTEX
8
0
10
7.8233
20
7.0374
42
0.0327
0
VERTEX
8
0
10
7.7511
20
7.0955
42
-0.0411
0
VERTEX
8
0
10
7.7177
20
7.1210
42
0.2004
0
VERTEX
8
0
10
7.6006
20
7.1901
42
-0.0132
0
VERTEX
8
0
10
7.5586
20
7.2114
42
0.0417
0
VERTEX
8
0
10
7.4162
20
7.2784
42
-0.2597
0
VERTEX
8
0
10
7.4029
20
7.2872
42
0.2633
0
VERTEX
8
0
10
7.2612
20
7.3387
42
-0.2096
0
VERTEX
8
0
10
7.2353
20
7.3457
42
-0.3883
0
VERTEX
8
0
10
7.2346
20
7.3616
42
-0.4029
0
VERTEX
8
0
10
7.3770
20
7.3410
42
-0.0315
0
VERTEX
8
0
10
7.5131
20
7.2868
42
0.0174
0
VERTEX
8
0
10
7.5586
20
7.2675
42
-0.0723
0
VERTEX
8
0
10
7.5943
20
7.2481
42
0.7126
0
VERTEX
8
0
10
7.6239
20
7.2686
42
-0.0265
0
VERTEX
8
0
10
7.5880
20
7.3163
42
0.0557
0
VERTEX
8
0
10
7.4278
20
7.4977
42
-0.0352
0
VERTEX
8
0
10
7.3767
20
7.5460
42
0.0160
0
VERTEX
8
0
10
7.2888
20
7.6288
42
-0.0363
0
VERTEX
8
0
10
7.2105
20
7.7105
42
-0.2814
0
VERTEX
8
0
10
7.2338
20
7.7015
42
0.0203
0
VERTEX
8
0
10
7.2760
20
7.6772
42
-0.0552
0
VERTEX
8
0
10
7.3247
20
7.6436
42
0.0149
0
VERTEX
8
0
10
7.3769
20
7.6019
42
-0.0492
0
VERTEX
8
0
10
7.5639
20
7.4297
42
-0.0252
0
VERTEX
8
0
10
7.6968
20
7.2772
42
0.0298
0
VERTEX
8
0
10
7.7358
20
7.2268
42
-0.0541
0
VERTEX
8
0
10
7.7663
20
7.1825
42
0.0741
0
VERTEX
8
0
10
7.7926
20
7.1422
42
-0.0671
0
VERTEX
8
0
10
7.8235
20
7.0931
42
0.0467
0
VERTEX
8
0
10
7.8421
20
7.0618
42
-0.2739
0
VERTEX
8
0
10
7.8677
20
7.0068
42
-1.2762
0
VERTEX
8
0
10
7.8446
20
7.0185
0
SEQEND
8
0
0
POLYLINE
8
Layer 1
66
1
0
VERTEX
8
0
10
7.5319
20
6.4495
42
0.0890
0
VERTEX
8
0
10
7.5089
20
6.3987
42
-0.0472
0
VERTEX
8
0
10
7.3949
20
6.1582
42
-0.1166
0
VERTEX
8
0
10
7.1940
20
5.9502
42
-0.0849
0
VERTEX
8
0
10
7.0139
20
5.8715
42
0.0676
0
VERTEX
8
0
10
6.9642
20
5.8557
42
-0.1585
0
VERTEX
8
0
10
6.8941
20
5.8429
42
-0.7575
0
VERTEX
8
0
10
6.9124
20
5.8775
42
-0.0068
0
VERTEX
8
0
10
6.9422
20
5.9081
42
0.0274
0
VERTEX
8
0
10
7.0211
20
5.9975
42
-0.0228
0
VERTEX
8
0
10
7.0896
20
6.0827
42
0.0673
0
VERTEX
8
0
10
7.2714
20
6.3639
42
0.0602
0
VERTEX
8
0
10
7.3711
20
6.6554
42
-0.0034
0
VERTEX
8
0
10
7.3877
20
6.7383
42
0.1825
0
VERTEX
8
0
10
7.3770
20
6.8116
42
0.1250
0
VERTEX
8
0
10
7.3005
20
6.9324
42
-0.0303
0
VERTEX
8
0
10
7.2091
20
7.0187
42
0.0312
0
VERTEX
8
0
10
7.1182
20
7.0975
42
-0.0587
0
VERTEX
8
0
10
7.0785
20
7.1240
42
0.0636
0
VERTEX
8
0
10
7.0384
20
7.1507
42
-0.0331
0
VERTEX
8
0
10
6.9944
20
7.1768
42
0.0632
0
VERTEX
8
0
10
6.6254
20
7.3669
42
-0.0866
0
VERTEX
8
0
10
6.5875
20
7.3830
42
0.0736
0
VERTEX
8
0
10
6.5394
20
7.4016
42
-0.0221
0
VERTEX
8
0
10
6.4543
20
7.4255
42
0.0153
0
VERTEX
8
0
10
6.2350
20
7.4849
42
-0.0224
0
VERTEX
8
0
10
6.0505
20
7.5286
42
-0.1279
0
VERTEX
8
0
10
6.0157
20
7.5481
42
-0.7985
0
VERTEX
8
0
10
6.0634
20
7.5590
42
0.0704
0
VERTEX
8
0
10
6.2156
20
7.5296
42
-0.0236
0
VERTEX
8
0
10
6.2914
20
7.5136
42
0.1399
0
VERTEX
8
0
10
6.3172
20
7.5084
42
-0.0844
0
VERTEX
8
0
10
6.3465
20
7.5033
42
0.0799
0
VERTEX
8
0
10
6.4043
20
7.4923
42
-0.0527
0
VERTEX
8
0
10
6.4703
20
7.4763
42
0.1010
0
VERTEX
8
0
10
6.5799
20
7.4499
42
-0.0660
0
VERTEX
8
0
10
6.6496
20
7.4292
42
0.0297
0
VERTEX
8
0
10
6.7221
20
7.4072
42
-0.0693
0
VERTEX
8
0
10
6.7915
20
7.3835
42
0.0257
0
VERTEX
8
0
10
6.8574
20
7.3587
42
-0.0716
0
VERTEX
8
0
10
6.9456
20
7.3205
42
0.0148
0
VERTEX
8
0
10
7.0433
20
7.2759
42
-0.0567
0
VERTEX
8
0
10
7.0989
20
7.2468
42
0.0558
0
VERTEX
8
0
10
7.1279
20
7.2303
42
-0.1972
0
VERTEX
8
0
10
7.1628
20
7.2089
42
0.0682
0
VERTEX
8
0
10
7.2014
20
7.1875
42
-0.2048
0
VERTEX
8
0
10
7.2384
20
7.1688
42
0.0504
0
VERTEX
8
0
10
7.2725
20
7.1501
42
-0.2021
0
VERTEX
8
0
10
7.3065
20
7.1300
42
0.0275
0
VERTEX
8
0
10
7.3592
20
7.0951
42
-0.0289
0
VERTEX
8
0
10
7.4062
20
7.0642
42
0.0095
0
VERTEX
8
0
10
7.4592
20
7.0261
42
-0.0787
0
VERTEX
8
0
10
7.5976
20
6.8934
42
-0.2358
0
VERTEX
8
0
10
7.6082
20
6.7891
42
-0.0527
0
VERTEX
8
0
10
7.5845
20
6.5885
42
-0.0487
0
VERTEX
8
0
10
7.5319
20
6.4495
0
SEQEND
8
0
0
POLYLINE
8
Layer 1
66
1
0
VERTEX
8
0
10
8.1213
20
6.2373
42
-0.0533
0
VERTEX
8
0
10
8.0607
20
6.1741
42
0.0070
0
VERTEX
8
0
10
7.9772
20
6.1032
42
-0.0287
0
VERTEX
8
0
10
7.9197
20
6.0591
42
0.1724
0
VERTEX
8
0
10
7.8763
20
6.0352
42
-0.1601
0
VERTEX
8
0
10
7.8164
20
6.0194
42
-0.2829
0
VERTEX
8
0
10
7.8192
20
6.0555
42
0.1605
0
VERTEX
8
0
10
7.8104
20
6.2195
42
-0.0475
0
VERTEX
8
0
10
7.7993
20
6.2837
42
0.0862
0
VERTEX
8
0
10
7.7885
20
6.3417
42
-0.1157
0
VERTEX
8
0
10
7.7835
20
6.4096
42
-0.8644
0
VERTEX
8
0
10
7.8290
20
6.3559
42
-0.0274
0
VERTEX
8
0
10
7.8573
20
6.2864
42
0.0748
0
VERTEX
8
0
10
7.8979
20
6.2119
42
0.1999
0
VERTEX
8
0
10
7.9341
20
6.1940
42
0.2730
0
VERTEX
8
0
10
7.9601
20
6.2472
42
0.1324
0
VERTEX
8
0
10
7.9640
20
6.4468
42
-0.0404
0
VERTEX
8
0
10
7.9519
20
6.4976
42
0.1130
0
VERTEX
8
0
10
7.9194
20
6.5818
42
-0.0203
0
VERTEX
8
0
10
7.8901
20
6.6488
42
0.1777
0
VERTEX
8
0
10
7.8828
20
6.6662
42
-0.0554
0
VERTEX
8
0
10
7.8027
20
6.8144
42
-0.0397
0
VERTEX
8
0
10
7.7458
20
6.9476
42
-0.6858
0
VERTEX
8
0
10
7.7703
20
6.9571
42
-0.1332
0
VERTEX
8
0
10
7.7911
20
6.9258
42
0.0678
0
VERTEX
8
0
10
7.8331
20
6.8653
42
-0.0398
0
VERTEX
8
0
10
7.8665
20
6.8171
42
0.1363
0
VERTEX
8
0
10
7.9110
20
6.7555
42
-0.0106
0
VERTEX
8
0
10
7.9634
20
6.6886
42
0.0129
0
VERTEX
8
0
10
7.9934
20
6.6474
42
-0.0352
0
VERTEX
8
0
10
8.0212
20
6.6047
42
0.0720
0
VERTEX
8
0
10
8.0647
20
6.5440
42
-0.0354
0
VERTEX
8
0
10
8.0987
20
6.4953
42
0.1945
0
VERTEX
8
0
10
8.1201
20
6.4588
42
-0.0297
0
VERTEX
8
0
10
8.1415
20
6.4249
42
0.1086
0
VERTEX
8
0
10
8.1633
20
6.3785
42
-0.2350
0
VERTEX
8
0
10
8.1644
20
6.2931
0
VERTEX
8
0
10
8.1213
20
6.2373
0
SEQEND
8
0
0
POLYLINE
8
Layer 1
66
1
0
VERTEX
8
0
10
8.2137
20
6.1611
42
-0.0950
0
VERTEX
8
0
10
8.1383
20
6.1521
42
-0.3789
0
VERTEX
8
0
10
8.1700
20
6.1940
42
0.0599
0
VERTEX
8
0
10
8.2624
20
6.3136
42
0.3550
0
VERTEX
8
0
10
8.2054
20
6.4361
42
0.0257
0
VERTEX
8
0
10
8.1752
20
6.4849
42
-0.2957
0
VERTEX
8
0
10
8.1728
20
6.5194
42
-0.0169
0
VERTEX
8
0
10
8.2912
20
6.5266
42
0.0097
0
VERTEX
8
0
10
8.5405
20
6.5451
42
0.0359
0
VERTEX
8
0
10
8.6110
20
6.5558
42
-0.1467
0
VERTEX
8
0
10
8.6430
20
6.5618
42
0.0667
0
VERTEX
8
0
10
8.9587
20
6.6038
42
-0.0757
0
VERTEX
8
0
10
9.0363
20
6.6150
42
0.0223
0
VERTEX
8
0
10
9.1335
20
6.6285
42
-0.0288
0
VERTEX
8
0
10
9.1860
20
6.6366
42
0.0939
0
VERTEX
8
0
10
9.2101
20
6.6414
42
-0.1003
0
VERTEX
8
0
10
9.2418
20
6.6499
0
VERTEX
8
0
10
9.2645
20
6.6537
0
VERTEX
8
0
10
9.7044
20
6.7595
42
-0.0467
0
VERTEX
8
0
10
9.1133
20
6.4230
42
-0.0620
0
VERTEX
8
0
10
9.0495
20
6.4011
42
0.0657
0
VERTEX
8
0
10
8.9853
20
6.3804
42
-0.0478
0
VERTEX
8
0
10
8.9230
20
6.3592
42
0.0594
0
VERTEX
8
0
10
8.8572
20
6.3368
42
-0.0500
0
VERTEX
8
0
10
8.7923
20
6.3158
42
0.0603
0
VERTEX
8
0
10
8.7324
20
6.2980
42
-0.0556
0
VERTEX
8
0
10
8.6469
20
6.2736
42
0.0341
0
VERTEX
8
0
10
8.5613
20
6.2496
42
-0.0604
0
VERTEX
8
0
10
8.4891
20
6.2303
42
0.0432
0
VERTEX
8
0
10
8.4225
20
6.2135
42
-0.0585
0
VERTEX
8
0
10
8.3209
20
6.1873
42
0.0152
0
VERTEX
8
0
10
8.2137
20
6.1611
0
SEQEND
8
0
0
POLYLINE
8
Layer 1
66
1
0
VERTEX
8
0
10
8.5510
20
4.7691
42
-0.0330
0
VERTEX
8
0
10
8.5169
20
4.8166
42
0.0918
0
VERTEX
8
0
10
8.3596
20
4.9762
42
-0.0814
0
VERTEX
8
0
10
8.3376
20
4.9970
42
0.5368
0
VERTEX
8
0
10
8.2601
20
5.0136
42
0.0556
0
VERTEX
8
0
10
8.1789
20
4.9999
42
-0.0631
0
VERTEX
8
0
10
8.0800
20
4.9849
42
0.0079
0
VERTEX
8
0
10
7.7939
20
4.9571
42
-0.0324
0
VERTEX
8
0
10
7.5399
20
4.9385
42
0.0087
0
VERTEX
8
0
10
7.3366
20
4.9308
42
-0.0271
0
VERTEX
8
0
10
6.6554
20
4.9366
42
0.0581
0
VERTEX
8
0
10
6.5993
20
4.9387
42
-0.1095
0
VERTEX
8
0
10
6.3767
20
4.9568
42
0.0165
0
VERTEX
8
0
10
6.2297
20
4.9708
42
-0.0235
0
VERTEX
8
0
10
6.1187
20
4.9819
42
0.0214
0
VERTEX
8
0
10
6.0543
20
4.9896
42
-0.1071
0
VERTEX
8
0
10
6.0063
20
5.0002
42
0.0885
0
VERTEX
8
0
10
5.9410
20
5.0109
42
-0.0827
0
VERTEX
8
0
10
5.7510
20
5.0429
42
0.0259
0
VERTEX
8
0
10
5.6815
20
5.0562
42
-0.0510
0
VERTEX
8
0
10
5.5478
20
5.0859
42
0.0435
0
VERTEX
8
0
10
5.4783
20
5.1015
42
-0.0377
0
VERTEX
8
0
10
5.4195
20
5.1153
42
0.0525
0
VERTEX
8
0
10
5.3312
20
5.1396
42
-0.0210
0
VERTEX
8
0
10
5.2480
20
5.1636
42
0.0863
0
VERTEX
8
0
10
5.1865
20
5.1817
42
-0.0281
0
VERTEX
8
0
10
5.0856
20
5.2113
42
0.1073
0
VERTEX
8
0
10
5.0380
20
5.2270
42
-0.0489
0
VERTEX
8
0
10
4.9888
20
5.2442
42
0.0972
0
VERTEX
8
0
10
4.9186
20
5.2710
42
-0.0334
0
VERTEX
8
0
10
4.8524
20
5.2972
42
0.1703
0
VERTEX
8
0
10
4.8024
20
5.3156
42
-0.0524
0
VERTEX
8
0
10
4.7467
20
5.3363
42
0.0954
0
VERTEX
8
0
10
4.6965
20
5.3581
42
-0.0542
0
VERTEX
8
0
10
4.6471
20
5.3806
42
0.1123
0
VERTEX
8
0
10
4.6000
20
5.4025
42
-0.0535
0
VERTEX
8
0
10
4.5479
20
5.4262
42
0.0775
0
VERTEX
8
0
10
4.5211
20
5.4388
42
-0.1615
0
VERTEX
8
0
10
4.4598
20
5.4682
42
0.0099
0
VERTEX
8
0
10
4.4036
20
5.4976
42
-0.1205
0
VERTEX
8
0
10
4.3734
20
5.5159
42
0.0403
0
VERTEX
8
0
10
4.3254
20
5.5429
42
-0.0710
0
VERTEX
8
0
10
4.2938
20
5.5618
42
0.1075
0
VERTEX
8
0
10
4.2616
20
5.5807
42
-0.0724
0
VERTEX
8
0
10
4.2285
20
5.6004
42
0.0576
0
VERTEX
8
0
10
4.1904
20
5.6280
42
-0.0236
0
VERTEX
8
0
10
4.0103
20
5.7543
42
0.0170
0
VERTEX
8
0
10
3.9595
20
5.7937
42
-0.0493
0
VERTEX
8
0
10
3.9034
20
5.8408
42
0.0147
0
VERTEX
8
0
10
3.8546
20
5.8830
42
-0.0869
0
VERTEX
8
0
10
3.5278
20
6.2008
42
0.0110
0
VERTEX
8
0
10
3.4629
20
6.2757
42
-0.0112
0
VERTEX
8
0
10
3.4020
20
6.3472
42
0.0033
0
VERTEX
8
0
10
3.3472
20
6.4159
42
-0.0176
0
VERTEX
8
0
10
3.2910
20
6.4915
42
0.0120
0
VERTEX
8
0
10
3.2370
20
6.5671
42
-0.0249
0
VERTEX
8
0
10
3.1226
20
6.7380
0
VERTEX
8
0
10
3.0767
20
6.8119
42
-0.0162
0
VERTEX
8
0
10
2.9801
20
6.9780
0
VERTEX
8
0
10
2.9433
20
7.0475
42
0.0048
0
VERTEX
8
0
10
2.9183
20
7.0939
42
-0.0340
0
VERTEX
8
0
10
2.8496
20
7.2383
42
0.0030
0
VERTEX
8
0
10
2.8235
20
7.2965
42
-0.0248
0
VERTEX
8
0
10
2.8044
20
7.3452
42
0.4726
0
VERTEX
8
0
10
2.7792
20
7.3649
42
0.3318
0
VERTEX
8
0
10
2.7510
20
7.2891
42
-0.0069
0
VERTEX
8
0
10
2.7325
20
7.2169
42
0.0346
0
VERTEX
8
0
10
2.6811
20
6.9575
42
-0.0154
0
VERTEX
8
0
10
2.6732
20
6.9143
42
0.0834
0
VERTEX
8
0
10
2.6554
20
6.7009
42
0.0765
0
VERTEX
8
0
10
2.7026
20
6.1527
42
-0.0054
0
VERTEX
8
0
10
2.7214
20
6.0725
42
0.0192
0
VERTEX
8
0
10
2.7729
20
5.8826
0
VERTEX
8
0
10
2.7964
20
5.8024
42
0.0265
0
VERTEX
8
0
10
2.8599
20
5.6206
42
0.0068
0
VERTEX
8
0
10
2.9282
20
5.4452
42
-0.0600
0
VERTEX
8
0
10
2.9364
20
5.4139
42
-0.4334
0
VERTEX
8
0
10
2.9157
20
5.4374
0
VERTEX
8
0
10
2.8841
20
5.4847
42
-0.0215
0
VERTEX
8
0
10
2.8391
20
5.5591
42
0.0060
0
VERTEX
8
0
10
2.7959
20
5.6313
42
-0.0327
0
VERTEX
8
0
10
2.7520
20
5.7115
0
VERTEX
8
0
10
2.6947
20
5.8211
42
-0.0107
0
VERTEX
8
0
10
2.6279
20
5.9552
42
0.0940
0
VERTEX
8
0
10
2.6041
20
6.0077
42
-0.0148
0
VERTEX
8
0
10
2.5581
20
6.1099
42
-0.0169
0
VERTEX
8
0
10
2.4737
20
6.3345
42
-0.0211
0
VERTEX
8
0
10
2.4033
20
6.5565
42
0.0068
0
VERTEX
8
0
10
2.3820
20
6.6313
42
-0.0258
0
VERTEX
8
0
10
2.3635
20
6.7062
42
-0.0094
0
VERTEX
8
0
10
2.3311
20
6.8853
42
0.0223
0
VERTEX
8
0
10
2.3202
20
6.9575
42
-0.0761
0
VERTEX
8
0
10
2.3012
20
7.5271
42
-0.0255
0
VERTEX
8
0
10
2.3417
20
7.8560
42
0.0035
0
VERTEX
8
0
10
2.3548
20
7.9201
42
-0.0230
0
VERTEX
8
0
10
2.4118
20
8.1554
42
-0.0135
0
VERTEX
8
0
10
2.4756
20
8.3587
42
0.0068
0
VERTEX
8
0
10
2.5129
20
8.4576
42
-0.0255
0
VERTEX
8
0
10
2.5582
20
8.5645
42
0.0152
0
VERTEX
8
0
10
2.5879
20
8.6309
42
-0.0729
0
VERTEX
8
0
10
2.6771
20
8.8132
42
-0.0255
0
VERTEX
8
0
10
2.8644
20
9.1201
42
0.0147
0
VERTEX
8
0
10
2.9100
20
9.1868
42
-0.0269
0
VERTEX
8
0
10
2.9608
20
9.2569
42
0.0106
0
VERTEX
8
0
10
3.0130
20
9.3245
42
-0.0254
0
VERTEX
8
0
10
3.0630
20
9.3861
42
-0.0193
0
VERTEX
8
0
10
3.1809
20
9.5068
42
-0.6356
0
VERTEX
8
0
10
3.1760
20
9.4309
42
0.0362
0
VERTEX
8
0
10
3.1627
20
9.3640
42
-0.0166
0
VERTEX
8
0
10
3.1517
20
9.3049
42
0.0736
0
VERTEX
8
0
10
3.1111
20
8.8961
42
0.0629
0
VERTEX
8
0
10
3.1822
20
8.0191
42
0.0318
0
VERTEX
8
0
10
3.2861
20
7.6604
42
-0.2916
0
VERTEX
8
0
10
3.2743
20
7.5650
42
0.0032
0
VERTEX
8
0
10
3.2389
20
7.5030
42
-0.0204
0
VERTEX
8
0
10
3.1529
20
7.3624
42
0.1563
0
VERTEX
8
0
10
3.1456
20
7.3362
42
0.7539
0
VERTEX
8
0
10
3.2206
20
7.3812
42
-0.0136
0
VERTEX
8
0
10
3.2748
20
7.4255
42
0.0107
0
VERTEX
8
0
10
3.3236
20
7.4650
42
-0.2228
0
VERTEX
8
0
10
3.3551
20
7.4737
42
-0.1515
0
VERTEX
8
0
10
3.3747
20
7.4395
42
0.0269
0
VERTEX
8
0
10
3.3876
20
7.4094
42
-0.0382
0
VERTEX
8
0
10
3.4285
20
7.3319
42
0.0238
0
VERTEX
8
0
10
3.5300
20
7.1556
42
-0.0307
0
VERTEX
8
0
10
3.5640
20
7.1010
42
0.0674
0
VERTEX
8
0
10
3.5908
20
7.0618
42
-0.0661
0
VERTEX
8
0
10
3.6251
20
7.0137
42
0.0439
0
VERTEX
8
0
10
3.6737
20
6.9468
42
-0.0068
0
VERTEX
8
0
10
3.7422
20
6.8639
42
0.0516
0
VERTEX
8
0
10
4.0397
20
6.5653
42
-0.0051
0
VERTEX
8
0
10
4.1620
20
6.4666
42
0.0572
0
VERTEX
8
0
10
4.1922
20
6.4458
42
-0.0700
0
VERTEX
8
0
10
4.2296
20
6.4187
42
0.0630
0
VERTEX
8
0
10
4.3763
20
6.3211
42
-0.1490
0
VERTEX
8
0
10
4.4092
20
6.3005
42
0.0452
0
VERTEX
8
0
10
4.4515
20
6.2758
42
-0.1134
0
VERTEX
8
0
10
4.4760
20
6.2617
42
0.0881
0
VERTEX
8
0
10
4.5214
20
6.2337
42
-0.0065
0
VERTEX
8
0
10
4.6785
20
6.1496
42
0.2042
0
VERTEX
8
0
10
4.6925
20
6.1447
42
-0.1924
0
VERTEX
8
0
10
4.7201
20
6.1320
42
0.0713
0
VERTEX
8
0
10
4.7757
20
6.1049
42
-0.0208
0
VERTEX
8
0
10
4.8366
20
6.0782
42
0.0380
0
VERTEX
8
0
10
4.8820
20
6.0590
42
-0.0417
0
VERTEX
8
0
10
4.9248
20
6.0415
42
0.0555
0
VERTEX
8
0
10
5.0959
20
5.9777
42
-0.0096
0
VERTEX
8
0
10
5.1761
20
5.9494
42
0.0300
0
VERTEX
8
0
10
5.2701
20
5.9212
42
-0.0361
0
VERTEX
8
0
10
5.3406
20
5.8993
42
0.0695
0
VERTEX
8
0
10
5.3789
20
5.8880
42
-0.0997
0
VERTEX
8
0
10
5.4153
20
5.8803
42
0.0340
0
VERTEX
8
0
10
5.4596
20
5.8689
42
-0.0611
0
VERTEX
8
0
10
5.4943
20
5.8584
42
0.1307
0
VERTEX
8
0
10
5.6173
20
5.8317
42
-0.0301
0
VERTEX
8
0
10
5.6869
20
5.8154
42
0.1057
0
VERTEX
8
0
10
5.9011
20
5.7814
42
-0.0499
0
VERTEX
8
0
10
5.9479
20
5.7709
42
0.1578
0
VERTEX
8
0
10
6.2216
20
5.7379
42
-0.0188
0
VERTEX
8
0
10
6.3179
20
5.7251
42
0.0738
0
VERTEX
8
0
10
7.0505
20
5.7085
42
0.0138
0
VERTEX
8
0
10
7.4570
20
5.7272
42
-0.0181
0
VERTEX
8
0
10
7.5773
20
5.7379
42
0.0232
0
VERTEX
8
0
10
7.9062
20
5.7752
42
-0.0403
0
VERTEX
8
0
10
7.9944
20
5.7861
42
0.0252
0
VERTEX
8
0
10
8.1682
20
5.8108
42
-0.0757
0
VERTEX
8
0
10
8.2297
20
5.8241
42
0.0068
0
VERTEX
8
0
10
8.3180
20
5.8377
42
-0.0271
0
VERTEX
8
0
10
8.3860
20
5.8452
42
0.1039
0
VERTEX
8
0
10
8.4353
20
5.8558
42
-0.0923
0
VERTEX
8
0
10
8.5742
20
5.8828
42
0.0451
0
VERTEX
8
0
10
8.6576
20
5.9010
42
-0.0374
0
VERTEX
8
0
10
8.7645
20
5.9255
42
0.0320
0
VERTEX
8
0
10
8.8539
20
5.9472
42
-0.1341
0
VERTEX
8
0
10
8.9308
20
5.9568
42
-0.0840
0
VERTEX
8
0
10
8.9469
20
5.4254
0
VERTEX
8
0
10
8.9517
20
5.1874
0
VERTEX
8
0
10
8.9591
20
4.8211
0
VERTEX
8
0
10
8.9736
20
4.1190
42
-0.0072
0
VERTEX
8
0
10
8.9765
20
3.6834
42
-0.7654
0
VERTEX
8
0
10
8.9373
20
3.7125
42
-0.0080
0
VERTEX
8
0
10
8.9021
20
3.7489
42
0.0192
0
VERTEX
8
0
10
8.7003
20
3.9462
42
0.0430
0
VERTEX
8
0
10
8.5382
20
4.0644
42
-0.2096
0
VERTEX
8
0
10
8.5176
20
4.0767
42
0.0643
0
VERTEX
8
0
10
8.3903
20
4.1553
42
-0.1600
0
VERTEX
8
0
10
8.3615
20
4.1733
42
0.0636
0
VERTEX
8
0
10
8.3167
20
4.1978
42
-0.0763
0
VERTEX
8
0
10
8.2935
20
4.2094
42
0.1785
0
VERTEX
8
0
10
8.1575
20
4.2754
42
-0.0594
0
VERTEX
8
0
10
8.1121
20
4.2946
42
0.0396
0
VERTEX
8
0
10
7.9383
20
4.3623
42
-0.0143
0
VERTEX
8
0
10
7.8794
20
4.3838
42
0.0716
0
VERTEX
8
0
10
7.6575
20
4.4449
42
-0.0168
0
VERTEX
8
0
10
7.5719
20
4.4656
42
0.0645
0
VERTEX
8
0
10
6.7497
20
4.5666
42
0.0215
0
VERTEX
8
0
10
6.2912
20
4.5459
0
VERTEX
8
0
10
6.1842
20
4.5303
42
-0.0046
0
VERTEX
8
0
10
6.0612
20
4.5135
42
0.0207
0
VERTEX
8
0
10
5.9596
20
4.4970
42
-0.0119
0
VERTEX
8
0
10
5.8553
20
4.4790
42
0.0186
0
VERTEX
8
0
10
5.6922
20
4.4496
42
-0.0636
0
VERTEX
8
0
10
5.5543
20
4.4173
42
0.1248
0
VERTEX
8
0
10
5.5222
20
4.4087
42
-0.0415
0
VERTEX
8
0
10
5.4435
20
4.3822
42
0.0148
0
VERTEX
8
0
10
5.3259
20
4.3431
0
VERTEX
8
0
10
5.2350
20
4.3102
42
0.0268
0
VERTEX
8
0
10
5.1975
20
4.2945
42
-0.1081
0
VERTEX
8
0
10
5.1788
20
4.2863
42
0.0759
0
VERTEX
8
0
10
4.9760
20
4.1853
42
-0.0816
0
VERTEX
8
0
10
4.9444
20
4.1663
42
0.0433
0
VERTEX
8
0
10
4.8956
20
4.1362
42
-0.0445
0
VERTEX
8
0
10
4.8647
20
4.1179
42
0.1774
0
VERTEX
8
0
10
4.8139
20
4.0810
42
-0.0176
0
VERTEX
8
0
10
4.7465
20
4.0301
42
0.1045
0
VERTEX
8
0
10
4.5159
20
3.8042
42
0.0277
0
VERTEX
8
0
10
4.3971
20
3.6419
42
0.0330
0
VERTEX
8
0
10
4.2934
20
3.4536
42
-0.0431
0
VERTEX
8
0
10
4.2807
20
3.4257
42
0.1060
0
VERTEX
8
0
10
4.2589
20
3.3745
0
VERTEX
8
0
10
4.2259
20
3.2863
42
0.0245
0
VERTEX
8
0
10
4.1977
20
3.1980
42
-0.0037
0
VERTEX
8
0
10
4.1764
20
3.1205
42
0.0509
0
VERTEX
8
0
10
4.1326
20
2.8745
42
-0.0280
0
VERTEX
8
0
10
4.1216
20
2.7819
42
0.0919
0
VERTEX
8
0
10
4.1274
20
2.4333
42
0.0457
0
VERTEX
8
0
10
4.2129
20
2.1243
42
-0.0525
0
VERTEX
8
0
10
4.2216
20
2.1022
42
0.1083
0
VERTEX
8
0
10
4.2552
20
2.0257
42
0.0403
0
VERTEX
8
0
10
4.3501
20
1.8616
42
-0.0202
0
VERTEX
8
0
10
4.3837
20
1.8108
42
0.0870
0
VERTEX
8
0
10
4.6534
20
1.5044
42
-0.0750
0
VERTEX
8
0
10
4.6708
20
1.4861
42
-0.9240
0
VERTEX
8
0
10
4.6467
20
1.4868
42
0.1957
0
VERTEX
8
0
10
4.6236
20
1.5005
42
-0.0544
0
VERTEX
8
0
10
4.5745
20
1.5276
42
0.0030
0
VERTEX
8
0
10
4.5077
20
1.5699
42
-0.0770
0
VERTEX
8
0
10
4.1396
20
1.8884
42
-0.0666
0
VERTEX
8
0
10
3.9418
20
2.1809
42
-0.0103
0
VERTEX
8
0
10
3.9060
20
2.2497
42
0.1134
0
VERTEX
8
0
10
3.8686
20
2.3371
42
-0.0556
0
VERTEX
8
0
10
3.8447
20
2.4012
42
0.0104
0
VERTEX
8
0
10
3.8249
20
2.4601
42
-0.0927
0
VERTEX
8
0
10
3.7532
20
2.8050
42
-0.0295
0
VERTEX
8
0
10
3.7421
20
3.0109
42
-0.0355
0
VERTEX
8
0
10
3.7530
20
3.2382
42
-0.0281
0
VERTEX
8
0
10
3.7929
20
3.4280
42
-0.0869
0
VERTEX
8
0
10
3.9690
20
3.8077
42
-0.0708
0
VERTEX
8
0
10
4.2455
20
4.1108
42
-0.0156
0
VERTEX
8
0
10
4.3633
20
4.2047
42
0.0805
0
VERTEX
8
0
10
4.3895
20
4.2242
42
-0.0993
0
VERTEX
8
0
10
4.4242
20
4.2495
42
0.0146
0
VERTEX
8
0
10
4.4756
20
4.2809
42
-0.0334
0
VERTEX
8
0
10
4.6724
20
4.3906
42
0.2560
0
VERTEX
8
0
10
4.6894
20
4.4012
42
-0.1572
0
VERTEX
8
0
10
4.7287
20
4.4229
42
0.0410
0
VERTEX
8
0
10
4.7913
20
4.4524
42
-0.0436
0
VERTEX
8
0
10
4.8323
20
4.4708
42
0.1524
0
VERTEX
8
0
10
4.8782
20
4.4897
42
-0.0333
0
VERTEX
8
0
10
4.9418
20
4.5164
42
0.0473
0
VERTEX
8
0
10
4.9939
20
4.5376
42
-0.1101
0
VERTEX
8
0
10
5.0462
20
4.5510
42
0.1090
0
VERTEX
8
0
10
5.0924
20
4.5613
42
-0.0642
0
VERTEX
8
0
10
5.1458
20
4.5802
42
0.0273
0
VERTEX
8
0
10
5.2204
20
4.6041
42
-0.0367
0
VERTEX
8
0
10
5.3045
20
4.6284
42
0.0359
0
VERTEX
8
0
10
5.3811
20
4.6505
42
-0.0612
0
VERTEX
8
0
10
5.4559
20
4.6692
42
0.0393
0
VERTEX
8
0
10
5.5264
20
4.6846
42
-0.0567
0
VERTEX
8
0
10
5.6811
20
4.7170
42
0.0320
0
VERTEX
8
0
10
5.7529
20
4.7308
42
-0.0866
0
VERTEX
8
0
10
5.9623
20
4.7651
42
0.0155
0
VERTEX
8
0
10
6.0264
20
4.7757
42
-0.0624
0
VERTEX
8
0
10
6.4070
20
4.8127
42
0.0224
0
VERTEX
8
0
10
6.4832
20
4.8208
42
-0.1219
0
VERTEX
8
0
10
6.6963
20
4.8243
42
-0.0242
0
VERTEX
8
0
10
7.0452
20
4.8077
42
0.0101
0
VERTEX
8
0
10
7.1495
20
4.7970
42
-0.0404
0
VERTEX
8
0
10
7.3206
20
4.7672
42
0.0340
0
VERTEX
8
0
10
7.4035
20
4.7513
42
-0.0295
0
VERTEX
8
0
10
7.5027
20
4.7297
42
0.0299
0
VERTEX
8
0
10
7.6016
20
4.7064
42
-0.0295
0
VERTEX
8
0
10
7.6896
20
4.6847
42
0.0294
0
VERTEX
8
0
10
7.7744
20
4.6606
42
-0.0320
0
VERTEX
8
0
10
7.8342
20
4.6418
42
0.1500
0
VERTEX
8
0
10
7.8938
20
4.6226
42
-0.0372
0
VERTEX
8
0
10
7.9625
20
4.5998
42
0.0792
0
VERTEX
8
0
10
8.0186
20
4.5781
42
-0.0290
0
VERTEX
8
0
10
8.0643
20
4.5614
42
0.1100
0
VERTEX
8
0
10
8.1285
20
4.5370
42
-0.0199
0
VERTEX
8
0
10
8.1976
20
4.5105
42
0.0823
0
VERTEX
8
0
10
8.2431
20
4.4921
42
-0.0394
0
VERTEX
8
0
10
8.2939
20
4.4708
42
0.0665
0
VERTEX
8
0
10
8.3367
20
4.4519
42
-0.0460
0
VERTEX
8
0
10
8.3976
20
4.4247
42
0.0336
0
VERTEX
8
0
10
8.4381
20
4.4066
42
-0.1655
0
VERTEX
8
0
10
8.4741
20
4.3887
42
0.0395
0
VERTEX
8
0
10
8.5352
20
4.3582
42
-0.0341
0
VERTEX
8
0
10
8.5800
20
4.3366
42
0.0378
0
VERTEX
8
0
10
8.6201
20
4.3142
42
-0.0056
0
VERTEX
8
0
10
8.6736
20
4.2867
42
0.2358
0
VERTEX
8
0
10
8.7235
20
4.2856
42
0.1565
0
VERTEX
8
0
10
8.7137
20
4.3390
0
VERTEX
8
0
10
8.6912
20
4.4227
42
0.0604
0
VERTEX
8
0
10
8.5510
20
4.7691
0
SEQEND
8
0
0
POLYLINE
8
Layer 1
66
1
0
VERTEX
8
0
10
7.8785
20
3.9517
42
0.6481
0
VERTEX
8
0
10
7.8106
20
3.9597
42
-0.0052
0
VERTEX
8
0
10
7.7284
20
3.8289
42
0.1334
0
VERTEX
8
0
10
7.6976
20
3.7768
42
-0.0394
0
VERTEX
8
0
10
7.6802
20
3.7488
42
0.0184
0
VERTEX
8
0
10
7.6441
20
3.6949
42
-0.0257
0
VERTEX
8
0
10
7.5738
20
3.5884
42
0.1681
0
VERTEX
8
0
10
7.5265
20
3.5145
42
-0.0343
0
VERTEX
8
0
10
7.5038
20
3.4830
42
0.0323
0
VERTEX
8
0
10
7.4602
20
3.4224
42
-0.0488
0
VERTEX
8
0
10
7.4248
20
3.3725
42
0.0279
0
VERTEX
8
0
10
7.3874
20
3.3184
42
0.0084
0
VERTEX
8
0
10
7.1361
20
2.9601
42
-0.0331
0
VERTEX
8
0
10
7.0922
20
2.9078
42
0.0164
0
VERTEX
8
0
10
7.0265
20
2.8288
42
-0.0218
0
VERTEX
8
0
10
6.9463
20
2.7329
42
-0.0176
0
VERTEX
8
0
10
6.7418
20
2.5150
42
0.2063
0
VERTEX
8
0
10
6.7136
20
2.4823
42
-0.0098
0
VERTEX
8
0
10
6.5254
20
2.2937
0
VERTEX
8
0
10
6.4095
20
2.1806
42
-0.2311
0
VERTEX
8
0
10
6.3319
20
2.1124
42
-0.1579
0
VERTEX
8
0
10
6.3360
20
2.1701
42
0.0259
0
VERTEX
8
0
10
6.4812
20
2.6205
0
VERTEX
8
0
10
6.5109
20
2.7301
42
0.0311
0
VERTEX
8
0
10
6.6006
20
3.1686
42
0.0295
0
VERTEX
8
0
10
6.6199
20
3.4093
42
0.1039
0
VERTEX
8
0
10
6.5277
20
3.8585
42
0.2902
0
VERTEX
8
0
10
6.3691
20
4.0617
42
0.1409
0
VERTEX
8
0
10
6.0858
20
4.0409
42
0.0580
0
VERTEX
8
0
10
5.9639
20
3.9945
42
-0.1535
0
VERTEX
8
0
10
5.9355
20
3.9842
42
0.0662
0
VERTEX
8
0
10
5.9072
20
3.9738
42
-0.0028
0
VERTEX
8
0
10
5.7697
20
3.9064
42
0.0227
0
VERTEX
8
0
10
5.6441
20
3.8448
42
-0.0054
0
VERTEX
8
0
10
5.5238
20
3.7783
0
VERTEX
8
0
10
5.4622
20
3.7450
42
-0.0699
0
VERTEX
8
0
10
5.4195
20
3.7249
42
0.3996
0
VERTEX
8
0
10
5.3713
20
3.6762
42
0.1295
0
VERTEX
8
0
10
5.4221
20
3.6529
42
-0.0398
0
VERTEX
8
0
10
5.4917
20
3.6355
0
VERTEX
8
0
10
5.5639
20
3.6116
42
-0.0529
0
VERTEX
8
0
10
5.6414
20
3.5791
42
0.0045
0
VERTEX
8
0
10
5.7163
20
3.5428
42
-0.0723
0
VERTEX
8
0
10
5.8763
20
3.4454
42
0.1879
0
VERTEX
8
0
10
5.9019
20
3.4280
42
-0.0546
0
VERTEX
8
0
10
6.0416
20
3.3083
42
-0.1179
0
VERTEX
8
0
10
6.2787
20
2.8665
0
VERTEX
8
0
10
6.2977
20
2.7943
0
VERTEX
8
0
10
6.2985
20
2.6365
42
-0.0645
0
VERTEX
8
0
10
6.2844
20
2.4012
42
-0.0401
0
VERTEX
8
0
10
6.2624
20
2.2996
42
0.0034
0
VERTEX
8
0
10
6.2431
20
2.2328
42
-0.0396
0
VERTEX
8
0
10
6.1220
20
1.9199
42
-0.1266
0
VERTEX
8
0
10
6.0287
20
1.7407
42
0.0549
0
VERTEX
8
0
10
6.0078
20
1.7048
42
-0.1797
0
VERTEX
8
0
10
5.9920
20
1.6768
42
0.3323
0
VERTEX
8
0
10
5.9401
20
1.5846
42
0.0395
0
VERTEX
8
0
10
6.1833
20
1.7645
42
-0.0533
0
VERTEX
8
0
10
6.2475
20
1.8171
42
0.0186
0
VERTEX
8
0
10
6.3740
20
1.9260
42
-0.0038
0
VERTEX
8
0
10
6.4650
20
2.0063
42
0.0098
0
VERTEX
8
0
10
6.8305
20
2.3674
0
VERTEX
8
0
10
6.9782
20
2.5189
42
0.0214
0
VERTEX
8
0
10
7.0775
20
2.6285
42
-0.0161
0
VERTEX
8
0
10
7.1572
20
2.7197
42
0.0032
0
VERTEX
8
0
10
7.2511
20
2.8234
0
VERTEX
8
0
10
7.2916
20
2.8687
42
-0.6214
0
VERTEX
8
0
10
7.3356
20
2.9081
42
-0.1636
0
VERTEX
8
0
10
7.4731
20
2.5061
42
0.0323
0
VERTEX
8
0
10
7.4817
20
2.4520
42
-0.0568
0
VERTEX
8
0
10
7.4934
20
2.1365
42
-0.1526
0
VERTEX
8
0
10
7.2529
20
1.4778
42
0.0549
0
VERTEX
8
0
10
7.2215
20
1.4330
42
-0.0212
0
VERTEX
8
0
10
7.0398
20
1.2164
42
-0.0280
0
VERTEX
8
0
10
6.8280
20
1.0124
42
0.0050
0
VERTEX
8
0
10
6.7195
20
0.9172
42
0.0130
0
VERTEX
8
0
10
6.6849
20
0.8845
42
-0.0912
0
VERTEX
8
0
10
6.6548
20
0.8609
42
0.0139
0
VERTEX
8
0
10
6.5542
20
0.7810
42
-0.0733
0
VERTEX
8
0
10
6.4989
20
0.7376
42
0.0154
0
VERTEX
8
0
10
6.4425
20
0.6962
42
-0.0245
0
VERTEX
8
0
10
6.3232
20
0.6077
42
0.0887
0
VERTEX
8
0
10
6.2971
20
0.5864
42
-0.0461
0
VERTEX
8
0
10
6.2621
20
0.5618
42
0.1025
0
VERTEX
8
0
10
6.2240
20
0.5344
42
-0.0721
0
VERTEX
8
0
10
6.1933
20
0.5127
42
0.0330
0
VERTEX
8
0
10
6.1421
20
0.4788
42
-0.0213
0
VERTEX
8
0
10
6.0112
20
0.3916
42
0.0190
0
VERTEX
8
0
10
5.9745
20
0.3664
42
-0.0202
0
VERTEX
8
0
10
5.9221
20
0.3316
42
0.0132
0
VERTEX
8
0
10
5.8679
20
0.2973
42
-0.1814
0
VERTEX
8
0
10
5.7466
20
0.2193
42
0.0338
0
VERTEX
8
0
10
5.7131
20
0.1990
42
-0.0813
0
VERTEX
8
0
10
5.6748
20
0.1751
42
0.0230
0
VERTEX
8
0
10
5.6360
20
0.1527
42
-0.1352
0
VERTEX
8
0
10
5.6025
20
0.1337
42
0.0325
0
VERTEX
8
0
10
5.5746
20
0.1174
42
-0.0274
0
VERTEX
8
0
10
5.5184
20
0.0846
42
0.0368
0
VERTEX
8
0
10
5.4574
20
0.0475
42
-0.2096
0
VERTEX
8
0
10
5.4198
20
0.0268
42
0.4724
0
VERTEX
8
0
10
5.3874
20
0.0051
42
0.2091
0
VERTEX
8
0
10
5.4323
20
0.0134
42
-0.1619
0
VERTEX
8
0
10
5.4564
20
0.0268
42
0.1135
0
VERTEX
8
0
10
5.5382
20
0.0556
42
-0.0314
0
VERTEX
8
0
10
5.5853
20
0.0768
42
0.0308
0
VERTEX
8
0
10
5.7136
20
0.1368
42
-0.0111
0
VERTEX
8
0
10
5.7457
20
0.1531
0
VERTEX
8
0
10
5.8259
20
0.1914
42
0.0578
0
VERTEX
8
0
10
5.9008
20
0.2300
42
-0.0288
0
VERTEX
8
0
10
5.9489
20
0.2543
42
0.0942
0
VERTEX
8
0
10
5.9917
20
0.2759
42
-0.0229
0
VERTEX
8
0
10
6.0345
20
0.3000
42
0.0470
0
VERTEX
8
0
10
6.0901
20
0.3326
42
-0.2089
0
VERTEX
8
0
10
6.1204
20
0.3477
42
0.1107
0
VERTEX
8
0
10
6.1450
20
0.3603
42
-0.0500
0
VERTEX
8
0
10
6.1815
20
0.3838
42
0.0215
0
VERTEX
8
0
10
6.2307
20
0.4126
42
-0.0143
0
VERTEX
8
0
10
6.3310
20
0.4760
42
0.0143
0
VERTEX
8
0
10
6.3744
20
0.5034
0
VERTEX
8
0
10
6.4409
20
0.5475
42
0.0126
0
VERTEX
8
0
10
6.5318
20
0.6108
42
-0.0067
0
VERTEX
8
0
10
6.5746
20
0.6402
42
0.0136
0
VERTEX
8
0
10
6.6432
20
0.6896
42
-0.0081
0
VERTEX
8
0
10
6.7100
20
0.7393
42
0.0158
0
VERTEX
8
0
10
6.8303
20
0.8375
42
-0.0141
0
VERTEX
8
0
10
6.8927
20
0.8877
42
0.0313
0
VERTEX
8
0
10
6.9659
20
0.9514
42
-0.0063
0
VERTEX
8
0
10
7.0536
20
1.0349
42
0.0138
0
VERTEX
8
0
10
7.1569
20
1.1361
0
VERTEX
8
0
10
7.2324
20
1.2139
42
0.0347
0
VERTEX
8
0
10
7.3998
20
1.4070
42
-0.0055
0
VERTEX
8
0
10
7.4792
20
1.5108
42
0.0157
0
VERTEX
8
0
10
7.5695
20
1.6392
42
-0.0266
0
VERTEX
8
0
10
7.6324
20
1.7328
42
0.0338
0
VERTEX
8
0
10
7.6564
20
1.7732
42
-0.0153
0
VERTEX
8
0
10
7.7015
20
1.8508
42
0.1500
0
VERTEX
8
0
10
7.8581
20
2.1577
42
-0.0135
0
VERTEX
8
0
10
7.8844
20
2.2216
42
0.0210
0
VERTEX
8
0
10
8.0005
20
2.5563
42
-0.0111
0
VERTEX
8
0
10
8.0186
20
2.6151
42
0.0115
0
VERTEX
8
0
10
8.0371
20
2.7087
42
-0.0033
0
VERTEX
8
0
10
8.0586
20
2.8290
42
0.0511
0
VERTEX
8
0
10
8.0068
20
3.5804
42
0.0432
0
VERTEX
8
0
10
7.9206
20
3.8558
42
0.0280
0
VERTEX
8
0
10
7.8785
20
3.9517
0
SEQEND
8
0
0
ENDSEC
0
EOF
