0
SECTION
2
HEADER
9
$ACADVER
1
AC1009
9
$ANGDIR
70
0
9
$EXTMIN
10
0
20
0
9
$EXTMAX
10
24.0000
20
18.0000
0
ENDSEC
0
SECTION
2
ENTITIES
0
POLYLINE
8
Layer 1
66
1
0
VERTEX
8
0
10
4.4835
20
11.4192
42
-0.2236
0
VERTEX
8
0
10
4.2479
20
11.3335
42
-0.2586
0
VERTEX
8
0
10
3.9277
20
11.5350
42
0.0180
0
VERTEX
8
0
10
3.8584
20
11.6054
42
0.0070
0
VERTEX
8
0
10
3.7472
20
11.5611
42
0.0267
0
VERTEX
8
0
10
3.7523
20
11.4385
42
-0.0926
0
VERTEX
8
0
10
3.7256
20
11.2040
42
-0.3527
0
VERTEX
8
0
10
3.3668
20
11.0161
42
-0.1745
0
VERTEX
8
0
10
3.0458
20
11.2213
42
0.0047
0
VERTEX
8
0
10
2.9375
20
11.1586
42
0.0406
0
VERTEX
8
0
10
2.9551
20
11.0621
42
-0.2583
0
VERTEX
8
0
10
2.8354
20
10.6073
42
-0.3671
0
VERTEX
8
0
10
2.3607
20
10.6794
42
0.0397
0
VERTEX
8
0
10
2.2943
20
10.7169
42
0.0054
0
VERTEX
8
0
10
2.1927
20
10.6351
42
0.0353
0
VERTEX
8
0
10
2.2154
20
10.5732
42
-0.0665
0
VERTEX
8
0
10
2.2699
20
10.3910
42
-0.2324
0
VERTEX
8
0
10
2.1949
20
10.1014
42
-0.4042
0
VERTEX
8
0
10
1.7157
20
10.0742
42
0.0153
0
VERTEX
8
0
10
1.6283
20
10.1060
42
0.0037
0
VERTEX
8
0
10
1.5380
20
10.0083
42
0.0117
0
VERTEX
8
0
10
1.5829
20
9.9249
42
-0.0878
0
VERTEX
8
0
10
1.6762
20
9.6625
42
-0.2571
0
VERTEX
8
0
10
1.5613
20
9.4190
42
-0.3052
0
VERTEX
8
0
10
1.1593
20
9.3804
42
0.0169
0
VERTEX
8
0
10
1.0600
20
9.4020
42
0.0043
0
VERTEX
8
0
10
0.9879
20
9.2952
42
0.0153
0
VERTEX
8
0
10
1.0878
20
9.1561
42
-0.2873
0
VERTEX
8
0
10
1.1230
20
8.7343
42
-0.3252
0
VERTEX
8
0
10
0.7233
20
8.6088
42
0.0101
0
VERTEX
8
0
10
0.5961
20
8.6071
42
0.0074
0
VERTEX
8
0
10
0.5479
20
8.5032
0
VERTEX
8
0
10
0.5643
20
8.4856
42
-0.0606
0
VERTEX
8
0
10
0.7949
20
8.1921
42
-0.3643
0
VERTEX
8
0
10
0.6296
20
7.8304
42
-0.1082
0
VERTEX
8
0
10
0.4156
20
7.7850
42
0.0099
0
VERTEX
8
0
10
0.2663
20
7.7685
42
0.0036
0
VERTEX
8
0
10
0.2311
20
7.6516
42
0.0178
0
VERTEX
8
0
10
0.3123
20
7.5880
42
-0.1688
0
VERTEX
8
0
10
0.5450
20
7.2542
42
-0.4563
0
VERTEX
8
0
10
0.1487
20
6.8999
0
VERTEX
8
0
10
0.0664
20
6.8908
42
0.0034
0
VERTEX
8
0
10
0.0471
20
6.7534
0
VERTEX
8
0
10
0.1329
20
6.7131
42
-0.1820
0
VERTEX
8
0
10
0.4224
20
6.4105
42
-0.3775
0
VERTEX
8
0
10
0.1397
20
6.1158
42
-0.0072
0
VERTEX
8
0
10
0.0006
20
6.0590
0
VERTEX
8
0
10
-0.0000
20
6.0000
42
0.0043
0
VERTEX
8
0
10
0.0006
20
5.9410
42
-0.0095
0
VERTEX
8
0
10
0.1397
20
5.8842
42
-0.1980
0
VERTEX
8
0
10
0.4224
20
5.5895
42
-0.2593
0
VERTEX
8
0
10
0.3191
20
5.4030
42
-0.0778
0
VERTEX
8
0
10
0.1329
20
5.2869
0
VERTEX
8
0
10
0.0471
20
5.2466
42
0.0068
0
VERTEX
8
0
10
0.0664
20
5.1092
0
VERTEX
8
0
10
0.1487
20
5.1001
42
-0.0845
0
VERTEX
8
0
10
0.4209
20
4.9974
42
-0.2510
0
VERTEX
8
0
10
0.5450
20
4.7458
42
-0.3068
0
VERTEX
8
0
10
0.3123
20
4.4120
42
0.0181
0
VERTEX
8
0
10
0.2311
20
4.3484
42
0.0072
0
VERTEX
8
0
10
0.2663
20
4.2315
42
0.0162
0
VERTEX
8
0
10
0.4156
20
4.2150
42
-0.0604
0
VERTEX
8
0
10
0.6296
20
4.1696
42
-0.3745
0
VERTEX
8
0
10
0.7949
20
3.8079
42
-0.1988
0
VERTEX
8
0
10
0.5643
20
3.5144
42
0.0173
0
VERTEX
8
0
10
0.5479
20
3.4968
42
0.0027
0
VERTEX
8
0
10
0.5961
20
3.3929
42
0.0143
0
VERTEX
8
0
10
0.7233
20
3.3912
42
-0.1567
0
VERTEX
8
0
10
1.1230
20
3.2657
42
-0.3778
0
VERTEX
8
0
10
1.0878
20
2.8439
42
0.0091
0
VERTEX
8
0
10
0.9879
20
2.7048
42
0.0051
0
VERTEX
8
0
10
1.0600
20
2.5980
42
0.0196
0
VERTEX
8
0
10
1.1593
20
2.6196
42
-0.1728
0
VERTEX
8
0
10
1.5613
20
2.5810
42
-0.4470
0
VERTEX
8
0
10
1.5829
20
2.0751
42
0.0117
0
VERTEX
8
0
10
1.5380
20
1.9917
42
0.0067
0
VERTEX
8
0
10
1.6283
20
1.8940
42
0.0137
0
VERTEX
8
0
10
1.7157
20
1.9258
42
-0.0613
0
VERTEX
8
0
10
1.9642
20
1.9913
42
-0.2232
0
VERTEX
8
0
10
2.1949
20
1.8986
42
-0.2512
0
VERTEX
8
0
10
2.2699
20
1.6090
42
-0.0444
0
VERTEX
8
0
10
2.2154
20
1.4268
42
0.0372
0
VERTEX
8
0
10
2.1927
20
1.3649
42
0.0054
0
VERTEX
8
0
10
2.2943
20
1.2831
42
0.0272
0
VERTEX
8
0
10
2.3607
20
1.3206
42
-0.2250
0
VERTEX
8
0
10
2.8354
20
1.3927
42
-0.3998
0
VERTEX
8
0
10
2.9551
20
0.9379
42
0.0328
0
VERTEX
8
0
10
2.9375
20
0.8414
42
0.0068
0
VERTEX
8
0
10
3.0457
20
0.7788
42
-0.0495
0
VERTEX
8
0
10
3.3668
20
0.9839
42
-0.3666
0
VERTEX
8
0
10
3.7256
20
0.7960
42
-0.1505
0
VERTEX
8
0
10
3.7523
20
0.5615
42
0.0158
0
VERTEX
8
0
10
3.7472
20
0.4389
42
0.0041
0
VERTEX
8
0
10
3.8584
20
0.3946
42
0.0109
0
VERTEX
8
0
10
3.9277
20
0.4650
42
-0.1350
0
VERTEX
8
0
10
4.2479
20
0.6665
42
-0.2051
0
VERTEX
8
0
10
4.4835
20
0.5808
42
-0.2201
0
VERTEX
8
0
10
4.5948
20
0.2754
42
0.0124
0
VERTEX
8
0
10
4.6107
20
0.1618
42
0.0048
0
VERTEX
8
0
10
4.7305
20
0.1346
42
0.0407
0
VERTEX
8
0
10
4.7748
20
0.2027
42
-0.1388
0
VERTEX
8
0
10
4.9746
20
0.4360
42
-0.2402
0
VERTEX
8
0
10
5.2534
20
0.4502
42
-0.2742
0
VERTEX
8
0
10
5.4743
20
0.1294
42
0.0104
0
VERTEX
8
0
10
5.5032
20
0.0204
42
0.0036
0
VERTEX
8
0
10
5.6310
20
0.0108
0
VERTEX
8
0
10
5.6628
20
0.0931
42
-0.1486
0
VERTEX
8
0
10
5.8910
20
0.3855
42
-0.0620
0
VERTEX
8
0
10
6.0000
20
0.4145
42
-0.0940
0
VERTEX
8
0
10
6.1090
20
0.3855
42
-0.2670
0
VERTEX
8
0
10
6.3372
20
0.0931
0
VERTEX
8
0
10
6.3690
20
0.0108
42
0.0077
0
VERTEX
8
0
10
6.4968
20
0.0204
42
0.0061
0
VERTEX
8
0
10
6.5257
20
0.1294
42
-0.1825
0
VERTEX
8
0
10
6.7466
20
0.4502
42
-0.2462
0
VERTEX
8
0
10
7.0254
20
0.4360
42
-0.1717
0
VERTEX
8
0
10
7.2252
20
0.2027
42
0.0717
0
VERTEX
8
0
10
7.2695
20
0.1346
42
0.0060
0
VERTEX
8
0
10
7.3893
20
0.1618
42
0.0232
0
VERTEX
8
0
10
7.4052
20
0.2754
42
-0.1166
0
VERTEX
8
0
10
7.5165
20
0.5808
42
-0.2236
0
VERTEX
8
0
10
7.7521
20
0.6665
42
-0.2586
0
VERTEX
8
0
10
8.0723
20
0.4650
42
0.0180
0
VERTEX
8
0
10
8.1416
20
0.3946
42
0.0070
0
VERTEX
8
0
10
8.2528
20
0.4389
42
0.0267
0
VERTEX
8
0
10
8.2477
20
0.5615
42
-0.0926
0
VERTEX
8
0
10
8.2744
20
0.7960
42
-0.3527
0
VERTEX
8
0
10
8.6332
20
0.9839
42
-0.1745
0
VERTEX
8
0
10
8.9542
20
0.7787
42
0.0047
0
VERTEX
8
0
10
9.0625
20
0.8414
42
0.0406
0
VERTEX
8
0
10
9.0449
20
0.9379
42
-0.2583
0
VERTEX
8
0
10
9.1646
20
1.3927
42
-0.3671
0
VERTEX
8
0
10
9.6393
20
1.3206
42
0.0397
0
VERTEX
8
0
10
9.7057
20
1.2831
42
0.0054
0
VERTEX
8
0
10
9.8073
20
1.3649
42
0.0353
0
VERTEX
8
0
10
9.7846
20
1.4268
42
-0.0665
0
VERTEX
8
0
10
9.7301
20
1.6090
42
-0.2324
0
VERTEX
8
0
10
9.8051
20
1.8986
42
-0.4042
0
VERTEX
8
0
10
10.2843
20
1.9258
42
0.0153
0
VERTEX
8
0
10
10.3717
20
1.8940
42
0.0037
0
VERTEX
8
0
10
10.4620
20
1.9917
42
0.0117
0
VERTEX
8
0
10
10.4171
20
2.0751
42
-0.0878
0
VERTEX
8
0
10
10.3238
20
2.3375
42
-0.2571
0
VERTEX
8
0
10
10.4387
20
2.5810
42
-0.3052
0
VERTEX
8
0
10
10.8407
20
2.6196
42
0.0169
0
VERTEX
8
0
10
10.9400
20
2.5980
42
0.0043
0
VERTEX
8
0
10
11.0121
20
2.7048
42
0.0153
0
VERTEX
8
0
10
10.9122
20
2.8439
42
-0.2873
0
VERTEX
8
0
10
10.8770
20
3.2657
42
-0.3252
0
VERTEX
8
0
10
11.2767
20
3.3912
42
0.0101
0
VERTEX
8
0
10
11.4039
20
3.3929
42
0.0074
0
VERTEX
8
0
10
11.4521
20
3.4968
0
VERTEX
8
0
10
11.4357
20
3.5144
42
-0.0606
0
VERTEX
8
0
10
11.2051
20
3.8079
42
-0.3643
0
VERTEX
8
0
10
11.3704
20
4.1696
42
-0.1082
0
VERTEX
8
0
10
11.5844
20
4.2150
42
0.0099
0
VERTEX
8
0
10
11.7337
20
4.2315
42
0.0036
0
VERTEX
8
0
10
11.7689
20
4.3484
42
0.0178
0
VERTEX
8
0
10
11.6877
20
4.4120
42
-0.1688
0
VERTEX
8
0
10
11.4550
20
4.7458
42
-0.4563
0
VERTEX
8
0
10
11.8513
20
5.1001
0
VERTEX
8
0
10
11.9336
20
5.1092
42
0.0034
0
VERTEX
8
0
10
11.9529
20
5.2466
0
VERTEX
8
0
10
11.8671
20
5.2869
42
-0.1820
0
VERTEX
8
0
10
11.5776
20
5.5895
42
-0.3775
0
VERTEX
8
0
10
11.8603
20
5.8842
42
-0.0072
0
VERTEX
8
0
10
11.9994
20
5.9410
0
VERTEX
8
0
10
12.0000
20
6.0000
42
0.0043
0
VERTEX
8
0
10
11.9994
20
6.0590
42
-0.0095
0
VERTEX
8
0
10
11.8603
20
6.1158
42
-0.1980
0
VERTEX
8
0
10
11.5776
20
6.4105
42
-0.2593
0
VERTEX
8
0
10
11.6809
20
6.5970
42
-0.0778
0
VERTEX
8
0
10
11.8671
20
6.7131
0
VERTEX
8
0
10
11.9529
20
6.7534
42
0.0068
0
VERTEX
8
0
10
11.9336
20
6.8908
0
VERTEX
8
0
10
11.8513
20
6.8999
42
-0.0845
0
VERTEX
8
0
10
11.5791
20
7.0026
42
-0.2510
0
VERTEX
8
0
10
11.4550
20
7.2542
42
-0.3068
0
VERTEX
8
0
10
11.6877
20
7.5880
42
0.0181
0
VERTEX
8
0
10
11.7689
20
7.6516
42
0.0072
0
VERTEX
8
0
10
11.7337
20
7.7685
42
0.0162
0
VERTEX
8
0
10
11.5844
20
7.7850
42
-0.0604
0
VERTEX
8
0
10
11.3704
20
7.8304
42
-0.3745
0
VERTEX
8
0
10
11.2051
20
8.1921
42
-0.1988
0
VERTEX
8
0
10
11.4357
20
8.4856
42
0.0173
0
VERTEX
8
0
10
11.4521
20
8.5032
42
0.0027
0
VERTEX
8
0
10
11.4039
20
8.6071
42
0.0143
0
VERTEX
8
0
10
11.2767
20
8.6088
42
-0.1567
0
VERTEX
8
0
10
10.8770
20
8.7343
42
-0.3778
0
VERTEX
8
0
10
10.9122
20
9.1561
42
0.0091
0
VERTEX
8
0
10
11.0121
20
9.2952
42
0.0051
0
VERTEX
8
0
10
10.9400
20
9.4020
42
0.0196
0
VERTEX
8
0
10
10.8407
20
9.3804
42
-0.1728
0
VERTEX
8
0
10
10.4387
20
9.4190
42
-0.4470
0
VERTEX
8
0
10
10.4171
20
9.9249
42
0.0117
0
VERTEX
8
0
10
10.4620
20
10.0083
42
0.0067
0
VERTEX
8
0
10
10.3717
20
10.1060
42
0.0137
0
VERTEX
8
0
10
10.2843
20
10.0742
42
-0.0613
0
VERTEX
8
0
10
10.0358
20
10.0087
42
-0.2232
0
VERTEX
8
0
10
9.8051
20
10.1014
42
-0.2512
0
VERTEX
8
0
10
9.7301
20
10.3910
42
-0.0444
0
VERTEX
8
0
10
9.7846
20
10.5732
42
0.0372
0
VERTEX
8
0
10
9.8073
20
10.6351
42
0.0054
0
VERTEX
8
0
10
9.7057
20
10.7169
42
0.0272
0
VERTEX
8
0
10
9.6393
20
10.6794
42
-0.2250
0
VERTEX
8
0
10
9.1646
20
10.6073
42
-0.3998
0
VERTEX
8
0
10
9.0449
20
11.0621
42
0.0328
0
VERTEX
8
0
10
9.0625
20
11.1586
42
0.0068
0
VERTEX
8
0
10
8.9543
20
11.2212
42
-0.0495
0
VERTEX
8
0
10
8.6332
20
11.0161
42
-0.3666
0
VERTEX
8
0
10
8.2744
20
11.2040
42
-0.1505
0
VERTEX
8
0
10
8.2477
20
11.4385
42
0.0158
0
VERTEX
8
0
10
8.2528
20
11.5611
42
0.0041
0
VERTEX
8
0
10
8.1416
20
11.6054
42
0.0109
0
VERTEX
8
0
10
8.0723
20
11.5350
42
-0.1350
0
VERTEX
8
0
10
7.7521
20
11.3335
42
-0.2051
0
VERTEX
8
0
10
7.5165
20
11.4192
42
-0.2201
0
VERTEX
8
0
10
7.4052
20
11.7246
42
0.0124
0
VERTEX
8
0
10
7.3893
20
11.8382
42
0.0048
0
VERTEX
8
0
10
7.2695
20
11.8654
42
0.0407
0
VERTEX
8
0
10
7.2252
20
11.7973
42
-0.1388
0
VERTEX
8
0
10
7.0254
20
11.5640
42
-0.2402
0
VERTEX
8
0
10
6.7466
20
11.5498
42
-0.2742
0
VERTEX
8
0
10
6.5257
20
11.8706
42
0.0104
0
VERTEX
8
0
10
6.4968
20
11.9796
42
0.0036
0
VERTEX
8
0
10
6.3690
20
11.9892
0
VERTEX
8
0
10
6.3372
20
11.9069
42
-0.1486
0
VERTEX
8
0
10
6.1090
20
11.6145
42
-0.0620
0
VERTEX
8
0
10
6.0000
20
11.5855
42
-0.0940
0
VERTEX
8
0
10
5.8910
20
11.6145
42
-0.2670
0
VERTEX
8
0
10
5.6628
20
11.9069
0
VERTEX
8
0
10
5.6310
20
11.9892
42
0.0077
0
VERTEX
8
0
10
5.5032
20
11.9796
42
0.0061
0
VERTEX
8
0
10
5.4743
20
11.8706
42
-0.1825
0
VERTEX
8
0
10
5.2534
20
11.5498
42
-0.2462
0
VERTEX
8
0
10
4.9746
20
11.5640
42
-0.1717
0
VERTEX
8
0
10
4.7748
20
11.7973
42
0.0717
0
VERTEX
8
0
10
4.7305
20
11.8654
42
0.0060
0
VERTEX
8
0
10
4.6107
20
11.8382
42
0.0232
0
VERTEX
8
0
10
4.5948
20
11.7246
42
-0.1166
0
VERTEX
8
0
10
4.4835
20
11.4192
0
SEQEND
8
0
0
POLYLINE
8
Layer 1
66
1
0
VERTEX
8
0
10
4.8815
20
10.8480
42
-0.2461
0
VERTEX
8
0
10
5.1489
20
10.7197
42
-0.2566
0
VERTEX
8
0
10
5.1904
20
10.3916
42
-0.2146
0
VERTEX
8
0
10
4.9576
20
10.2053
0
VERTEX
8
0
10
4.6930
20
10.1230
42
0.1110
0
VERTEX
8
0
10
3.1135
20
9.2129
42
-0.0403
0
VERTEX
8
0
10
2.8456
20
9.0108
42
-0.3488
0
VERTEX
8
0
10
2.4379
20
9.1471
42
-0.2763
0
VERTEX
8
0
10
2.4771
20
9.4910
42
-0.0797
0
VERTEX
8
0
10
2.7252
20
9.7568
42
-0.0931
0
VERTEX
8
0
10
4.3410
20
10.7050
42
-0.0287
0
VERTEX
8
0
10
4.8617
20
10.8463
42
-0.0239
0
VERTEX
8
0
10
4.8815
20
10.8480
0
SEQEND
8
0
0
POLYLINE
8
Layer 1
66
1
0
VERTEX
8
0
10
5.6747
20
10.0032
42
0.4142
0
VERTEX
8
0
10
6.0000
20
9.6779
42
0.4142
0
VERTEX
8
0
10
6.3253
20
10.0032
42
0.4142
0
VERTEX
8
0
10
6.0000
20
10.3285
42
0.4142
0
VERTEX
8
0
10
5.6747
20
10.0032
0
SEQEND
8
0
0
POLYLINE
8
Layer 1
66
1
0
VERTEX
8
0
10
6.0000
20
9.4235
42
-0.4140
0
VERTEX
8
0
10
9.4235
20
6.0000
42
-0.4140
0
VERTEX
8
0
10
6.0000
20
2.5765
42
-0.4140
0
VERTEX
8
0
10
2.5765
20
6.0000
42
-0.4140
0
VERTEX
8
0
10
6.0000
20
9.4235
0
SEQEND
8
0
0
POLYLINE
8
Layer 1
66
1
0
VERTEX
8
0
10
6.8096
20
10.3916
42
0.1878
0
VERTEX
8
0
10
7.0424
20
10.2053
0
VERTEX
8
0
10
7.3070
20
10.1230
42
-0.1014
0
VERTEX
8
0
10
8.8865
20
9.2129
42
0.1488
0
VERTEX
8
0
10
9.1544
20
9.0108
42
0.4371
0
VERTEX
8
0
10
9.5621
20
9.1471
42
0.2440
0
VERTEX
8
0
10
9.5230
20
9.4909
42
0.0450
0
VERTEX
8
0
10
9.2748
20
9.7568
42
0.0931
0
VERTEX
8
0
10
7.6590
20
10.7050
42
0.0563
0
VERTEX
8
0
10
7.1383
20
10.8463
42
0.0251
0
VERTEX
8
0
10
7.1185
20
10.8480
42
0.0251
0
VERTEX
8
0
10
7.0997
20
10.8480
42
0.1412
0
VERTEX
8
0
10
6.8511
20
10.7197
42
0.3090
0
VERTEX
8
0
10
6.8096
20
10.3916
0
SEQEND
8
0
0
POLYLINE
8
Layer 1
66
1
0
VERTEX
8
0
10
9.0880
20
8.0780
42
0.4135
0
VERTEX
8
0
10
9.4139
20
7.7521
42
0.4138
0
VERTEX
8
0
10
9.7392
20
8.0780
42
0.4142
0
VERTEX
8
0
10
9.4139
20
8.4033
42
0.4138
0
VERTEX
8
0
10
9.0880
20
8.0780
0
SEQEND
8
0
0
POLYLINE
8
Layer 1
66
1
0
VERTEX
8
0
10
10.0958
20
7.4444
42
0.0575
0
VERTEX
8
0
10
10.1344
20
7.1497
42
-0.0587
0
VERTEX
8
0
10
10.2644
20
6.2703
42
-0.0125
0
VERTEX
8
0
10
10.2706
20
6.0000
42
-0.0106
0
VERTEX
8
0
10
10.2644
20
5.7297
42
-0.0587
0
VERTEX
8
0
10
10.1344
20
4.8503
42
0.1757
0
VERTEX
8
0
10
10.0958
20
4.5556
42
0.3002
0
VERTEX
8
0
10
10.3472
20
4.2928
42
0.1511
0
VERTEX
8
0
10
10.5653
20
4.3409
42
0.1537
0
VERTEX
8
0
10
10.7123
20
4.4966
42
0.0700
0
VERTEX
8
0
10
10.9542
20
5.7655
42
0.0036
0
VERTEX
8
0
10
10.9639
20
6.0000
42
0.0036
0
VERTEX
8
0
10
10.9542
20
6.2345
42
0.0304
0
VERTEX
8
0
10
10.8888
20
6.8806
42
0.1028
0
VERTEX
8
0
10
10.7123
20
7.5034
42
0.1716
0
VERTEX
8
0
10
10.5704
20
7.6567
42
0.2254
0
VERTEX
8
0
10
10.3399
20
7.7062
42
0.2327
0
VERTEX
8
0
10
10.0958
20
7.4444
0
SEQEND
8
0
0
POLYLINE
8
Layer 1
66
1
0
VERTEX
8
0
10
9.4139
20
4.2553
42
-0.4142
0
VERTEX
8
0
10
9.7392
20
3.9300
42
-0.4138
0
VERTEX
8
0
10
9.4139
20
3.6041
42
-0.4135
0
VERTEX
8
0
10
9.0880
20
3.9300
42
-0.4138
0
VERTEX
8
0
10
9.4139
20
4.2553
0
SEQEND
8
0
0
POLYLINE
8
Layer 1
66
1
0
VERTEX
8
0
10
9.2776
20
3.0114
42
-0.2628
0
VERTEX
8
0
10
9.5621
20
2.8529
42
-0.2763
0
VERTEX
8
0
10
9.5229
20
2.5090
42
-0.0797
0
VERTEX
8
0
10
9.2748
20
2.2432
42
-0.0931
0
VERTEX
8
0
10
7.6590
20
1.2950
42
-0.0287
0
VERTEX
8
0
10
7.1383
20
1.1537
42
-0.0239
0
VERTEX
8
0
10
7.1185
20
1.1520
42
-0.0175
0
VERTEX
8
0
10
7.0997
20
1.1520
42
-0.2154
0
VERTEX
8
0
10
6.8511
20
1.2803
42
-0.2566
0
VERTEX
8
0
10
6.8096
20
1.6084
42
-0.2146
0
VERTEX
8
0
10
7.0424
20
1.7947
0
VERTEX
8
0
10
7.3070
20
1.8770
42
0.1110
0
VERTEX
8
0
10
8.8865
20
2.7871
42
-0.0403
0
VERTEX
8
0
10
9.1544
20
2.9892
42
-0.0854
0
VERTEX
8
0
10
9.2776
20
3.0114
0
SEQEND
8
0
0
POLYLINE
8
Layer 1
66
1
0
VERTEX
8
0
10
6.3253
20
1.9939
42
0.4142
0
VERTEX
8
0
10
6.0000
20
2.3193
42
0.4142
0
VERTEX
8
0
10
5.6747
20
1.9939
42
0.4142
0
VERTEX
8
0
10
6.0000
20
1.6686
42
0.4142
0
VERTEX
8
0
10
6.3253
20
1.9939
0
SEQEND
8
0
0
POLYLINE
8
Layer 1
66
1
0
VERTEX
8
0
10
5.1904
20
1.6084
42
0.1878
0
VERTEX
8
0
10
4.9576
20
1.7947
0
VERTEX
8
0
10
4.6930
20
1.8770
42
-0.1014
0
VERTEX
8
0
10
3.1135
20
2.7871
42
0.1488
0
VERTEX
8
0
10
2.8456
20
2.9892
42
0.0854
0
VERTEX
8
0
10
2.7224
20
3.0114
42
0.3293
0
VERTEX
8
0
10
2.4379
20
2.8529
42
0.2440
0
VERTEX
8
0
10
2.4770
20
2.5091
42
0.0450
0
VERTEX
8
0
10
2.7252
20
2.2432
42
0.0931
0
VERTEX
8
0
10
4.3410
20
1.2950
42
0.0563
0
VERTEX
8
0
10
4.8617
20
1.1537
42
0.0251
0
VERTEX
8
0
10
4.8815
20
1.1520
42
0.1557
0
VERTEX
8
0
10
5.1489
20
1.2803
42
0.3090
0
VERTEX
8
0
10
5.1904
20
1.6084
0
SEQEND
8
0
0
POLYLINE
8
Layer 1
66
1
0
VERTEX
8
0
10
2.9188
20
3.9300
42
0.4142
0
VERTEX
8
0
10
2.5935
20
4.2553
42
0.4138
0
VERTEX
8
0
10
2.2676
20
3.9300
42
0.4135
0
VERTEX
8
0
10
2.5935
20
3.6041
42
0.4138
0
VERTEX
8
0
10
2.9188
20
3.9300
0
SEQEND
8
0
0
POLYLINE
8
Layer 1
66
1
0
VERTEX
8
0
10
1.8319
20
4.4146
42
0.0898
0
VERTEX
8
0
10
1.9042
20
4.5556
42
0.0575
0
VERTEX
8
0
10
1.8656
20
4.8503
42
-0.0587
0
VERTEX
8
0
10
1.7356
20
5.7297
42
-0.0125
0
VERTEX
8
0
10
1.7294
20
6.0000
42
-0.0106
0
VERTEX
8
0
10
1.7356
20
6.2703
42
-0.0587
0
VERTEX
8
0
10
1.8656
20
7.1497
42
0.1757
0
VERTEX
8
0
10
1.9042
20
7.4444
42
0.2999
0
VERTEX
8
0
10
1.6543
20
7.7069
42
0.0920
0
VERTEX
8
0
10
1.4296
20
7.6567
42
0.1340
0
VERTEX
8
0
10
1.2877
20
7.5034
42
0.0700
0
VERTEX
8
0
10
1.0458
20
6.2345
42
0.0036
0
VERTEX
8
0
10
1.0361
20
6.0000
42
0.0036
0
VERTEX
8
0
10
1.0458
20
5.7655
42
0.0304
0
VERTEX
8
0
10
1.1112
20
5.1194
42
0.1028
0
VERTEX
8
0
10
1.2877
20
4.4966
42
0.1292
0
VERTEX
8
0
10
1.4263
20
4.3465
42
0.1753
0
VERTEX
8
0
10
1.6564
20
4.2929
42
0.1549
0
VERTEX
8
0
10
1.8319
20
4.4146
0
SEQEND
8
0
0
POLYLINE
8
Layer 1
66
1
0
VERTEX
8
0
10
2.5838
20
7.7521
42
0.4138
0
VERTEX
8
0
10
2.9092
20
8.0780
42
0.4142
0
VERTEX
8
0
10
2.5838
20
8.4033
42
0.4142
0
VERTEX
8
0
10
2.2585
20
8.0780
42
0.4138
0
VERTEX
8
0
10
2.5838
20
7.7521
0
SEQEND
8
0
0
ENDSEC
0
EOF
