  0
SECTION
  2
HEADER
  9
$ACADVER
  1
AC1021
  9
$ACADMAINTVER
 70
    25
  9
$DWGCODEPAGE
  3
ANSI_1252
  9
$INSBASE
 10
0.0
 20
0.0
 30
0.0
  9
$EXTMIN
 10
-12.73928346456693
 20
-7.166704724409449
 30
0.0
  9
$EXTMAX
 10
11.37474409448819
 20
4.603137795275591
 30
0.0
  9
$LIMMIN
 10
0.0
 20
0.0
  9
$LIMMAX
 10
12.0
 20
9.0
  9
$ORTHOMODE
 70
     0
  9
$REGENMODE
 70
     1
  9
$FILLMODE
 70
     1
  9
$QTEXTMODE
 70
     0
  9
$MIRRTEXT
 70
     1
  9
$LTSCALE
 40
1.0
  9
$ATTMODE
 70
     1
  9
$TEXTSIZE
 40
0.2
  9
$TRACEWID
 40
0.05
  9
$TEXTSTYLE
  7
Standard
  9
$CLAYER
  8
0
  9
$CELTYPE
  6
ByLayer
  9
$CECOLOR
 62
   256
  9
$CELTSCALE
 40
1.0
  9
$DISPSILH
 70
     0
  9
$DIMSCALE
 40
1.0
  9
$DIMASZ
 40
0.18
  9
$DIMEXO
 40
0.0625
  9
$DIMDLI
 40
0.38
  9
$DIMRND
 40
0.0
  9
$DIMDLE
 40
0.0
  9
$DIMEXE
 40
0.18
  9
$DIMTP
 40
0.0
  9
$DIMTM
 40
0.0
  9
$DIMTXT
 40
0.18
  9
$DIMCEN
 40
0.09
  9
$DIMTSZ
 40
0.0
  9
$DIMTOL
 70
     0
  9
$DIMLIM
 70
     0
  9
$DIMTIH
 70
     1
  9
$DIMTOH
 70
     1
  9
$DIMSE1
 70
     0
  9
$DIMSE2
 70
     0
  9
$DIMTAD
 70
     0
  9
$DIMZIN
 70
     0
  9
$DIMBLK
  1

  9
$DIMASO
 70
     1
  9
$DIMSHO
 70
     1
  9
$DIMPOST
  1

  9
$DIMAPOST
  1

  9
$DIMALT
 70
     0
  9
$DIMALTD
 70
     2
  9
$DIMALTF
 40
25.4
  9
$DIMLFAC
 40
1.0
  9
$DIMTOFL
 70
     0
  9
$DIMTVP
 40
0.0
  9
$DIMTIX
 70
     0
  9
$DIMSOXD
 70
     0
  9
$DIMSAH
 70
     0
  9
$DIMBLK1
  1

  9
$DIMBLK2
  1

  9
$DIMSTYLE
  2
Standard
  9
$DIMCLRD
 70
     0
  9
$DIMCLRE
 70
     0
  9
$DIMCLRT
 70
     0
  9
$DIMTFAC
 40
1.0
  9
$DIMGAP
 40
0.09
  9
$DIMJUST
 70
     0
  9
$DIMSD1
 70
     0
  9
$DIMSD2
 70
     0
  9
$DIMTOLJ
 70
     1
  9
$DIMTZIN
 70
     0
  9
$DIMALTZ
 70
     0
  9
$DIMALTTZ
 70
     0
  9
$DIMUPT
 70
     0
  9
$DIMDEC
 70
     4
  9
$DIMTDEC
 70
     4
  9
$DIMALTU
 70
     2
  9
$DIMALTTD
 70
     2
  9
$DIMTXSTY
  7
Standard
  9
$DIMAUNIT
 70
     0
  9
$DIMADEC
 70
     0
  9
$DIMALTRND
 40
0.0
  9
$DIMAZIN
 70
     0
  9
$DIMDSEP
 70
    46
  9
$DIMATFIT
 70
     3
  9
$DIMFRAC
 70
     0
  9
$DIMLDRBLK
  1

  9
$DIMLUNIT
 70
     2
  9
$DIMLWD
 70
    -2
  9
$DIMLWE
 70
    -2
  9
$DIMTMOVE
 70
     0
  9
$DIMFXL
 40
1.0
  9
$DIMFXLON
 70
     0
  9
$DIMJOGANG
 40
0.7853981633974483
  9
$DIMTFILL
 70
     0
  9
$DIMTFILLCLR
 70
     0
  9
$DIMARCSYM
 70
     0
  9
$DIMLTYPE
  6

  9
$DIMLTEX1
  6

  9
$DIMLTEX2
  6

  9
$LUNITS
 70
     2
  9
$LUPREC
 70
     4
  9
$SKETCHINC
 40
0.1
  9
$FILLETRAD
 40
0.5
  9
$AUNITS
 70
     0
  9
$AUPREC
 70
     0
  9
$MENU
  1
.
  9
$ELEVATION
 40
0.0
  9
$PELEVATION
 40
0.0
  9
$THICKNESS
 40
0.0
  9
$LIMCHECK
 70
     0
  9
$CHAMFERA
 40
0.5
  9
$CHAMFERB
 40
0.5
  9
$CHAMFERC
 40
1.0
  9
$CHAMFERD
 40
0.0
  9
$SKPOLY
 70
     0
  9
$TDCREATE
 40
2454996.494054722
  9
$TDUCREATE
 40
2454996.410721389
  9
$TDUPDATE
 40
2454996.494054734
  9
$TDUUPDATE
 40
2454996.4107214
  9
$TDINDWG
 40
0.0000000116
  9
$TDUSRTIMER
 40
0.0000000116
  9
$USRTIMER
 70
     1
  9
$ANGBASE
 50
0.0
  9
$ANGDIR
 70
     0
  9
$PDMODE
 70
     0
  9
$PDSIZE
 40
0.0
  9
$PLINEWID
 40
0.0
  9
$SPLFRAME
 70
     0
  9
$SPLINETYPE
 70
     6
  9
$SPLINESEGS
 70
     8
  9
$HANDSEED
  5
AB
  9
$SURFTAB1
 70
     6
  9
$SURFTAB2
 70
     6
  9
$SURFTYPE
 70
     6
  9
$SURFU
 70
     6
  9
$SURFV
 70
     6
  9
$UCSBASE
  2

  9
$UCSNAME
  2

  9
$UCSORG
 10
0.0
 20
0.0
 30
0.0
  9
$UCSXDIR
 10
1.0
 20
0.0
 30
0.0
  9
$UCSYDIR
 10
0.0
 20
1.0
 30
0.0
  9
$UCSORTHOREF
  2

  9
$UCSORTHOVIEW
 70
     0
  9
$UCSORGTOP
 10
0.0
 20
0.0
 30
0.0
  9
$UCSORGBOTTOM
 10
0.0
 20
0.0
 30
0.0
  9
$UCSORGLEFT
 10
0.0
 20
0.0
 30
0.0
  9
$UCSORGRIGHT
 10
0.0
 20
0.0
 30
0.0
  9
$UCSORGFRONT
 10
0.0
 20
0.0
 30
0.0
  9
$UCSORGBACK
 10
0.0
 20
0.0
 30
0.0
  9
$PUCSBASE
  2

  9
$PUCSNAME
  2

  9
$PUCSORG
 10
0.0
 20
0.0
 30
0.0
  9
$PUCSXDIR
 10
1.0
 20
0.0
 30
0.0
  9
$PUCSYDIR
 10
0.0
 20
1.0
 30
0.0
  9
$PUCSORTHOREF
  2

  9
$PUCSORTHOVIEW
 70
     0
  9
$PUCSORGTOP
 10
0.0
 20
0.0
 30
0.0
  9
$PUCSORGBOTTOM
 10
0.0
 20
0.0
 30
0.0
  9
$PUCSORGLEFT
 10
0.0
 20
0.0
 30
0.0
  9
$PUCSORGRIGHT
 10
0.0
 20
0.0
 30
0.0
  9
$PUCSORGFRONT
 10
0.0
 20
0.0
 30
0.0
  9
$PUCSORGBACK
 10
0.0
 20
0.0
 30
0.0
  9
$USERI1
 70
     0
  9
$USERI2
 70
     0
  9
$USERI3
 70
     0
  9
$USERI4
 70
     0
  9
$USERI5
 70
     0
  9
$USERR1
 40
0.0
  9
$USERR2
 40
0.0
  9
$USERR3
 40
0.0
  9
$USERR4
 40
0.0
  9
$USERR5
 40
0.0
  9
$WORLDVIEW
 70
     1
  9
$SHADEDGE
 70
     3
  9
$SHADEDIF
 70
    70
  9
$TILEMODE
 70
     1
  9
$MAXACTVP
 70
    64
  9
$PINSBASE
 10
0.0
 20
0.0
 30
0.0
  9
$PLIMCHECK
 70
     0
  9
$PEXTMIN
 10
1.000000000000000E+20
 20
1.000000000000000E+20
 30
1.000000000000000E+20
  9
$PEXTMAX
 10
-1.000000000000000E+20
 20
-1.000000000000000E+20
 30
-1.000000000000000E+20
  9
$PLIMMIN
 10
0.0
 20
0.0
  9
$PLIMMAX
 10
12.0
 20
9.0
  9
$UNITMODE
 70
     0
  9
$VISRETAIN
 70
     1
  9
$PLINEGEN
 70
     0
  9
$PSLTSCALE
 70
     1
  9
$TREEDEPTH
 70
  3020
  9
$CMLSTYLE
  2
Standard
  9
$CMLJUST
 70
     0
  9
$CMLSCALE
 40
1.0
  9
$PROXYGRAPHICS
 70
     1
  9
$MEASUREMENT
 70
     0
  9
$CELWEIGHT
370
    -1
  9
$ENDCAPS
280
     0
  9
$JOINSTYLE
280
     0
  9
$LWDISPLAY
290
     0
  9
$INSUNITS
 70
     1
  9
$HYPERLINKBASE
  1

  9
$STYLESHEET
  1

  9
$XEDIT
290
     1
  9
$CEPSNTYPE
380
     0
  9
$PSTYLEMODE
290
     1
  9
$FINGERPRINTGUID
  2
{79BA8016-11BB-4B47-9495-8135713BA9CD}
  9
$VERSIONGUID
  2
{FAEB1C32-E019-11D5-929B-00C0DF256EC4}
  9
$EXTNAMES
290
     1
  9
$PSVPSCALE
 40
0.0
  9
$OLESTARTUP
290
     0
  9
$SORTENTS
280
   127
  9
$INDEXCTL
280
     0
  9
$HIDETEXT
280
     1
  9
$XCLIPFRAME
290
     0
  9
$HALOGAP
280
     0
  9
$OBSCOLOR
 70
   257
  9
$OBSLTYPE
280
     0
  9
$INTERSECTIONDISPLAY
280
     0
  9
$INTERSECTIONCOLOR
 70
   257
  9
$DIMASSOC
280
     2
  9
$PROJECTNAME
  1

  9
$CAMERADISPLAY
290
     0
  9
$LENSLENGTH
 40
50.0
  9
$CAMERAHEIGHT
 40
0.0
  9
$STEPSPERSEC
 40
2.0
  9
$STEPSIZE
 40
6.0
  9
$3DDWFPREC
 40
2.0
  9
$PSOLWIDTH
 40
0.25
  9
$PSOLHEIGHT
 40
4.0
  9
$LOFTANG1
 40
1.570796326794897
  9
$LOFTANG2
 40
1.570796326794897
  9
$LOFTMAG1
 40
0.0
  9
$LOFTMAG2
 40
0.0
  9
$LOFTPARAM
 70
     7
  9
$LOFTNORMALS
280
     1
  9
$LATITUDE
 40
37.795
  9
$LONGITUDE
 40
-122.394
  9
$NORTHDIRECTION
 40
0.0
  9
$TIMEZONE
 70
 -8000
  9
$LIGHTGLYPHDISPLAY
280
     1
  9
$TILEMODELIGHTSYNCH
280
     1
  9
$SOLIDHIST
280
     1
  9
$SHOWHIST
280
     1
  9
$DWFFRAME
280
     2
  9
$DGNFRAME
280
     2
  9
$REALWORLDSCALE
290
     1
  9
$INTERFERECOLOR
 62
   256
  9
$CSHADOW
280
     0
  9
$SHADOWPLANELOCATION
 40
0.0
  0
ENDSEC
  0
SECTION
  2
CLASSES
  0
CLASS
  1
ACDBDICTIONARYWDFLT
  2
AcDbDictionaryWithDefault
  3
ObjectDBX Classes
 90
        0
 91
        3
280
     0
281
     0
  0
CLASS
  1
VISUALSTYLE
  2
AcDbVisualStyle
  3
ObjectDBX Classes
 90
     4095
 91
        3
280
     0
281
     0
  0
CLASS
  1
SCALE
  2
AcDbScale
  3
ObjectDBX Classes
 90
     1153
 91
        3
280
     0
281
     0
  0
ENDSEC
  0
SECTION
  2
TABLES
  0
TABLE
  2
VPORT
  5
8
330
0
100
AcDbSymbolTable
 70
     1
  0
VPORT
  5
29
330
8
100
AcDbSymbolTableRecord
100
AcDbViewportTableRecord
  2
*Active
 70
     0
 10
0.0
 20
0.0
 11
1.0
 21
1.0
 12
10.42990654205607
 22
4.5
 13
0.0
 23
0.0
 14
0.5
 24
0.5
 15
0.5
 25
0.5
 16
0.0
 26
0.0
 36
1.0
 17
0.0
 27
0.0
 37
0.0
 40
9.0
 41
1.972972972850329
 42
50.0
 43
0.0
 44
0.0
 50
0.0
 51
0.0
 71
     0
 72
   100
 73
     1
 74
     3
 75
     0
 76
     0
 77
     0
 78
     0
281
     0
 65
     1
110
0.0
120
0.0
130
0.0
111
1.0
121
0.0
131
0.0
112
0.0
122
1.0
132
0.0
 79
     0
146
0.0
 60
     3
 61
     5
292
     1
282
     1
141
0.0
142
0.0
 63
   256
  0
ENDTAB
  0
TABLE
  2
LTYPE
  5
5
330
0
100
AcDbSymbolTable
 70
     1
  0
LTYPE
  5
14
330
5
100
AcDbSymbolTableRecord
100
AcDbLinetypeTableRecord
  2
ByBlock
 70
     0
  3

 72
    65
 73
     0
 40
0.0
  0
LTYPE
  5
15
330
5
100
AcDbSymbolTableRecord
100
AcDbLinetypeTableRecord
  2
ByLayer
 70
     0
  3

 72
    65
 73
     0
 40
0.0
  0
LTYPE
  5
16
330
5
100
AcDbSymbolTableRecord
100
AcDbLinetypeTableRecord
  2
Continuous
 70
     0
  3
Solid line
 72
    65
 73
     0
 40
0.0
  0
ENDTAB
  0
TABLE
  2
LAYER
  5
2
330
0
100
AcDbSymbolTable
 70
     2
  0
LAYER
  5
10
330
2
100
AcDbSymbolTableRecord
100
AcDbLayerTableRecord
  2
0
 70
     0
 62
     7
  6
Continuous
370
    -3
390
F
347
0
  0
LAYER
  5
5E
330
2
100
AcDbSymbolTableRecord
100
AcDbLayerTableRecord
  2
Layer 1
 70
     0
 62
     7
  6
Continuous
370
    -3
390
F
347
0
  0
ENDTAB
  0
TABLE
  2
STYLE
  5
3
330
0
100
AcDbSymbolTable
 70
     1
  0
STYLE
  5
11
330
3
100
AcDbSymbolTableRecord
100
AcDbTextStyleTableRecord
  2
Standard
 70
     0
 40
0.0
 41
1.0
 50
0.0
 71
     0
 42
0.2
  3
txt
  4

  0
ENDTAB
  0
TABLE
  2
VIEW
  5
6
330
0
100
AcDbSymbolTable
 70
     0
  0
ENDTAB
  0
TABLE
  2
UCS
  5
7
330
0
100
AcDbSymbolTable
 70
     0
  0
ENDTAB
  0
TABLE
  2
APPID
  5
9
330
0
100
AcDbSymbolTable
 70
     2
  0
APPID
  5
12
330
9
100
AcDbSymbolTableRecord
100
AcDbRegAppTableRecord
  2
ACAD
 70
     0
  0
APPID
  5
5D
330
9
100
AcDbSymbolTableRecord
100
AcDbRegAppTableRecord
  2
ODA
 70
     0
  0
ENDTAB
  0
TABLE
  2
DIMSTYLE
  5
A
330
0
100
AcDbSymbolTable
 70
     1
100
AcDbDimStyleTable
  0
DIMSTYLE
105
27
330
A
100
AcDbSymbolTableRecord
100
AcDbDimStyleTableRecord
  2
Standard
 70
     0
340
11
  0
ENDTAB
  0
TABLE
  2
BLOCK_RECORD
  5
1
330
0
100
AcDbSymbolTable
 70
     1
  0
BLOCK_RECORD
  5
1F
330
1
100
AcDbSymbolTableRecord
100
AcDbBlockTableRecord
  2
*Model_Space
340
22
 70
     0
280
     1
281
     0
  0
BLOCK_RECORD
  5
1B
330
1
100
AcDbSymbolTableRecord
100
AcDbBlockTableRecord
  2
*Paper_Space
340
1E
 70
     0
280
     1
281
     0
  0
BLOCK_RECORD
  5
23
330
1
100
AcDbSymbolTableRecord
100
AcDbBlockTableRecord
  2
*Paper_Space0
340
26
 70
     0
280
     1
281
     0
  0
ENDTAB
  0
ENDSEC
  0
SECTION
  2
BLOCKS
  0
BLOCK
  5
20
330
1F
100
AcDbEntity
  8
0
100
AcDbBlockBegin
  2
*Model_Space
 70
     0
 10
0.0
 20
0.0
 30
0.0
  3
*Model_Space
  1

  0
ENDBLK
  5
21
330
1F
100
AcDbEntity
  8
0
100
AcDbBlockEnd
  0
BLOCK
  5
1C
330
1B
100
AcDbEntity
 67
     1
  8
0
100
AcDbBlockBegin
  2
*Paper_Space
 70
     0
 10
0.0
 20
0.0
 30
0.0
  3
*Paper_Space
  1

  0
ENDBLK
  5
1D
330
1B
100
AcDbEntity
 67
     1
  8
0
100
AcDbBlockEnd
  0
BLOCK
  5
24
330
23
100
AcDbEntity
  8
0
100
AcDbBlockBegin
  2
*Paper_Space0
 70
     0
 10
0.0
 20
0.0
 30
0.0
  3
*Paper_Space0
  1

  0
ENDBLK
  5
25
330
23
100
AcDbEntity
  8
0
100
AcDbBlockEnd
  0
ENDSEC
  0
SECTION
  2
ENTITIES
  0
SPLINE
  5
5F
330
1F
100
AcDbEntity
  8
Layer 1
 62
   252
370
    18
100
AcDbSpline
210
0.0
220
0.0
230
1.0
 70
    11
 71
     3
 72
   208
 73
   204
 74
     0
 42
0.0000000001
 43
0.0000000001
 40
0.0
 40
0.0
 40
0.0
 40
0.0
 40
0.0196078431372549
 40
0.0196078431372549
 40
0.0196078431372549
 40
0.0196078431372549
 40
0.0392156862745098
 40
0.0392156862745098
 40
0.0392156862745098
 40
0.0392156862745098
 40
0.0588235294117647
 40
0.0588235294117647
 40
0.0588235294117647
 40
0.0588235294117647
 40
0.0784313725490196
 40
0.0784313725490196
 40
0.0784313725490196
 40
0.0784313725490196
 40
0.0980392156862745
 40
0.0980392156862745
 40
0.0980392156862745
 40
0.0980392156862745
 40
0.1176470588235294
 40
0.1176470588235294
 40
0.1176470588235294
 40
0.1176470588235294
 40
0.1372549019607843
 40
0.1372549019607843
 40
0.1372549019607843
 40
0.1372549019607843
 40
0.1568627450980392
 40
0.1568627450980392
 40
0.1568627450980392
 40
0.1568627450980392
 40
0.1764705882352941
 40
0.1764705882352941
 40
0.1764705882352941
 40
0.1764705882352941
 40
0.196078431372549
 40
0.196078431372549
 40
0.196078431372549
 40
0.196078431372549
 40
0.2156862745098039
 40
0.2156862745098039
 40
0.2156862745098039
 40
0.2156862745098039
 40
0.2352941176470588
 40
0.2352941176470588
 40
0.2352941176470588
 40
0.2352941176470588
 40
0.2549019607843137
 40
0.2549019607843137
 40
0.2549019607843137
 40
0.2549019607843137
 40
0.2745098039215685
 40
0.2745098039215685
 40
0.2745098039215685
 40
0.2745098039215685
 40
0.2941176470588234
 40
0.2941176470588234
 40
0.2941176470588234
 40
0.2941176470588234
 40
0.3137254901960783
 40
0.3137254901960783
 40
0.3137254901960783
 40
0.3137254901960783
 40
0.3333333333333332
 40
0.3333333333333332
 40
0.3333333333333332
 40
0.3333333333333332
 40
0.3529411764705881
 40
0.3529411764705881
 40
0.3529411764705881
 40
0.3529411764705881
 40
0.372549019607843
 40
0.372549019607843
 40
0.372549019607843
 40
0.372549019607843
 40
0.3921568627450979
 40
0.3921568627450979
 40
0.3921568627450979
 40
0.3921568627450979
 40
0.4117647058823528
 40
0.4117647058823528
 40
0.4117647058823528
 40
0.4117647058823528
 40
0.4313725490196076
 40
0.4313725490196076
 40
0.4313725490196076
 40
0.4313725490196076
 40
0.4509803921568625
 40
0.4509803921568625
 40
0.4509803921568625
 40
0.4509803921568625
 40
0.4705882352941174
 40
0.4705882352941174
 40
0.4705882352941174
 40
0.4705882352941174
 40
0.4901960784313723
 40
0.4901960784313723
 40
0.4901960784313723
 40
0.4901960784313723
 40
0.5098039215686272
 40
0.5098039215686272
 40
0.5098039215686272
 40
0.5098039215686272
 40
0.5294117647058821
 40
0.5294117647058821
 40
0.5294117647058821
 40
0.5294117647058821
 40
0.5490196078431371
 40
0.5490196078431371
 40
0.5490196078431371
 40
0.5490196078431371
 40
0.568627450980392
 40
0.568627450980392
 40
0.568627450980392
 40
0.568627450980392
 40
0.588235294117647
 40
0.588235294117647
 40
0.588235294117647
 40
0.588235294117647
 40
0.6078431372549019
 40
0.6078431372549019
 40
0.6078431372549019
 40
0.6078431372549019
 40
0.6274509803921569
 40
0.6274509803921569
 40
0.6274509803921569
 40
0.6274509803921569
 40
0.6470588235294118
 40
0.6470588235294118
 40
0.6470588235294118
 40
0.6470588235294118
 40
0.6666666666666667
 40
0.6666666666666667
 40
0.6666666666666667
 40
0.6666666666666667
 40
0.6862745098039217
 40
0.6862745098039217
 40
0.6862745098039217
 40
0.6862745098039217
 40
0.7058823529411766
 40
0.7058823529411766
 40
0.7058823529411766
 40
0.7058823529411766
 40
0.7254901960784316
 40
0.7254901960784316
 40
0.7254901960784316
 40
0.7254901960784316
 40
0.7450980392156865
 40
0.7450980392156865
 40
0.7450980392156865
 40
0.7450980392156865
 40
0.7647058823529415
 40
0.7647058823529415
 40
0.7647058823529415
 40
0.7647058823529415
 40
0.7843137254901964
 40
0.7843137254901964
 40
0.7843137254901964
 40
0.7843137254901964
 40
0.8039215686274513
 40
0.8039215686274513
 40
0.8039215686274513
 40
0.8039215686274513
 40
0.8235294117647063
 40
0.8235294117647063
 40
0.8235294117647063
 40
0.8235294117647063
 40
0.8431372549019612
 40
0.8431372549019612
 40
0.8431372549019612
 40
0.8431372549019612
 40
0.8627450980392162
 40
0.8627450980392162
 40
0.8627450980392162
 40
0.8627450980392162
 40
0.8823529411764711
 40
0.8823529411764711
 40
0.8823529411764711
 40
0.8823529411764711
 40
0.9019607843137261
 40
0.9019607843137261
 40
0.9019607843137261
 40
0.9019607843137261
 40
0.921568627450981
 40
0.921568627450981
 40
0.921568627450981
 40
0.921568627450981
 40
0.941176470588236
 40
0.941176470588236
 40
0.941176470588236
 40
0.941176470588236
 40
0.9607843137254909
 40
0.9607843137254909
 40
0.9607843137254909
 40
0.9607843137254909
 40
0.9803921568627458
 40
0.9803921568627458
 40
0.9803921568627458
 40
0.9803921568627458
 40
1.0
 40
1.0
 40
1.0
 40
1.0
 10
-9.113232283464567
 20
1.474287401574803
 30
0.0
 10
-9.113232283464567
 20
1.474287401574803
 30
0.0
 10
-8.990492125984252
 20
1.467464566929134
 30
0.0
 10
-8.990492125984252
 20
1.467464566929134
 30
0.0
 10
-8.990492125984252
 20
1.467464566929134
 30
0.0
 10
-8.990492125984252
 20
1.467464566929134
 30
0.0
 10
-8.8675
 20
1.220244094488189
 30
0.0
 10
-8.8675
 20
1.220244094488189
 30
0.0
 10
-8.8675
 20
1.220244094488189
 30
0.0
 10
-8.858271653543307
 20
1.201696850393701
 30
0.0
 10
-8.83565748031496
 20
1.19401968503937
 30
0.0
 10
-8.817228346456693
 20
1.203173228346457
 30
0.0
 10
-8.817228346456693
 20
1.203173228346457
 30
0.0
 10
-8.817228346456693
 20
1.203173228346457
 30
0.0
 10
-8.817228346456693
 20
1.203173228346457
 30
0.0
 10
-8.817228346456693
 20
1.203173228346457
 30
0.0
 10
-8.817228346456693
 20
1.203173228346457
 30
0.0
 10
-8.798811023622047
 20
1.212346456692913
 30
0.0
 10
-8.7913031496063
 20
1.235023622047244
 30
0.0
 10
-8.800527559055118
 20
1.253566929133858
 30
0.0
 10
-8.800527559055118
 20
1.253566929133858
 30
0.0
 10
-8.800527559055118
 20
1.253566929133858
 30
0.0
 10
-8.90455905511811
 20
1.462688976377953
 30
0.0
 10
-8.90455905511811
 20
1.462688976377953
 30
0.0
 10
-8.90455905511811
 20
1.462688976377953
 30
0.0
 10
-8.90455905511811
 20
1.462688976377953
 30
0.0
 10
-8.39901968503937
 20
1.434590551181102
 30
0.0
 10
-8.39901968503937
 20
1.434590551181102
 30
0.0
 10
-8.39901968503937
 20
1.434590551181102
 30
0.0
 10
-7.976307086614173
 20
0.9245078740157481
 30
0.0
 10
-7.359377952755906
 20
0.5795866141732283
 30
0.0
 10
-6.565728346456693
 20
0.3778385826771654
 30
0.0
 10
-6.565728346456693
 20
0.3778385826771654
 30
0.0
 10
-6.545208661417323
 20
0.3726299212598425
 30
0.0
 10
-6.524937007874016
 20
0.3722834645669291
 30
0.0
 10
-6.504653543307087
 20
0.3740787401574803
 30
0.0
 10
-6.504653543307087
 20
0.3740787401574803
 30
0.0
 10
-6.504653543307087
 20
0.3740787401574803
 30
0.0
 10
-6.511271653543307
 20
0.2301614173228347
 30
0.0
 10
-6.511271653543307
 20
0.2301614173228347
 30
0.0
 10
-6.511271653543307
 20
0.2301614173228347
 30
0.0
 10
-6.512212598425197
 20
0.2094606299212599
 30
0.0
 10
-6.496188976377953
 20
0.191763779527559
 30
0.0
 10
-6.475633858267717
 20
0.1908149606299213
 30
0.0
 10
-6.475633858267717
 20
0.1908149606299213
 30
0.0
 10
-6.475633858267717
 20
0.1908149606299213
 30
0.0
 10
-6.475633858267717
 20
0.1908149606299213
 30
0.0
 10
-6.475633858267717
 20
0.1908149606299213
 30
0.0
 10
-6.475633858267717
 20
0.1908149606299213
 30
0.0
 10
-6.455078740157481
 20
0.1898740157480315
 30
0.0
 10
-6.437496062992126
 20
0.2060393700787402
 30
0.0
 10
-6.43653937007874
 20
0.2267244094488189
 30
0.0
 10
-6.43653937007874
 20
0.2267244094488189
 30
0.0
 10
-6.43653937007874
 20
0.2267244094488189
 30
0.0
 10
-6.429251968503937
 20
0.3853464566929134
 30
0.0
 10
-6.429251968503937
 20
0.3853464566929134
 30
0.0
 10
-6.429251968503937
 20
0.3853464566929134
 30
0.0
 10
-6.406248031496063
 20
0.3886023622047244
 30
0.0
 10
-6.382846456692914
 20
0.3903503937007874
 30
0.0
 10
-6.358685039370079
 20
0.3868188976377953
 30
0.0
 10
-6.358685039370079
 20
0.3868188976377953
 30
0.0
 10
-6.194437007874016
 20
0.3628622047244094
 30
0.0
 10
-6.055653543307087
 20
0.3195433070866142
 30
0.0
 10
-5.965082677165355
 20
0.2469724409448819
 30
0.0
 10
-5.965082677165355
 20
0.2469724409448819
 30
0.0
 10
-5.86698031496063
 20
0.1711574803149606
 30
0.0
 10
-5.768133858267716
 20
0.1114488188976378
 30
0.0
 10
-5.668547244094488
 20
0.0678464566929134
 30
0.0
 10
-5.668547244094488
 20
0.0678464566929134
 30
0.0
 10
-5.227326771653543
 20
-0.0469685039370079
 30
0.0
 10
-4.487173228346457
 20
-0.1045787401574803
 30
0.0
 10
-3.660090551181102
 20
-0.1455629921259843
 30
0.0
 10
-3.660090551181102
 20
-0.1455629921259843
 30
0.0
 10
-3.480905511811024
 20
-0.1369645669291339
 30
0.0
 10
-3.322295275590551
 20
-0.0890944881889764
 30
0.0
 10
-3.177744094488189
 20
-0.0143385826771654
 30
0.0
 10
-3.177744094488189
 20
-0.0143385826771654
 30
0.0
 10
-3.09901968503937
 20
0.0149133858267717
 30
0.0
 10
-2.985574803149606
 20
0.0317007874015748
 30
0.0
 10
-2.847515748031496
 20
0.0396614173228346
 30
0.0
 10
-2.847515748031496
 20
0.0396614173228346
 30
0.0
 10
-2.828090551181103
 20
0.0407795275590551
 30
0.0
 10
-2.808716535433071
 20
0.0398188976377953
 30
0.0
 10
-2.789370078740157
 20
0.0376811023622047
 30
0.0
 10
-2.789370078740157
 20
0.0376811023622047
 30
0.0
 10
-2.789370078740157
 20
0.0376811023622047
 30
0.0
 10
-2.798287401574803
 20
-0.156236220472441
 30
0.0
 10
-2.798287401574803
 20
-0.156236220472441
 30
0.0
 10
-2.798287401574803
 20
-0.156236220472441
 30
0.0
 10
-2.799228346456693
 20
-0.1769370078740158
 30
0.0
 10
-2.783200787401575
 20
-0.1946417322834646
 30
0.0
 10
-2.762649606299213
 20
-0.1955866141732283
 30
0.0
 10
-2.762649606299213
 20
-0.1955866141732283
 30
0.0
 10
-2.762649606299213
 20
-0.1955866141732283
 30
0.0
 10
-2.762649606299213
 20
-0.1955866141732283
 30
0.0
 10
-2.762649606299213
 20
-0.1955866141732283
 30
0.0
 10
-2.762649606299213
 20
-0.1955866141732283
 30
0.0
 10
-2.742098425196851
 20
-0.1965236220472441
 30
0.0
 10
-2.724507874015748
 20
-0.1803582677165354
 30
0.0
 10
-2.72355905511811
 20
-0.1596732283464567
 30
0.0
 10
-2.72355905511811
 20
-0.1596732283464567
 30
0.0
 10
-2.72355905511811
 20
-0.1596732283464567
 30
0.0
 10
-2.715047244094488
 20
0.025507874015748
 30
0.0
 10
-2.715047244094488
 20
0.025507874015748
 30
0.0
 10
-2.715047244094488
 20
0.025507874015748
 30
0.0
 10
-2.688842519685039
 20
0.020492125984252
 30
0.0
 10
-2.662625984251969
 20
0.0154173228346457
 30
0.0
 10
-2.636342519685039
 20
0.012496062992126
 30
0.0
 10
-2.636342519685039
 20
0.012496062992126
 30
0.0
 10
-2.412661417322834
 20
-0.0123976377952756
 30
0.0
 10
-2.219409448818898
 20
-0.0585708661417323
 30
0.0
 10
-2.023972440944882
 20
-0.2046141732283465
 30
0.0
 10
-2.023972440944882
 20
-0.2046141732283465
 30
0.0
 10
-1.957393700787402
 20
-0.2474370078740157
 30
0.0
 10
-1.888570866141732
 20
-0.275996062992126
 30
0.0
 10
-1.818204724409449
 20
-0.2948031496062992
 30
0.0
 10
-1.818204724409449
 20
-0.2948031496062992
 30
0.0
 10
-0.325511811023622
 20
-0.4316771653543307
 30
0.0
 10
1.164661417322835
 20
-0.5008503937007874
 30
0.0
 10
2.65253937007874
 20
-0.5083700787401575
 30
0.0
 10
2.65253937007874
 20
-0.5083700787401575
 30
0.0
 10
2.789122047244094
 20
-0.4811968503937008
 30
0.0
 10
2.953086614173228
 20
-0.4666181102362205
 30
0.0
 10
3.088437007874016
 20
-0.3700944881889764
 30
0.0
 10
3.088437007874016
 20
-0.3700944881889764
 30
0.0
 10
3.387535433070866
 20
-0.1567834645669291
 30
0.0
 10
3.57594094488189
 20
-0.061740157480315
 30
0.0
 10
3.686090551181102
 20
-0.0497913385826772
 30
0.0
 10
3.686090551181102
 20
-0.0497913385826772
 30
0.0
 10
3.706370078740158
 20
-0.0476023622047244
 30
0.0
 10
3.726649606299213
 20
-0.0456692913385827
 30
0.0
 10
3.74692125984252
 20
-0.0440629921259843
 30
0.0
 10
3.74692125984252
 20
-0.0440629921259843
 30
0.0
 10
3.74692125984252
 20
-0.0440629921259843
 30
0.0
 10
3.727507874015748
 20
-0.4663110236220472
 30
0.0
 10
3.727507874015748
 20
-0.4663110236220472
 30
0.0
 10
3.727507874015748
 20
-0.4663110236220472
 30
0.0
 10
3.726562992125984
 20
-0.487007874015748
 30
0.0
 10
3.742590551181102
 20
-0.5047086614173228
 30
0.0
 10
3.763145669291339
 20
-0.5056574803149606
 30
0.0
 10
3.763145669291339
 20
-0.5056574803149606
 30
0.0
 10
3.763145669291339
 20
-0.5056574803149606
 30
0.0
 10
3.763145669291339
 20
-0.5056574803149606
 30
0.0
 10
3.763145669291339
 20
-0.5056574803149606
 30
0.0
 10
3.763145669291339
 20
-0.5056574803149606
 30
0.0
 10
3.783696850393701
 20
-0.5066023622047244
 30
0.0
 10
3.801287401574803
 20
-0.4904330708661417
 30
0.0
 10
3.802236220472441
 20
-0.469744094488189
 30
0.0
 10
3.802236220472441
 20
-0.469744094488189
 30
0.0
 10
3.802236220472441
 20
-0.469744094488189
 30
0.0
 10
3.822007874015748
 20
-0.039744094488189
 30
0.0
 10
3.822007874015748
 20
-0.039744094488189
 30
0.0
 10
3.822007874015748
 20
-0.039744094488189
 30
0.0
 10
3.900452755905512
 20
-0.0370511811023622
 30
0.0
 10
3.978807086614173
 20
-0.040503937007874
 30
0.0
 10
4.057070866141732
 20
-0.0539645669291339
 30
0.0
 10
4.057070866141732
 20
-0.0539645669291339
 30
0.0
 10
4.171913385826771
 20
-0.0737047244094488
 30
0.0
 10
4.163244094488189
 20
-0.0752165354330709
 30
0.0
 10
4.158393700787402
 20
-0.1900748031496063
 30
0.0
 10
4.158393700787402
 20
-0.1900748031496063
 30
0.0
 10
4.155531496062992
 20
-0.2578464566929134
 30
0.0
 10
4.146354330708661
 20
-0.3248740157480315
 30
0.0
 10
4.133318897637795
 20
-0.3901968503937008
 30
0.0
 10
4.133318897637795
 20
-0.3901968503937008
 30
0.0
 10
4.081464566929134
 20
-0.6501062992125984
 30
0.0
 10
3.997822834645669
 20
-0.8073700787401574
 30
0.0
 10
3.725503937007874
 20
-0.8767362204724409
 30
0.0
 10
3.725503937007874
 20
-0.8767362204724409
 30
0.0
 10
3.575854330708661
 20
-0.9148700787401575
 30
0.0
 10
3.396622047244095
 20
-0.9310590551181103
 30
0.0
 10
3.234952755905512
 20
-0.9226377952755905
 30
0.0
 10
3.234952755905512
 20
-0.9226377952755905
 30
0.0
 10
-0.2923858267716535
 20
-1.068157480314961
 30
0.0
 10
-3.88063779527559
 20
-0.7288346456692913
 30
0.0
 10
-7.382992125984252
 20
-0.333759842519685
 30
0.0
 10
-7.382992125984252
 20
-0.333759842519685
 30
0.0
 10
-8.01934251968504
 20
-0.2072795275590551
 30
0.0
 10
-8.404574803149606
 20
0.1799842519685039
 30
0.0
 10
-8.634066929133859
 20
0.7289960629921259
 30
0.0
 10
-8.634066929133859
 20
0.7289960629921259
 30
0.0
 10
-8.68686220472441
 20
0.8820157480314961
 30
0.0
 10
-8.866515748031496
 20
0.6410393700787401
 30
0.0
 10
-8.961464566929134
 20
0.8509370078740157
 30
0.0
 10
-8.961464566929134
 20
0.8509370078740157
 30
0.0
 10
-9.007653543307086
 20
0.9636811023622047
 30
0.0
 10
-9.064417322834645
 20
1.04590157480315
 30
0.0
 10
-9.079011811023623
 20
1.104925196850394
 30
0.0
 10
-9.079011811023623
 20
1.104925196850394
 30
0.0
 10
-9.093885826771654
 20
1.165051181102362
 30
0.0
 10
-9.146488188976377
 20
1.227374015748032
 30
0.0
 10
-9.18840157480315
 20
1.206185039370079
 30
0.0
 10
-9.18840157480315
 20
1.206185039370079
 30
0.0
 10
-9.327712598425197
 20
1.135708661417323
 30
0.0
 10
-9.393755905511812
 20
1.156838582677165
 30
0.0
 10
-9.419035433070865
 20
1.217220472440945
 30
0.0
 10
-9.419035433070865
 20
1.217220472440945
 30
0.0
 10
-9.447728346456692
 20
1.291413385826772
 30
0.0
 10
-9.455114173228347
 20
1.364637795275591
 30
0.0
 10
-9.453070866141733
 20
1.43740157480315
 30
0.0
 10
-9.453070866141733
 20
1.43740157480315
 30
0.0
 10
-9.450311023622048
 20
1.535826771653543
 30
0.0
 10
-9.182645669291338
 20
1.478141732283464
 30
0.0
 10
-9.113232283464567
 20
1.474287401574803
 30
0.0
  0
SPLINE
  5
60
330
1F
100
AcDbEntity
  8
Layer 1
 62
   252
370
    18
100
AcDbSpline
210
0.0
220
0.0
230
1.0
 70
    11
 71
     3
 72
   112
 73
   108
 74
     0
 42
0.0000000001
 43
0.0000000001
 40
0.0
 40
0.0
 40
0.0
 40
0.0
 40
0.037037037037037
 40
0.037037037037037
 40
0.037037037037037
 40
0.037037037037037
 40
0.0740740740740741
 40
0.0740740740740741
 40
0.0740740740740741
 40
0.0740740740740741
 40
0.1111111111111111
 40
0.1111111111111111
 40
0.1111111111111111
 40
0.1111111111111111
 40
0.1481481481481481
 40
0.1481481481481481
 40
0.1481481481481481
 40
0.1481481481481481
 40
0.1851851851851852
 40
0.1851851851851852
 40
0.1851851851851852
 40
0.1851851851851852
 40
0.2222222222222222
 40
0.2222222222222222
 40
0.2222222222222222
 40
0.2222222222222222
 40
0.2592592592592592
 40
0.2592592592592592
 40
0.2592592592592592
 40
0.2592592592592592
 40
0.2962962962962963
 40
0.2962962962962963
 40
0.2962962962962963
 40
0.2962962962962963
 40
0.3333333333333333
 40
0.3333333333333333
 40
0.3333333333333333
 40
0.3333333333333333
 40
0.3703703703703703
 40
0.3703703703703703
 40
0.3703703703703703
 40
0.3703703703703703
 40
0.4074074074074074
 40
0.4074074074074074
 40
0.4074074074074074
 40
0.4074074074074074
 40
0.4444444444444444
 40
0.4444444444444444
 40
0.4444444444444444
 40
0.4444444444444444
 40
0.4814814814814815
 40
0.4814814814814815
 40
0.4814814814814815
 40
0.4814814814814815
 40
0.5185185185185185
 40
0.5185185185185185
 40
0.5185185185185185
 40
0.5185185185185185
 40
0.5555555555555556
 40
0.5555555555555556
 40
0.5555555555555556
 40
0.5555555555555556
 40
0.5925925925925926
 40
0.5925925925925926
 40
0.5925925925925926
 40
0.5925925925925926
 40
0.6296296296296295
 40
0.6296296296296295
 40
0.6296296296296295
 40
0.6296296296296295
 40
0.6666666666666665
 40
0.6666666666666665
 40
0.6666666666666665
 40
0.6666666666666665
 40
0.7037037037037035
 40
0.7037037037037035
 40
0.7037037037037035
 40
0.7037037037037035
 40
0.7407407407407405
 40
0.7407407407407405
 40
0.7407407407407405
 40
0.7407407407407405
 40
0.7777777777777775
 40
0.7777777777777775
 40
0.7777777777777775
 40
0.7777777777777775
 40
0.8148148148148144
 40
0.8148148148148144
 40
0.8148148148148144
 40
0.8148148148148144
 40
0.8518518518518514
 40
0.8518518518518514
 40
0.8518518518518514
 40
0.8518518518518514
 40
0.8888888888888884
 40
0.8888888888888884
 40
0.8888888888888884
 40
0.8888888888888884
 40
0.9259259259259254
 40
0.9259259259259254
 40
0.9259259259259254
 40
0.9259259259259254
 40
0.9629629629629624
 40
0.9629629629629624
 40
0.9629629629629624
 40
0.9629629629629624
 40
1.0
 40
1.0
 40
1.0
 40
1.0
 10
-3.571606299212598
 20
-6.993751968503937
 30
0.0
 10
-3.571606299212598
 20
-6.993751968503937
 30
0.0
 10
-3.610622047244095
 20
-6.945035433070866
 30
0.0
 10
-3.610622047244095
 20
-6.945035433070866
 30
0.0
 10
-3.610622047244095
 20
-6.945035433070866
 30
0.0
 10
-3.610622047244095
 20
-6.945035433070866
 30
0.0
 10
-3.548318897637795
 20
-6.88842125984252
 30
0.0
 10
-3.548318897637795
 20
-6.88842125984252
 30
0.0
 10
-3.548318897637795
 20
-6.88842125984252
 30
0.0
 10
-3.532996062992126
 20
-6.874484251968504
 30
0.0
 10
-3.531767716535433
 20
-6.85063779527559
 30
0.0
 10
-3.54559842519685
 20
-6.835405511811024
 30
0.0
 10
-3.54559842519685
 20
-6.835405511811024
 30
0.0
 10
-3.54559842519685
 20
-6.835405511811024
 30
0.0
 10
-3.54559842519685
 20
-6.835405511811024
 30
0.0
 10
-3.54559842519685
 20
-6.835405511811024
 30
0.0
 10
-3.54559842519685
 20
-6.835405511811024
 30
0.0
 10
-3.55944094488189
 20
-6.820181102362205
 30
0.0
 10
-3.583303149606299
 20
-6.819133858267716
 30
0.0
 10
-3.598629921259842
 20
-6.833059055118111
 30
0.0
 10
-3.598629921259842
 20
-6.833059055118111
 30
0.0
 10
-3.598629921259842
 20
-6.833059055118111
 30
0.0
 10
-3.657527559055118
 20
-6.88657874015748
 30
0.0
 10
-3.657527559055118
 20
-6.88657874015748
 30
0.0
 10
-3.657527559055118
 20
-6.88657874015748
 30
0.0
 10
-4.366385826771653
 20
-6.003866141732283
 30
0.0
 10
-5.053488188976378
 20
-5.187259842519685
 30
0.0
 10
-5.811161417322834
 20
-4.337937007874015
 30
0.0
 10
-5.811161417322834
 20
-4.337937007874015
 30
0.0
 10
-6.981511811023622
 20
-3.02601968503937
 30
0.0
 10
-8.219834645669291
 20
-1.694968503937008
 30
0.0
 10
-9.545106299212598
 20
-0.5346141732283465
 30
0.0
 10
-9.545106299212598
 20
-0.5346141732283465
 30
0.0
 10
-9.762992125984251
 20
-0.3438346456692913
 30
0.0
 10
-9.987708661417322
 20
-0.1592677165354331
 30
0.0
 10
-10.21987007874016
 20
0.0185354330708661
 30
0.0
 10
-10.21987007874016
 20
0.0185354330708661
 30
0.0
 10
-10.42601968503937
 20
0.1324803149606299
 30
0.0
 10
-10.5840905511811
 20
0.1826535433070866
 30
0.0
 10
-10.6962125984252
 20
0.1691535433070866
 30
0.0
 10
-10.6962125984252
 20
0.1691535433070866
 30
0.0
 10
-10.79834645669291
 20
0.1568503937007874
 30
0.0
 10
-10.84381102362205
 20
0.0574566929133858
 30
0.0
 10
-10.95150393700787
 20
0.0661889763779527
 30
0.0
 10
-10.95150393700787
 20
0.0661889763779527
 30
0.0
 10
-10.97494881889764
 20
0.0680866141732284
 30
0.0
 10
-10.99930708661417
 20
0.0769094488188976
 30
0.0
 10
-11.02347244094488
 20
0.0977165354330709
 30
0.0
 10
-11.02347244094488
 20
0.0977165354330709
 30
0.0
 10
-11.03403937007874
 20
0.1068149606299213
 30
0.0
 10
-11.04578346456693
 20
0.1152007874015748
 30
0.0
 10
-11.05856299212598
 20
0.1228976377952756
 30
0.0
 10
-11.05856299212598
 20
0.1228976377952756
 30
0.0
 10
-11.05856299212598
 20
0.1228976377952756
 30
0.0
 10
-10.88874409448819
 20
0.2772125984251969
 30
0.0
 10
-10.88874409448819
 20
0.2772125984251969
 30
0.0
 10
-10.88874409448819
 20
0.2772125984251969
 30
0.0
 10
-10.87341338582677
 20
0.2911535433070866
 30
0.0
 10
-10.87218897637795
 20
0.314996062992126
 30
0.0
 10
-10.88601968503937
 20
0.3302283464566929
 30
0.0
 10
-10.88601968503937
 20
0.3302283464566929
 30
0.0
 10
-10.88601968503937
 20
0.3302283464566929
 30
0.0
 10
-10.88601968503937
 20
0.3302283464566929
 30
0.0
 10
-10.88601968503937
 20
0.3302283464566929
 30
0.0
 10
-10.88601968503937
 20
0.3302283464566929
 30
0.0
 10
-10.89986220472441
 20
0.3454527559055118
 30
0.0
 10
-10.92372834645669
 20
0.346503937007874
 30
0.0
 10
-10.93905118110236
 20
0.3325748031496063
 30
0.0
 10
-10.93905118110236
 20
0.3325748031496063
 30
0.0
 10
-10.93905118110236
 20
0.3325748031496063
 30
0.0
 10
-11.13256692913386
 20
0.156736220472441
 30
0.0
 10
-11.13256692913386
 20
0.156736220472441
 30
0.0
 10
-11.13256692913386
 20
0.156736220472441
 30
0.0
 10
-11.26077559055118
 20
0.2012362204724409
 30
0.0
 10
-11.44130708661417
 20
0.2071968503937008
 30
0.0
 10
-11.60472834645669
 20
0.1992992125984252
 30
0.0
 10
-11.60472834645669
 20
0.1992992125984252
 30
0.0
 10
-11.60472834645669
 20
0.1992992125984252
 30
0.0
 10
-12.05278346456693
 20
0.657988188976378
 30
0.0
 10
-12.05278346456693
 20
0.657988188976378
 30
0.0
 10
-12.05278346456693
 20
0.657988188976378
 30
0.0
 10
-12.12980708661417
 20
0.734503937007874
 30
0.0
 10
-12.0973031496063
 20
0.78201968503937
 30
0.0
 10
-11.95526377952756
 20
0.8005314960629921
 30
0.0
 10
-11.95526377952756
 20
0.8005314960629921
 30
0.0
 10
-11.27785826771654
 20
0.8824251968503937
 30
0.0
 10
-10.65945669291339
 20
0.6495826771653543
 30
0.0
 10
-10.12008661417323
 20
0.3335236220472441
 30
0.0
 10
-10.12008661417323
 20
0.3335236220472441
 30
0.0
 10
-9.811846456692914
 20
0.1388346456692914
 30
0.0
 10
-9.420007874015749
 20
-0.1587834645669291
 30
0.0
 10
-8.979653543307087
 20
-0.5878188976377953
 30
0.0
 10
-8.979653543307087
 20
-0.5878188976377953
 30
0.0
 10
-6.980744094488189
 20
-2.535334645669291
 30
0.0
 10
-5.159799212598426
 20
-4.697381889763779
 30
0.0
 10
-3.347771653543307
 20
-6.903775590551181
 30
0.0
 10
-3.347771653543307
 20
-6.903775590551181
 30
0.0
 10
-3.315720472440945
 20
-6.945031496062992
 30
0.0
 10
-3.256850393700788
 20
-6.999283464566929
 30
0.0
 10
-3.275870078740157
 20
-7.056492125984252
 30
0.0
 10
-3.275870078740157
 20
-7.056492125984252
 30
0.0
 10
-3.293200787401575
 20
-7.108649606299212
 30
0.0
 10
-3.353850393700788
 20
-7.162267716535433
 30
0.0
 10
-3.402649606299212
 20
-7.163244094488189
 30
0.0
 10
-3.402649606299212
 20
-7.163244094488189
 30
0.0
 10
-3.452106299212598
 20
-7.164224409448819
 30
0.0
 10
-3.54446062992126
 20
-7.027669291338583
 30
0.0
 10
-3.571606299212598
 20
-6.993751968503937
 30
0.0
  0
SPLINE
  5
61
330
1F
100
AcDbEntity
  8
Layer 1
 62
   252
370
    18
100
AcDbSpline
210
0.0
220
0.0
230
1.0
 70
    11
 71
     3
 72
   112
 73
   108
 74
     0
 42
0.0000000001
 43
0.0000000001
 40
0.0
 40
0.0
 40
0.0
 40
0.0
 40
0.037037037037037
 40
0.037037037037037
 40
0.037037037037037
 40
0.037037037037037
 40
0.0740740740740741
 40
0.0740740740740741
 40
0.0740740740740741
 40
0.0740740740740741
 40
0.1111111111111111
 40
0.1111111111111111
 40
0.1111111111111111
 40
0.1111111111111111
 40
0.1481481481481481
 40
0.1481481481481481
 40
0.1481481481481481
 40
0.1481481481481481
 40
0.1851851851851852
 40
0.1851851851851852
 40
0.1851851851851852
 40
0.1851851851851852
 40
0.2222222222222222
 40
0.2222222222222222
 40
0.2222222222222222
 40
0.2222222222222222
 40
0.2592592592592592
 40
0.2592592592592592
 40
0.2592592592592592
 40
0.2592592592592592
 40
0.2962962962962963
 40
0.2962962962962963
 40
0.2962962962962963
 40
0.2962962962962963
 40
0.3333333333333333
 40
0.3333333333333333
 40
0.3333333333333333
 40
0.3333333333333333
 40
0.3703703703703703
 40
0.3703703703703703
 40
0.3703703703703703
 40
0.3703703703703703
 40
0.4074074074074074
 40
0.4074074074074074
 40
0.4074074074074074
 40
0.4074074074074074
 40
0.4444444444444444
 40
0.4444444444444444
 40
0.4444444444444444
 40
0.4444444444444444
 40
0.4814814814814815
 40
0.4814814814814815
 40
0.4814814814814815
 40
0.4814814814814815
 40
0.5185185185185185
 40
0.5185185185185185
 40
0.5185185185185185
 40
0.5185185185185185
 40
0.5555555555555556
 40
0.5555555555555556
 40
0.5555555555555556
 40
0.5555555555555556
 40
0.5925925925925926
 40
0.5925925925925926
 40
0.5925925925925926
 40
0.5925925925925926
 40
0.6296296296296295
 40
0.6296296296296295
 40
0.6296296296296295
 40
0.6296296296296295
 40
0.6666666666666665
 40
0.6666666666666665
 40
0.6666666666666665
 40
0.6666666666666665
 40
0.7037037037037035
 40
0.7037037037037035
 40
0.7037037037037035
 40
0.7037037037037035
 40
0.7407407407407405
 40
0.7407407407407405
 40
0.7407407407407405
 40
0.7407407407407405
 40
0.7777777777777775
 40
0.7777777777777775
 40
0.7777777777777775
 40
0.7777777777777775
 40
0.8148148148148144
 40
0.8148148148148144
 40
0.8148148148148144
 40
0.8148148148148144
 40
0.8518518518518514
 40
0.8518518518518514
 40
0.8518518518518514
 40
0.8518518518518514
 40
0.8888888888888884
 40
0.8888888888888884
 40
0.8888888888888884
 40
0.8888888888888884
 40
0.9259259259259254
 40
0.9259259259259254
 40
0.9259259259259254
 40
0.9259259259259254
 40
0.9629629629629624
 40
0.9629629629629624
 40
0.9629629629629624
 40
0.9629629629629624
 40
1.0
 40
1.0
 40
1.0
 40
1.0
 10
-4.508440944881889
 20
-1.41705905511811
 30
0.0
 10
-4.508440944881889
 20
-1.41705905511811
 30
0.0
 10
-4.446318897637795
 20
-1.42307874015748
 30
0.0
 10
-4.446318897637795
 20
-1.42307874015748
 30
0.0
 10
-4.446318897637795
 20
-1.42307874015748
 30
0.0
 10
-4.446318897637795
 20
-1.42307874015748
 30
0.0
 10
-4.449200787401574
 20
-1.507208661417323
 30
0.0
 10
-4.449200787401574
 20
-1.507208661417323
 30
0.0
 10
-4.449200787401574
 20
-1.507208661417323
 30
0.0
 10
-4.44990157480315
 20
-1.527913385826772
 30
0.0
 10
-4.433669291338583
 20
-1.545425196850394
 30
0.0
 10
-4.413106299212599
 20
-1.546129921259842
 30
0.0
 10
-4.413106299212599
 20
-1.546129921259842
 30
0.0
 10
-4.413106299212599
 20
-1.546129921259842
 30
0.0
 10
-4.413106299212599
 20
-1.546129921259842
 30
0.0
 10
-4.413106299212599
 20
-1.546129921259842
 30
0.0
 10
-4.413106299212599
 20
-1.546129921259842
 30
0.0
 10
-4.392543307086614
 20
-1.546830708661417
 30
0.0
 10
-4.375145669291339
 20
-1.53046062992126
 30
0.0
 10
-4.374437007874016
 20
-1.509763779527559
 30
0.0
 10
-4.374437007874016
 20
-1.509763779527559
 30
0.0
 10
-4.374437007874016
 20
-1.509763779527559
 30
0.0
 10
-4.371712598425197
 20
-1.430228346456693
 30
0.0
 10
-4.371712598425197
 20
-1.430228346456693
 30
0.0
 10
-4.371712598425197
 20
-1.430228346456693
 30
0.0
 10
-3.244736220472441
 20
-1.537870078740158
 30
0.0
 10
-2.180311023622047
 20
-1.615007874015748
 30
0.0
 10
-1.043220472440945
 20
-1.664377952755905
 30
0.0
 10
-1.043220472440945
 20
-1.664377952755905
 30
0.0
 10
0.7132086614173229
 20
-1.740645669291339
 30
0.0
 10
2.530748031496063
 20
-1.78153937007874
 30
0.0
 10
4.286614173228346
 20
-1.641074803149606
 30
0.0
 10
4.286614173228346
 20
-1.641074803149606
 30
0.0
 10
4.575295275590551
 20
-1.617988188976378
 30
0.0
 10
4.864291338582677
 20
-1.585669291338583
 30
0.0
 10
5.153629921259842
 20
-1.543303149606299
 30
0.0
 10
5.153629921259842
 20
-1.543303149606299
 30
0.0
 10
5.379062992125984
 20
-1.475035433070866
 30
0.0
 10
5.525263779527559
 20
-1.396744094488189
 30
0.0
 10
5.593795275590551
 20
-1.30698031496063
 30
0.0
 10
5.593795275590551
 20
-1.30698031496063
 30
0.0
 10
5.656208661417323
 20
-1.225208661417323
 30
0.0
 10
5.616681102362205
 20
-1.123299212598425
 30
0.0
 10
5.698055118110236
 20
-1.052216535433071
 30
0.0
 10
5.698055118110236
 20
-1.052216535433071
 30
0.0
 10
5.715763779527559
 20
-1.036740157480315
 30
0.0
 10
5.739070866141732
 20
-1.025433070866142
 30
0.0
 10
5.770838582677166
 20
-1.022629921259842
 30
0.0
 10
5.770838582677166
 20
-1.022629921259842
 30
0.0
 10
5.784736220472441
 20
-1.021405511811024
 30
0.0
 10
5.798929133858268
 20
-1.018830708661417
 30
0.0
 10
5.81336220472441
 20
-1.015043307086614
 30
0.0
 10
5.81336220472441
 20
-1.015043307086614
 30
0.0
 10
5.81336220472441
 20
-1.015043307086614
 30
0.0
 10
5.805507874015748
 20
-1.244370078740157
 30
0.0
 10
5.805507874015748
 20
-1.244370078740157
 30
0.0
 10
5.805507874015748
 20
-1.244370078740157
 30
0.0
 10
5.804811023622047
 20
-1.265082677165354
 30
0.0
 10
5.82103937007874
 20
-1.282586614173228
 30
0.0
 10
5.841606299212598
 20
-1.283291338582677
 30
0.0
 10
5.841606299212598
 20
-1.283291338582677
 30
0.0
 10
5.841606299212598
 20
-1.283291338582677
 30
0.0
 10
5.841606299212598
 20
-1.283291338582677
 30
0.0
 10
5.841606299212598
 20
-1.283291338582677
 30
0.0
 10
5.841606299212598
 20
-1.283291338582677
 30
0.0
 10
5.862165354330709
 20
-1.284
 30
0.0
 10
5.879562992125984
 20
-1.267625984251969
 30
0.0
 10
5.880275590551181
 20
-1.246925196850394
 30
0.0
 10
5.880275590551181
 20
-1.246925196850394
 30
0.0
 10
5.880275590551181
 20
-1.246925196850394
 30
0.0
 10
5.889220472440945
 20
-0.9856062992125985
 30
0.0
 10
5.889220472440945
 20
-0.9856062992125985
 30
0.0
 10
5.889220472440945
 20
-0.9856062992125985
 30
0.0
 10
6.010527559055118
 20
-0.9247637795275591
 30
0.0
 10
6.140724409448818
 20
-0.7995433070866141
 30
0.0
 10
6.249031496062992
 20
-0.6769212598425197
 30
0.0
 10
6.249031496062992
 20
-0.6769212598425197
 30
0.0
 10
6.249031496062992
 20
-0.6769212598425197
 30
0.0
 10
6.890240157480315
 20
-0.675736220472441
 30
0.0
 10
6.890240157480315
 20
-0.675736220472441
 30
0.0
 10
6.890240157480315
 20
-0.675736220472441
 30
0.0
 10
6.998787401574803
 20
-0.6739133858267716
 30
0.0
 10
7.010169291338583
 20
-0.7303425196850394
 30
0.0
 10
6.924374015748032
 20
-0.8450393700787402
 30
0.0
 10
6.924374015748032
 20
-0.8450393700787402
 30
0.0
 10
6.510610236220472
 20
-1.387610236220473
 30
0.0
 10
5.912452755905512
 20
-1.668393700787402
 30
0.0
 10
5.309771653543307
 20
-1.834496062992126
 30
0.0
 10
5.309771653543307
 20
-1.834496062992126
 30
0.0
 10
4.955267716535433
 20
-1.919606299212598
 30
0.0
 10
4.468700787401575
 20
-1.992846456692913
 30
0.0
 10
3.85411811023622
 20
-2.009196850393701
 30
0.0
 10
3.85411811023622
 20
-2.009196850393701
 30
0.0
 10
1.064318897637795
 20
-2.083413385826772
 30
0.0
 10
-1.755094488188976
 20
-1.88048031496063
 30
0.0
 10
-4.60007874015748
 20
-1.640224409448819
 30
0.0
 10
-4.60007874015748
 20
-1.640224409448819
 30
0.0
 10
-4.651988188976378
 20
-1.63442125984252
 30
0.0
 10
-4.731929133858268
 20
-1.638767716535433
 30
0.0
 10
-4.759665354330709
 20
-1.585240157480315
 30
0.0
 10
-4.759665354330709
 20
-1.585240157480315
 30
0.0
 10
-4.784948818897638
 20
-1.536444881889764
 30
0.0
 10
-4.78107874015748
 20
-1.455582677165354
 30
0.0
 10
-4.747744094488189
 20
-1.419933070866142
 30
0.0
 10
-4.747744094488189
 20
-1.419933070866142
 30
0.0
 10
-4.713956692913386
 20
-1.383803149606299
 30
0.0
 10
-4.551681102362204
 20
-1.412854330708661
 30
0.0
 10
-4.508440944881889
 20
-1.41705905511811
 30
0.0
  0
SPLINE
  5
62
330
1F
100
AcDbEntity
  8
Layer 1
 62
   252
370
    18
100
AcDbSpline
210
0.0
220
0.0
230
1.0
 70
    11
 71
     3
 72
   120
 73
   116
 74
     0
 42
0.0000000001
 43
0.0000000001
 40
0.0
 40
0.0
 40
0.0
 40
0.0
 40
0.0344827586206897
 40
0.0344827586206897
 40
0.0344827586206897
 40
0.0344827586206897
 40
0.0689655172413793
 40
0.0689655172413793
 40
0.0689655172413793
 40
0.0689655172413793
 40
0.103448275862069
 40
0.103448275862069
 40
0.103448275862069
 40
0.103448275862069
 40
0.1379310344827586
 40
0.1379310344827586
 40
0.1379310344827586
 40
0.1379310344827586
 40
0.1724137931034483
 40
0.1724137931034483
 40
0.1724137931034483
 40
0.1724137931034483
 40
0.206896551724138
 40
0.206896551724138
 40
0.206896551724138
 40
0.206896551724138
 40
0.2413793103448276
 40
0.2413793103448276
 40
0.2413793103448276
 40
0.2413793103448276
 40
0.2758620689655173
 40
0.2758620689655173
 40
0.2758620689655173
 40
0.2758620689655173
 40
0.310344827586207
 40
0.310344827586207
 40
0.310344827586207
 40
0.310344827586207
 40
0.3448275862068966
 40
0.3448275862068966
 40
0.3448275862068966
 40
0.3448275862068966
 40
0.3793103448275863
 40
0.3793103448275863
 40
0.3793103448275863
 40
0.3793103448275863
 40
0.413793103448276
 40
0.413793103448276
 40
0.413793103448276
 40
0.413793103448276
 40
0.4482758620689656
 40
0.4482758620689656
 40
0.4482758620689656
 40
0.4482758620689656
 40
0.4827586206896553
 40
0.4827586206896553
 40
0.4827586206896553
 40
0.4827586206896553
 40
0.517241379310345
 40
0.517241379310345
 40
0.517241379310345
 40
0.517241379310345
 40
0.5517241379310346
 40
0.5517241379310346
 40
0.5517241379310346
 40
0.5517241379310346
 40
0.5862068965517242
 40
0.5862068965517242
 40
0.5862068965517242
 40
0.5862068965517242
 40
0.6206896551724138
 40
0.6206896551724138
 40
0.6206896551724138
 40
0.6206896551724138
 40
0.6551724137931034
 40
0.6551724137931034
 40
0.6551724137931034
 40
0.6551724137931034
 40
0.689655172413793
 40
0.689655172413793
 40
0.689655172413793
 40
0.689655172413793
 40
0.7241379310344827
 40
0.7241379310344827
 40
0.7241379310344827
 40
0.7241379310344827
 40
0.7586206896551723
 40
0.7586206896551723
 40
0.7586206896551723
 40
0.7586206896551723
 40
0.7931034482758619
 40
0.7931034482758619
 40
0.7931034482758619
 40
0.7931034482758619
 40
0.8275862068965515
 40
0.8275862068965515
 40
0.8275862068965515
 40
0.8275862068965515
 40
0.8620689655172411
 40
0.8620689655172411
 40
0.8620689655172411
 40
0.8620689655172411
 40
0.8965517241379307
 40
0.8965517241379307
 40
0.8965517241379307
 40
0.8965517241379307
 40
0.9310344827586203
 40
0.9310344827586203
 40
0.9310344827586203
 40
0.9310344827586203
 40
0.9655172413793099
 40
0.9655172413793099
 40
0.9655172413793099
 40
0.9655172413793099
 40
1.0
 40
1.0
 40
1.0
 40
1.0
 10
-3.703334645669291
 20
-6.24844094488189
 30
0.0
 10
-3.703334645669291
 20
-6.24844094488189
 30
0.0
 10
-3.787712598425197
 20
-6.168074803149606
 30
0.0
 10
-3.787712598425197
 20
-6.168074803149606
 30
0.0
 10
-3.787712598425197
 20
-6.168074803149606
 30
0.0
 10
-3.813610236220472
 20
-6.143409448818898
 30
0.0
 10
-3.841007874015748
 20
-6.123748031496063
 30
0.0
 10
-3.869657480314961
 20
-6.106322834645669
 30
0.0
 10
-3.869657480314961
 20
-6.106322834645669
 30
0.0
 10
-3.869657480314961
 20
-6.106322834645669
 30
0.0
 10
-3.78036220472441
 20
-6.012570866141732
 30
0.0
 10
-3.78036220472441
 20
-6.012570866141732
 30
0.0
 10
-3.78036220472441
 20
-6.012570866141732
 30
0.0
 10
-3.766074803149607
 20
-5.997562992125984
 30
0.0
 10
-3.766574803149606
 20
-5.973688976377953
 30
0.0
 10
-3.781464566929134
 20
-5.959496062992126
 30
0.0
 10
-3.781464566929134
 20
-5.959496062992126
 30
0.0
 10
-3.781464566929134
 20
-5.959496062992126
 30
0.0
 10
-3.781464566929134
 20
-5.959496062992126
 30
0.0
 10
-3.781464566929134
 20
-5.959496062992126
 30
0.0
 10
-3.781464566929134
 20
-5.959496062992126
 30
0.0
 10
-3.796366141732284
 20
-5.945303149606299
 30
0.0
 10
-3.820240157480315
 20
-5.94598031496063
 30
0.0
 10
-3.834527559055118
 20
-5.960976377952756
 30
0.0
 10
-3.834527559055118
 20
-5.960976377952756
 30
0.0
 10
-3.834527559055118
 20
-5.960976377952756
 30
0.0
 10
-3.937456692913386
 20
-6.069027559055118
 30
0.0
 10
-3.937456692913386
 20
-6.069027559055118
 30
0.0
 10
-3.937456692913386
 20
-6.069027559055118
 30
0.0
 10
-3.946511811023622
 20
-6.064377952755906
 30
0.0
 10
-3.955669291338582
 20
-6.059724409448819
 30
0.0
 10
-3.964909448818898
 20
-6.055023622047244
 30
0.0
 10
-3.964909448818898
 20
-6.055023622047244
 30
0.0
 10
-4.00651968503937
 20
-6.033818897637795
 30
0.0
 10
-4.043858267716535
 20
-5.988051181102362
 30
0.0
 10
-4.056590551181102
 20
-5.939082677165354
 30
0.0
 10
-4.056590551181102
 20
-5.939082677165354
 30
0.0
 10
-4.069771653543307
 20
-5.888397637795276
 30
0.0
 10
-4.059094488188976
 20
-5.836968503937008
 30
0.0
 10
-4.075145669291339
 20
-5.783362204724409
 30
0.0
 10
-4.075145669291339
 20
-5.783362204724409
 30
0.0
 10
-4.087311023622047
 20
-5.742755905511811
 30
0.0
 10
-4.109114173228346
 20
-5.70605905511811
 30
0.0
 10
-4.13357874015748
 20
-5.661669291338582
 30
0.0
 10
-4.13357874015748
 20
-5.661669291338582
 30
0.0
 10
-6.488582677165354
 20
-3.057677165354331
 30
0.0
 10
-8.823161417322835
 20
-0.3953622047244095
 30
0.0
 10
-10.63875590551181
 20
0.8270748031496064
 30
0.0
 10
-10.63875590551181
 20
0.8270748031496064
 30
0.0
 10
-10.68651968503937
 20
0.8527874015748031
 30
0.0
 10
-10.73436220472441
 20
0.8736062992125985
 30
0.0
 10
-10.7823031496063
 20
0.8878700787401574
 30
0.0
 10
-10.7823031496063
 20
0.8878700787401574
 30
0.0
 10
-10.98235433070866
 20
0.9473937007874016
 30
0.0
 10
-11.08199212598425
 20
0.8077834645669292
 30
0.0
 10
-11.24441338582677
 20
0.8330984251968504
 30
0.0
 10
-11.24441338582677
 20
0.8330984251968504
 30
0.0
 10
-11.26544094488189
 20
0.8363779527559055
 30
0.0
 10
-11.28544094488189
 20
0.843496062992126
 30
0.0
 10
-11.30440157480315
 20
0.8544527559055118
 30
0.0
 10
-11.30440157480315
 20
0.8544527559055118
 30
0.0
 10
-11.32666929133858
 20
0.8673228346456693
 30
0.0
 10
-11.35220078740157
 20
0.8797874015748032
 30
0.0
 10
-11.38022440944882
 20
0.8916181102362205
 30
0.0
 10
-11.38022440944882
 20
0.8916181102362205
 30
0.0
 10
-11.38022440944882
 20
0.8916181102362205
 30
0.0
 10
-11.17181102362205
 20
1.110409448818898
 30
0.0
 10
-11.17181102362205
 20
1.110409448818898
 30
0.0
 10
-11.17181102362205
 20
1.110409448818898
 30
0.0
 10
-11.15752362204724
 20
1.125413385826772
 30
0.0
 10
-11.15801968503937
 20
1.149287401574803
 30
0.0
 10
-11.1729094488189
 20
1.163476377952756
 30
0.0
 10
-11.1729094488189
 20
1.163476377952756
 30
0.0
 10
-11.1729094488189
 20
1.163476377952756
 30
0.0
 10
-11.1729094488189
 20
1.163476377952756
 30
0.0
 10
-11.1729094488189
 20
1.163476377952756
 30
0.0
 10
-11.1729094488189
 20
1.163476377952756
 30
0.0
 10
-11.18781496062992
 20
1.177669291338583
 30
0.0
 10
-11.21169291338583
 20
1.177
 30
0.0
 10
-11.22597637795276
 20
1.162
 30
0.0
 10
-11.22597637795276
 20
1.162
 30
0.0
 10
-11.22597637795276
 20
1.162
 30
0.0
 10
-11.45632677165354
 20
0.9201850393700788
 30
0.0
 10
-11.45632677165354
 20
0.9201850393700788
 30
0.0
 10
-11.45632677165354
 20
0.9201850393700788
 30
0.0
 10
-11.64756692913386
 20
0.9840629921259842
 30
0.0
 10
-11.90649606299213
 20
1.017759842519685
 30
0.0
 10
-12.06764960629921
 20
0.9705275590551181
 30
0.0
 10
-12.06764960629921
 20
0.9705275590551181
 30
0.0
 10
-12.06764960629921
 20
0.9705275590551181
 30
0.0
 10
-12.61733070866142
 20
1.459314960629921
 30
0.0
 10
-12.61733070866142
 20
1.459314960629921
 30
0.0
 10
-12.61733070866142
 20
1.459314960629921
 30
0.0
 10
-12.65924015748032
 20
1.494437007874016
 30
0.0
 10
-12.66514173228346
 20
1.513606299212598
 30
0.0
 10
-12.65325590551181
 20
1.534192913385827
 30
0.0
 10
-12.65325590551181
 20
1.534192913385827
 30
0.0
 10
-12.58561023622047
 20
1.651425196850394
 30
0.0
 10
-11.95608267716535
 20
1.678003937007874
 30
0.0
 10
-11.82937401574803
 20
1.672322834645669
 30
0.0
 10
-11.82937401574803
 20
1.672322834645669
 30
0.0
 10
-11.36414566929134
 20
1.651464566929134
 30
0.0
 10
-10.90107874015748
 20
1.474602362204724
 30
0.0
 10
-10.44033464566929
 20
1.131897637795276
 30
0.0
 10
-10.44033464566929
 20
1.131897637795276
 30
0.0
 10
-7.996795275590551
 20
-0.9227283464566929
 30
0.0
 10
-5.314905511811023
 20
-3.78607874015748
 30
0.0
 10
-3.474263779527559
 20
-5.959897637795276
 30
0.0
 10
-3.474263779527559
 20
-5.959897637795276
 30
0.0
 10
-3.41944094488189
 20
-6.024641732283465
 30
0.0
 10
-3.438606299212598
 20
-6.106929133858268
 30
0.0
 10
-3.508291338582677
 20
-6.173169291338582
 30
0.0
 10
-3.508291338582677
 20
-6.173169291338582
 30
0.0
 10
-3.581047244094488
 20
-6.268314960629922
 30
0.0
 10
-3.636346456692913
 20
-6.321389763779528
 30
0.0
 10
-3.703334645669291
 20
-6.24844094488189
 30
0.0
  0
SPLINE
  5
63
330
1F
100
AcDbEntity
  8
Layer 1
 62
   252
370
    18
100
AcDbSpline
210
0.0
220
0.0
230
1.0
 70
    11
 71
     3
 72
   124
 73
   120
 74
     0
 42
0.0000000001
 43
0.0000000001
 40
0.0
 40
0.0
 40
0.0
 40
0.0
 40
0.0333333333333333
 40
0.0333333333333333
 40
0.0333333333333333
 40
0.0333333333333333
 40
0.0666666666666667
 40
0.0666666666666667
 40
0.0666666666666667
 40
0.0666666666666667
 40
0.1
 40
0.1
 40
0.1
 40
0.1
 40
0.1333333333333333
 40
0.1333333333333333
 40
0.1333333333333333
 40
0.1333333333333333
 40
0.1666666666666667
 40
0.1666666666666667
 40
0.1666666666666667
 40
0.1666666666666667
 40
0.2
 40
0.2
 40
0.2
 40
0.2
 40
0.2333333333333333
 40
0.2333333333333333
 40
0.2333333333333333
 40
0.2333333333333333
 40
0.2666666666666667
 40
0.2666666666666667
 40
0.2666666666666667
 40
0.2666666666666667
 40
0.3
 40
0.3
 40
0.3
 40
0.3
 40
0.3333333333333333
 40
0.3333333333333333
 40
0.3333333333333333
 40
0.3333333333333333
 40
0.3666666666666666
 40
0.3666666666666666
 40
0.3666666666666666
 40
0.3666666666666666
 40
0.4
 40
0.4
 40
0.4
 40
0.4
 40
0.4333333333333333
 40
0.4333333333333333
 40
0.4333333333333333
 40
0.4333333333333333
 40
0.4666666666666666
 40
0.4666666666666666
 40
0.4666666666666666
 40
0.4666666666666666
 40
0.4999999999999999
 40
0.4999999999999999
 40
0.4999999999999999
 40
0.4999999999999999
 40
0.5333333333333333
 40
0.5333333333333333
 40
0.5333333333333333
 40
0.5333333333333333
 40
0.5666666666666667
 40
0.5666666666666667
 40
0.5666666666666667
 40
0.5666666666666667
 40
0.6
 40
0.6
 40
0.6
 40
0.6
 40
0.6333333333333333
 40
0.6333333333333333
 40
0.6333333333333333
 40
0.6333333333333333
 40
0.6666666666666666
 40
0.6666666666666666
 40
0.6666666666666666
 40
0.6666666666666666
 40
0.7
 40
0.7
 40
0.7
 40
0.7
 40
0.7333333333333333
 40
0.7333333333333333
 40
0.7333333333333333
 40
0.7333333333333333
 40
0.7666666666666666
 40
0.7666666666666666
 40
0.7666666666666666
 40
0.7666666666666666
 40
0.7999999999999999
 40
0.7999999999999999
 40
0.7999999999999999
 40
0.7999999999999999
 40
0.8333333333333333
 40
0.8333333333333333
 40
0.8333333333333333
 40
0.8333333333333333
 40
0.8666666666666666
 40
0.8666666666666666
 40
0.8666666666666666
 40
0.8666666666666666
 40
0.8999999999999999
 40
0.8999999999999999
 40
0.8999999999999999
 40
0.8999999999999999
 40
0.9333333333333332
 40
0.9333333333333332
 40
0.9333333333333332
 40
0.9333333333333332
 40
0.9666666666666666
 40
0.9666666666666666
 40
0.9666666666666666
 40
0.9666666666666666
 40
1.0
 40
1.0
 40
1.0
 40
1.0
 10
-5.871259842519685
 20
-0.6074173228346457
 30
0.0
 10
-5.871259842519685
 20
-0.6074173228346457
 30
0.0
 10
-5.635562992125984
 20
-0.6041338582677165
 30
0.0
 10
-5.635562992125984
 20
-0.6041338582677165
 30
0.0
 10
-5.635562992125984
 20
-0.6041338582677165
 30
0.0
 10
-5.635562992125984
 20
-0.6041338582677165
 30
0.0
 10
-5.634346456692914
 20
-0.8835708661417323
 30
0.0
 10
-5.634346456692914
 20
-0.8835708661417323
 30
0.0
 10
-5.634346456692914
 20
-0.8835708661417323
 30
0.0
 10
-5.634248031496063
 20
-0.9042401574803149
 30
0.0
 10
-5.617433070866142
 20
-0.9211968503937008
 30
0.0
 10
-5.596854330708662
 20
-0.9211574803149606
 30
0.0
 10
-5.596854330708662
 20
-0.9211574803149606
 30
0.0
 10
-5.596854330708662
 20
-0.9211574803149606
 30
0.0
 10
-5.596854330708662
 20
-0.9211574803149606
 30
0.0
 10
-5.596854330708662
 20
-0.9211574803149606
 30
0.0
 10
-5.596854330708662
 20
-0.9211574803149606
 30
0.0
 10
-5.576283464566929
 20
-0.9211141732283464
 30
0.0
 10
-5.559468503937008
 20
-0.9041220472440945
 30
0.0
 10
-5.559535433070866
 20
-0.8834094488188976
 30
0.0
 10
-5.559535433070866
 20
-0.8834094488188976
 30
0.0
 10
-5.559535433070866
 20
-0.8834094488188976
 30
0.0
 10
-5.560547244094488
 20
-0.5912795275590551
 30
0.0
 10
-5.560547244094488
 20
-0.5912795275590551
 30
0.0
 10
-5.560547244094488
 20
-0.5912795275590551
 30
0.0
 10
-5.560547244094488
 20
-0.5912795275590551
 30
0.0
 10
-5.405377952755906
 20
-0.5877401574803149
 30
0.0
 10
-5.405377952755906
 20
-0.5877401574803149
 30
0.0
 10
-5.405377952755906
 20
-0.5877401574803149
 30
0.0
 10
-5.353893700787402
 20
-0.6003622047244095
 30
0.0
 10
-5.299818897637795
 20
-0.6370393700787401
 30
0.0
 10
-5.243996062992126
 20
-0.6908149606299213
 30
0.0
 10
-5.243996062992126
 20
-0.6908149606299213
 30
0.0
 10
-5.121976377952756
 20
-0.8083582677165354
 30
0.0
 10
-5.095173228346456
 20
-0.8186417322834646
 30
0.0
 10
-4.919818897637795
 20
-0.8606653543307087
 30
0.0
 10
-4.919818897637795
 20
-0.8606653543307087
 30
0.0
 10
-4.859318897637795
 20
-0.8751653543307086
 30
0.0
 10
-4.794279527559056
 20
-0.8826299212598425
 30
0.0
 10
-4.725259842519685
 20
-0.8836811023622048
 30
0.0
 10
-4.725259842519685
 20
-0.8836811023622048
 30
0.0
 10
-3.673122047244095
 20
-0.9116889763779528
 30
0.0
 10
-2.630330708661417
 20
-0.9883188976377952
 30
0.0
 10
-1.617720472440945
 20
-1.022283464566929
 30
0.0
 10
-1.617720472440945
 20
-1.022283464566929
 30
0.0
 10
0.3420629921259842
 20
-1.088027559055118
 30
0.0
 10
1.938740157480315
 20
-1.227511811023622
 30
0.0
 10
3.164925196850394
 20
-1.102031496062992
 30
0.0
 10
3.164925196850394
 20
-1.102031496062992
 30
0.0
 10
3.60151968503937
 20
-1.071649606299213
 30
0.0
 10
4.275074803149606
 20
-0.8465157480314961
 30
0.0
 10
4.630574803149607
 20
-0.7258858267716536
 30
0.0
 10
4.630574803149607
 20
-0.7258858267716536
 30
0.0
 10
4.630574803149607
 20
-0.7258858267716536
 30
0.0
 10
4.630125984251968
 20
-0.9011299212598425
 30
0.0
 10
4.630125984251968
 20
-0.9011299212598425
 30
0.0
 10
4.630125984251968
 20
-0.9011299212598425
 30
0.0
 10
4.630074803149606
 20
-0.9217992125984252
 30
0.0
 10
4.64703937007874
 20
-0.938759842519685
 30
0.0
 10
4.667610236220472
 20
-0.9387125984251968
 30
0.0
 10
4.667610236220472
 20
-0.9387125984251968
 30
0.0
 10
4.667610236220472
 20
-0.9387125984251968
 30
0.0
 10
4.667610236220472
 20
-0.9387125984251968
 30
0.0
 10
4.667610236220472
 20
-0.9387125984251968
 30
0.0
 10
4.667610236220472
 20
-0.9387125984251968
 30
0.0
 10
4.688185039370079
 20
-0.9386614173228346
 30
0.0
 10
4.704889763779527
 20
-0.9216692913385827
 30
0.0
 10
4.704929133858267
 20
-0.9009645669291338
 30
0.0
 10
4.704929133858267
 20
-0.9009645669291338
 30
0.0
 10
4.704929133858267
 20
-0.9009645669291338
 30
0.0
 10
4.705330708661418
 20
-0.6995905511811024
 30
0.0
 10
4.705330708661418
 20
-0.6995905511811024
 30
0.0
 10
4.705330708661418
 20
-0.6995905511811024
 30
0.0
 10
5.20251968503937
 20
-0.5184094488188976
 30
0.0
 10
5.356740157480315
 20
-0.4282086614173228
 30
0.0
 10
5.628196850393701
 20
-0.0551102362204724
 30
0.0
 10
5.628196850393701
 20
-0.0551102362204724
 30
0.0
 10
5.702870078740157
 20
0.0475157480314961
 30
0.0
 10
5.691755905511811
 20
0.0290275590551181
 30
0.0
 10
5.821192913385826
 20
0.0250275590551181
 30
0.0
 10
5.821192913385826
 20
0.0250275590551181
 30
0.0
 10
5.821192913385826
 20
0.0250275590551181
 30
0.0
 10
6.329964566929134
 20
0.0261062992125984
 30
0.0
 10
6.329964566929134
 20
0.0261062992125984
 30
0.0
 10
6.329964566929134
 20
0.0261062992125984
 30
0.0
 10
6.371114173228347
 20
0.0117637795275591
 30
0.0
 10
6.37848031496063
 20
-0.0383385826771654
 30
0.0
 10
6.34992125984252
 20
-0.1152874015748031
 30
0.0
 10
6.34992125984252
 20
-0.1152874015748031
 30
0.0
 10
6.281102362204725
 20
-0.3007637795275591
 30
0.0
 10
6.167716535433071
 20
-0.3913031496062992
 30
0.0
 10
6.054062992125984
 20
-0.5526102362204725
 30
0.0
 10
6.054062992125984
 20
-0.5526102362204725
 30
0.0
 10
5.80557874015748
 20
-0.905267716535433
 30
0.0
 10
5.516925196850393
 20
-1.157153543307087
 30
0.0
 10
5.094917322834646
 20
-1.289425196850394
 30
0.0
 10
5.094917322834646
 20
-1.289425196850394
 30
0.0
 10
3.895496062992126
 20
-1.665374015748031
 30
0.0
 10
2.116299212598425
 20
-1.499275590551181
 30
0.0
 10
0.8736299212598425
 20
-1.497566929133858
 30
0.0
 10
0.8736299212598425
 20
-1.497566929133858
 30
0.0
 10
-1.141444881889764
 20
-1.494783464566929
 30
0.0
 10
-2.73240157480315
 20
-1.420307086614173
 30
0.0
 10
-4.116814960629921
 20
-1.346188976377953
 30
0.0
 10
-4.116814960629921
 20
-1.346188976377953
 30
0.0
 10
-4.584066929133858
 20
-1.329909448818898
 30
0.0
 10
-4.967362204724409
 20
-1.308259842519685
 30
0.0
 10
-5.287771653543307
 20
-1.277389763779528
 30
0.0
 10
-5.287771653543307
 20
-1.277389763779528
 30
0.0
 10
-5.375082677165354
 20
-1.268984251968504
 30
0.0
 10
-5.577527559055119
 20
-1.268492125984252
 30
0.0
 10
-5.726311023622047
 20
-1.221877952755906
 30
0.0
 10
-5.726311023622047
 20
-1.221877952755906
 30
0.0
 10
-5.914909448818897
 20
-1.162791338582677
 30
0.0
 10
-5.964385826771654
 20
-0.9811181102362204
 30
0.0
 10
-5.963708661417323
 20
-0.7848503937007874
 30
0.0
 10
-5.963708661417323
 20
-0.7848503937007874
 30
0.0
 10
-5.963350393700788
 20
-0.6812165354330708
 30
0.0
 10
-5.980818897637795
 20
-0.6089409448818898
 30
0.0
 10
-5.871259842519685
 20
-0.6074173228346457
 30
0.0
  0
SPLINE
  5
64
330
1F
100
AcDbEntity
  8
Layer 1
 62
   252
370
    18
100
AcDbSpline
210
0.0
220
0.0
230
1.0
 70
    11
 71
     3
 72
   124
 73
   120
 74
     0
 42
0.0000000001
 43
0.0000000001
 40
0.0
 40
0.0
 40
0.0
 40
0.0
 40
0.0333333333333333
 40
0.0333333333333333
 40
0.0333333333333333
 40
0.0333333333333333
 40
0.0666666666666667
 40
0.0666666666666667
 40
0.0666666666666667
 40
0.0666666666666667
 40
0.1
 40
0.1
 40
0.1
 40
0.1
 40
0.1333333333333333
 40
0.1333333333333333
 40
0.1333333333333333
 40
0.1333333333333333
 40
0.1666666666666667
 40
0.1666666666666667
 40
0.1666666666666667
 40
0.1666666666666667
 40
0.2
 40
0.2
 40
0.2
 40
0.2
 40
0.2333333333333333
 40
0.2333333333333333
 40
0.2333333333333333
 40
0.2333333333333333
 40
0.2666666666666667
 40
0.2666666666666667
 40
0.2666666666666667
 40
0.2666666666666667
 40
0.3
 40
0.3
 40
0.3
 40
0.3
 40
0.3333333333333333
 40
0.3333333333333333
 40
0.3333333333333333
 40
0.3333333333333333
 40
0.3666666666666666
 40
0.3666666666666666
 40
0.3666666666666666
 40
0.3666666666666666
 40
0.4
 40
0.4
 40
0.4
 40
0.4
 40
0.4333333333333333
 40
0.4333333333333333
 40
0.4333333333333333
 40
0.4333333333333333
 40
0.4666666666666666
 40
0.4666666666666666
 40
0.4666666666666666
 40
0.4666666666666666
 40
0.4999999999999999
 40
0.4999999999999999
 40
0.4999999999999999
 40
0.4999999999999999
 40
0.5333333333333333
 40
0.5333333333333333
 40
0.5333333333333333
 40
0.5333333333333333
 40
0.5666666666666667
 40
0.5666666666666667
 40
0.5666666666666667
 40
0.5666666666666667
 40
0.6
 40
0.6
 40
0.6
 40
0.6
 40
0.6333333333333333
 40
0.6333333333333333
 40
0.6333333333333333
 40
0.6333333333333333
 40
0.6666666666666666
 40
0.6666666666666666
 40
0.6666666666666666
 40
0.6666666666666666
 40
0.7
 40
0.7
 40
0.7
 40
0.7
 40
0.7333333333333333
 40
0.7333333333333333
 40
0.7333333333333333
 40
0.7333333333333333
 40
0.7666666666666666
 40
0.7666666666666666
 40
0.7666666666666666
 40
0.7666666666666666
 40
0.7999999999999999
 40
0.7999999999999999
 40
0.7999999999999999
 40
0.7999999999999999
 40
0.8333333333333333
 40
0.8333333333333333
 40
0.8333333333333333
 40
0.8333333333333333
 40
0.8666666666666666
 40
0.8666666666666666
 40
0.8666666666666666
 40
0.8666666666666666
 40
0.8999999999999999
 40
0.8999999999999999
 40
0.8999999999999999
 40
0.8999999999999999
 40
0.9333333333333332
 40
0.9333333333333332
 40
0.9333333333333332
 40
0.9333333333333332
 40
0.9666666666666666
 40
0.9666666666666666
 40
0.9666666666666666
 40
0.9666666666666666
 40
1.0
 40
1.0
 40
1.0
 40
1.0
 10
-2.562437007874016
 20
-3.193094488188976
 30
0.0
 10
-2.562437007874016
 20
-3.193094488188976
 30
0.0
 10
-2.3275
 20
-3.173933070866142
 30
0.0
 10
-2.3275
 20
-3.173933070866142
 30
0.0
 10
-2.3275
 20
-3.173933070866142
 30
0.0
 10
-2.3275
 20
-3.173933070866142
 30
0.0
 10
-2.305893700787402
 20
-3.484118110236221
 30
0.0
 10
-2.305893700787402
 20
-3.484118110236221
 30
0.0
 10
-2.305893700787402
 20
-3.484118110236221
 30
0.0
 10
-2.304444881889764
 20
-3.504787401574803
 30
0.0
 10
-2.286488188976378
 20
-3.520523622047244
 30
0.0
 10
-2.26596062992126
 20
-3.51909842519685
 30
0.0
 10
-2.26596062992126
 20
-3.51909842519685
 30
0.0
 10
-2.26596062992126
 20
-3.51909842519685
 30
0.0
 10
-2.26596062992126
 20
-3.51909842519685
 30
0.0
 10
-2.26596062992126
 20
-3.51909842519685
 30
0.0
 10
-2.26596062992126
 20
-3.51909842519685
 30
0.0
 10
-2.245433070866142
 20
-3.517665354330709
 30
0.0
 10
-2.229826771653543
 20
-3.49957874015748
 30
0.0
 10
-2.231263779527559
 20
-3.47892125984252
 30
0.0
 10
-2.231263779527559
 20
-3.47892125984252
 30
0.0
 10
-2.231263779527559
 20
-3.47892125984252
 30
0.0
 10
-2.252925196850394
 20
-3.167854330708662
 30
0.0
 10
-2.252925196850394
 20
-3.167854330708662
 30
0.0
 10
-2.252925196850394
 20
-3.167854330708662
 30
0.0
 10
-2.252925196850394
 20
-3.167854330708662
 30
0.0
 10
-2.055090551181102
 20
-3.151724409448819
 30
0.0
 10
-2.055090551181102
 20
-3.151724409448819
 30
0.0
 10
-2.055090551181102
 20
-3.151724409448819
 30
0.0
 10
-2.002870078740158
 20
-3.160854330708661
 30
0.0
 10
-1.946492125984252
 20
-3.193775590551181
 30
0.0
 10
-1.887125984251969
 20
-3.243696850393701
 30
0.0
 10
-1.887125984251969
 20
-3.243696850393701
 30
0.0
 10
-1.757437007874016
 20
-3.352795275590551
 30
0.0
 10
-1.722838582677165
 20
-3.449964566929134
 30
0.0
 10
-1.54501968503937
 20
-3.480118110236221
 30
0.0
 10
-1.54501968503937
 20
-3.480118110236221
 30
0.0
 10
-1.483641732283465
 20
-3.490535433070866
 30
0.0
 10
-1.418287401574803
 20
-3.493582677165354
 30
0.0
 10
-1.349350393700787
 20
-3.489976377952756
 30
0.0
 10
-1.349350393700787
 20
-3.489976377952756
 30
0.0
 10
-0.2977165354330709
 20
-3.447062992125984
 30
0.0
 10
0.7487716535433071
 20
-3.385937007874016
 30
0.0
 10
1.76138188976378
 20
-3.351625984251969
 30
0.0
 10
1.76138188976378
 20
-3.351625984251969
 30
0.0
 10
3.721145669291339
 20
-3.285228346456693
 30
0.0
 10
5.526397637795275
 20
-3.163937007874016
 30
0.0
 10
6.741338582677165
 20
-2.956145669291339
 30
0.0
 10
6.741338582677165
 20
-2.956145669291339
 30
0.0
 10
7.174901574803149
 20
-2.896425196850394
 30
0.0
 10
7.57082283464567
 20
-2.794811023622047
 30
0.0
 10
7.917393700787402
 20
-2.650511811023622
 30
0.0
 10
7.917393700787402
 20
-2.650511811023622
 30
0.0
 10
7.917393700787402
 20
-2.650511811023622
 30
0.0
 10
7.926838582677165
 20
-2.786051181102362
 30
0.0
 10
7.926838582677165
 20
-2.786051181102362
 30
0.0
 10
7.926838582677165
 20
-2.786051181102362
 30
0.0
 10
7.928283464566929
 20
-2.806716535433071
 30
0.0
 10
7.946240157480315
 20
-2.822448818897638
 30
0.0
 10
7.966767716535433
 20
-2.821023622047244
 30
0.0
 10
7.966767716535433
 20
-2.821023622047244
 30
0.0
 10
7.966767716535433
 20
-2.821023622047244
 30
0.0
 10
7.966767716535433
 20
-2.821023622047244
 30
0.0
 10
7.966767716535433
 20
-2.821023622047244
 30
0.0
 10
7.966767716535433
 20
-2.821023622047244
 30
0.0
 10
7.987291338582677
 20
-2.819594488188976
 30
0.0
 10
8.00290157480315
 20
-2.801507874015748
 30
0.0
 10
8.00146062992126
 20
-2.780846456692913
 30
0.0
 10
8.00146062992126
 20
-2.780846456692913
 30
0.0
 10
8.00146062992126
 20
-2.780846456692913
 30
0.0
 10
7.990204724409449
 20
-2.619236220472441
 30
0.0
 10
7.990204724409449
 20
-2.619236220472441
 30
0.0
 10
7.990204724409449
 20
-2.619236220472441
 30
0.0
 10
8.47405905511811
 20
-2.40498031496063
 30
0.0
 10
8.855976377952755
 20
-2.103885826771653
 30
0.0
 10
9.101692913385827
 20
-1.713350393700787
 30
0.0
 10
9.101692913385827
 20
-1.713350393700787
 30
0.0
 10
9.169283464566929
 20
-1.605925196850394
 30
0.0
 10
9.159437007874017
 20
-1.625122047244095
 30
0.0
 10
9.288846456692914
 20
-1.620393700787402
 30
0.0
 10
9.288846456692914
 20
-1.620393700787402
 30
0.0
 10
9.288846456692914
 20
-1.620393700787402
 30
0.0
 10
9.796393700787402
 20
-1.585043307086614
 30
0.0
 10
9.796393700787402
 20
-1.585043307086614
 30
0.0
 10
9.796393700787402
 20
-1.585043307086614
 30
0.0
 10
9.838417322834646
 20
-1.596590551181102
 30
0.0
 10
9.849141732283465
 20
-1.64607874015748
 30
0.0
 10
9.82583464566929
 20
-1.724775590551181
 30
0.0
 10
9.82583464566929
 20
-1.724775590551181
 30
0.0
 10
9.769653543307086
 20
-1.914468503937008
 30
0.0
 10
9.68351968503937
 20
-2.095527559055118
 30
0.0
 10
9.580988188976377
 20
-2.264122047244094
 30
0.0
 10
9.580988188976377
 20
-2.264122047244094
 30
0.0
 10
9.356811023622047
 20
-2.632724409448819
 30
0.0
 10
9.085791338582677
 20
-2.903476377952756
 30
0.0
 10
8.673649606299213
 20
-3.063874015748032
 30
0.0
 10
8.673649606299213
 20
-3.063874015748032
 30
0.0
 10
7.502267716535433
 20
-3.519763779527559
 30
0.0
 10
5.542582677165354
 20
-3.541232283464567
 30
0.0
 10
4.302618110236221
 20
-3.623216535433071
 30
0.0
 10
4.302618110236221
 20
-3.623216535433071
 30
0.0
 10
2.29192125984252
 20
-3.756173228346457
 30
0.0
 10
0.6760354330708661
 20
-3.823822834645669
 30
0.0
 10
-0.7102283464566929
 20
-3.843125984251968
 30
0.0
 10
-0.7102283464566929
 20
-3.843125984251968
 30
0.0
 10
-1.177515748031496
 20
-3.858350393700787
 30
0.0
 10
-1.586566929133858
 20
-3.863795275590551
 30
0.0
 10
-1.908330708661417
 20
-3.85457874015748
 30
0.0
 10
-1.908330708661417
 20
-3.85457874015748
 30
0.0
 10
-1.996003937007874
 20
-3.852066929133858
 30
0.0
 10
-2.19801968503937
 20
-3.865220472440945
 30
0.0
 10
-2.349610236220472
 20
-3.828728346456693
 30
0.0
 10
-2.349610236220472
 20
-3.828728346456693
 30
0.0
 10
-2.541763779527559
 20
-3.78248031496063
 30
0.0
 10
-2.630188976377953
 20
-3.572212598425197
 30
0.0
 10
-2.642724409448819
 20
-3.376346456692914
 30
0.0
 10
-2.642724409448819
 20
-3.376346456692914
 30
0.0
 10
-2.649342519685039
 20
-3.272913385826772
 30
0.0
 10
-2.671641732283465
 20
-3.201988188976378
 30
0.0
 10
-2.562437007874016
 20
-3.193094488188976
 30
0.0
  0
SPLINE
  5
65
330
1F
100
AcDbEntity
  8
Layer 1
 62
   252
370
    18
100
AcDbSpline
210
0.0
220
0.0
230
1.0
 70
    11
 71
     3
 72
   132
 73
   128
 74
     0
 42
0.0000000001
 43
0.0000000001
 40
0.0
 40
0.0
 40
0.0
 40
0.0
 40
0.03125
 40
0.03125
 40
0.03125
 40
0.03125
 40
0.0625
 40
0.0625
 40
0.0625
 40
0.0625
 40
0.09375
 40
0.09375
 40
0.09375
 40
0.09375
 40
0.125
 40
0.125
 40
0.125
 40
0.125
 40
0.15625
 40
0.15625
 40
0.15625
 40
0.15625
 40
0.1875
 40
0.1875
 40
0.1875
 40
0.1875
 40
0.21875
 40
0.21875
 40
0.21875
 40
0.21875
 40
0.25
 40
0.25
 40
0.25
 40
0.25
 40
0.28125
 40
0.28125
 40
0.28125
 40
0.28125
 40
0.3125
 40
0.3125
 40
0.3125
 40
0.3125
 40
0.34375
 40
0.34375
 40
0.34375
 40
0.34375
 40
0.375
 40
0.375
 40
0.375
 40
0.375
 40
0.40625
 40
0.40625
 40
0.40625
 40
0.40625
 40
0.4375
 40
0.4375
 40
0.4375
 40
0.4375
 40
0.46875
 40
0.46875
 40
0.46875
 40
0.46875
 40
0.5
 40
0.5
 40
0.5
 40
0.5
 40
0.53125
 40
0.53125
 40
0.53125
 40
0.53125
 40
0.5625
 40
0.5625
 40
0.5625
 40
0.5625
 40
0.59375
 40
0.59375
 40
0.59375
 40
0.59375
 40
0.625
 40
0.625
 40
0.625
 40
0.625
 40
0.65625
 40
0.65625
 40
0.65625
 40
0.65625
 40
0.6875
 40
0.6875
 40
0.6875
 40
0.6875
 40
0.71875
 40
0.71875
 40
0.71875
 40
0.71875
 40
0.75
 40
0.75
 40
0.75
 40
0.75
 40
0.78125
 40
0.78125
 40
0.78125
 40
0.78125
 40
0.8125
 40
0.8125
 40
0.8125
 40
0.8125
 40
0.84375
 40
0.84375
 40
0.84375
 40
0.84375
 40
0.875
 40
0.875
 40
0.875
 40
0.875
 40
0.90625
 40
0.90625
 40
0.90625
 40
0.90625
 40
0.9375
 40
0.9375
 40
0.9375
 40
0.9375
 40
0.96875
 40
0.96875
 40
0.96875
 40
0.96875
 40
1.0
 40
1.0
 40
1.0
 40
1.0
 10
-7.713803149606299
 20
2.293200787401575
 30
0.0
 10
-7.713803149606299
 20
2.293200787401575
 30
0.0
 10
-7.597952755905512
 20
2.280606299212598
 30
0.0
 10
-7.597952755905512
 20
2.280606299212598
 30
0.0
 10
-7.597952755905512
 20
2.280606299212598
 30
0.0
 10
-7.570740157480315
 20
2.277641732283465
 30
0.0
 10
-7.538452755905512
 20
2.269925196850394
 30
0.0
 10
-7.509866141732283
 20
2.268055118110236
 30
0.0
 10
-7.509866141732283
 20
2.268055118110236
 30
0.0
 10
-7.483866141732284
 20
2.266350393700788
 30
0.0
 10
-7.486003937007874
 20
2.25801968503937
 30
0.0
 10
-7.489031496062992
 20
2.230165354330709
 30
0.0
 10
-7.489031496062992
 20
2.230165354330709
 30
0.0
 10
-7.489031496062992
 20
2.230165354330709
 30
0.0
 10
-7.508677165354331
 20
2.04955905511811
 30
0.0
 10
-7.508677165354331
 20
2.04955905511811
 30
0.0
 10
-7.508677165354331
 20
2.04955905511811
 30
0.0
 10
-7.510905511811024
 20
2.029051181102362
 30
0.0
 10
-7.496015748031496
 20
2.010295275590551
 30
0.0
 10
-7.475562992125984
 20
2.008070866141732
 30
0.0
 10
-7.475562992125984
 20
2.008070866141732
 30
0.0
 10
-7.475562992125984
 20
2.008070866141732
 30
0.0
 10
-7.475562992125984
 20
2.008070866141732
 30
0.0
 10
-7.475562992125984
 20
2.008070866141732
 30
0.0
 10
-7.475562992125984
 20
2.008070866141732
 30
0.0
 10
-7.455110236220473
 20
2.005846456692913
 30
0.0
 10
-7.436547244094488
 20
2.02088188976378
 30
0.0
 10
-7.434307086614173
 20
2.041472440944882
 30
0.0
 10
-7.434307086614173
 20
2.041472440944882
 30
0.0
 10
-7.434307086614173
 20
2.041472440944882
 30
0.0
 10
-7.410342519685039
 20
2.261811023622047
 30
0.0
 10
-7.410342519685039
 20
2.261811023622047
 30
0.0
 10
-7.410342519685039
 20
2.261811023622047
 30
0.0
 10
-7.410342519685039
 20
2.261811023622047
 30
0.0
 10
-7.379763779527559
 20
2.269736220472441
 30
0.0
 10
-7.379763779527559
 20
2.269736220472441
 30
0.0
 10
-7.379763779527559
 20
2.269736220472441
 30
0.0
 10
-7.334578740157481
 20
2.281444881889764
 30
0.0
 10
-7.269007874015748
 20
2.261106299212599
 30
0.0
 10
-7.243811023622047
 20
2.217259842519685
 30
0.0
 10
-7.243811023622047
 20
2.217259842519685
 30
0.0
 10
-7.211992125984252
 20
2.161877952755905
 30
0.0
 10
-7.136673228346456
 20
2.036377952755906
 30
0.0
 10
-7.072751968503937
 20
2.028870078740157
 30
0.0
 10
-7.072751968503937
 20
2.028870078740157
 30
0.0
 10
-6.603366141732283
 20
1.847881889763779
 30
0.0
 10
-4.600917322834646
 20
1.570763779527559
 30
0.0
 10
-2.496287401574803
 20
1.274267716535433
 30
0.0
 10
-2.496287401574803
 20
1.274267716535433
 30
0.0
 10
-1.232291338582677
 20
1.096208661417323
 30
0.0
 10
-0.0437637795275591
 20
0.932251968503937
 30
0.0
 10
0.8974606299212599
 20
0.9210236220472441
 30
0.0
 10
0.8974606299212599
 20
0.9210236220472441
 30
0.0
 10
1.687610236220472
 20
0.9116023622047245
 30
0.0
 10
2.301188976377953
 20
0.9945118110236221
 30
0.0
 10
2.630740157480315
 20
1.213244094488189
 30
0.0
 10
2.630740157480315
 20
1.213244094488189
 30
0.0
 10
2.652161417322835
 20
1.22746062992126
 30
0.0
 10
2.684094488188976
 20
1.222153543307087
 30
0.0
 10
2.71353937007874
 20
1.229767716535433
 30
0.0
 10
2.71353937007874
 20
1.229767716535433
 30
0.0
 10
2.71353937007874
 20
1.229767716535433
 30
0.0
 10
2.691507874015748
 20
1.027228346456693
 30
0.0
 10
2.691507874015748
 20
1.027228346456693
 30
0.0
 10
2.691507874015748
 20
1.027228346456693
 30
0.0
 10
2.689275590551181
 20
1.006728346456693
 30
0.0
 10
2.704169291338583
 20
0.9879645669291338
 30
0.0
 10
2.724622047244095
 20
0.9857362204724409
 30
0.0
 10
2.724622047244095
 20
0.9857362204724409
 30
0.0
 10
2.724622047244095
 20
0.9857362204724409
 30
0.0
 10
2.724622047244095
 20
0.9857362204724409
 30
0.0
 10
2.724622047244095
 20
0.9857362204724409
 30
0.0
 10
2.724622047244095
 20
0.9857362204724409
 30
0.0
 10
2.745074803149606
 20
0.9835157480314961
 30
0.0
 10
2.763633858267716
 20
0.9985551181102362
 30
0.0
 10
2.765874015748031
 20
1.019141732283465
 30
0.0
 10
2.765874015748031
 20
1.019141732283465
 30
0.0
 10
2.765874015748031
 20
1.019141732283465
 30
0.0
 10
2.791350393700788
 20
1.253303149606299
 30
0.0
 10
2.791350393700788
 20
1.253303149606299
 30
0.0
 10
2.791350393700788
 20
1.253303149606299
 30
0.0
 10
2.982070866141732
 20
1.318712598425197
 30
0.0
 10
3.42990157480315
 20
1.602555118110236
 30
0.0
 10
3.529240157480315
 20
1.73796062992126
 30
0.0
 10
3.529240157480315
 20
1.73796062992126
 30
0.0
 10
3.529240157480315
 20
1.73796062992126
 30
0.0
 10
4.197421259842519
 20
1.665283464566929
 30
0.0
 10
4.197421259842519
 20
1.665283464566929
 30
0.0
 10
4.197421259842519
 20
1.665283464566929
 30
0.0
 10
4.252043307086614
 20
1.662842519685039
 30
0.0
 10
4.268374015748032
 20
1.651185039370079
 30
0.0
 10
4.271444881889764
 20
1.627614173228346
 30
0.0
 10
4.271444881889764
 20
1.627614173228346
 30
0.0
 10
4.275259842519685
 20
1.598255905511811
 30
0.0
 10
4.25353937007874
 20
1.557543307086614
 30
0.0
 10
4.216535433070866
 20
1.510748031496063
 30
0.0
 10
4.216535433070866
 20
1.510748031496063
 30
0.0
 10
3.924358267716535
 20
1.141409448818898
 30
0.0
 10
3.467350393700787
 20
0.7633188976377953
 30
0.0
 10
3.015728346456693
 20
0.6314685039370078
 30
0.0
 10
3.015728346456693
 20
0.6314685039370078
 30
0.0
 10
2.754606299212599
 20
0.5552322834645669
 30
0.0
 10
2.379314960629921
 20
0.5123503937007874
 30
0.0
 10
2.012826771653543
 20
0.5000157480314961
 30
0.0
 10
2.012826771653543
 20
0.5000157480314961
 30
0.0
 10
-0.5285669291338583
 20
0.634259842519685
 30
0.0
 10
-3.596562992125984
 20
1.061322834645669
 30
0.0
 10
-6.076374015748032
 20
1.501531496062992
 30
0.0
 10
-6.076374015748032
 20
1.501531496062992
 30
0.0
 10
-6.21386220472441
 20
1.52594094488189
 30
0.0
 10
-6.344484251968504
 20
1.551185039370079
 30
0.0
 10
-6.469976377952756
 20
1.570925196850394
 30
0.0
 10
-6.469976377952756
 20
1.570925196850394
 30
0.0
 10
-6.780102362204724
 20
1.619716535433071
 30
0.0
 10
-7.069263779527559
 20
1.664905511811024
 30
0.0
 10
-7.294291338582677
 20
1.706799212598425
 30
0.0
 10
-7.294291338582677
 20
1.706799212598425
 30
0.0
 10
-7.440228346456693
 20
1.733964566929134
 30
0.0
 10
-7.875244094488189
 20
1.768066929133858
 30
0.0
 10
-7.836236220472441
 20
2.01294094488189
 30
0.0
 10
-7.836236220472441
 20
2.01294094488189
 30
0.0
 10
-7.836228346456693
 20
2.046625984251969
 30
0.0
 10
-7.834259842519685
 20
2.084905511811024
 30
0.0
 10
-7.829259842519685
 20
2.122129921259842
 30
0.0
 10
-7.829259842519685
 20
2.122129921259842
 30
0.0
 10
-7.816476377952756
 20
2.217271653543307
 30
0.0
 10
-7.783897637795276
 20
2.305606299212598
 30
0.0
 10
-7.713803149606299
 20
2.293200787401575
 30
0.0
  0
SPLINE
  5
66
330
1F
100
AcDbEntity
  8
Layer 1
 62
   252
370
    18
100
AcDbSpline
210
0.0
220
0.0
230
1.0
 70
    11
 71
     3
 72
   132
 73
   128
 74
     0
 42
0.0000000001
 43
0.0000000001
 40
0.0
 40
0.0
 40
0.0
 40
0.0
 40
0.03125
 40
0.03125
 40
0.03125
 40
0.03125
 40
0.0625
 40
0.0625
 40
0.0625
 40
0.0625
 40
0.09375
 40
0.09375
 40
0.09375
 40
0.09375
 40
0.125
 40
0.125
 40
0.125
 40
0.125
 40
0.15625
 40
0.15625
 40
0.15625
 40
0.15625
 40
0.1875
 40
0.1875
 40
0.1875
 40
0.1875
 40
0.21875
 40
0.21875
 40
0.21875
 40
0.21875
 40
0.25
 40
0.25
 40
0.25
 40
0.25
 40
0.28125
 40
0.28125
 40
0.28125
 40
0.28125
 40
0.3125
 40
0.3125
 40
0.3125
 40
0.3125
 40
0.34375
 40
0.34375
 40
0.34375
 40
0.34375
 40
0.375
 40
0.375
 40
0.375
 40
0.375
 40
0.40625
 40
0.40625
 40
0.40625
 40
0.40625
 40
0.4375
 40
0.4375
 40
0.4375
 40
0.4375
 40
0.46875
 40
0.46875
 40
0.46875
 40
0.46875
 40
0.5
 40
0.5
 40
0.5
 40
0.5
 40
0.53125
 40
0.53125
 40
0.53125
 40
0.53125
 40
0.5625
 40
0.5625
 40
0.5625
 40
0.5625
 40
0.59375
 40
0.59375
 40
0.59375
 40
0.59375
 40
0.625
 40
0.625
 40
0.625
 40
0.625
 40
0.65625
 40
0.65625
 40
0.65625
 40
0.65625
 40
0.6875
 40
0.6875
 40
0.6875
 40
0.6875
 40
0.71875
 40
0.71875
 40
0.71875
 40
0.71875
 40
0.75
 40
0.75
 40
0.75
 40
0.75
 40
0.78125
 40
0.78125
 40
0.78125
 40
0.78125
 40
0.8125
 40
0.8125
 40
0.8125
 40
0.8125
 40
0.84375
 40
0.84375
 40
0.84375
 40
0.84375
 40
0.875
 40
0.875
 40
0.875
 40
0.875
 40
0.90625
 40
0.90625
 40
0.90625
 40
0.90625
 40
0.9375
 40
0.9375
 40
0.9375
 40
0.9375
 40
0.96875
 40
0.96875
 40
0.96875
 40
0.96875
 40
1.0
 40
1.0
 40
1.0
 40
1.0
 10
-3.614086614173228
 20
-2.566822834645669
 30
0.0
 10
-3.614086614173228
 20
-2.566822834645669
 30
0.0
 10
-3.497610236220472
 20
-2.563157480314961
 30
0.0
 10
-3.497610236220472
 20
-2.563157480314961
 30
0.0
 10
-3.497610236220472
 20
-2.563157480314961
 30
0.0
 10
-3.470255905511811
 20
-2.562299212598425
 30
0.0
 10
-3.437200787401575
 20
-2.565444881889764
 30
0.0
 10
-3.408633858267716
 20
-2.563311023622047
 30
0.0
 10
-3.408633858267716
 20
-2.563311023622047
 30
0.0
 10
-3.382645669291338
 20
-2.561377952755906
 30
0.0
 10
-3.383606299212599
 20
-2.56992125984252
 30
0.0
 10
-3.382728346456693
 20
-2.597933070866142
 30
0.0
 10
-3.382728346456693
 20
-2.597933070866142
 30
0.0
 10
-3.382728346456693
 20
-2.597933070866142
 30
0.0
 10
-3.37701968503937
 20
-2.779507874015748
 30
0.0
 10
-3.37701968503937
 20
-2.779507874015748
 30
0.0
 10
-3.37701968503937
 20
-2.779507874015748
 30
0.0
 10
-3.376370078740158
 20
-2.800129921259843
 30
0.0
 10
-3.359011811023622
 20
-2.816625984251969
 30
0.0
 10
-3.338444881889764
 20
-2.815988188976378
 30
0.0
 10
-3.338444881889764
 20
-2.815988188976378
 30
0.0
 10
-3.338444881889764
 20
-2.815988188976378
 30
0.0
 10
-3.338444881889764
 20
-2.815988188976378
 30
0.0
 10
-3.338444881889764
 20
-2.815988188976378
 30
0.0
 10
-3.338444881889764
 20
-2.815988188976378
 30
0.0
 10
-3.317885826771653
 20
-2.815338582677165
 30
0.0
 10
-3.30159842519685
 20
-2.797858267716535
 30
0.0
 10
-3.302248031496063
 20
-2.777157480314961
 30
0.0
 10
-3.302248031496063
 20
-2.777157480314961
 30
0.0
 10
-3.302248031496063
 20
-2.777157480314961
 30
0.0
 10
-3.309208661417323
 20
-2.555625984251968
 30
0.0
 10
-3.309208661417323
 20
-2.555625984251968
 30
0.0
 10
-3.309208661417323
 20
-2.555625984251968
 30
0.0
 10
-3.309208661417323
 20
-2.555625984251968
 30
0.0
 10
-3.280043307086614
 20
-2.54351968503937
 30
0.0
 10
-3.280043307086614
 20
-2.54351968503937
 30
0.0
 10
-3.280043307086614
 20
-2.54351968503937
 30
0.0
 10
-3.236925196850394
 20
-2.525629921259843
 30
0.0
 10
-3.169161417322835
 20
-2.536637795275591
 30
0.0
 10
-3.13809842519685
 20
-2.576547244094488
 30
0.0
 10
-3.13809842519685
 20
-2.576547244094488
 30
0.0
 10
-3.098874015748032
 20
-2.62696062992126
 30
0.0
 10
-3.006807086614173
 20
-2.740744094488189
 30
0.0
 10
-2.94246062992126
 20
-2.739267716535433
 30
0.0
 10
-2.94246062992126
 20
-2.739267716535433
 30
0.0
 10
-2.45244094488189
 20
-2.853110236220473
 30
0.0
 10
-0.4309133858267716
 20
-2.848562992125984
 30
0.0
 10
1.694503937007874
 20
-2.84898031496063
 30
0.0
 10
1.694503937007874
 20
-2.84898031496063
 30
0.0
 10
2.970972440944882
 20
-2.849232283464567
 30
0.0
 10
4.170755905511811
 20
-2.846007874015748
 30
0.0
 10
5.104362204724409
 20
-2.726007874015748
 30
0.0
 10
5.104362204724409
 20
-2.726007874015748
 30
0.0
 10
5.888122047244094
 20
-2.625263779527559
 30
0.0
 10
6.484169291338583
 20
-2.457688976377953
 30
0.0
 10
6.780035433070866
 20
-2.195181102362205
 30
0.0
 10
6.780035433070866
 20
-2.195181102362205
 30
0.0
 10
6.799263779527559
 20
-2.178118110236221
 30
0.0
 10
6.831629921259842
 20
-2.178929133858268
 30
0.0
 10
6.859728346456693
 20
-2.167279527559055
 30
0.0
 10
6.859728346456693
 20
-2.167279527559055
 30
0.0
 10
6.859728346456693
 20
-2.167279527559055
 30
0.0
 10
6.866122047244095
 20
-2.370925196850393
 30
0.0
 10
6.866122047244095
 20
-2.370925196850393
 30
0.0
 10
6.866122047244095
 20
-2.370925196850393
 30
0.0
 10
6.866771653543307
 20
-2.391527559055118
 30
0.0
 10
6.884125984251969
 20
-2.40803937007874
 30
0.0
 10
6.904696850393701
 20
-2.407397637795276
 30
0.0
 10
6.904696850393701
 20
-2.407397637795276
 30
0.0
 10
6.904696850393701
 20
-2.407397637795276
 30
0.0
 10
6.904696850393701
 20
-2.407397637795276
 30
0.0
 10
6.904696850393701
 20
-2.407397637795276
 30
0.0
 10
6.904696850393701
 20
-2.407397637795276
 30
0.0
 10
6.925255905511811
 20
-2.406744094488189
 30
0.0
 10
6.941543307086614
 20
-2.389271653543307
 30
0.0
 10
6.940893700787401
 20
-2.368570866141732
 30
0.0
 10
6.940893700787401
 20
-2.368570866141732
 30
0.0
 10
6.940893700787401
 20
-2.368570866141732
 30
0.0
 10
6.933496062992126
 20
-2.13313779527559
 30
0.0
 10
6.933496062992126
 20
-2.13313779527559
 30
0.0
 10
6.933496062992126
 20
-2.13313779527559
 30
0.0
 10
7.113251968503937
 20
-2.041803149606299
 30
0.0
 10
7.51717716535433
 20
-1.698338582677165
 30
0.0
 10
7.596677165354331
 20
-1.550413385826772
 30
0.0
 10
7.596677165354331
 20
-1.550413385826772
 30
0.0
 10
7.596677165354331
 20
-1.550413385826772
 30
0.0
 10
8.268472440944882
 20
-1.529307086614173
 30
0.0
 10
8.268472440944882
 20
-1.529307086614173
 30
0.0
 10
8.268472440944882
 20
-1.529307086614173
 30
0.0
 10
8.322901574803149
 20
-1.52411811023622
 30
0.0
 10
8.340700787401575
 20
-1.533381889763779
 30
0.0
 10
8.347011811023622
 20
-1.556295275590551
 30
0.0
 10
8.347011811023622
 20
-1.556295275590551
 30
0.0
 10
8.354885826771653
 20
-1.584834645669291
 30
0.0
 10
8.339051181102363
 20
-1.628177165354331
 30
0.0
 10
8.308925196850394
 20
-1.679665354330709
 30
0.0
 10
8.308925196850394
 20
-1.679665354330709
 30
0.0
 10
8.071047244094489
 20
-2.086110236220473
 30
0.0
 10
7.671165354330709
 20
-2.524177165354331
 30
0.0
 10
7.242314960629921
 20
-2.717657480314961
 30
0.0
 10
7.242314960629921
 20
-2.717657480314961
 30
0.0
 10
6.994358267716535
 20
-2.829523622047244
 30
0.0
 10
6.628700787401574
 20
-2.924263779527559
 30
0.0
 10
6.267507874015748
 20
-2.987543307086614
 30
0.0
 10
6.267507874015748
 20
-2.987543307086614
 30
0.0
 10
3.732185039370079
 20
-3.208633858267717
 30
0.0
 10
0.6346181102362205
 20
-3.213125984251969
 30
0.0
 10
-1.882338582677165
 20
-3.122665354330709
 30
0.0
 10
-1.882338582677165
 20
-3.122665354330709
 30
0.0
 10
-2.021885826771654
 20
-3.117649606299213
 30
0.0
 10
-2.154751968503937
 20
-3.110850393700787
 30
0.0
 10
-2.281771653543307
 20
-3.108783464566929
 30
0.0
 10
-2.281771653543307
 20
-3.108783464566929
 30
0.0
 10
-2.595669291338583
 20
-3.103669291338583
 30
0.0
 10
-2.888307086614173
 20
-3.099196850393701
 30
0.0
 10
-3.116976377952756
 20
-3.089062992125984
 30
0.0
 10
-3.116976377952756
 20
-3.089062992125984
 30
0.0
 10
-3.265275590551181
 20
-3.0825
 30
0.0
 10
-3.700803149606299
 20
-3.109322834645669
 30
0.0
 10
-3.696287401574803
 20
-2.861405511811024
 30
0.0
 10
-3.696287401574803
 20
-2.861405511811024
 30
0.0
 10
-3.700972440944882
 20
-2.828051181102362
 30
0.0
 10
-3.704350393700787
 20
-2.789866141732284
 30
0.0
 10
-3.704582677165354
 20
-2.752311023622047
 30
0.0
 10
-3.704582677165354
 20
-2.752311023622047
 30
0.0
 10
-3.705181102362205
 20
-2.656314960629921
 30
0.0
 10
-3.685228346456693
 20
-2.564299212598425
 30
0.0
 10
-3.614086614173228
 20
-2.566822834645669
 30
0.0
  0
SPLINE
  5
67
330
1F
100
AcDbEntity
  8
Layer 1
 62
   252
370
    18
100
AcDbSpline
210
0.0
220
0.0
230
1.0
 70
    11
 71
     3
 72
   112
 73
   108
 74
     0
 42
0.0000000001
 43
0.0000000001
 40
0.0
 40
0.0
 40
0.0
 40
0.0
 40
0.037037037037037
 40
0.037037037037037
 40
0.037037037037037
 40
0.037037037037037
 40
0.0740740740740741
 40
0.0740740740740741
 40
0.0740740740740741
 40
0.0740740740740741
 40
0.1111111111111111
 40
0.1111111111111111
 40
0.1111111111111111
 40
0.1111111111111111
 40
0.1481481481481481
 40
0.1481481481481481
 40
0.1481481481481481
 40
0.1481481481481481
 40
0.1851851851851852
 40
0.1851851851851852
 40
0.1851851851851852
 40
0.1851851851851852
 40
0.2222222222222222
 40
0.2222222222222222
 40
0.2222222222222222
 40
0.2222222222222222
 40
0.2592592592592592
 40
0.2592592592592592
 40
0.2592592592592592
 40
0.2592592592592592
 40
0.2962962962962963
 40
0.2962962962962963
 40
0.2962962962962963
 40
0.2962962962962963
 40
0.3333333333333333
 40
0.3333333333333333
 40
0.3333333333333333
 40
0.3333333333333333
 40
0.3703703703703703
 40
0.3703703703703703
 40
0.3703703703703703
 40
0.3703703703703703
 40
0.4074074074074074
 40
0.4074074074074074
 40
0.4074074074074074
 40
0.4074074074074074
 40
0.4444444444444444
 40
0.4444444444444444
 40
0.4444444444444444
 40
0.4444444444444444
 40
0.4814814814814815
 40
0.4814814814814815
 40
0.4814814814814815
 40
0.4814814814814815
 40
0.5185185185185185
 40
0.5185185185185185
 40
0.5185185185185185
 40
0.5185185185185185
 40
0.5555555555555556
 40
0.5555555555555556
 40
0.5555555555555556
 40
0.5555555555555556
 40
0.5925925925925926
 40
0.5925925925925926
 40
0.5925925925925926
 40
0.5925925925925926
 40
0.6296296296296295
 40
0.6296296296296295
 40
0.6296296296296295
 40
0.6296296296296295
 40
0.6666666666666665
 40
0.6666666666666665
 40
0.6666666666666665
 40
0.6666666666666665
 40
0.7037037037037035
 40
0.7037037037037035
 40
0.7037037037037035
 40
0.7037037037037035
 40
0.7407407407407405
 40
0.7407407407407405
 40
0.7407407407407405
 40
0.7407407407407405
 40
0.7777777777777775
 40
0.7777777777777775
 40
0.7777777777777775
 40
0.7777777777777775
 40
0.8148148148148144
 40
0.8148148148148144
 40
0.8148148148148144
 40
0.8148148148148144
 40
0.8518518518518514
 40
0.8518518518518514
 40
0.8518518518518514
 40
0.8518518518518514
 40
0.8888888888888884
 40
0.8888888888888884
 40
0.8888888888888884
 40
0.8888888888888884
 40
0.9259259259259254
 40
0.9259259259259254
 40
0.9259259259259254
 40
0.9259259259259254
 40
0.9629629629629624
 40
0.9629629629629624
 40
0.9629629629629624
 40
0.9629629629629624
 40
1.0
 40
1.0
 40
1.0
 40
1.0
 10
-10.04321653543307
 20
2.078625984251969
 30
0.0
 10
-10.04321653543307
 20
2.078625984251969
 30
0.0
 10
-9.863110236220473
 20
1.911582677165354
 30
0.0
 10
-9.863110236220473
 20
1.911582677165354
 30
0.0
 10
-9.863110236220473
 20
1.911582677165354
 30
0.0
 10
-9.863110236220473
 20
1.911582677165354
 30
0.0
 10
-10.15601968503937
 20
1.561574803149606
 30
0.0
 10
-10.15601968503937
 20
1.561574803149606
 30
0.0
 10
-10.15601968503937
 20
1.561574803149606
 30
0.0
 10
-10.16931496062992
 20
1.545677165354331
 30
0.0
 10
-10.1672874015748
 20
1.521885826771654
 30
0.0
 10
-10.15150787401575
 20
1.508677165354331
 30
0.0
 10
-10.15150787401575
 20
1.508677165354331
 30
0.0
 10
-10.15150787401575
 20
1.508677165354331
 30
0.0
 10
-10.15150787401575
 20
1.508677165354331
 30
0.0
 10
-10.15150787401575
 20
1.508677165354331
 30
0.0
 10
-10.15150787401575
 20
1.508677165354331
 30
0.0
 10
-10.13572834645669
 20
1.495472440944882
 30
0.0
 10
-10.11194094488189
 20
1.497681102362205
 30
0.0
 10
-10.09864566929134
 20
1.51355905511811
 30
0.0
 10
-10.09864566929134
 20
1.51355905511811
 30
0.0
 10
-10.09864566929134
 20
1.51355905511811
 30
0.0
 10
-9.808192913385827
 20
1.860641732283465
 30
0.0
 10
-9.808192913385827
 20
1.860641732283465
 30
0.0
 10
-9.808192913385827
 20
1.860641732283465
 30
0.0
 10
-9.808192913385827
 20
1.860641732283465
 30
0.0
 10
-9.740988188976377
 20
1.798311023622047
 30
0.0
 10
-9.740988188976377
 20
1.798311023622047
 30
0.0
 10
-9.740988188976377
 20
1.798311023622047
 30
0.0
 10
-9.740988188976377
 20
1.798311023622047
 30
0.0
 10
-9.662370078740157
 20
1.584622047244094
 30
0.0
 10
-9.662370078740157
 20
1.584622047244094
 30
0.0
 10
-9.662370078740157
 20
1.584622047244094
 30
0.0
 10
-9.658889763779527
 20
1.335681102362205
 30
0.0
 10
-9.547251968503938
 20
1.091622047244095
 30
0.0
 10
-9.361614173228347
 20
0.8509015748031497
 30
0.0
 10
-9.361614173228347
 20
0.8509015748031497
 30
0.0
 10
-7.317358267716536
 20
-1.106838582677165
 30
0.0
 10
-4.953913385826771
 20
-2.864484251968504
 30
0.0
 10
-2.831649606299213
 20
-4.674086614173229
 30
0.0
 10
-2.831649606299213
 20
-4.674086614173229
 30
0.0
 10
-2.770826771653543
 20
-4.719763779527559
 30
0.0
 10
-2.706287401574803
 20
-4.7465
 30
0.0
 10
-2.638984251968504
 20
-4.759141732283465
 30
0.0
 10
-2.638984251968504
 20
-4.759141732283465
 30
0.0
 10
-2.47646062992126
 20
-4.789673228346457
 30
0.0
 10
-2.361826771653543
 20
-4.720405511811023
 30
0.0
 10
-2.213744094488189
 20
-4.832090551181103
 30
0.0
 10
-2.213744094488189
 20
-4.832090551181103
 30
0.0
 10
-2.201763779527559
 20
-4.844905511811024
 30
0.0
 10
-2.189716535433071
 20
-4.857448818897637
 30
0.0
 10
-2.177629921259843
 20
-4.869846456692914
 30
0.0
 10
-2.177629921259843
 20
-4.869846456692914
 30
0.0
 10
-2.177629921259843
 20
-4.869846456692914
 30
0.0
 10
-2.266700787401575
 20
-4.976279527559055
 30
0.0
 10
-2.266700787401575
 20
-4.976279527559055
 30
0.0
 10
-2.266700787401575
 20
-4.976279527559055
 30
0.0
 10
-2.279996062992126
 20
-4.992173228346457
 30
0.0
 10
-2.277968503937008
 20
-5.015964566929134
 30
0.0
 10
-2.262188976377953
 20
-5.029165354330709
 30
0.0
 10
-2.262188976377953
 20
-5.029165354330709
 30
0.0
 10
-2.262188976377953
 20
-5.029165354330709
 30
0.0
 10
-2.262188976377953
 20
-5.029165354330709
 30
0.0
 10
-2.262188976377953
 20
-5.029165354330709
 30
0.0
 10
-2.262188976377953
 20
-5.029165354330709
 30
0.0
 10
-2.246413385826772
 20
-5.042370078740158
 30
0.0
 10
-2.222622047244094
 20
-5.040165354330709
 30
0.0
 10
-2.209334645669291
 20
-5.024283464566929
 30
0.0
 10
-2.209334645669291
 20
-5.024283464566929
 30
0.0
 10
-2.209334645669291
 20
-5.024283464566929
 30
0.0
 10
-2.124433070866142
 20
-4.922834645669291
 30
0.0
 10
-2.124433070866142
 20
-4.922834645669291
 30
0.0
 10
-2.124433070866142
 20
-4.922834645669291
 30
0.0
 10
-1.499740157480315
 20
-5.525279527559055
 30
0.0
 10
-0.7379488188976377
 20
-5.593263779527559
 30
0.0
 10
0.1383661417322835
 20
-5.214822834645669
 30
0.0
 10
0.1383661417322835
 20
-5.214822834645669
 30
0.0
 10
0.1383661417322835
 20
-5.214822834645669
 30
0.0
 10
0.4240314960629921
 20
-5.442929133858268
 30
0.0
 10
0.4240314960629921
 20
-5.442929133858268
 30
0.0
 10
0.4240314960629921
 20
-5.442929133858268
 30
0.0
 10
0.4539094488188977
 20
-5.489972440944882
 30
0.0
 10
0.4306653543307087
 20
-5.541732283464567
 30
0.0
 10
0.3543228346456693
 20
-5.598224409448819
 30
0.0
 10
0.3543228346456693
 20
-5.598224409448819
 30
0.0
 10
-0.3340708661417323
 20
-5.94282283464567
 30
0.0
 10
-0.8906968503937008
 20
-6.06803937007874
 30
0.0
 10
-1.341291338582677
 20
-6.027972440944882
 30
0.0
 10
-1.341291338582677
 20
-6.027972440944882
 30
0.0
 10
-1.833645669291339
 20
-5.984200787401575
 30
0.0
 10
-2.159086614173229
 20
-5.67094094488189
 30
0.0
 10
-2.547822834645669
 20
-5.39301968503937
 30
0.0
 10
-2.547822834645669
 20
-5.39301968503937
 30
0.0
 10
-5.342389763779527
 20
-3.395177165354331
 30
0.0
 10
-7.961838582677165
 20
-1.188070866141732
 30
0.0
 10
-10.36398031496063
 20
1.278704724409449
 30
0.0
 10
-10.36398031496063
 20
1.278704724409449
 30
0.0
 10
-10.4620905511811
 20
1.36405905511811
 30
0.0
 10
-10.48275196850394
 20
1.48788188976378
 30
0.0
 10
-10.41549212598425
 20
1.655342519685039
 30
0.0
 10
-10.41549212598425
 20
1.655342519685039
 30
0.0
 10
-10.36759448818898
 20
1.774582677165354
 30
0.0
 10
-10.25151181102362
 20
1.996681102362205
 30
0.0
 10
-10.14902362204724
 20
2.080043307086614
 30
0.0
 10
-10.14902362204724
 20
2.080043307086614
 30
0.0
 10
-10.11324409448819
 20
2.109149606299213
 30
0.0
 10
-10.07796850393701
 20
2.108681102362205
 30
0.0
 10
-10.04321653543307
 20
2.078625984251969
 30
0.0
  0
SPLINE
  5
68
330
1F
100
AcDbEntity
  8
Layer 1
 62
   252
370
    18
100
AcDbSpline
210
0.0
220
0.0
230
1.0
 70
    11
 71
     3
 72
   112
 73
   108
 74
     0
 42
0.0000000001
 43
0.0000000001
 40
0.0
 40
0.0
 40
0.0
 40
0.0
 40
0.037037037037037
 40
0.037037037037037
 40
0.037037037037037
 40
0.037037037037037
 40
0.0740740740740741
 40
0.0740740740740741
 40
0.0740740740740741
 40
0.0740740740740741
 40
0.1111111111111111
 40
0.1111111111111111
 40
0.1111111111111111
 40
0.1111111111111111
 40
0.1481481481481481
 40
0.1481481481481481
 40
0.1481481481481481
 40
0.1481481481481481
 40
0.1851851851851852
 40
0.1851851851851852
 40
0.1851851851851852
 40
0.1851851851851852
 40
0.2222222222222222
 40
0.2222222222222222
 40
0.2222222222222222
 40
0.2222222222222222
 40
0.2592592592592592
 40
0.2592592592592592
 40
0.2592592592592592
 40
0.2592592592592592
 40
0.2962962962962963
 40
0.2962962962962963
 40
0.2962962962962963
 40
0.2962962962962963
 40
0.3333333333333333
 40
0.3333333333333333
 40
0.3333333333333333
 40
0.3333333333333333
 40
0.3703703703703703
 40
0.3703703703703703
 40
0.3703703703703703
 40
0.3703703703703703
 40
0.4074074074074074
 40
0.4074074074074074
 40
0.4074074074074074
 40
0.4074074074074074
 40
0.4444444444444444
 40
0.4444444444444444
 40
0.4444444444444444
 40
0.4444444444444444
 40
0.4814814814814815
 40
0.4814814814814815
 40
0.4814814814814815
 40
0.4814814814814815
 40
0.5185185185185185
 40
0.5185185185185185
 40
0.5185185185185185
 40
0.5185185185185185
 40
0.5555555555555556
 40
0.5555555555555556
 40
0.5555555555555556
 40
0.5555555555555556
 40
0.5925925925925926
 40
0.5925925925925926
 40
0.5925925925925926
 40
0.5925925925925926
 40
0.6296296296296295
 40
0.6296296296296295
 40
0.6296296296296295
 40
0.6296296296296295
 40
0.6666666666666665
 40
0.6666666666666665
 40
0.6666666666666665
 40
0.6666666666666665
 40
0.7037037037037035
 40
0.7037037037037035
 40
0.7037037037037035
 40
0.7037037037037035
 40
0.7407407407407405
 40
0.7407407407407405
 40
0.7407407407407405
 40
0.7407407407407405
 40
0.7777777777777775
 40
0.7777777777777775
 40
0.7777777777777775
 40
0.7777777777777775
 40
0.8148148148148144
 40
0.8148148148148144
 40
0.8148148148148144
 40
0.8148148148148144
 40
0.8518518518518514
 40
0.8518518518518514
 40
0.8518518518518514
 40
0.8518518518518514
 40
0.8888888888888884
 40
0.8888888888888884
 40
0.8888888888888884
 40
0.8888888888888884
 40
0.9259259259259254
 40
0.9259259259259254
 40
0.9259259259259254
 40
0.9259259259259254
 40
0.9629629629629624
 40
0.9629629629629624
 40
0.9629629629629624
 40
0.9629629629629624
 40
1.0
 40
1.0
 40
1.0
 40
1.0
 10
-7.983523622047244
 20
1.72946062992126
 30
0.0
 10
-7.983523622047244
 20
1.72946062992126
 30
0.0
 10
-7.735893700787401
 20
1.702311023622047
 30
0.0
 10
-7.735893700787401
 20
1.702311023622047
 30
0.0
 10
-7.735893700787401
 20
1.702311023622047
 30
0.0
 10
-7.735893700787401
 20
1.702311023622047
 30
0.0
 10
-7.763956692913386
 20
1.369897637795276
 30
0.0
 10
-7.763956692913386
 20
1.369897637795276
 30
0.0
 10
-7.763956692913386
 20
1.369897637795276
 30
0.0
 10
-7.765688976377953
 20
1.349251968503937
 30
0.0
 10
-7.750350393700788
 20
1.330952755905512
 30
0.0
 10
-7.729854330708662
 20
1.329220472440945
 30
0.0
 10
-7.729854330708662
 20
1.329220472440945
 30
0.0
 10
-7.729854330708662
 20
1.329220472440945
 30
0.0
 10
-7.729854330708662
 20
1.329220472440945
 30
0.0
 10
-7.729854330708662
 20
1.329220472440945
 30
0.0
 10
-7.729854330708662
 20
1.329220472440945
 30
0.0
 10
-7.709342519685039
 20
1.327492125984252
 30
0.0
 10
-7.691153543307086
 20
1.342972440944882
 30
0.0
 10
-7.689409448818898
 20
1.363602362204724
 30
0.0
 10
-7.689409448818898
 20
1.363602362204724
 30
0.0
 10
-7.689409448818898
 20
1.363602362204724
 30
0.0
 10
-7.661507874015748
 20
1.694161417322835
 30
0.0
 10
-7.661507874015748
 20
1.694161417322835
 30
0.0
 10
-7.661507874015748
 20
1.694161417322835
 30
0.0
 10
-7.661507874015748
 20
1.694161417322835
 30
0.0
 10
-7.482275590551181
 20
1.674503937007874
 30
0.0
 10
-7.482275590551181
 20
1.674503937007874
 30
0.0
 10
-7.482275590551181
 20
1.674503937007874
 30
0.0
 10
-7.368055118110236
 20
1.613192913385827
 30
0.0
 10
-7.278783464566929
 20
1.529295275590551
 30
0.0
 10
-7.214464566929134
 20
1.422814960629921
 30
0.0
 10
-7.214464566929134
 20
1.422814960629921
 30
0.0
 10
-7.13055905511811
 20
1.28392125984252
 30
0.0
 10
-7.066255905511811
 20
1.188988188976378
 30
0.0
 10
-6.890125984251968
 20
1.148145669291339
 30
0.0
 10
-6.890125984251968
 20
1.148145669291339
 30
0.0
 10
-4.417338582677165
 20
0.8580236220472441
 30
0.0
 10
-1.948535433070866
 20
0.5207952755905512
 30
0.0
 10
0.5366692913385827
 20
0.3777755905511811
 30
0.0
 10
0.5366692913385827
 20
0.3777755905511811
 30
0.0
 10
0.7918464566929134
 20
0.3719212598425197
 30
0.0
 10
1.045594488188976
 20
0.3700866141732284
 30
0.0
 10
1.296944881889764
 20
0.3709763779527559
 30
0.0
 10
1.296944881889764
 20
0.3709763779527559
 30
0.0
 10
1.714354330708662
 20
0.3724409448818898
 30
0.0
 10
2.108295275590551
 20
0.3676771653543307
 30
0.0
 10
2.470523622047244
 20
0.4022047244094488
 30
0.0
 10
2.470523622047244
 20
0.4022047244094488
 30
0.0
 10
2.470523622047244
 20
0.4022047244094488
 30
0.0
 10
2.466326771653543
 20
0.3525196850393701
 30
0.0
 10
2.466326771653543
 20
0.3525196850393701
 30
0.0
 10
2.466326771653543
 20
0.3525196850393701
 30
0.0
 10
2.464590551181102
 20
0.3318700787401575
 30
0.0
 10
2.479933070866142
 20
0.3135708661417323
 30
0.0
 10
2.500437007874016
 20
0.3118346456692914
 30
0.0
 10
2.500437007874016
 20
0.3118346456692914
 30
0.0
 10
2.500437007874016
 20
0.3118346456692914
 30
0.0
 10
2.500437007874016
 20
0.3118346456692914
 30
0.0
 10
2.500437007874016
 20
0.3118346456692914
 30
0.0
 10
2.500437007874016
 20
0.3118346456692914
 30
0.0
 10
2.520933070866142
 20
0.3101102362204725
 30
0.0
 10
2.539125984251969
 20
0.3255866141732284
 30
0.0
 10
2.540870078740157
 20
0.3462244094488189
 30
0.0
 10
2.540870078740157
 20
0.3462244094488189
 30
0.0
 10
2.540870078740157
 20
0.3462244094488189
 30
0.0
 10
2.546255905511811
 20
0.4100629921259842
 30
0.0
 10
2.546255905511811
 20
0.4100629921259842
 30
0.0
 10
2.546255905511811
 20
0.4100629921259842
 30
0.0
 10
3.217535433070866
 20
0.4856062992125984
 30
0.0
 10
3.775043307086614
 20
0.7108385826771654
 30
0.0
 10
4.163905511811024
 20
1.387228346456693
 30
0.0
 10
4.163905511811024
 20
1.387228346456693
 30
0.0
 10
4.163905511811024
 20
1.387228346456693
 30
0.0
 10
4.707133858267716
 20
1.338602362204725
 30
0.0
 10
4.707133858267716
 20
1.338602362204725
 30
0.0
 10
4.707133858267716
 20
1.338602362204725
 30
0.0
 10
4.787035433070866
 20
1.334484251968504
 30
0.0
 10
4.789917322834646
 20
1.285287401574803
 30
0.0
 10
4.740098425196851
 20
1.205251968503937
 30
0.0
 10
4.740098425196851
 20
1.205251968503937
 30
0.0
 10
4.385972440944882
 20
0.4105393700787401
 30
0.0
 10
3.816244094488189
 20
-0.0694212598425197
 30
0.0
 10
2.971696850393701
 20
-0.1482244094488189
 30
0.0
 10
2.971696850393701
 20
-0.1482244094488189
 30
0.0
 10
1.284208661417323
 20
-0.1998779527559055
 30
0.0
 10
-0.4219488188976378
 20
-0.0431771653543307
 30
0.0
 10
-2.096385826771654
 20
0.1543464566929134
 30
0.0
 10
-2.096385826771654
 20
0.1543464566929134
 30
0.0
 10
-3.879070866141732
 20
0.3646417322834646
 30
0.0
 10
-5.622149606299213
 20
0.5978425196850393
 30
0.0
 10
-7.312602362204724
 20
0.9063976377952756
 30
0.0
 10
-7.312602362204724
 20
0.9063976377952756
 30
0.0
 10
-7.494456692913386
 20
0.9395905511811024
 30
0.0
 10
-7.736425196850393
 20
0.9521850393700787
 30
0.0
 10
-7.891370078740158
 20
1.063555118110236
 30
0.0
 10
-7.891370078740158
 20
1.063555118110236
 30
0.0
 10
-7.997070866141732
 20
1.139527559055118
 30
0.0
 10
-8.059696850393701
 20
1.260070866141732
 30
0.0
 10
-8.066566929133858
 20
1.425874015748031
 30
0.0
 10
-8.066566929133858
 20
1.425874015748031
 30
0.0
 10
-8.069566929133858
 20
1.498145669291339
 30
0.0
 10
-8.076149606299213
 20
1.628610236220472
 30
0.0
 10
-8.045397637795276
 20
1.69909842519685
 30
0.0
 10
-8.045397637795276
 20
1.69909842519685
 30
0.0
 10
-8.034232283464567
 20
1.724700787401575
 30
0.0
 10
-8.0123031496063
 20
1.733929133858268
 30
0.0
 10
-7.983523622047244
 20
1.72946062992126
 30
0.0
  0
SPLINE
  5
69
330
1F
100
AcDbEntity
  8
Layer 1
 62
   252
370
    18
100
AcDbSpline
210
0.0
220
0.0
230
1.0
 70
    11
 71
     3
 72
   112
 73
   108
 74
     0
 42
0.0000000001
 43
0.0000000001
 40
0.0
 40
0.0
 40
0.0
 40
0.0
 40
0.037037037037037
 40
0.037037037037037
 40
0.037037037037037
 40
0.037037037037037
 40
0.0740740740740741
 40
0.0740740740740741
 40
0.0740740740740741
 40
0.0740740740740741
 40
0.1111111111111111
 40
0.1111111111111111
 40
0.1111111111111111
 40
0.1111111111111111
 40
0.1481481481481481
 40
0.1481481481481481
 40
0.1481481481481481
 40
0.1481481481481481
 40
0.1851851851851852
 40
0.1851851851851852
 40
0.1851851851851852
 40
0.1851851851851852
 40
0.2222222222222222
 40
0.2222222222222222
 40
0.2222222222222222
 40
0.2222222222222222
 40
0.2592592592592592
 40
0.2592592592592592
 40
0.2592592592592592
 40
0.2592592592592592
 40
0.2962962962962963
 40
0.2962962962962963
 40
0.2962962962962963
 40
0.2962962962962963
 40
0.3333333333333333
 40
0.3333333333333333
 40
0.3333333333333333
 40
0.3333333333333333
 40
0.3703703703703703
 40
0.3703703703703703
 40
0.3703703703703703
 40
0.3703703703703703
 40
0.4074074074074074
 40
0.4074074074074074
 40
0.4074074074074074
 40
0.4074074074074074
 40
0.4444444444444444
 40
0.4444444444444444
 40
0.4444444444444444
 40
0.4444444444444444
 40
0.4814814814814815
 40
0.4814814814814815
 40
0.4814814814814815
 40
0.4814814814814815
 40
0.5185185185185185
 40
0.5185185185185185
 40
0.5185185185185185
 40
0.5185185185185185
 40
0.5555555555555556
 40
0.5555555555555556
 40
0.5555555555555556
 40
0.5555555555555556
 40
0.5925925925925926
 40
0.5925925925925926
 40
0.5925925925925926
 40
0.5925925925925926
 40
0.6296296296296295
 40
0.6296296296296295
 40
0.6296296296296295
 40
0.6296296296296295
 40
0.6666666666666665
 40
0.6666666666666665
 40
0.6666666666666665
 40
0.6666666666666665
 40
0.7037037037037035
 40
0.7037037037037035
 40
0.7037037037037035
 40
0.7037037037037035
 40
0.7407407407407405
 40
0.7407407407407405
 40
0.7407407407407405
 40
0.7407407407407405
 40
0.7777777777777775
 40
0.7777777777777775
 40
0.7777777777777775
 40
0.7777777777777775
 40
0.8148148148148144
 40
0.8148148148148144
 40
0.8148148148148144
 40
0.8148148148148144
 40
0.8518518518518514
 40
0.8518518518518514
 40
0.8518518518518514
 40
0.8518518518518514
 40
0.8888888888888884
 40
0.8888888888888884
 40
0.8888888888888884
 40
0.8888888888888884
 40
0.9259259259259254
 40
0.9259259259259254
 40
0.9259259259259254
 40
0.9259259259259254
 40
0.9629629629629624
 40
0.9629629629629624
 40
0.9629629629629624
 40
0.9629629629629624
 40
1.0
 40
1.0
 40
1.0
 40
1.0
 10
-5.258476377952756
 20
-1.62555905511811
 30
0.0
 10
-5.258476377952756
 20
-1.62555905511811
 30
0.0
 10
-5.009433070866142
 20
-1.631779527559055
 30
0.0
 10
-5.009433070866142
 20
-1.631779527559055
 30
0.0
 10
-5.009433070866142
 20
-1.631779527559055
 30
0.0
 10
-5.009433070866142
 20
-1.631779527559055
 30
0.0
 10
-5.00944094488189
 20
-1.965370078740158
 30
0.0
 10
-5.00944094488189
 20
-1.965370078740158
 30
0.0
 10
-5.00944094488189
 20
-1.965370078740158
 30
0.0
 10
-5.009433070866142
 20
-1.986094488188976
 30
0.0
 10
-4.992610236220473
 20
-2.003043307086614
 30
0.0
 10
-4.972035433070866
 20
-2.003043307086614
 30
0.0
 10
-4.972035433070866
 20
-2.003043307086614
 30
0.0
 10
-4.972035433070866
 20
-2.003043307086614
 30
0.0
 10
-4.972035433070866
 20
-2.003043307086614
 30
0.0
 10
-4.972035433070866
 20
-2.003043307086614
 30
0.0
 10
-4.972035433070866
 20
-2.003043307086614
 30
0.0
 10
-4.951456692913386
 20
-2.003043307086614
 30
0.0
 10
-4.934637795275591
 20
-1.986082677165354
 30
0.0
 10
-4.934637795275591
 20
-1.965370078740158
 30
0.0
 10
-4.934637795275591
 20
-1.965370078740158
 30
0.0
 10
-4.934637795275591
 20
-1.965370078740158
 30
0.0
 10
-4.934629921259843
 20
-1.633653543307087
 30
0.0
 10
-4.934629921259843
 20
-1.633653543307087
 30
0.0
 10
-4.934629921259843
 20
-1.633653543307087
 30
0.0
 10
-4.934629921259843
 20
-1.633653543307087
 30
0.0
 10
-4.754374015748032
 20
-1.638157480314961
 30
0.0
 10
-4.754374015748032
 20
-1.638157480314961
 30
0.0
 10
-4.754374015748032
 20
-1.638157480314961
 30
0.0
 10
-4.635409448818898
 20
-1.689645669291339
 30
0.0
 10
-4.539393700787402
 20
-1.765744094488189
 30
0.0
 10
-4.466342519685039
 20
-1.866429133858268
 30
0.0
 10
-4.466342519685039
 20
-1.866429133858268
 30
0.0
 10
-4.37105905511811
 20
-1.997767716535433
 30
0.0
 10
-4.298992125984252
 20
-2.08696062992126
 30
0.0
 10
-4.12005905511811
 20
-2.112846456692913
 30
0.0
 10
-4.12005905511811
 20
-2.112846456692913
 30
0.0
 10
-1.631629921259843
 20
-2.19396062992126
 30
0.0
 10
0.8567874015748032
 20
-2.322354330708662
 30
0.0
 10
3.345212598425197
 20
-2.255846456692913
 30
0.0
 10
3.345212598425197
 20
-2.255846456692913
 30
0.0
 10
3.599984251968504
 20
-2.240212598425197
 30
0.0
 10
3.852988188976378
 20
-2.220708661417323
 30
0.0
 10
4.103366141732283
 20
-2.198681102362205
 30
0.0
 10
4.103366141732283
 20
-2.198681102362205
 30
0.0
 10
4.519181102362205
 20
-2.162106299212598
 30
0.0
 10
4.912122047244094
 20
-2.133728346456693
 30
0.0
 10
5.270165354330708
 20
-2.068854330708661
 30
0.0
 10
5.270165354330708
 20
-2.068854330708661
 30
0.0
 10
5.270165354330708
 20
-2.068854330708661
 30
0.0
 10
5.270165354330708
 20
-2.118716535433071
 30
0.0
 10
5.270165354330708
 20
-2.118716535433071
 30
0.0
 10
5.270165354330708
 20
-2.118716535433071
 30
0.0
 10
5.270169291338583
 20
-2.13944094488189
 30
0.0
 10
5.286992125984252
 20
-2.15638188976378
 30
0.0
 10
5.307570866141733
 20
-2.156385826771654
 30
0.0
 10
5.307570866141733
 20
-2.156385826771654
 30
0.0
 10
5.307570866141733
 20
-2.156385826771654
 30
0.0
 10
5.307570866141733
 20
-2.156385826771654
 30
0.0
 10
5.307570866141733
 20
-2.156385826771654
 30
0.0
 10
5.307570866141733
 20
-2.156385826771654
 30
0.0
 10
5.328141732283465
 20
-2.15638188976378
 30
0.0
 10
5.344968503937008
 20
-2.139429133858268
 30
0.0
 10
5.344968503937008
 20
-2.118716535433071
 30
0.0
 10
5.344968503937008
 20
-2.118716535433071
 30
0.0
 10
5.344968503937008
 20
-2.118716535433071
 30
0.0
 10
5.344968503937008
 20
-2.054653543307086
 30
0.0
 10
5.344968503937008
 20
-2.054653543307086
 30
0.0
 10
5.344968503937008
 20
-2.054653543307086
 30
0.0
 10
6.007515748031496
 20
-1.92292125984252
 30
0.0
 10
6.544102362204725
 20
-1.651594488188976
 30
0.0
 10
6.874704724409449
 20
-0.9448937007874015
 30
0.0
 10
6.874704724409449
 20
-0.9448937007874015
 30
0.0
 10
6.874704724409449
 20
-0.9448937007874015
 30
0.0
 10
7.420090551181103
 20
-0.9476614173228346
 30
0.0
 10
7.420090551181103
 20
-0.9476614173228346
 30
0.0
 10
7.420090551181103
 20
-0.9476614173228346
 30
0.0
 10
7.50005905511811
 20
-0.9450433070866142
 30
0.0
 10
7.507066929133858
 20
-0.9938228346456693
 30
0.0
 10
7.46415748031496
 20
-1.077763779527559
 30
0.0
 10
7.46415748031496
 20
-1.077763779527559
 30
0.0
 10
7.178122047244094
 20
-1.899448818897638
 30
0.0
 10
6.650783464566929
 20
-2.425625984251969
 30
0.0
 10
5.815858267716536
 20
-2.575181102362205
 30
0.0
 10
5.815858267716536
 20
-2.575181102362205
 30
0.0
 10
4.138688976377953
 20
-2.76857874015748
 30
0.0
 10
2.425401574803149
 20
-2.755933070866142
 30
0.0
 10
0.7402834645669292
 20
-2.69994094488189
 30
0.0
 10
0.7402834645669292
 20
-2.69994094488189
 30
0.0
 10
-1.053767716535433
 20
-2.640326771653543
 30
0.0
 10
-2.810291338582677
 20
-2.55455905511811
 30
0.0
 10
-4.520704724409449
 20
-2.389271653543307
 30
0.0
 10
-4.520704724409449
 20
-2.389271653543307
 30
0.0
 10
-4.704704724409448
 20
-2.371496062992126
 30
0.0
 10
-4.946881889763779
 20
-2.379291338582677
 30
0.0
 10
-5.110641732283464
 20
-2.281354330708661
 30
0.0
 10
-5.110641732283464
 20
-2.281354330708661
 30
0.0
 10
-5.222350393700787
 20
-2.214543307086614
 30
0.0
 10
-5.294901574803149
 20
-2.099685039370079
 30
0.0
 10
-5.315692913385827
 20
-1.935047244094488
 30
0.0
 10
-5.315692913385827
 20
-1.935047244094488
 30
0.0
 10
-5.324755905511811
 20
-1.863283464566929
 30
0.0
 10
-5.342287401574803
 20
-1.733838582677165
 30
0.0
 10
-5.317574803149606
 20
-1.661015748031496
 30
0.0
 10
-5.317574803149606
 20
-1.661015748031496
 30
0.0
 10
-5.308602362204724
 20
-1.634562992125984
 30
0.0
 10
-5.287523622047244
 20
-1.62351968503937
 30
0.0
 10
-5.258476377952756
 20
-1.62555905511811
 30
0.0
  0
SPLINE
  5
6A
330
1F
100
AcDbEntity
  8
Layer 1
 62
   252
370
    18
100
AcDbSpline
210
0.0
220
0.0
230
1.0
 70
    11
 71
     3
 72
    20
 73
    16
 74
     0
 42
0.0000000001
 43
0.0000000001
 40
0.0
 40
0.0
 40
0.0
 40
0.0
 40
0.25
 40
0.25
 40
0.25
 40
0.25
 40
0.5
 40
0.5
 40
0.5
 40
0.5
 40
0.75
 40
0.75
 40
0.75
 40
0.75
 40
1.0
 40
1.0
 40
1.0
 40
1.0
 10
9.021338582677165
 20
0.4414645669291339
 30
0.0
 10
9.021338582677165
 20
0.4414645669291339
 30
0.0
 10
8.89451968503937
 20
0.1959291338582677
 30
0.0
 10
8.89451968503937
 20
0.1959291338582677
 30
0.0
 10
8.89451968503937
 20
0.1959291338582677
 30
0.0
 10
8.89451968503937
 20
0.1959291338582677
 30
0.0
 10
9.120417322834646
 20
0.3502047244094488
 30
0.0
 10
9.120417322834646
 20
0.3502047244094488
 30
0.0
 10
9.120417322834646
 20
0.3502047244094488
 30
0.0
 10
9.120417322834646
 20
0.3502047244094488
 30
0.0
 10
9.097996062992125
 20
0.4285590551181102
 30
0.0
 10
9.097996062992125
 20
0.4285590551181102
 30
0.0
 10
9.097996062992125
 20
0.4285590551181102
 30
0.0
 10
9.097996062992125
 20
0.4285590551181102
 30
0.0
 10
9.021338582677165
 20
0.4414645669291339
 30
0.0
 10
9.021338582677165
 20
0.4414645669291339
 30
0.0
  0
SPLINE
  5
6B
330
1F
100
AcDbEntity
  8
Layer 1
 62
   252
370
    18
100
AcDbSpline
210
0.0
220
0.0
230
1.0
 70
    11
 71
     3
 72
    36
 73
    32
 74
     0
 42
0.0000000001
 43
0.0000000001
 40
0.0
 40
0.0
 40
0.0
 40
0.0
 40
0.125
 40
0.125
 40
0.125
 40
0.125
 40
0.25
 40
0.25
 40
0.25
 40
0.25
 40
0.375
 40
0.375
 40
0.375
 40
0.375
 40
0.5
 40
0.5
 40
0.5
 40
0.5
 40
0.625
 40
0.625
 40
0.625
 40
0.625
 40
0.75
 40
0.75
 40
0.75
 40
0.75
 40
0.875
 40
0.875
 40
0.875
 40
0.875
 40
1.0
 40
1.0
 40
1.0
 40
1.0
 10
8.829948818897638
 20
0.1276732283464567
 30
0.0
 10
8.829948818897638
 20
0.1276732283464567
 30
0.0
 10
8.829948818897638
 20
0.1276732283464567
 30
0.0
 10
8.829948818897638
 20
0.1276732283464567
 30
0.0
 10
8.829948818897638
 20
0.1276732283464567
 30
0.0
 10
8.845279527559056
 20
0.1139645669291339
 30
0.0
 10
8.846507874015748
 20
0.0900826771653543
 30
0.0
 10
8.832724409448819
 20
0.0746653543307087
 30
0.0
 10
8.832724409448819
 20
0.0746653543307087
 30
0.0
 10
8.832724409448819
 20
0.0746653543307087
 30
0.0
 10
8.692570866141732
 20
-0.0821220472440945
 30
0.0
 10
8.692570866141732
 20
-0.0821220472440945
 30
0.0
 10
8.692570866141732
 20
-0.0821220472440945
 30
0.0
 10
8.678787401574803
 20
-0.0975393700787402
 30
0.0
 10
8.654921259842519
 20
-0.0989842519685039
 30
0.0
 10
8.639582677165354
 20
-0.0852755905511811
 30
0.0
 10
8.639582677165354
 20
-0.0852755905511811
 30
0.0
 10
8.639582677165354
 20
-0.0852755905511811
 30
0.0
 10
8.639582677165354
 20
-0.0852755905511811
 30
0.0
 10
8.639582677165354
 20
-0.0852755905511811
 30
0.0
 10
8.639582677165354
 20
-0.0852755905511811
 30
0.0
 10
8.624248031496062
 20
-0.0715629921259843
 30
0.0
 10
8.622996062992126
 20
-0.0477125984251969
 30
0.0
 10
8.6368031496063
 20
-0.0322677165354331
 30
0.0
 10
8.6368031496063
 20
-0.0322677165354331
 30
0.0
 10
8.6368031496063
 20
-0.0322677165354331
 30
0.0
 10
8.776956692913386
 20
0.1245196850393701
 30
0.0
 10
8.776956692913386
 20
0.1245196850393701
 30
0.0
 10
8.776956692913386
 20
0.1245196850393701
 30
0.0
 10
8.790763779527559
 20
0.1399645669291339
 30
0.0
 10
8.814610236220473
 20
0.1413818897637795
 30
0.0
 10
8.829948818897638
 20
0.1276732283464567
 30
0.0
  0
SPLINE
  5
6C
330
1F
100
AcDbEntity
  8
Layer 1
 62
   252
370
    18
100
AcDbSpline
210
0.0
220
0.0
230
1.0
 70
    11
 71
     3
 72
    64
 73
    60
 74
     0
 42
0.0000000001
 43
0.0000000001
 40
0.0
 40
0.0
 40
0.0
 40
0.0
 40
0.0666666666666667
 40
0.0666666666666667
 40
0.0666666666666667
 40
0.0666666666666667
 40
0.1333333333333333
 40
0.1333333333333333
 40
0.1333333333333333
 40
0.1333333333333333
 40
0.2
 40
0.2
 40
0.2
 40
0.2
 40
0.2666666666666667
 40
0.2666666666666667
 40
0.2666666666666667
 40
0.2666666666666667
 40
0.3333333333333333
 40
0.3333333333333333
 40
0.3333333333333333
 40
0.3333333333333333
 40
0.4
 40
0.4
 40
0.4
 40
0.4
 40
0.4666666666666666
 40
0.4666666666666666
 40
0.4666666666666666
 40
0.4666666666666666
 40
0.5333333333333333
 40
0.5333333333333333
 40
0.5333333333333333
 40
0.5333333333333333
 40
0.6
 40
0.6
 40
0.6
 40
0.6
 40
0.6666666666666666
 40
0.6666666666666666
 40
0.6666666666666666
 40
0.6666666666666666
 40
0.7333333333333333
 40
0.7333333333333333
 40
0.7333333333333333
 40
0.7333333333333333
 40
0.7999999999999999
 40
0.7999999999999999
 40
0.7999999999999999
 40
0.7999999999999999
 40
0.8666666666666666
 40
0.8666666666666666
 40
0.8666666666666666
 40
0.8666666666666666
 40
0.9333333333333332
 40
0.9333333333333332
 40
0.9333333333333332
 40
0.9333333333333332
 40
1.0
 40
1.0
 40
1.0
 40
1.0
 10
9.136444881889764
 20
0.4715669291338583
 30
0.0
 10
9.394732283464567
 20
0.4991456692913386
 30
0.0
 10
9.666082677165354
 20
0.5653858267716535
 30
0.0
 10
9.953070866141733
 20
0.5244488188976378
 30
0.0
 10
9.953070866141733
 20
0.5244488188976378
 30
0.0
 10
10.00319291338583
 20
0.5172952755905512
 30
0.0
 10
10.10357874015748
 20
0.4505157480314961
 30
0.0
 10
10.10055905511811
 20
0.3741023622047244
 30
0.0
 10
10.10055905511811
 20
0.3741023622047244
 30
0.0
 10
10.09753543307087
 20
0.2976889763779528
 30
0.0
 10
10.02195275590551
 20
0.2135866141732284
 30
0.0
 10
9.942456692913385
 20
0.241755905511811
 30
0.0
 10
9.942456692913385
 20
0.241755905511811
 30
0.0
 10
9.612350393700787
 20
0.3587244094488189
 30
0.0
 10
9.351307086614174
 20
0.2149645669291338
 30
0.0
 10
9.213850393700788
 20
0.0745590551181102
 30
0.0
 10
9.213850393700788
 20
0.0745590551181102
 30
0.0
 10
9.213850393700788
 20
0.0745590551181102
 30
0.0
 10
8.880263779527558
 20
-0.2986062992125984
 30
0.0
 10
8.880263779527558
 20
-0.2986062992125984
 30
0.0
 10
8.880263779527558
 20
-0.2986062992125984
 30
0.0
 10
9.060602362204724
 20
-0.4844212598425197
 30
0.0
 10
9.224803149606299
 20
-0.6863267716535433
 30
0.0
 10
9.373055118110237
 20
-0.9045393700787402
 30
0.0
 10
9.373055118110237
 20
-0.9045393700787402
 30
0.0
 10
9.43213779527559
 20
-0.9915
 30
0.0
 10
9.210456692913386
 20
-1.015622047244094
 30
0.0
 10
9.167456692913385
 20
-0.9771811023622047
 30
0.0
 10
9.167456692913385
 20
-0.9771811023622047
 30
0.0
 10
9.167456692913385
 20
-0.9771811023622047
 30
0.0
 10
7.694874015748032
 20
0.3392047244094488
 30
0.0
 10
7.694874015748032
 20
0.3392047244094488
 30
0.0
 10
7.694874015748032
 20
0.3392047244094488
 30
0.0
 10
7.651874015748032
 20
0.3776417322834646
 30
0.0
 10
7.651444881889764
 20
0.6012913385826771
 30
0.0
 10
7.744106299212598
 20
0.5516259842519685
 30
0.0
 10
7.744106299212598
 20
0.5516259842519685
 30
0.0
 10
7.978208661417323
 20
0.4261614173228346
 30
0.0
 10
8.196472440944882
 20
0.2856023622047244
 30
0.0
 10
8.399145669291338
 20
0.1298070866141732
 30
0.0
 10
8.399145669291338
 20
0.1298070866141732
 30
0.0
 10
8.399145669291338
 20
0.1298070866141732
 30
0.0
 10
8.726799212598426
 20
0.4963425196850394
 30
0.0
 10
8.726799212598426
 20
0.4963425196850394
 30
0.0
 10
8.726799212598426
 20
0.4963425196850394
 30
0.0
 10
8.853425196850393
 20
0.6468858267716535
 30
0.0
 10
8.973818897637795
 20
0.9264330708661417
 30
0.0
 10
8.818070866141733
 20
1.246877952755906
 30
0.0
 10
8.818070866141733
 20
1.246877952755906
 30
0.0
 10
8.7811968503937
 20
1.322732283464567
 30
0.0
 10
8.856338582677166
 20
1.407236220472441
 30
0.0
 10
8.931933070866142
 20
1.418771653543307
 30
0.0
 10
8.931933070866142
 20
1.418771653543307
 30
0.0
 10
9.007531496062992
 20
1.430307086614173
 30
0.0
 10
9.0851062992126
 20
1.338003937007874
 30
0.0
 10
9.097807086614173
 20
1.288996062992126
 30
0.0
 10
9.097807086614173
 20
1.288996062992126
 30
0.0
 10
9.170535433070865
 20
1.008374015748031
 30
0.0
 10
9.135011811023622
 20
0.7313188976377952
 30
0.0
 10
9.136444881889764
 20
0.4715669291338583
 30
0.0
  0
SPLINE
  5
6D
330
1F
100
AcDbEntity
  8
Layer 1
 62
   252
370
    18
100
AcDbSpline
210
0.0
220
0.0
230
1.0
 70
    11
 71
     3
 72
    20
 73
    16
 74
     0
 42
0.0000000001
 43
0.0000000001
 40
0.0
 40
0.0
 40
0.0
 40
0.0
 40
0.25
 40
0.25
 40
0.25
 40
0.25
 40
0.5
 40
0.5
 40
0.5
 40
0.5
 40
0.75
 40
0.75
 40
0.75
 40
0.75
 40
1.0
 40
1.0
 40
1.0
 40
1.0
 10
10.02073228346457
 20
-1.454551181102362
 30
0.0
 10
10.02073228346457
 20
-1.454551181102362
 30
0.0
 10
10.16683464566929
 20
-1.219984251968504
 30
0.0
 10
10.16683464566929
 20
-1.219984251968504
 30
0.0
 10
10.16683464566929
 20
-1.219984251968504
 30
0.0
 10
10.16683464566929
 20
-1.219984251968504
 30
0.0
 10
9.929291338582678
 20
-1.355641732283465
 30
0.0
 10
9.929291338582678
 20
-1.355641732283465
 30
0.0
 10
9.929291338582678
 20
-1.355641732283465
 30
0.0
 10
9.929291338582678
 20
-1.355641732283465
 30
0.0
 10
9.945358267716536
 20
-1.435543307086614
 30
0.0
 10
9.945358267716536
 20
-1.435543307086614
 30
0.0
 10
9.945358267716536
 20
-1.435543307086614
 30
0.0
 10
9.945358267716536
 20
-1.435543307086614
 30
0.0
 10
10.02073228346457
 20
-1.454551181102362
 30
0.0
 10
10.02073228346457
 20
-1.454551181102362
 30
0.0
  0
SPLINE
  5
6E
330
1F
100
AcDbEntity
  8
Layer 1
 62
   252
370
    18
100
AcDbSpline
210
0.0
220
0.0
230
1.0
 70
    11
 71
     3
 72
    36
 73
    32
 74
     0
 42
0.0000000001
 43
0.0000000001
 40
0.0
 40
0.0
 40
0.0
 40
0.0
 40
0.125
 40
0.125
 40
0.125
 40
0.125
 40
0.25
 40
0.25
 40
0.25
 40
0.25
 40
0.375
 40
0.375
 40
0.375
 40
0.375
 40
0.5
 40
0.5
 40
0.5
 40
0.5
 40
0.625
 40
0.625
 40
0.625
 40
0.625
 40
0.75
 40
0.75
 40
0.75
 40
0.75
 40
0.875
 40
0.875
 40
0.875
 40
0.875
 40
1.0
 40
1.0
 40
1.0
 40
1.0
 10
10.2366811023622
 20
-1.157125984251969
 30
0.0
 10
10.2366811023622
 20
-1.157125984251969
 30
0.0
 10
10.2366811023622
 20
-1.157125984251969
 30
0.0
 10
10.2366811023622
 20
-1.157125984251969
 30
0.0
 10
10.2366811023622
 20
-1.157125984251969
 30
0.0
 10
10.22248818897638
 20
-1.142228346456693
 30
0.0
 10
10.22318503937008
 20
-1.118326771653543
 30
0.0
 10
10.23816141732283
 20
-1.104066929133858
 30
0.0
 10
10.23816141732283
 20
-1.104066929133858
 30
0.0
 10
10.23816141732283
 20
-1.104066929133858
 30
0.0
 10
10.39043700787402
 20
-0.9590236220472441
 30
0.0
 10
10.39043700787402
 20
-0.9590236220472441
 30
0.0
 10
10.39043700787402
 20
-0.9590236220472441
 30
0.0
 10
10.40541338582677
 20
-0.944759842519685
 30
0.0
 10
10.4293188976378
 20
-0.9452322834645669
 30
0.0
 10
10.44350787401575
 20
-0.9601299212598425
 30
0.0
 10
10.44350787401575
 20
-0.9601299212598425
 30
0.0
 10
10.44350787401575
 20
-0.9601299212598425
 30
0.0
 10
10.44350787401575
 20
-0.9601299212598425
 30
0.0
 10
10.44350787401575
 20
-0.9601299212598425
 30
0.0
 10
10.44350787401575
 20
-0.9601299212598425
 30
0.0
 10
10.45769291338583
 20
-0.9750275590551181
 30
0.0
 10
10.45702755905512
 20
-0.9989015748031496
 30
0.0
 10
10.44202755905512
 20
-1.013188976377953
 30
0.0
 10
10.44202755905512
 20
-1.013188976377953
 30
0.0
 10
10.44202755905512
 20
-1.013188976377953
 30
0.0
 10
10.28974409448819
 20
-1.158232283464567
 30
0.0
 10
10.28974409448819
 20
-1.158232283464567
 30
0.0
 10
10.28974409448819
 20
-1.158232283464567
 30
0.0
 10
10.27474409448819
 20
-1.17251968503937
 30
0.0
 10
10.25086220472441
 20
-1.17201968503937
 30
0.0
 10
10.2366811023622
 20
-1.157125984251969
 30
0.0
  0
SPLINE
  5
6F
330
1F
100
AcDbEntity
  8
Layer 1
 62
   252
370
    18
100
AcDbSpline
210
0.0
220
0.0
230
1.0
 70
    11
 71
     3
 72
    64
 73
    60
 74
     0
 42
0.0000000001
 43
0.0000000001
 40
0.0
 40
0.0
 40
0.0
 40
0.0
 40
0.0666666666666667
 40
0.0666666666666667
 40
0.0666666666666667
 40
0.0666666666666667
 40
0.1333333333333333
 40
0.1333333333333333
 40
0.1333333333333333
 40
0.1333333333333333
 40
0.2
 40
0.2
 40
0.2
 40
0.2
 40
0.2666666666666667
 40
0.2666666666666667
 40
0.2666666666666667
 40
0.2666666666666667
 40
0.3333333333333333
 40
0.3333333333333333
 40
0.3333333333333333
 40
0.3333333333333333
 40
0.4
 40
0.4
 40
0.4
 40
0.4
 40
0.4666666666666666
 40
0.4666666666666666
 40
0.4666666666666666
 40
0.4666666666666666
 40
0.5333333333333333
 40
0.5333333333333333
 40
0.5333333333333333
 40
0.5333333333333333
 40
0.6
 40
0.6
 40
0.6
 40
0.6
 40
0.6666666666666666
 40
0.6666666666666666
 40
0.6666666666666666
 40
0.6666666666666666
 40
0.7333333333333333
 40
0.7333333333333333
 40
0.7333333333333333
 40
0.7333333333333333
 40
0.7999999999999999
 40
0.7999999999999999
 40
0.7999999999999999
 40
0.7999999999999999
 40
0.8666666666666666
 40
0.8666666666666666
 40
0.8666666666666666
 40
0.8666666666666666
 40
0.9333333333333332
 40
0.9333333333333332
 40
0.9333333333333332
 40
0.9333333333333332
 40
1.0
 40
1.0
 40
1.0
 40
1.0
 10
9.903582677165355
 20
-1.475322834645669
 30
0.0
 10
9.643913385826771
 20
-1.48209842519685
 30
0.0
 10
9.368125984251968
 20
-1.526362204724409
 30
0.0
 10
9.085342519685039
 20
-1.462535433070866
 30
0.0
 10
9.085342519685039
 20
-1.462535433070866
 30
0.0
 10
9.035956692913386
 20
-1.451389763779528
 30
0.0
 10
8.941248031496063
 20
-1.376771653543307
 30
0.0
 10
8.950389763779528
 20
-1.300842519685039
 30
0.0
 10
8.950389763779528
 20
-1.300842519685039
 30
0.0
 10
8.959535433070867
 20
-1.224917322834646
 30
0.0
 10
9.04161811023622
 20
-1.147149606299213
 30
0.0
 10
9.118606299212598
 20
-1.181602362204724
 30
0.0
 10
9.118606299212598
 20
-1.181602362204724
 30
0.0
 10
9.438255905511811
 20
-1.324673228346457
 30
0.0
 10
9.709996062992126
 20
-1.202314960629921
 30
0.0
 10
9.858271653543307
 20
-1.073385826771654
 30
0.0
 10
9.858271653543307
 20
-1.073385826771654
 30
0.0
 10
9.858271653543307
 20
-1.073385826771654
 30
0.0
 10
10.22070866141732
 20
-0.7281850393700787
 30
0.0
 10
10.22070866141732
 20
-0.7281850393700787
 30
0.0
 10
10.22070866141732
 20
-0.7281850393700787
 30
0.0
 10
10.05586220472441
 20
-0.5285
 30
0.0
 10
9.90838188976378
 20
-0.3140748031496063
 30
0.0
 10
9.778110236220472
 20
-0.0846771653543307
 30
0.0
 10
9.778110236220472
 20
-0.0846771653543307
 30
0.0
 10
9.726192913385827
 20
0.006751968503937
 30
0.0
 10
9.949094488188976
 20
0.013003937007874
 30
0.0
 10
9.988870078740158
 20
-0.028755905511811
 30
0.0
 10
9.988870078740158
 20
-0.028755905511811
 30
0.0
 10
9.988870078740158
 20
-0.028755905511811
 30
0.0
 10
11.3511220472441
 20
-1.459015748031496
 30
0.0
 10
11.3511220472441
 20
-1.459015748031496
 30
0.0
 10
11.3511220472441
 20
-1.459015748031496
 30
0.0
 10
11.39090157480315
 20
-1.500775590551181
 30
0.0
 10
11.37338976377953
 20
-1.723744094488189
 30
0.0
 10
11.28501181102362
 20
-1.666799212598425
 30
0.0
 10
11.28501181102362
 20
-1.666799212598425
 30
0.0
 10
11.06172834645669
 20
-1.522968503937008
 30
0.0
 10
10.85544488188976
 20
-1.365354330708662
 30
0.0
 10
10.66592125984252
 20
-1.193807086614173
 30
0.0
 10
10.66592125984252
 20
-1.193807086614173
 30
0.0
 10
10.66592125984252
 20
-1.193807086614173
 30
0.0
 10
10.30992125984252
 20
-1.532874015748031
 30
0.0
 10
10.30992125984252
 20
-1.532874015748031
 30
0.0
 10
10.30992125984252
 20
-1.532874015748031
 30
0.0
 10
10.17162204724409
 20
-1.672779527559055
 30
0.0
 10
10.02920078740157
 20
-1.941767716535433
 30
0.0
 10
10.15874409448819
 20
-2.273677165354331
 30
0.0
 10
10.15874409448819
 20
-2.273677165354331
 30
0.0
 10
10.18941338582677
 20
-2.352244094488189
 30
0.0
 10
10.10774015748031
 20
-2.430444881889764
 30
0.0
 10
10.03146456692913
 20
-2.43588188976378
 30
0.0
 10
10.03146456692913
 20
-2.43588188976378
 30
0.0
 10
9.955181102362205
 20
-2.441314960629921
 30
0.0
 10
9.88525590551181
 20
-2.343094488188977
 30
0.0
 10
9.876527559055118
 20
-2.293220472440945
 30
0.0
 10
9.876527559055118
 20
-2.293220472440945
 30
0.0
 10
9.826551181102362
 20
-2.007665354330709
 30
0.0
 10
9.88417716535433
 20
-1.734354330708662
 30
0.0
 10
9.903582677165355
 20
-1.475322834645669
 30
0.0
  0
SPLINE
  5
70
330
1F
100
AcDbEntity
  8
Layer 1
 62
   252
370
    18
100
AcDbSpline
210
0.0
220
0.0
230
1.0
 70
    11
 71
     3
 72
   160
 73
   156
 74
     0
 42
0.0000000001
 43
0.0000000001
 40
0.0
 40
0.0
 40
0.0
 40
0.0
 40
0.0256410256410256
 40
0.0256410256410256
 40
0.0256410256410256
 40
0.0256410256410256
 40
0.0512820512820513
 40
0.0512820512820513
 40
0.0512820512820513
 40
0.0512820512820513
 40
0.0769230769230769
 40
0.0769230769230769
 40
0.0769230769230769
 40
0.0769230769230769
 40
0.1025641025641026
 40
0.1025641025641026
 40
0.1025641025641026
 40
0.1025641025641026
 40
0.1282051282051282
 40
0.1282051282051282
 40
0.1282051282051282
 40
0.1282051282051282
 40
0.1538461538461538
 40
0.1538461538461538
 40
0.1538461538461538
 40
0.1538461538461538
 40
0.1794871794871795
 40
0.1794871794871795
 40
0.1794871794871795
 40
0.1794871794871795
 40
0.2051282051282051
 40
0.2051282051282051
 40
0.2051282051282051
 40
0.2051282051282051
 40
0.2307692307692307
 40
0.2307692307692307
 40
0.2307692307692307
 40
0.2307692307692307
 40
0.2564102564102564
 40
0.2564102564102564
 40
0.2564102564102564
 40
0.2564102564102564
 40
0.282051282051282
 40
0.282051282051282
 40
0.282051282051282
 40
0.282051282051282
 40
0.3076923076923077
 40
0.3076923076923077
 40
0.3076923076923077
 40
0.3076923076923077
 40
0.3333333333333334
 40
0.3333333333333334
 40
0.3333333333333334
 40
0.3333333333333334
 40
0.358974358974359
 40
0.358974358974359
 40
0.358974358974359
 40
0.358974358974359
 40
0.3846153846153847
 40
0.3846153846153847
 40
0.3846153846153847
 40
0.3846153846153847
 40
0.4102564102564104
 40
0.4102564102564104
 40
0.4102564102564104
 40
0.4102564102564104
 40
0.435897435897436
 40
0.435897435897436
 40
0.435897435897436
 40
0.435897435897436
 40
0.4615384615384617
 40
0.4615384615384617
 40
0.4615384615384617
 40
0.4615384615384617
 40
0.4871794871794873
 40
0.4871794871794873
 40
0.4871794871794873
 40
0.4871794871794873
 40
0.512820512820513
 40
0.512820512820513
 40
0.512820512820513
 40
0.512820512820513
 40
0.5384615384615387
 40
0.5384615384615387
 40
0.5384615384615387
 40
0.5384615384615387
 40
0.5641025641025643
 40
0.5641025641025643
 40
0.5641025641025643
 40
0.5641025641025643
 40
0.58974358974359
 40
0.58974358974359
 40
0.58974358974359
 40
0.58974358974359
 40
0.6153846153846156
 40
0.6153846153846156
 40
0.6153846153846156
 40
0.6153846153846156
 40
0.6410256410256413
 40
0.6410256410256413
 40
0.6410256410256413
 40
0.6410256410256413
 40
0.666666666666667
 40
0.666666666666667
 40
0.666666666666667
 40
0.666666666666667
 40
0.6923076923076926
 40
0.6923076923076926
 40
0.6923076923076926
 40
0.6923076923076926
 40
0.7179487179487183
 40
0.7179487179487183
 40
0.7179487179487183
 40
0.7179487179487183
 40
0.743589743589744
 40
0.743589743589744
 40
0.743589743589744
 40
0.743589743589744
 40
0.7692307692307696
 40
0.7692307692307696
 40
0.7692307692307696
 40
0.7692307692307696
 40
0.7948717948717953
 40
0.7948717948717953
 40
0.7948717948717953
 40
0.7948717948717953
 40
0.8205128205128209
 40
0.8205128205128209
 40
0.8205128205128209
 40
0.8205128205128209
 40
0.8461538461538466
 40
0.8461538461538466
 40
0.8461538461538466
 40
0.8461538461538466
 40
0.8717948717948723
 40
0.8717948717948723
 40
0.8717948717948723
 40
0.8717948717948723
 40
0.8974358974358979
 40
0.8974358974358979
 40
0.8974358974358979
 40
0.8974358974358979
 40
0.9230769230769236
 40
0.9230769230769236
 40
0.9230769230769236
 40
0.9230769230769236
 40
0.9487179487179492
 40
0.9487179487179492
 40
0.9487179487179492
 40
0.9487179487179492
 40
0.9743589743589749
 40
0.9743589743589749
 40
0.9743589743589749
 40
0.9743589743589749
 40
1.0
 40
1.0
 40
1.0
 40
1.0
 10
-7.884381889763779
 20
3.063968503937008
 30
0.0
 10
-7.884381889763779
 20
3.063968503937008
 30
0.0
 10
-7.111122047244095
 20
3.082236220472441
 30
0.0
 10
-7.111122047244095
 20
3.082236220472441
 30
0.0
 10
-7.111122047244095
 20
3.082236220472441
 30
0.0
 10
-7.111122047244095
 20
3.082236220472441
 30
0.0
 10
-7.104452755905512
 20
2.611913385826772
 30
0.0
 10
-7.104452755905512
 20
2.611913385826772
 30
0.0
 10
-7.104452755905512
 20
2.611913385826772
 30
0.0
 10
-7.104157480314961
 20
2.591200787401575
 30
0.0
 10
-7.087086614173228
 20
2.574492125984252
 30
0.0
 10
-7.06651968503937
 20
2.574783464566929
 30
0.0
 10
-7.06651968503937
 20
2.574783464566929
 30
0.0
 10
-7.06651968503937
 20
2.574783464566929
 30
0.0
 10
-7.06651968503937
 20
2.574783464566929
 30
0.0
 10
-7.06651968503937
 20
2.574783464566929
 30
0.0
 10
-7.06651968503937
 20
2.574783464566929
 30
0.0
 10
-7.045948818897638
 20
2.575070866141732
 30
0.0
 10
-7.029358267716535
 20
2.592267716535433
 30
0.0
 10
-7.029653543307087
 20
2.612972440944882
 30
0.0
 10
-7.029653543307087
 20
2.612972440944882
 30
0.0
 10
-7.029653543307087
 20
2.612972440944882
 30
0.0
 10
-7.036338582677165
 20
3.084007874015748
 30
0.0
 10
-7.036338582677165
 20
3.084007874015748
 30
0.0
 10
-7.036338582677165
 20
3.084007874015748
 30
0.0
 10
-7.036338582677165
 20
3.084007874015748
 30
0.0
 10
-6.99401968503937
 20
3.085003937007874
 30
0.0
 10
-6.99401968503937
 20
3.085003937007874
 30
0.0
 10
-6.99401968503937
 20
3.085003937007874
 30
0.0
 10
-6.869736220472441
 20
3.080795275590551
 30
0.0
 10
-6.792862204724409
 20
3.029114173228347
 30
0.0
 10
-6.773224409448819
 20
2.920090551181102
 30
0.0
 10
-6.773224409448819
 20
2.920090551181102
 30
0.0
 10
-6.773224409448819
 20
2.920090551181102
 30
0.0
 10
-6.782866141732283
 20
2.415807086614173
 30
0.0
 10
-6.782866141732283
 20
2.415807086614173
 30
0.0
 10
-6.782866141732283
 20
2.415807086614173
 30
0.0
 10
-6.782866141732283
 20
2.415807086614173
 30
0.0
 10
-0.966248031496063
 20
2.263086614173228
 30
0.0
 10
-0.966248031496063
 20
2.263086614173228
 30
0.0
 10
-0.966248031496063
 20
2.263086614173228
 30
0.0
 10
-0.966248031496063
 20
2.263086614173228
 30
0.0
 10
-0.961996062992126
 20
2.557228346456693
 30
0.0
 10
-0.961996062992126
 20
2.557228346456693
 30
0.0
 10
-0.961996062992126
 20
2.557228346456693
 30
0.0
 10
-0.961996062992126
 20
2.557228346456693
 30
0.0
 10
0.0550866141732283
 20
2.529649606299213
 30
0.0
 10
0.0550866141732283
 20
2.529649606299213
 30
0.0
 10
0.0550866141732283
 20
2.529649606299213
 30
0.0
 10
0.1160669291338583
 20
2.526248031496063
 30
0.0
 10
0.1576102362204724
 20
2.546452755905512
 30
0.0
 10
0.1576811023622047
 20
2.589925196850394
 30
0.0
 10
0.1576811023622047
 20
2.589925196850394
 30
0.0
 10
0.1576811023622047
 20
2.589925196850394
 30
0.0
 10
0.1722755905511811
 20
3.153094488188976
 30
0.0
 10
0.1722755905511811
 20
3.153094488188976
 30
0.0
 10
0.1722755905511811
 20
3.153094488188976
 30
0.0
 10
0.1713582677165354
 20
3.205244094488189
 30
0.0
 10
0.2035157480314961
 20
3.231759842519685
 30
0.0
 10
0.272011811023622
 20
3.230125984251969
 30
0.0
 10
0.272011811023622
 20
3.230125984251969
 30
0.0
 10
0.272011811023622
 20
3.230125984251969
 30
0.0
 10
1.154086614173228
 20
3.242649606299213
 30
0.0
 10
1.154086614173228
 20
3.242649606299213
 30
0.0
 10
1.154086614173228
 20
3.242649606299213
 30
0.0
 10
1.217736220472441
 20
3.24242125984252
 30
0.0
 10
1.246527559055118
 20
3.249212598425197
 30
0.0
 10
1.245783464566929
 20
3.294362204724409
 30
0.0
 10
1.245783464566929
 20
3.294362204724409
 30
0.0
 10
1.245783464566929
 20
3.294362204724409
 30
0.0
 10
1.242795275590551
 20
3.361003937007874
 30
0.0
 10
1.242795275590551
 20
3.361003937007874
 30
0.0
 10
1.242795275590551
 20
3.361003937007874
 30
0.0
 10
1.242795275590551
 20
3.361003937007874
 30
0.0
 10
2.392976377952756
 20
3.352141732283465
 30
0.0
 10
2.392976377952756
 20
3.352141732283465
 30
0.0
 10
2.392976377952756
 20
3.352141732283465
 30
0.0
 10
2.392976377952756
 20
3.352141732283465
 30
0.0
 10
2.392338582677165
 20
3.249299212598425
 30
0.0
 10
2.392338582677165
 20
3.249299212598425
 30
0.0
 10
2.392338582677165
 20
3.249299212598425
 30
0.0
 10
2.392669291338583
 20
3.212153543307087
 30
0.0
 10
2.404822834645669
 20
3.193433070866142
 30
0.0
 10
2.428811023622047
 20
3.193153543307087
 30
0.0
 10
2.428811023622047
 20
3.193153543307087
 30
0.0
 10
2.428811023622047
 20
3.193153543307087
 30
0.0
 10
3.367066929133858
 20
3.181279527559055
 30
0.0
 10
3.367066929133858
 20
3.181279527559055
 30
0.0
 10
3.367066929133858
 20
3.181279527559055
 30
0.0
 10
3.419775590551181
 20
3.181377952755906
 30
0.0
 10
3.448350393700788
 20
3.159496062992126
 30
0.0
 10
3.447814960629921
 20
3.111070866141732
 30
0.0
 10
3.447814960629921
 20
3.111070866141732
 30
0.0
 10
3.447814960629921
 20
3.111070866141732
 30
0.0
 10
3.435870078740157
 20
2.621925196850394
 30
0.0
 10
3.435870078740157
 20
2.621925196850394
 30
0.0
 10
3.435870078740157
 20
2.621925196850394
 30
0.0
 10
3.435570866141732
 20
2.585649606299213
 30
0.0
 10
3.451354330708662
 20
2.570842519685039
 30
0.0
 10
3.474437007874016
 20
2.565807086614173
 30
0.0
 10
3.474437007874016
 20
2.565807086614173
 30
0.0
 10
3.474437007874016
 20
2.565807086614173
 30
0.0
 10
3.78244094488189
 20
2.561291338582677
 30
0.0
 10
3.78244094488189
 20
2.561291338582677
 30
0.0
 10
3.78244094488189
 20
2.561291338582677
 30
0.0
 10
3.78244094488189
 20
2.561291338582677
 30
0.0
 10
3.784366141732284
 20
2.425799212598425
 30
0.0
 10
3.784366141732284
 20
2.425799212598425
 30
0.0
 10
3.784366141732284
 20
2.425799212598425
 30
0.0
 10
3.78465748031496
 20
2.40507874015748
 30
0.0
 10
3.801728346456693
 20
2.388377952755905
 30
0.0
 10
3.822299212598425
 20
2.388665354330709
 30
0.0
 10
3.822299212598425
 20
2.388665354330709
 30
0.0
 10
3.822299212598425
 20
2.388665354330709
 30
0.0
 10
3.822299212598425
 20
2.388665354330709
 30
0.0
 10
3.822299212598425
 20
2.388665354330709
 30
0.0
 10
3.822299212598425
 20
2.388665354330709
 30
0.0
 10
3.842866141732284
 20
2.388956692913386
 30
0.0
 10
3.859452755905512
 20
2.406216535433071
 30
0.0
 10
3.859161417322835
 20
2.426854330708661
 30
0.0
 10
3.859161417322835
 20
2.426854330708661
 30
0.0
 10
3.859161417322835
 20
2.426854330708661
 30
0.0
 10
3.857267716535433
 20
2.560204724409449
 30
0.0
 10
3.857267716535433
 20
2.560204724409449
 30
0.0
 10
3.857267716535433
 20
2.560204724409449
 30
0.0
 10
3.857267716535433
 20
2.560204724409449
 30
0.0
 10
3.911043307086614
 20
2.559413385826772
 30
0.0
 10
3.911043307086614
 20
2.559413385826772
 30
0.0
 10
3.911043307086614
 20
2.559413385826772
 30
0.0
 10
3.988877952755906
 20
2.562338582677165
 30
0.0
 10
4.023929133858267
 20
2.532129921259842
 30
0.0
 10
4.029708661417323
 20
2.479251968503937
 30
0.0
 10
4.029708661417323
 20
2.479251968503937
 30
0.0
 10
4.029708661417323
 20
2.479251968503937
 30
0.0
 10
4.013405511811023
 20
2.038303149606299
 30
0.0
 10
4.013405511811023
 20
2.038303149606299
 30
0.0
 10
4.013405511811023
 20
2.038303149606299
 30
0.0
 10
4.007614173228347
 20
1.988007874015748
 30
0.0
 10
3.96451968503937
 20
1.966606299212598
 30
0.0
 10
3.887909448818898
 20
1.971464566929134
 30
0.0
 10
3.887909448818898
 20
1.971464566929134
 30
0.0
 10
1.35094094488189
 20
1.896342519685039
 30
0.0
 10
-1.202948818897638
 20
1.700893700787402
 30
0.0
 10
-3.738291338582677
 20
1.773106299212598
 30
0.0
 10
-3.738291338582677
 20
1.773106299212598
 30
0.0
 10
-4.726732283464567
 20
1.801263779527559
 30
0.0
 10
-5.566
 20
1.873425196850394
 30
0.0
 10
-6.247732283464567
 20
1.994192913385827
 30
0.0
 10
-6.247732283464567
 20
1.994192913385827
 30
0.0
 10
-6.829700787401575
 20
2.122582677165354
 30
0.0
 10
-7.392759842519685
 20
2.287826771653543
 30
0.0
 10
-7.788472440944882
 20
2.779149606299212
 30
0.0
 10
-7.788472440944882
 20
2.779149606299212
 30
0.0
 10
-7.94651968503937
 20
2.960653543307087
 30
0.0
 10
-7.990889763779528
 20
3.064094488188976
 30
0.0
 10
-7.884381889763779
 20
3.063968503937008
 30
0.0
  0
SPLINE
  5
71
330
1F
100
AcDbEntity
  8
Layer 1
 62
   252
370
    18
100
AcDbSpline
210
0.0
220
0.0
230
1.0
 70
    11
 71
     3
 72
    36
 73
    32
 74
     0
 42
0.0000000001
 43
0.0000000001
 40
0.0
 40
0.0
 40
0.0
 40
0.0
 40
0.125
 40
0.125
 40
0.125
 40
0.125
 40
0.25
 40
0.25
 40
0.25
 40
0.25
 40
0.375
 40
0.375
 40
0.375
 40
0.375
 40
0.5
 40
0.5
 40
0.5
 40
0.5
 40
0.625
 40
0.625
 40
0.625
 40
0.625
 40
0.75
 40
0.75
 40
0.75
 40
0.75
 40
0.875
 40
0.875
 40
0.875
 40
0.875
 40
1.0
 40
1.0
 40
1.0
 40
1.0
 10
3.340263779527559
 20
2.225484251968504
 30
0.0
 10
3.340263779527559
 20
2.225484251968504
 30
0.0
 10
3.340263779527559
 20
2.225484251968504
 30
0.0
 10
3.340263779527559
 20
2.225484251968504
 30
0.0
 10
3.340263779527559
 20
2.225484251968504
 30
0.0
 10
3.339972440944882
 20
2.246055118110236
 30
0.0
 10
3.356751968503937
 20
2.263125984251968
 30
0.0
 10
3.377397637795275
 20
2.26342125984252
 30
0.0
 10
3.377397637795275
 20
2.26342125984252
 30
0.0
 10
3.377397637795275
 20
2.26342125984252
 30
0.0
 10
3.729787401574803
 20
2.26842125984252
 30
0.0
 10
3.729787401574803
 20
2.26842125984252
 30
0.0
 10
3.729787401574803
 20
2.26842125984252
 30
0.0
 10
3.750433070866142
 20
2.268716535433071
 30
0.0
 10
3.767685039370079
 20
2.252125984251968
 30
0.0
 10
3.767976377952756
 20
2.23155905511811
 30
0.0
 10
3.767976377952756
 20
2.23155905511811
 30
0.0
 10
3.767976377952756
 20
2.23155905511811
 30
0.0
 10
3.767976377952756
 20
2.23155905511811
 30
0.0
 10
3.767976377952756
 20
2.23155905511811
 30
0.0
 10
3.767976377952756
 20
2.23155905511811
 30
0.0
 10
3.768271653543307
 20
2.210988188976378
 30
0.0
 10
3.751562992125984
 20
2.193925196850394
 30
0.0
 10
3.730850393700787
 20
2.193625984251968
 30
0.0
 10
3.730850393700787
 20
2.193625984251968
 30
0.0
 10
3.730850393700787
 20
2.193625984251968
 30
0.0
 10
3.378456692913386
 20
2.188622047244094
 30
0.0
 10
3.378456692913386
 20
2.188622047244094
 30
0.0
 10
3.378456692913386
 20
2.188622047244094
 30
0.0
 10
3.357744094488189
 20
2.188330708661417
 30
0.0
 10
3.340555118110236
 20
2.20492125984252
 30
0.0
 10
3.340263779527559
 20
2.225484251968504
 30
0.0
  0
SPLINE
  5
72
330
1F
100
AcDbEntity
  8
Layer 1
 62
   252
370
    18
100
AcDbSpline
210
0.0
220
0.0
230
1.0
 70
    11
 71
     3
 72
    36
 73
    32
 74
     0
 42
0.0000000001
 43
0.0000000001
 40
0.0
 40
0.0
 40
0.0
 40
0.0
 40
0.125
 40
0.125
 40
0.125
 40
0.125
 40
0.25
 40
0.25
 40
0.25
 40
0.25
 40
0.375
 40
0.375
 40
0.375
 40
0.375
 40
0.5
 40
0.5
 40
0.5
 40
0.5
 40
0.625
 40
0.625
 40
0.625
 40
0.625
 40
0.75
 40
0.75
 40
0.75
 40
0.75
 40
0.875
 40
0.875
 40
0.875
 40
0.875
 40
1.0
 40
1.0
 40
1.0
 40
1.0
 10
3.171437007874016
 20
2.955492125984252
 30
0.0
 10
3.171437007874016
 20
2.955492125984252
 30
0.0
 10
3.171437007874016
 20
2.955492125984252
 30
0.0
 10
3.171437007874016
 20
2.955492125984252
 30
0.0
 10
3.171437007874016
 20
2.955492125984252
 30
0.0
 10
3.192003937007874
 20
2.955787401574803
 30
0.0
 10
3.209074803149606
 20
2.939023622047244
 30
0.0
 10
3.209370078740157
 20
2.91836220472441
 30
0.0
 10
3.209370078740157
 20
2.91836220472441
 30
0.0
 10
3.209370078740157
 20
2.91836220472441
 30
0.0
 10
3.216972440944882
 20
2.382527559055118
 30
0.0
 10
3.216972440944882
 20
2.382527559055118
 30
0.0
 10
3.216972440944882
 20
2.382527559055118
 30
0.0
 10
3.217267716535433
 20
2.361866141732283
 30
0.0
 10
3.200681102362205
 20
2.344625984251969
 30
0.0
 10
3.180110236220473
 20
2.344334645669291
 30
0.0
 10
3.180110236220473
 20
2.344334645669291
 30
0.0
 10
3.180110236220473
 20
2.344334645669291
 30
0.0
 10
3.180110236220473
 20
2.344334645669291
 30
0.0
 10
3.180110236220473
 20
2.344334645669291
 30
0.0
 10
3.180110236220473
 20
2.344334645669291
 30
0.0
 10
3.15953937007874
 20
2.344043307086614
 30
0.0
 10
3.142472440944882
 20
2.360755905511811
 30
0.0
 10
3.142181102362205
 20
2.381468503937008
 30
0.0
 10
3.142181102362205
 20
2.381468503937008
 30
0.0
 10
3.142181102362205
 20
2.381468503937008
 30
0.0
 10
3.134574803149606
 20
2.917295275590551
 30
0.0
 10
3.134574803149606
 20
2.917295275590551
 30
0.0
 10
3.134574803149606
 20
2.917295275590551
 30
0.0
 10
3.134283464566929
 20
2.938015748031496
 30
0.0
 10
3.150866141732283
 20
2.955196850393701
 30
0.0
 10
3.171437007874016
 20
2.955492125984252
 30
0.0
  0
SPLINE
  5
73
330
1F
100
AcDbEntity
  8
Layer 1
 62
   252
370
    18
100
AcDbSpline
210
0.0
220
0.0
230
1.0
 70
    11
 71
     3
 72
    36
 73
    32
 74
     0
 42
0.0000000001
 43
0.0000000001
 40
0.0
 40
0.0
 40
0.0
 40
0.0
 40
0.125
 40
0.125
 40
0.125
 40
0.125
 40
0.25
 40
0.25
 40
0.25
 40
0.25
 40
0.375
 40
0.375
 40
0.375
 40
0.375
 40
0.5
 40
0.5
 40
0.5
 40
0.5
 40
0.625
 40
0.625
 40
0.625
 40
0.625
 40
0.75
 40
0.75
 40
0.75
 40
0.75
 40
0.875
 40
0.875
 40
0.875
 40
0.875
 40
1.0
 40
1.0
 40
1.0
 40
1.0
 10
0.3851653543307086
 20
3.016779527559055
 30
0.0
 10
0.3851653543307086
 20
3.016779527559055
 30
0.0
 10
0.3851653543307086
 20
3.016779527559055
 30
0.0
 10
0.3851653543307086
 20
3.016779527559055
 30
0.0
 10
0.3851653543307086
 20
3.016779527559055
 30
0.0
 10
0.405736220472441
 20
3.017074803149606
 30
0.0
 10
0.4228070866141732
 20
3.000307086614173
 30
0.0
 10
0.4230984251968504
 20
2.979649606299212
 30
0.0
 10
0.4230984251968504
 20
2.979649606299212
 30
0.0
 10
0.4230984251968504
 20
2.979649606299212
 30
0.0
 10
0.4307047244094488
 20
2.443818897637795
 30
0.0
 10
0.4307047244094488
 20
2.443818897637795
 30
0.0
 10
0.4307047244094488
 20
2.443818897637795
 30
0.0
 10
0.430992125984252
 20
2.42315748031496
 30
0.0
 10
0.4144055118110236
 20
2.405917322834646
 30
0.0
 10
0.3938385826771654
 20
2.405622047244095
 30
0.0
 10
0.3938385826771654
 20
2.405622047244095
 30
0.0
 10
0.3938385826771654
 20
2.405622047244095
 30
0.0
 10
0.3938385826771654
 20
2.405622047244095
 30
0.0
 10
0.3938385826771654
 20
2.405622047244095
 30
0.0
 10
0.3938385826771654
 20
2.405622047244095
 30
0.0
 10
0.3732677165354331
 20
2.405326771653543
 30
0.0
 10
0.3561968503937008
 20
2.42203937007874
 30
0.0
 10
0.3559055118110236
 20
2.442751968503937
 30
0.0
 10
0.3559055118110236
 20
2.442751968503937
 30
0.0
 10
0.3559055118110236
 20
2.442751968503937
 30
0.0
 10
0.3483031496062992
 20
2.978590551181102
 30
0.0
 10
0.3483031496062992
 20
2.978590551181102
 30
0.0
 10
0.3483031496062992
 20
2.978590551181102
 30
0.0
 10
0.348007874015748
 20
2.999303149606299
 30
0.0
 10
0.3645944881889764
 20
3.016488188976378
 30
0.0
 10
0.3851653543307086
 20
3.016779527559055
 30
0.0
  0
SPLINE
  5
74
330
1F
100
AcDbEntity
  8
Layer 1
 62
   252
370
    18
100
AcDbSpline
210
0.0
220
0.0
230
1.0
 70
    11
 71
     3
 72
    36
 73
    32
 74
     0
 42
0.0000000001
 43
0.0000000001
 40
0.0
 40
0.0
 40
0.0
 40
0.0
 40
0.125
 40
0.125
 40
0.125
 40
0.125
 40
0.25
 40
0.25
 40
0.25
 40
0.25
 40
0.375
 40
0.375
 40
0.375
 40
0.375
 40
0.5
 40
0.5
 40
0.5
 40
0.5
 40
0.625
 40
0.625
 40
0.625
 40
0.625
 40
0.75
 40
0.75
 40
0.75
 40
0.75
 40
0.875
 40
0.875
 40
0.875
 40
0.875
 40
1.0
 40
1.0
 40
1.0
 40
1.0
 10
-0.6497007874015748
 20
2.310102362204725
 30
0.0
 10
-0.6497007874015748
 20
2.310102362204725
 30
0.0
 10
-0.6497007874015748
 20
2.310102362204725
 30
0.0
 10
-0.6497007874015748
 20
2.310102362204725
 30
0.0
 10
-0.6497007874015748
 20
2.310102362204725
 30
0.0
 10
-0.649996062992126
 20
2.330673228346457
 30
0.0
 10
-0.633259842519685
 20
2.347744094488189
 30
0.0
 10
-0.6125669291338582
 20
2.348031496062992
 30
0.0
 10
-0.6125669291338582
 20
2.348031496062992
 30
0.0
 10
-0.6125669291338582
 20
2.348031496062992
 30
0.0
 10
0.0909685039370079
 20
2.358015748031496
 30
0.0
 10
0.0909685039370079
 20
2.358015748031496
 30
0.0
 10
0.0909685039370079
 20
2.358015748031496
 30
0.0
 10
0.1116496062992126
 20
2.358311023622047
 30
0.0
 10
0.1288622047244095
 20
2.341724409448819
 30
0.0
 10
0.1291496062992126
 20
2.321153543307087
 30
0.0
 10
0.1291496062992126
 20
2.321153543307087
 30
0.0
 10
0.1291496062992126
 20
2.321153543307087
 30
0.0
 10
0.1291496062992126
 20
2.321153543307087
 30
0.0
 10
0.1291496062992126
 20
2.321153543307087
 30
0.0
 10
0.1291496062992126
 20
2.321153543307087
 30
0.0
 10
0.1294488188976378
 20
2.300590551181102
 30
0.0
 10
0.112740157480315
 20
2.28351968503937
 30
0.0
 10
0.0920236220472441
 20
2.283220472440945
 30
0.0
 10
0.0920236220472441
 20
2.283220472440945
 30
0.0
 10
0.0920236220472441
 20
2.283220472440945
 30
0.0
 10
-0.6115118110236221
 20
2.273236220472441
 30
0.0
 10
-0.6115118110236221
 20
2.273236220472441
 30
0.0
 10
-0.6115118110236221
 20
2.273236220472441
 30
0.0
 10
-0.6322244094488189
 20
2.272944881889764
 30
0.0
 10
-0.6494133858267717
 20
2.289531496062992
 30
0.0
 10
-0.6497007874015748
 20
2.310102362204725
 30
0.0
  0
SPLINE
  5
75
330
1F
100
AcDbEntity
  8
Layer 1
 62
   252
370
    18
100
AcDbSpline
210
0.0
220
0.0
230
1.0
 70
    11
 71
     3
 72
    36
 73
    32
 74
     0
 42
0.0000000001
 43
0.0000000001
 40
0.0
 40
0.0
 40
0.0
 40
0.0
 40
0.125
 40
0.125
 40
0.125
 40
0.125
 40
0.25
 40
0.25
 40
0.25
 40
0.25
 40
0.375
 40
0.375
 40
0.375
 40
0.375
 40
0.5
 40
0.5
 40
0.5
 40
0.5
 40
0.625
 40
0.625
 40
0.625
 40
0.625
 40
0.75
 40
0.75
 40
0.75
 40
0.75
 40
0.875
 40
0.875
 40
0.875
 40
0.875
 40
1.0
 40
1.0
 40
1.0
 40
1.0
 10
1.799614173228346
 20
3.007527559055118
 30
0.0
 10
1.799614173228346
 20
3.007527559055118
 30
0.0
 10
1.799614173228346
 20
3.007527559055118
 30
0.0
 10
1.799614173228346
 20
3.007527559055118
 30
0.0
 10
1.799614173228346
 20
3.007527559055118
 30
0.0
 10
1.851551181102362
 20
3.008275590551181
 30
0.0
 10
1.894338582677165
 20
2.987456692913386
 30
0.0
 10
1.894708661417323
 20
2.961370078740158
 30
0.0
 10
1.894708661417323
 20
2.961370078740158
 30
0.0
 10
1.894708661417323
 20
2.961370078740158
 30
0.0
 10
1.898472440944882
 20
2.696161417322835
 30
0.0
 10
1.898472440944882
 20
2.696161417322835
 30
0.0
 10
1.898472440944882
 20
2.696161417322835
 30
0.0
 10
1.898846456692913
 20
2.670074803149606
 30
0.0
 10
1.856657480314961
 20
2.648051181102362
 30
0.0
 10
1.804728346456693
 20
2.647318897637795
 30
0.0
 10
1.804728346456693
 20
2.647318897637795
 30
0.0
 10
1.804728346456693
 20
2.647318897637795
 30
0.0
 10
1.804728346456693
 20
2.647318897637795
 30
0.0
 10
1.804728346456693
 20
2.647318897637795
 30
0.0
 10
1.804728346456693
 20
2.647318897637795
 30
0.0
 10
1.752795275590551
 20
2.646578740157481
 30
0.0
 10
1.71
 20
2.667354330708661
 30
0.0
 10
1.709629921259842
 20
2.69348031496063
 30
0.0
 10
1.709629921259842
 20
2.69348031496063
 30
0.0
 10
1.709629921259842
 20
2.69348031496063
 30
0.0
 10
1.705866141732284
 20
2.958688976377953
 30
0.0
 10
1.705866141732284
 20
2.958688976377953
 30
0.0
 10
1.705866141732284
 20
2.958688976377953
 30
0.0
 10
1.7055
 20
2.984818897637795
 30
0.0
 10
1.747681102362205
 20
3.006795275590551
 30
0.0
 10
1.799614173228346
 20
3.007527559055118
 30
0.0
  0
SPLINE
  5
76
330
1F
100
AcDbEntity
  8
Layer 1
 62
   252
370
    18
100
AcDbSpline
210
0.0
220
0.0
230
1.0
 70
    11
 71
     3
 72
    36
 73
    32
 74
     0
 42
0.0000000001
 43
0.0000000001
 40
0.0
 40
0.0
 40
0.0
 40
0.0
 40
0.125
 40
0.125
 40
0.125
 40
0.125
 40
0.25
 40
0.25
 40
0.25
 40
0.25
 40
0.375
 40
0.375
 40
0.375
 40
0.375
 40
0.5
 40
0.5
 40
0.5
 40
0.5
 40
0.625
 40
0.625
 40
0.625
 40
0.625
 40
0.75
 40
0.75
 40
0.75
 40
0.75
 40
0.875
 40
0.875
 40
0.875
 40
0.875
 40
1.0
 40
1.0
 40
1.0
 40
1.0
 10
1.461303149606299
 20
3.002732283464567
 30
0.0
 10
1.461303149606299
 20
3.002732283464567
 30
0.0
 10
1.461303149606299
 20
3.002732283464567
 30
0.0
 10
1.461303149606299
 20
3.002732283464567
 30
0.0
 10
1.461303149606299
 20
3.002732283464567
 30
0.0
 10
1.513236220472441
 20
3.003468503937008
 30
0.0
 10
1.556027559055118
 20
2.982649606299212
 30
0.0
 10
1.556397637795276
 20
2.956562992125984
 30
0.0
 10
1.556397637795276
 20
2.956562992125984
 30
0.0
 10
1.556397637795276
 20
2.956562992125984
 30
0.0
 10
1.560157480314961
 20
2.691354330708661
 30
0.0
 10
1.560157480314961
 20
2.691354330708661
 30
0.0
 10
1.560157480314961
 20
2.691354330708661
 30
0.0
 10
1.560531496062992
 20
2.665275590551181
 30
0.0
 10
1.518346456692913
 20
2.643255905511811
 30
0.0
 10
1.466417322834646
 20
2.642515748031496
 30
0.0
 10
1.466417322834646
 20
2.642515748031496
 30
0.0
 10
1.466417322834646
 20
2.642515748031496
 30
0.0
 10
1.466417322834646
 20
2.642515748031496
 30
0.0
 10
1.466417322834646
 20
2.642515748031496
 30
0.0
 10
1.466417322834646
 20
2.642515748031496
 30
0.0
 10
1.41448031496063
 20
2.641779527559055
 30
0.0
 10
1.371688976377953
 20
2.662547244094488
 30
0.0
 10
1.371318897637795
 20
2.688681102362205
 30
0.0
 10
1.371318897637795
 20
2.688681102362205
 30
0.0
 10
1.371318897637795
 20
2.688681102362205
 30
0.0
 10
1.367551181102362
 20
2.953889763779527
 30
0.0
 10
1.367551181102362
 20
2.953889763779527
 30
0.0
 10
1.367551181102362
 20
2.953889763779527
 30
0.0
 10
1.367181102362205
 20
2.980015748031496
 30
0.0
 10
1.409366141732283
 20
3.001996062992126
 30
0.0
 10
1.461303149606299
 20
3.002732283464567
 30
0.0
  0
SPLINE
  5
77
330
1F
100
AcDbEntity
  8
Layer 1
 62
   252
370
    18
100
AcDbSpline
210
0.0
220
0.0
230
1.0
 70
    11
 71
     3
 72
    36
 73
    32
 74
     0
 42
0.0000000001
 43
0.0000000001
 40
0.0
 40
0.0
 40
0.0
 40
0.0
 40
0.125
 40
0.125
 40
0.125
 40
0.125
 40
0.25
 40
0.25
 40
0.25
 40
0.25
 40
0.375
 40
0.375
 40
0.375
 40
0.375
 40
0.5
 40
0.5
 40
0.5
 40
0.5
 40
0.625
 40
0.625
 40
0.625
 40
0.625
 40
0.75
 40
0.75
 40
0.75
 40
0.75
 40
0.875
 40
0.875
 40
0.875
 40
0.875
 40
1.0
 40
1.0
 40
1.0
 40
1.0
 10
1.124173228346457
 20
2.997948818897638
 30
0.0
 10
1.124173228346457
 20
2.997948818897638
 30
0.0
 10
1.124173228346457
 20
2.997948818897638
 30
0.0
 10
1.124173228346457
 20
2.997948818897638
 30
0.0
 10
1.124173228346457
 20
2.997948818897638
 30
0.0
 10
1.176102362204724
 20
2.998681102362205
 30
0.0
 10
1.218893700787402
 20
2.977870078740157
 30
0.0
 10
1.219267716535433
 20
2.951783464566929
 30
0.0
 10
1.219267716535433
 20
2.951783464566929
 30
0.0
 10
1.219267716535433
 20
2.951783464566929
 30
0.0
 10
1.223027559055118
 20
2.686574803149606
 30
0.0
 10
1.223027559055118
 20
2.686574803149606
 30
0.0
 10
1.223027559055118
 20
2.686574803149606
 30
0.0
 10
1.223397637795276
 20
2.660496062992126
 30
0.0
 10
1.181216535433071
 20
2.638468503937008
 30
0.0
 10
1.129283464566929
 20
2.637732283464567
 30
0.0
 10
1.129283464566929
 20
2.637732283464567
 30
0.0
 10
1.129283464566929
 20
2.637732283464567
 30
0.0
 10
1.129283464566929
 20
2.637732283464567
 30
0.0
 10
1.129283464566929
 20
2.637732283464567
 30
0.0
 10
1.129283464566929
 20
2.637732283464567
 30
0.0
 10
1.077346456692913
 20
2.636992125984252
 30
0.0
 10
1.03455905511811
 20
2.657767716535433
 30
0.0
 10
1.034185039370079
 20
2.683893700787402
 30
0.0
 10
1.034185039370079
 20
2.683893700787402
 30
0.0
 10
1.034185039370079
 20
2.683893700787402
 30
0.0
 10
1.03042125984252
 20
2.949106299212598
 30
0.0
 10
1.03042125984252
 20
2.949106299212598
 30
0.0
 10
1.03042125984252
 20
2.949106299212598
 30
0.0
 10
1.030051181102362
 20
2.975232283464567
 30
0.0
 10
1.072240157480315
 20
2.997208661417323
 30
0.0
 10
1.124173228346457
 20
2.997948818897638
 30
0.0
  0
SPLINE
  5
78
330
1F
100
AcDbEntity
  8
Layer 1
 62
   252
370
    18
100
AcDbSpline
210
0.0
220
0.0
230
1.0
 70
    11
 71
     3
 72
    36
 73
    32
 74
     0
 42
0.0000000001
 43
0.0000000001
 40
0.0
 40
0.0
 40
0.0
 40
0.0
 40
0.125
 40
0.125
 40
0.125
 40
0.125
 40
0.25
 40
0.25
 40
0.25
 40
0.25
 40
0.375
 40
0.375
 40
0.375
 40
0.375
 40
0.5
 40
0.5
 40
0.5
 40
0.5
 40
0.625
 40
0.625
 40
0.625
 40
0.625
 40
0.75
 40
0.75
 40
0.75
 40
0.75
 40
0.875
 40
0.875
 40
0.875
 40
0.875
 40
1.0
 40
1.0
 40
1.0
 40
1.0
 10
0.7576535433070866
 20
3.001145669291339
 30
0.0
 10
0.7576535433070866
 20
3.001145669291339
 30
0.0
 10
0.7576535433070866
 20
3.001145669291339
 30
0.0
 10
0.7576535433070866
 20
3.001145669291339
 30
0.0
 10
0.7576535433070866
 20
3.001145669291339
 30
0.0
 10
0.8095826771653544
 20
3.001877952755906
 30
0.0
 10
0.8523740157480315
 20
2.981062992125984
 30
0.0
 10
0.852744094488189
 20
2.95498031496063
 30
0.0
 10
0.852744094488189
 20
2.95498031496063
 30
0.0
 10
0.852744094488189
 20
2.95498031496063
 30
0.0
 10
0.8565118110236221
 20
2.689771653543307
 30
0.0
 10
0.8565118110236221
 20
2.689771653543307
 30
0.0
 10
0.8565118110236221
 20
2.689771653543307
 30
0.0
 10
0.8568779527559055
 20
2.663685039370079
 30
0.0
 10
0.8146968503937008
 20
2.641661417322835
 30
0.0
 10
0.7627677165354331
 20
2.64092125984252
 30
0.0
 10
0.7627677165354331
 20
2.64092125984252
 30
0.0
 10
0.7627677165354331
 20
2.64092125984252
 30
0.0
 10
0.7627677165354331
 20
2.64092125984252
 30
0.0
 10
0.7627677165354331
 20
2.64092125984252
 30
0.0
 10
0.7627677165354331
 20
2.64092125984252
 30
0.0
 10
0.7108267716535434
 20
2.640188976377953
 30
0.0
 10
0.6680354330708661
 20
2.660964566929134
 30
0.0
 10
0.6676653543307086
 20
2.687086614173228
 30
0.0
 10
0.6676653543307086
 20
2.687086614173228
 30
0.0
 10
0.6676653543307086
 20
2.687086614173228
 30
0.0
 10
0.6639055118110236
 20
2.952295275590551
 30
0.0
 10
0.6639055118110236
 20
2.952295275590551
 30
0.0
 10
0.6639055118110236
 20
2.952295275590551
 30
0.0
 10
0.6635314960629921
 20
2.978421259842519
 30
0.0
 10
0.7057165354330709
 20
3.000405511811024
 30
0.0
 10
0.7576535433070866
 20
3.001145669291339
 30
0.0
  0
SPLINE
  5
79
330
1F
100
AcDbEntity
  8
Layer 1
 62
   252
370
    18
100
AcDbSpline
210
0.0
220
0.0
230
1.0
 70
    11
 71
     3
 72
    20
 73
    16
 74
     0
 42
0.0000000001
 43
0.0000000001
 40
0.0
 40
0.0
 40
0.0
 40
0.0
 40
0.25
 40
0.25
 40
0.25
 40
0.25
 40
0.5
 40
0.5
 40
0.5
 40
0.5
 40
0.75
 40
0.75
 40
0.75
 40
0.75
 40
1.0
 40
1.0
 40
1.0
 40
1.0
 10
-3.357177165354331
 20
2.147220472440945
 30
0.0
 10
-3.303830708661417
 20
2.147976377952756
 30
0.0
 10
-3.259948818897638
 20
2.105330708661417
 30
0.0
 10
-3.259192913385827
 20
2.051984251968504
 30
0.0
 10
-3.259192913385827
 20
2.051984251968504
 30
0.0
 10
-3.258444881889764
 20
1.99863779527559
 30
0.0
 10
-3.301090551181102
 20
1.954763779527559
 30
0.0
 10
-3.354433070866142
 20
1.954003937007874
 30
0.0
 10
-3.354433070866142
 20
1.954003937007874
 30
0.0
 10
-3.407779527559055
 20
1.953248031496063
 30
0.0
 10
-3.451657480314961
 20
1.995897637795276
 30
0.0
 10
-3.452417322834646
 20
2.049244094488189
 30
0.0
 10
-3.452417322834646
 20
2.049244094488189
 30
0.0
 10
-3.453165354330709
 20
2.102586614173228
 30
0.0
 10
-3.410515748031496
 20
2.146464566929134
 30
0.0
 10
-3.357177165354331
 20
2.147220472440945
 30
0.0
  0
SPLINE
  5
7A
330
1F
100
AcDbEntity
  8
Layer 1
 62
   252
370
    18
100
AcDbSpline
210
0.0
220
0.0
230
1.0
 70
    11
 71
     3
 72
   160
 73
   156
 74
     0
 42
0.0000000001
 43
0.0000000001
 40
0.0
 40
0.0
 40
0.0
 40
0.0
 40
0.0256410256410256
 40
0.0256410256410256
 40
0.0256410256410256
 40
0.0256410256410256
 40
0.0512820512820513
 40
0.0512820512820513
 40
0.0512820512820513
 40
0.0512820512820513
 40
0.0769230769230769
 40
0.0769230769230769
 40
0.0769230769230769
 40
0.0769230769230769
 40
0.1025641025641026
 40
0.1025641025641026
 40
0.1025641025641026
 40
0.1025641025641026
 40
0.1282051282051282
 40
0.1282051282051282
 40
0.1282051282051282
 40
0.1282051282051282
 40
0.1538461538461538
 40
0.1538461538461538
 40
0.1538461538461538
 40
0.1538461538461538
 40
0.1794871794871795
 40
0.1794871794871795
 40
0.1794871794871795
 40
0.1794871794871795
 40
0.2051282051282051
 40
0.2051282051282051
 40
0.2051282051282051
 40
0.2051282051282051
 40
0.2307692307692307
 40
0.2307692307692307
 40
0.2307692307692307
 40
0.2307692307692307
 40
0.2564102564102564
 40
0.2564102564102564
 40
0.2564102564102564
 40
0.2564102564102564
 40
0.282051282051282
 40
0.282051282051282
 40
0.282051282051282
 40
0.282051282051282
 40
0.3076923076923077
 40
0.3076923076923077
 40
0.3076923076923077
 40
0.3076923076923077
 40
0.3333333333333334
 40
0.3333333333333334
 40
0.3333333333333334
 40
0.3333333333333334
 40
0.358974358974359
 40
0.358974358974359
 40
0.358974358974359
 40
0.358974358974359
 40
0.3846153846153847
 40
0.3846153846153847
 40
0.3846153846153847
 40
0.3846153846153847
 40
0.4102564102564104
 40
0.4102564102564104
 40
0.4102564102564104
 40
0.4102564102564104
 40
0.435897435897436
 40
0.435897435897436
 40
0.435897435897436
 40
0.435897435897436
 40
0.4615384615384617
 40
0.4615384615384617
 40
0.4615384615384617
 40
0.4615384615384617
 40
0.4871794871794873
 40
0.4871794871794873
 40
0.4871794871794873
 40
0.4871794871794873
 40
0.512820512820513
 40
0.512820512820513
 40
0.512820512820513
 40
0.512820512820513
 40
0.5384615384615387
 40
0.5384615384615387
 40
0.5384615384615387
 40
0.5384615384615387
 40
0.5641025641025643
 40
0.5641025641025643
 40
0.5641025641025643
 40
0.5641025641025643
 40
0.58974358974359
 40
0.58974358974359
 40
0.58974358974359
 40
0.58974358974359
 40
0.6153846153846156
 40
0.6153846153846156
 40
0.6153846153846156
 40
0.6153846153846156
 40
0.6410256410256413
 40
0.6410256410256413
 40
0.6410256410256413
 40
0.6410256410256413
 40
0.666666666666667
 40
0.666666666666667
 40
0.666666666666667
 40
0.666666666666667
 40
0.6923076923076926
 40
0.6923076923076926
 40
0.6923076923076926
 40
0.6923076923076926
 40
0.7179487179487183
 40
0.7179487179487183
 40
0.7179487179487183
 40
0.7179487179487183
 40
0.743589743589744
 40
0.743589743589744
 40
0.743589743589744
 40
0.743589743589744
 40
0.7692307692307696
 40
0.7692307692307696
 40
0.7692307692307696
 40
0.7692307692307696
 40
0.7948717948717953
 40
0.7948717948717953
 40
0.7948717948717953
 40
0.7948717948717953
 40
0.8205128205128209
 40
0.8205128205128209
 40
0.8205128205128209
 40
0.8205128205128209
 40
0.8461538461538466
 40
0.8461538461538466
 40
0.8461538461538466
 40
0.8461538461538466
 40
0.8717948717948723
 40
0.8717948717948723
 40
0.8717948717948723
 40
0.8717948717948723
 40
0.8974358974358979
 40
0.8974358974358979
 40
0.8974358974358979
 40
0.8974358974358979
 40
0.9230769230769236
 40
0.9230769230769236
 40
0.9230769230769236
 40
0.9230769230769236
 40
0.9487179487179492
 40
0.9487179487179492
 40
0.9487179487179492
 40
0.9487179487179492
 40
0.9743589743589749
 40
0.9743589743589749
 40
0.9743589743589749
 40
0.9743589743589749
 40
1.0
 40
1.0
 40
1.0
 40
1.0
 10
1.135220472440945
 20
3.293086614173228
 30
0.0
 10
1.135220472440945
 20
3.293086614173228
 30
0.0
 10
0.3619606299212598
 20
3.274818897637795
 30
0.0
 10
0.3619606299212598
 20
3.274818897637795
 30
0.0
 10
0.3619606299212598
 20
3.274818897637795
 30
0.0
 10
0.3619606299212598
 20
3.274818897637795
 30
0.0
 10
0.3552913385826771
 20
3.745145669291339
 30
0.0
 10
0.3552913385826771
 20
3.745145669291339
 30
0.0
 10
0.3552913385826771
 20
3.745145669291339
 30
0.0
 10
0.354996062992126
 20
3.765858267716535
 30
0.0
 10
0.3379330708661417
 20
3.782566929133858
 30
0.0
 10
0.3173622047244095
 20
3.782271653543307
 30
0.0
 10
0.3173622047244095
 20
3.782271653543307
 30
0.0
 10
0.3173622047244095
 20
3.782271653543307
 30
0.0
 10
0.3173622047244095
 20
3.782271653543307
 30
0.0
 10
0.3173622047244095
 20
3.782271653543307
 30
0.0
 10
0.3173622047244095
 20
3.782271653543307
 30
0.0
 10
0.2967874015748032
 20
3.781984251968504
 30
0.0
 10
0.2802047244094488
 20
3.764791338582677
 30
0.0
 10
0.280496062992126
 20
3.744082677165354
 30
0.0
 10
0.280496062992126
 20
3.744082677165354
 30
0.0
 10
0.280496062992126
 20
3.744082677165354
 30
0.0
 10
0.2871811023622047
 20
3.273055118110236
 30
0.0
 10
0.2871811023622047
 20
3.273055118110236
 30
0.0
 10
0.2871811023622047
 20
3.273055118110236
 30
0.0
 10
0.2871811023622047
 20
3.273055118110236
 30
0.0
 10
0.2448661417322835
 20
3.272047244094488
 30
0.0
 10
0.2448661417322835
 20
3.272047244094488
 30
0.0
 10
0.2448661417322835
 20
3.272047244094488
 30
0.0
 10
0.1205748031496063
 20
3.276259842519685
 30
0.0
 10
0.0437047244094488
 20
3.327944881889764
 30
0.0
 10
0.0240629921259843
 20
3.436964566929134
 30
0.0
 10
0.0240629921259843
 20
3.436964566929134
 30
0.0
 10
0.0240629921259843
 20
3.436964566929134
 30
0.0
 10
0.0337086614173228
 20
3.941251968503937
 30
0.0
 10
0.0337086614173228
 20
3.941251968503937
 30
0.0
 10
0.0337086614173228
 20
3.941251968503937
 30
0.0
 10
0.0337086614173228
 20
3.941251968503937
 30
0.0
 10
-5.782909448818898
 20
4.093976377952756
 30
0.0
 10
-5.782909448818898
 20
4.093976377952756
 30
0.0
 10
-5.782909448818898
 20
4.093976377952756
 30
0.0
 10
-5.782909448818898
 20
4.093976377952756
 30
0.0
 10
-5.787157480314961
 20
3.799830708661417
 30
0.0
 10
-5.787157480314961
 20
3.799830708661417
 30
0.0
 10
-5.787157480314961
 20
3.799830708661417
 30
0.0
 10
-5.787157480314961
 20
3.799830708661417
 30
0.0
 10
-6.804248031496063
 20
3.827405511811024
 30
0.0
 10
-6.804248031496063
 20
3.827405511811024
 30
0.0
 10
-6.804248031496063
 20
3.827405511811024
 30
0.0
 10
-6.865220472440945
 20
3.830811023622047
 30
0.0
 10
-6.906767716535433
 20
3.810606299212599
 30
0.0
 10
-6.906842519685039
 20
3.767133858267717
 30
0.0
 10
-6.906842519685039
 20
3.767133858267717
 30
0.0
 10
-6.906842519685039
 20
3.767133858267717
 30
0.0
 10
-6.921437007874016
 20
3.203964566929134
 30
0.0
 10
-6.921437007874016
 20
3.203964566929134
 30
0.0
 10
-6.921437007874016
 20
3.203964566929134
 30
0.0
 10
-6.92051968503937
 20
3.151814960629921
 30
0.0
 10
-6.952677165354331
 20
3.125299212598425
 30
0.0
 10
-7.021173228346457
 20
3.126929133858268
 30
0.0
 10
-7.021173228346457
 20
3.126929133858268
 30
0.0
 10
-7.021173228346457
 20
3.126929133858268
 30
0.0
 10
-7.903248031496063
 20
3.114409448818898
 30
0.0
 10
-7.903248031496063
 20
3.114409448818898
 30
0.0
 10
-7.903248031496063
 20
3.114409448818898
 30
0.0
 10
-7.966893700787401
 20
3.114633858267716
 30
0.0
 10
-7.995681102362204
 20
3.107850393700788
 30
0.0
 10
-7.99494094488189
 20
3.062692913385827
 30
0.0
 10
-7.99494094488189
 20
3.062692913385827
 30
0.0
 10
-7.99494094488189
 20
3.062692913385827
 30
0.0
 10
-7.991956692913385
 20
2.996051181102362
 30
0.0
 10
-7.991956692913385
 20
2.996051181102362
 30
0.0
 10
-7.991956692913385
 20
2.996051181102362
 30
0.0
 10
-7.991956692913385
 20
2.996051181102362
 30
0.0
 10
-9.142133858267716
 20
3.004913385826772
 30
0.0
 10
-9.142133858267716
 20
3.004913385826772
 30
0.0
 10
-9.142133858267716
 20
3.004913385826772
 30
0.0
 10
-9.142133858267716
 20
3.004913385826772
 30
0.0
 10
-9.141496062992125
 20
3.107759842519685
 30
0.0
 10
-9.141496062992125
 20
3.107759842519685
 30
0.0
 10
-9.141496062992125
 20
3.107759842519685
 30
0.0
 10
-9.141830708661418
 20
3.144901574803149
 30
0.0
 10
-9.15398031496063
 20
3.163618110236221
 30
0.0
 10
-9.177972440944881
 20
3.163905511811024
 30
0.0
 10
-9.177972440944881
 20
3.163905511811024
 30
0.0
 10
-9.177972440944881
 20
3.163905511811024
 30
0.0
 10
-10.11622440944882
 20
3.175775590551181
 30
0.0
 10
-10.11622440944882
 20
3.175775590551181
 30
0.0
 10
-10.11622440944882
 20
3.175775590551181
 30
0.0
 10
-10.16893307086614
 20
3.175681102362205
 30
0.0
 10
-10.19751181102362
 20
3.197562992125984
 30
0.0
 10
-10.19697244094488
 20
3.24598031496063
 30
0.0
 10
-10.19697244094488
 20
3.24598031496063
 30
0.0
 10
-10.19697244094488
 20
3.24598031496063
 30
0.0
 10
-10.18502755905512
 20
3.735137795275591
 30
0.0
 10
-10.18502755905512
 20
3.735137795275591
 30
0.0
 10
-10.18502755905512
 20
3.735137795275591
 30
0.0
 10
-10.18472834645669
 20
3.771413385826772
 30
0.0
 10
-10.20051181102362
 20
3.786212598425197
 30
0.0
 10
-10.22359842519685
 20
3.791248031496063
 30
0.0
 10
-10.22359842519685
 20
3.791248031496063
 30
0.0
 10
-10.22359842519685
 20
3.791248031496063
 30
0.0
 10
-10.53160236220472
 20
3.795759842519685
 30
0.0
 10
-10.53160236220472
 20
3.795759842519685
 30
0.0
 10
-10.53160236220472
 20
3.795759842519685
 30
0.0
 10
-10.53160236220472
 20
3.795759842519685
 30
0.0
 10
-10.53352755905512
 20
3.931263779527559
 30
0.0
 10
-10.53352755905512
 20
3.931263779527559
 30
0.0
 10
-10.53352755905512
 20
3.931263779527559
 30
0.0
 10
-10.5338188976378
 20
3.951976377952756
 30
0.0
 10
-10.55088976377953
 20
3.968685039370079
 30
0.0
 10
-10.57145669291339
 20
3.968393700787402
 30
0.0
 10
-10.57145669291339
 20
3.968393700787402
 30
0.0
 10
-10.57145669291339
 20
3.968393700787402
 30
0.0
 10
-10.57145669291339
 20
3.968393700787402
 30
0.0
 10
-10.57145669291339
 20
3.968393700787402
 30
0.0
 10
-10.57145669291339
 20
3.968393700787402
 30
0.0
 10
-10.59202755905512
 20
3.968106299212598
 30
0.0
 10
-10.60861023622047
 20
3.950846456692914
 30
0.0
 10
-10.6083188976378
 20
3.930196850393701
 30
0.0
 10
-10.6083188976378
 20
3.930196850393701
 30
0.0
 10
-10.6083188976378
 20
3.930196850393701
 30
0.0
 10
-10.60642913385827
 20
3.796858267716535
 30
0.0
 10
-10.60642913385827
 20
3.796858267716535
 30
0.0
 10
-10.60642913385827
 20
3.796858267716535
 30
0.0
 10
-10.60642913385827
 20
3.796858267716535
 30
0.0
 10
-10.66020078740157
 20
3.797645669291339
 30
0.0
 10
-10.66020078740157
 20
3.797645669291339
 30
0.0
 10
-10.66020078740157
 20
3.797645669291339
 30
0.0
 10
-10.73803937007874
 20
3.794720472440945
 30
0.0
 10
-10.77308267716535
 20
3.824929133858268
 30
0.0
 10
-10.77886220472441
 20
3.877807086614173
 30
0.0
 10
-10.77886220472441
 20
3.877807086614173
 30
0.0
 10
-10.77886220472441
 20
3.877807086614173
 30
0.0
 10
-10.76255905511811
 20
4.318751968503937
 30
0.0
 10
-10.76255905511811
 20
4.318751968503937
 30
0.0
 10
-10.76255905511811
 20
4.318751968503937
 30
0.0
 10
-10.75677559055118
 20
4.369055118110237
 30
0.0
 10
-10.71367716535433
 20
4.390452755905512
 30
0.0
 10
-10.63707086614173
 20
4.385590551181102
 30
0.0
 10
-10.63707086614173
 20
4.385590551181102
 30
0.0
 10
-8.100098425196851
 20
4.460716535433071
 30
0.0
 10
-5.546212598425197
 20
4.656169291338583
 30
0.0
 10
-3.010866141732283
 20
4.583948818897638
 30
0.0
 10
-3.010866141732283
 20
4.583948818897638
 30
0.0
 10
-2.022429133858268
 20
4.555791338582678
 30
0.0
 10
-1.183161417322835
 20
4.483629921259842
 30
0.0
 10
-0.5014251968503937
 20
4.36286220472441
 30
0.0
 10
-0.5014251968503937
 20
4.36286220472441
 30
0.0
 10
0.0805393700787402
 20
4.234476377952756
 30
0.0
 10
0.6435984251968504
 20
4.069232283464567
 30
0.0
 10
1.039311023622047
 20
3.577909448818898
 30
0.0
 10
1.039311023622047
 20
3.577909448818898
 30
0.0
 10
1.197358267716536
 20
3.396409448818898
 30
0.0
 10
1.241728346456693
 20
3.292964566929134
 30
0.0
 10
1.135220472440945
 20
3.293086614173228
 30
0.0
  0
SPLINE
  5
7B
330
1F
100
AcDbEntity
  8
Layer 1
 62
   252
370
    18
100
AcDbSpline
210
0.0
220
0.0
230
1.0
 70
    11
 71
     3
 72
    36
 73
    32
 74
     0
 42
0.0000000001
 43
0.0000000001
 40
0.0
 40
0.0
 40
0.0
 40
0.0
 40
0.125
 40
0.125
 40
0.125
 40
0.125
 40
0.25
 40
0.25
 40
0.25
 40
0.25
 40
0.375
 40
0.375
 40
0.375
 40
0.375
 40
0.5
 40
0.5
 40
0.5
 40
0.5
 40
0.625
 40
0.625
 40
0.625
 40
0.625
 40
0.75
 40
0.75
 40
0.75
 40
0.75
 40
0.875
 40
0.875
 40
0.875
 40
0.875
 40
1.0
 40
1.0
 40
1.0
 40
1.0
 10
-10.08942125984252
 20
4.131570866141733
 30
0.0
 10
-10.08942125984252
 20
4.131570866141733
 30
0.0
 10
-10.08942125984252
 20
4.131570866141733
 30
0.0
 10
-10.08942125984252
 20
4.131570866141733
 30
0.0
 10
-10.08942125984252
 20
4.131570866141733
 30
0.0
 10
-10.08913385826772
 20
4.111
 30
0.0
 10
-10.10591338582677
 20
4.093929133858268
 30
0.0
 10
-10.12655511811024
 20
4.09363779527559
 30
0.0
 10
-10.12655511811024
 20
4.09363779527559
 30
0.0
 10
-10.12655511811024
 20
4.09363779527559
 30
0.0
 10
-10.47894488188976
 20
4.088641732283465
 30
0.0
 10
-10.47894488188976
 20
4.088641732283465
 30
0.0
 10
-10.47894488188976
 20
4.088641732283465
 30
0.0
 10
-10.49959448818898
 20
4.08834251968504
 30
0.0
 10
-10.51684645669291
 20
4.104933070866141
 30
0.0
 10
-10.51713779527559
 20
4.125503937007874
 30
0.0
 10
-10.51713779527559
 20
4.125503937007874
 30
0.0
 10
-10.51713779527559
 20
4.125503937007874
 30
0.0
 10
-10.51713779527559
 20
4.125503937007874
 30
0.0
 10
-10.51713779527559
 20
4.125503937007874
 30
0.0
 10
-10.51713779527559
 20
4.125503937007874
 30
0.0
 10
-10.51743307086614
 20
4.146066929133858
 30
0.0
 10
-10.50072047244094
 20
4.16313779527559
 30
0.0
 10
-10.48001181102362
 20
4.163433070866142
 30
0.0
 10
-10.48001181102362
 20
4.163433070866142
 30
0.0
 10
-10.48001181102362
 20
4.163433070866142
 30
0.0
 10
-10.12761811023622
 20
4.168433070866142
 30
0.0
 10
-10.12761811023622
 20
4.168433070866142
 30
0.0
 10
-10.12761811023622
 20
4.168433070866142
 30
0.0
 10
-10.10690157480315
 20
4.168728346456693
 30
0.0
 10
-10.08971653543307
 20
4.152137795275591
 30
0.0
 10
-10.08942125984252
 20
4.131570866141733
 30
0.0
  0
SPLINE
  5
7C
330
1F
100
AcDbEntity
  8
Layer 1
 62
   252
370
    18
100
AcDbSpline
210
0.0
220
0.0
230
1.0
 70
    11
 71
     3
 72
    36
 73
    32
 74
     0
 42
0.0000000001
 43
0.0000000001
 40
0.0
 40
0.0
 40
0.0
 40
0.0
 40
0.125
 40
0.125
 40
0.125
 40
0.125
 40
0.25
 40
0.25
 40
0.25
 40
0.25
 40
0.375
 40
0.375
 40
0.375
 40
0.375
 40
0.5
 40
0.5
 40
0.5
 40
0.5
 40
0.625
 40
0.625
 40
0.625
 40
0.625
 40
0.75
 40
0.75
 40
0.75
 40
0.75
 40
0.875
 40
0.875
 40
0.875
 40
0.875
 40
1.0
 40
1.0
 40
1.0
 40
1.0
 10
-9.92059842519685
 20
3.401566929133858
 30
0.0
 10
-9.92059842519685
 20
3.401566929133858
 30
0.0
 10
-9.92059842519685
 20
3.401566929133858
 30
0.0
 10
-9.92059842519685
 20
3.401566929133858
 30
0.0
 10
-9.92059842519685
 20
3.401566929133858
 30
0.0
 10
-9.941165354330709
 20
3.401271653543307
 30
0.0
 10
-9.958236220472442
 20
3.41803937007874
 30
0.0
 10
-9.958527559055119
 20
3.438696850393701
 30
0.0
 10
-9.958527559055119
 20
3.438696850393701
 30
0.0
 10
-9.958527559055119
 20
3.438696850393701
 30
0.0
 10
-9.966133858267716
 20
3.974527559055118
 30
0.0
 10
-9.966133858267716
 20
3.974527559055118
 30
0.0
 10
-9.966133858267716
 20
3.974527559055118
 30
0.0
 10
-9.966425196850393
 20
3.995188976377953
 30
0.0
 10
-9.949834645669291
 20
4.012429133858268
 30
0.0
 10
-9.929271653543307
 20
4.012724409448819
 30
0.0
 10
-9.929271653543307
 20
4.012724409448819
 30
0.0
 10
-9.929271653543307
 20
4.012724409448819
 30
0.0
 10
-9.929271653543307
 20
4.012724409448819
 30
0.0
 10
-9.929271653543307
 20
4.012724409448819
 30
0.0
 10
-9.929271653543307
 20
4.012724409448819
 30
0.0
 10
-9.908700787401575
 20
4.01301968503937
 30
0.0
 10
-9.891629921259842
 20
3.996307086614173
 30
0.0
 10
-9.89134251968504
 20
3.975594488188976
 30
0.0
 10
-9.89134251968504
 20
3.975594488188976
 30
0.0
 10
-9.89134251968504
 20
3.975594488188976
 30
0.0
 10
-9.883732283464568
 20
3.439755905511811
 30
0.0
 10
-9.883732283464568
 20
3.439755905511811
 30
0.0
 10
-9.883732283464568
 20
3.439755905511811
 30
0.0
 10
-9.883444881889764
 20
3.419043307086614
 30
0.0
 10
-9.900027559055118
 20
3.401858267716535
 30
0.0
 10
-9.92059842519685
 20
3.401566929133858
 30
0.0
  0
SPLINE
  5
7D
330
1F
100
AcDbEntity
  8
Layer 1
 62
   252
370
    18
100
AcDbSpline
210
0.0
220
0.0
230
1.0
 70
    11
 71
     3
 72
    36
 73
    32
 74
     0
 42
0.0000000001
 43
0.0000000001
 40
0.0
 40
0.0
 40
0.0
 40
0.0
 40
0.125
 40
0.125
 40
0.125
 40
0.125
 40
0.25
 40
0.25
 40
0.25
 40
0.25
 40
0.375
 40
0.375
 40
0.375
 40
0.375
 40
0.5
 40
0.5
 40
0.5
 40
0.5
 40
0.625
 40
0.625
 40
0.625
 40
0.625
 40
0.75
 40
0.75
 40
0.75
 40
0.75
 40
0.875
 40
0.875
 40
0.875
 40
0.875
 40
1.0
 40
1.0
 40
1.0
 40
1.0
 10
-7.134326771653543
 20
3.340275590551181
 30
0.0
 10
-7.134326771653543
 20
3.340275590551181
 30
0.0
 10
-7.134326771653543
 20
3.340275590551181
 30
0.0
 10
-7.134326771653543
 20
3.340275590551181
 30
0.0
 10
-7.134326771653543
 20
3.340275590551181
 30
0.0
 10
-7.154897637795275
 20
3.33998031496063
 30
0.0
 10
-7.171968503937008
 20
3.356748031496063
 30
0.0
 10
-7.172255905511811
 20
3.377405511811024
 30
0.0
 10
-7.172255905511811
 20
3.377405511811024
 30
0.0
 10
-7.172255905511811
 20
3.377405511811024
 30
0.0
 10
-7.179866141732283
 20
3.913244094488189
 30
0.0
 10
-7.179866141732283
 20
3.913244094488189
 30
0.0
 10
-7.179866141732283
 20
3.913244094488189
 30
0.0
 10
-7.180153543307086
 20
3.93390157480315
 30
0.0
 10
-7.163566929133858
 20
3.951141732283465
 30
0.0
 10
-7.142996062992126
 20
3.951437007874016
 30
0.0
 10
-7.142996062992126
 20
3.951437007874016
 30
0.0
 10
-7.142996062992126
 20
3.951437007874016
 30
0.0
 10
-7.142996062992126
 20
3.951437007874016
 30
0.0
 10
-7.142996062992126
 20
3.951437007874016
 30
0.0
 10
-7.142996062992126
 20
3.951437007874016
 30
0.0
 10
-7.122429133858268
 20
3.951728346456693
 30
0.0
 10
-7.105358267716535
 20
3.93501968503937
 30
0.0
 10
-7.105066929133859
 20
3.914303149606299
 30
0.0
 10
-7.105066929133859
 20
3.914303149606299
 30
0.0
 10
-7.105066929133859
 20
3.914303149606299
 30
0.0
 10
-7.09746062992126
 20
3.378472440944882
 30
0.0
 10
-7.09746062992126
 20
3.378472440944882
 30
0.0
 10
-7.09746062992126
 20
3.378472440944882
 30
0.0
 10
-7.097161417322835
 20
3.357751968503937
 30
0.0
 10
-7.113755905511811
 20
3.340570866141732
 30
0.0
 10
-7.134326771653543
 20
3.340275590551181
 30
0.0
  0
SPLINE
  5
7E
330
1F
100
AcDbEntity
  8
Layer 1
 62
   252
370
    18
100
AcDbSpline
210
0.0
220
0.0
230
1.0
 70
    11
 71
     3
 72
    36
 73
    32
 74
     0
 42
0.0000000001
 43
0.0000000001
 40
0.0
 40
0.0
 40
0.0
 40
0.0
 40
0.125
 40
0.125
 40
0.125
 40
0.125
 40
0.25
 40
0.25
 40
0.25
 40
0.25
 40
0.375
 40
0.375
 40
0.375
 40
0.375
 40
0.5
 40
0.5
 40
0.5
 40
0.5
 40
0.625
 40
0.625
 40
0.625
 40
0.625
 40
0.75
 40
0.75
 40
0.75
 40
0.75
 40
0.875
 40
0.875
 40
0.875
 40
0.875
 40
1.0
 40
1.0
 40
1.0
 40
1.0
 10
-6.09946062992126
 20
4.046956692913386
 30
0.0
 10
-6.09946062992126
 20
4.046956692913386
 30
0.0
 10
-6.09946062992126
 20
4.046956692913386
 30
0.0
 10
-6.09946062992126
 20
4.046956692913386
 30
0.0
 10
-6.09946062992126
 20
4.046956692913386
 30
0.0
 10
-6.099165354330709
 20
4.026389763779528
 30
0.0
 10
-6.11590157480315
 20
4.009318897637796
 30
0.0
 10
-6.136586614173228
 20
4.00901968503937
 30
0.0
 10
-6.136586614173228
 20
4.00901968503937
 30
0.0
 10
-6.136586614173228
 20
4.00901968503937
 30
0.0
 10
-6.840122047244095
 20
3.99903937007874
 30
0.0
 10
-6.840122047244095
 20
3.99903937007874
 30
0.0
 10
-6.840122047244095
 20
3.99903937007874
 30
0.0
 10
-6.860811023622047
 20
3.998748031496063
 30
0.0
 10
-6.878023622047244
 20
4.015330708661417
 30
0.0
 10
-6.878311023622047
 20
4.03590157480315
 30
0.0
 10
-6.878311023622047
 20
4.03590157480315
 30
0.0
 10
-6.878311023622047
 20
4.03590157480315
 30
0.0
 10
-6.878311023622047
 20
4.03590157480315
 30
0.0
 10
-6.878311023622047
 20
4.03590157480315
 30
0.0
 10
-6.878311023622047
 20
4.03590157480315
 30
0.0
 10
-6.878606299212598
 20
4.056472440944882
 30
0.0
 10
-6.861897637795275
 20
4.073543307086614
 30
0.0
 10
-6.841185039370079
 20
4.073838582677165
 30
0.0
 10
-6.841185039370079
 20
4.073838582677165
 30
0.0
 10
-6.841185039370079
 20
4.073838582677165
 30
0.0
 10
-6.137649606299212
 20
4.083818897637795
 30
0.0
 10
-6.137649606299212
 20
4.083818897637795
 30
0.0
 10
-6.137649606299212
 20
4.083818897637795
 30
0.0
 10
-6.116929133858267
 20
4.084114173228347
 30
0.0
 10
-6.099748031496063
 20
4.067527559055118
 30
0.0
 10
-6.09946062992126
 20
4.046956692913386
 30
0.0
  0
SPLINE
  5
7F
330
1F
100
AcDbEntity
  8
Layer 1
 62
   252
370
    18
100
AcDbSpline
210
0.0
220
0.0
230
1.0
 70
    11
 71
     3
 72
    36
 73
    32
 74
     0
 42
0.0000000001
 43
0.0000000001
 40
0.0
 40
0.0
 40
0.0
 40
0.0
 40
0.125
 40
0.125
 40
0.125
 40
0.125
 40
0.25
 40
0.25
 40
0.25
 40
0.25
 40
0.375
 40
0.375
 40
0.375
 40
0.375
 40
0.5
 40
0.5
 40
0.5
 40
0.5
 40
0.625
 40
0.625
 40
0.625
 40
0.625
 40
0.75
 40
0.75
 40
0.75
 40
0.75
 40
0.875
 40
0.875
 40
0.875
 40
0.875
 40
1.0
 40
1.0
 40
1.0
 40
1.0
 10
-8.54877559055118
 20
3.349527559055118
 30
0.0
 10
-8.54877559055118
 20
3.349527559055118
 30
0.0
 10
-8.54877559055118
 20
3.349527559055118
 30
0.0
 10
-8.54877559055118
 20
3.349527559055118
 30
0.0
 10
-8.54877559055118
 20
3.349527559055118
 30
0.0
 10
-8.600712598425197
 20
3.348787401574803
 30
0.0
 10
-8.6435
 20
3.369606299212598
 30
0.0
 10
-8.643866141732284
 20
3.395688976377953
 30
0.0
 10
-8.643866141732284
 20
3.395688976377953
 30
0.0
 10
-8.643866141732284
 20
3.395688976377953
 30
0.0
 10
-8.647633858267717
 20
3.660897637795276
 30
0.0
 10
-8.647633858267717
 20
3.660897637795276
 30
0.0
 10
-8.647633858267717
 20
3.660897637795276
 30
0.0
 10
-8.648003937007873
 20
3.686984251968504
 30
0.0
 10
-8.605818897637795
 20
3.709003937007874
 30
0.0
 10
-8.553885826771653
 20
3.709740157480315
 30
0.0
 10
-8.553885826771653
 20
3.709740157480315
 30
0.0
 10
-8.553885826771653
 20
3.709740157480315
 30
0.0
 10
-8.553885826771653
 20
3.709740157480315
 30
0.0
 10
-8.553885826771653
 20
3.709740157480315
 30
0.0
 10
-8.553885826771653
 20
3.709740157480315
 30
0.0
 10
-8.501956692913385
 20
3.710476377952756
 30
0.0
 10
-8.45915748031496
 20
3.689704724409449
 30
0.0
 10
-8.458791338582676
 20
3.66357874015748
 30
0.0
 10
-8.458791338582676
 20
3.66357874015748
 30
0.0
 10
-8.458791338582676
 20
3.66357874015748
 30
0.0
 10
-8.455027559055118
 20
3.398370078740157
 30
0.0
 10
-8.455027559055118
 20
3.398370078740157
 30
0.0
 10
-8.455027559055118
 20
3.398370078740157
 30
0.0
 10
-8.454653543307087
 20
3.372240157480315
 30
0.0
 10
-8.496838582677166
 20
3.350263779527559
 30
0.0
 10
-8.54877559055118
 20
3.349527559055118
 30
0.0
  0
SPLINE
  5
80
330
1F
100
AcDbEntity
  8
Layer 1
 62
   252
370
    18
100
AcDbSpline
210
0.0
220
0.0
230
1.0
 70
    11
 71
     3
 72
    36
 73
    32
 74
     0
 42
0.0000000001
 43
0.0000000001
 40
0.0
 40
0.0
 40
0.0
 40
0.0
 40
0.125
 40
0.125
 40
0.125
 40
0.125
 40
0.25
 40
0.25
 40
0.25
 40
0.25
 40
0.375
 40
0.375
 40
0.375
 40
0.375
 40
0.5
 40
0.5
 40
0.5
 40
0.5
 40
0.625
 40
0.625
 40
0.625
 40
0.625
 40
0.75
 40
0.75
 40
0.75
 40
0.75
 40
0.875
 40
0.875
 40
0.875
 40
0.875
 40
1.0
 40
1.0
 40
1.0
 40
1.0
 10
-8.210464566929135
 20
3.354326771653543
 30
0.0
 10
-8.210464566929135
 20
3.354326771653543
 30
0.0
 10
-8.210464566929135
 20
3.354326771653543
 30
0.0
 10
-8.210464566929135
 20
3.354326771653543
 30
0.0
 10
-8.210464566929135
 20
3.354326771653543
 30
0.0
 10
-8.2623937007874
 20
3.353594488188977
 30
0.0
 10
-8.305181102362205
 20
3.374405511811024
 30
0.0
 10
-8.305555118110236
 20
3.400488188976378
 30
0.0
 10
-8.305555118110236
 20
3.400488188976378
 30
0.0
 10
-8.305555118110236
 20
3.400488188976378
 30
0.0
 10
-8.309318897637795
 20
3.665700787401575
 30
0.0
 10
-8.309318897637795
 20
3.665700787401575
 30
0.0
 10
-8.309318897637795
 20
3.665700787401575
 30
0.0
 10
-8.309688976377952
 20
3.691779527559055
 30
0.0
 10
-8.267507874015749
 20
3.713807086614173
 30
0.0
 10
-8.215578740157481
 20
3.714543307086614
 30
0.0
 10
-8.215578740157481
 20
3.714543307086614
 30
0.0
 10
-8.215578740157481
 20
3.714543307086614
 30
0.0
 10
-8.215578740157481
 20
3.714543307086614
 30
0.0
 10
-8.215578740157481
 20
3.714543307086614
 30
0.0
 10
-8.215578740157481
 20
3.714543307086614
 30
0.0
 10
-8.16363779527559
 20
3.715283464566929
 30
0.0
 10
-8.120846456692913
 20
3.694507874015748
 30
0.0
 10
-8.120472440944882
 20
3.668377952755906
 30
0.0
 10
-8.120472440944882
 20
3.668377952755906
 30
0.0
 10
-8.120472440944882
 20
3.668377952755906
 30
0.0
 10
-8.116712598425197
 20
3.403169291338583
 30
0.0
 10
-8.116712598425197
 20
3.403169291338583
 30
0.0
 10
-8.116712598425197
 20
3.403169291338583
 30
0.0
 10
-8.11634251968504
 20
3.377043307086614
 30
0.0
 10
-8.158527559055118
 20
3.35505905511811
 30
0.0
 10
-8.210464566929135
 20
3.354326771653543
 30
0.0
  0
SPLINE
  5
81
330
1F
100
AcDbEntity
  8
Layer 1
 62
   252
370
    18
100
AcDbSpline
210
0.0
220
0.0
230
1.0
 70
    11
 71
     3
 72
    36
 73
    32
 74
     0
 42
0.0000000001
 43
0.0000000001
 40
0.0
 40
0.0
 40
0.0
 40
0.0
 40
0.125
 40
0.125
 40
0.125
 40
0.125
 40
0.25
 40
0.25
 40
0.25
 40
0.25
 40
0.375
 40
0.375
 40
0.375
 40
0.375
 40
0.5
 40
0.5
 40
0.5
 40
0.5
 40
0.625
 40
0.625
 40
0.625
 40
0.625
 40
0.75
 40
0.75
 40
0.75
 40
0.75
 40
0.875
 40
0.875
 40
0.875
 40
0.875
 40
1.0
 40
1.0
 40
1.0
 40
1.0
 10
-7.873330708661418
 20
3.359106299212598
 30
0.0
 10
-7.873330708661418
 20
3.359106299212598
 30
0.0
 10
-7.873330708661418
 20
3.359106299212598
 30
0.0
 10
-7.873330708661418
 20
3.359106299212598
 30
0.0
 10
-7.873330708661418
 20
3.359106299212598
 30
0.0
 10
-7.925263779527559
 20
3.358374015748031
 30
0.0
 10
-7.968055118110236
 20
3.379188976377953
 30
0.0
 10
-7.968429133858268
 20
3.405275590551181
 30
0.0
 10
-7.968429133858268
 20
3.405275590551181
 30
0.0
 10
-7.968429133858268
 20
3.405275590551181
 30
0.0
 10
-7.972188976377953
 20
3.670484251968504
 30
0.0
 10
-7.972188976377953
 20
3.670484251968504
 30
0.0
 10
-7.972188976377953
 20
3.670484251968504
 30
0.0
 10
-7.97255905511811
 20
3.696566929133858
 30
0.0
 10
-7.930374015748032
 20
3.718590551181102
 30
0.0
 10
-7.878444881889764
 20
3.719322834645669
 30
0.0
 10
-7.878444881889764
 20
3.719322834645669
 30
0.0
 10
-7.878444881889764
 20
3.719322834645669
 30
0.0
 10
-7.878444881889764
 20
3.719322834645669
 30
0.0
 10
-7.878444881889764
 20
3.719322834645669
 30
0.0
 10
-7.878444881889764
 20
3.719322834645669
 30
0.0
 10
-7.826507874015748
 20
3.720062992125984
 30
0.0
 10
-7.783720472440945
 20
3.699291338582677
 30
0.0
 10
-7.783346456692914
 20
3.673165354330709
 30
0.0
 10
-7.783346456692914
 20
3.673165354330709
 30
0.0
 10
-7.783346456692914
 20
3.673165354330709
 30
0.0
 10
-7.779582677165354
 20
3.407956692913386
 30
0.0
 10
-7.779582677165354
 20
3.407956692913386
 30
0.0
 10
-7.779582677165354
 20
3.407956692913386
 30
0.0
 10
-7.779212598425197
 20
3.381822834645669
 30
0.0
 10
-7.82140157480315
 20
3.359846456692913
 30
0.0
 10
-7.873330708661418
 20
3.359106299212598
 30
0.0
  0
SPLINE
  5
82
330
1F
100
AcDbEntity
  8
Layer 1
 62
   252
370
    18
100
AcDbSpline
210
0.0
220
0.0
230
1.0
 70
    11
 71
     3
 72
    36
 73
    32
 74
     0
 42
0.0000000001
 43
0.0000000001
 40
0.0
 40
0.0
 40
0.0
 40
0.0
 40
0.125
 40
0.125
 40
0.125
 40
0.125
 40
0.25
 40
0.25
 40
0.25
 40
0.25
 40
0.375
 40
0.375
 40
0.375
 40
0.375
 40
0.5
 40
0.5
 40
0.5
 40
0.5
 40
0.625
 40
0.625
 40
0.625
 40
0.625
 40
0.75
 40
0.75
 40
0.75
 40
0.75
 40
0.875
 40
0.875
 40
0.875
 40
0.875
 40
1.0
 40
1.0
 40
1.0
 40
1.0
 10
-7.506814960629921
 20
3.355917322834645
 30
0.0
 10
-7.506814960629921
 20
3.355917322834645
 30
0.0
 10
-7.506814960629921
 20
3.355917322834645
 30
0.0
 10
-7.506814960629921
 20
3.355917322834645
 30
0.0
 10
-7.506814960629921
 20
3.355917322834645
 30
0.0
 10
-7.558744094488189
 20
3.355177165354331
 30
0.0
 10
-7.601531496062992
 20
3.376
 30
0.0
 10
-7.601905511811023
 20
3.402082677165355
 30
0.0
 10
-7.601905511811023
 20
3.402082677165355
 30
0.0
 10
-7.601905511811023
 20
3.402082677165355
 30
0.0
 10
-7.605669291338582
 20
3.667291338582677
 30
0.0
 10
-7.605669291338582
 20
3.667291338582677
 30
0.0
 10
-7.605669291338582
 20
3.667291338582677
 30
0.0
 10
-7.60603937007874
 20
3.693374015748032
 30
0.0
 10
-7.563850393700787
 20
3.715393700787402
 30
0.0
 10
-7.51192125984252
 20
3.716133858267717
 30
0.0
 10
-7.51192125984252
 20
3.716133858267717
 30
0.0
 10
-7.51192125984252
 20
3.716133858267717
 30
0.0
 10
-7.51192125984252
 20
3.716133858267717
 30
0.0
 10
-7.51192125984252
 20
3.716133858267717
 30
0.0
 10
-7.51192125984252
 20
3.716133858267717
 30
0.0
 10
-7.459988188976378
 20
3.716870078740158
 30
0.0
 10
-7.417196850393701
 20
3.69609842519685
 30
0.0
 10
-7.41682283464567
 20
3.669968503937008
 30
0.0
 10
-7.41682283464567
 20
3.669968503937008
 30
0.0
 10
-7.41682283464567
 20
3.669968503937008
 30
0.0
 10
-7.413062992125984
 20
3.404759842519685
 30
0.0
 10
-7.413062992125984
 20
3.404759842519685
 30
0.0
 10
-7.413062992125984
 20
3.404759842519685
 30
0.0
 10
-7.412692913385826
 20
3.378633858267717
 30
0.0
 10
-7.454877952755906
 20
3.356653543307087
 30
0.0
 10
-7.506814960629921
 20
3.355917322834645
 30
0.0
  0
SPLINE
  5
83
330
1F
100
AcDbEntity
  8
Layer 1
 62
   252
370
    18
100
AcDbSpline
210
0.0
220
0.0
230
1.0
 70
    11
 71
     3
 72
    20
 73
    16
 74
     0
 42
0.0000000001
 43
0.0000000001
 40
0.0
 40
0.0
 40
0.0
 40
0.0
 40
0.25
 40
0.25
 40
0.25
 40
0.25
 40
0.5
 40
0.5
 40
0.5
 40
0.5
 40
0.75
 40
0.75
 40
0.75
 40
0.75
 40
1.0
 40
1.0
 40
1.0
 40
1.0
 10
-3.391984251968504
 20
4.209842519685039
 30
0.0
 10
-3.445326771653543
 20
4.20907874015748
 30
0.0
 10
-3.489204724409449
 20
4.251728346456693
 30
0.0
 10
-3.48996062992126
 20
4.305074803149607
 30
0.0
 10
-3.48996062992126
 20
4.305074803149607
 30
0.0
 10
-3.490716535433071
 20
4.35842125984252
 30
0.0
 10
-3.448066929133858
 20
4.402295275590551
 30
0.0
 10
-3.394720472440945
 20
4.40305905511811
 30
0.0
 10
-3.394720472440945
 20
4.40305905511811
 30
0.0
 10
-3.34138188976378
 20
4.403814960629921
 30
0.0
 10
-3.2975
 20
4.361157480314961
 30
0.0
 10
-3.296744094488189
 20
4.307811023622047
 30
0.0
 10
-3.296744094488189
 20
4.307811023622047
 30
0.0
 10
-3.295988188976378
 20
4.254472440944882
 30
0.0
 10
-3.338637795275591
 20
4.210590551181102
 30
0.0
 10
-3.391984251968504
 20
4.209842519685039
 30
0.0
  0
SPLINE
  5
84
330
1F
100
AcDbEntity
  8
Layer 1
 62
   252
370
    18
100
AcDbSpline
210
0.0
220
0.0
230
1.0
 70
    11
 71
     3
 72
    36
 73
    32
 74
     0
 42
0.0000000001
 43
0.0000000001
 40
0.0
 40
0.0
 40
0.0
 40
0.0
 40
0.125
 40
0.125
 40
0.125
 40
0.125
 40
0.25
 40
0.25
 40
0.25
 40
0.25
 40
0.375
 40
0.375
 40
0.375
 40
0.375
 40
0.5
 40
0.5
 40
0.5
 40
0.5
 40
0.625
 40
0.625
 40
0.625
 40
0.625
 40
0.75
 40
0.75
 40
0.75
 40
0.75
 40
0.875
 40
0.875
 40
0.875
 40
0.875
 40
1.0
 40
1.0
 40
1.0
 40
1.0
 10
-5.800299212598425
 20
3.69957874015748
 30
0.0
 10
-5.800299212598425
 20
3.69957874015748
 30
0.0
 10
-1.299610236220472
 20
3.763444881889764
 30
0.0
 10
-1.299610236220472
 20
3.763444881889764
 30
0.0
 10
-1.299610236220472
 20
3.763444881889764
 30
0.0
 10
-1.213555118110236
 20
3.764673228346457
 30
0.0
 10
-1.142149606299213
 20
3.695259842519685
 30
0.0
 10
-1.140925196850394
 20
3.609196850393701
 30
0.0
 10
-1.140925196850394
 20
3.609196850393701
 30
0.0
 10
-1.140925196850394
 20
3.609196850393701
 30
0.0
 10
-1.127606299212598
 20
2.670417322834646
 30
0.0
 10
-1.127606299212598
 20
2.670417322834646
 30
0.0
 10
-1.127606299212598
 20
2.670417322834646
 30
0.0
 10
-1.12638188976378
 20
2.584362204724409
 30
0.0
 10
-1.195791338582677
 20
2.51296062992126
 30
0.0
 10
-1.281850393700787
 20
2.511732283464567
 30
0.0
 10
-1.281850393700787
 20
2.511732283464567
 30
0.0
 10
-1.281850393700787
 20
2.511732283464567
 30
0.0
 10
-5.782535433070866
 20
2.447870078740157
 30
0.0
 10
-5.782535433070866
 20
2.447870078740157
 30
0.0
 10
-5.782535433070866
 20
2.447870078740157
 30
0.0
 10
-5.868594488188976
 20
2.446645669291339
 30
0.0
 10
-5.94
 20
2.516051181102362
 30
0.0
 10
-5.941220472440945
 20
2.602114173228347
 30
0.0
 10
-5.941220472440945
 20
2.602114173228347
 30
0.0
 10
-5.941220472440945
 20
2.602114173228347
 30
0.0
 10
-5.954543307086614
 20
3.540893700787402
 30
0.0
 10
-5.954543307086614
 20
3.540893700787402
 30
0.0
 10
-5.954543307086614
 20
3.540893700787402
 30
0.0
 10
-5.955767716535433
 20
3.626948818897638
 30
0.0
 10
-5.886362204724409
 20
3.698354330708661
 30
0.0
 10
-5.800299212598425
 20
3.69957874015748
 30
0.0
  0
SPLINE
  5
85
330
1F
100
AcDbEntity
  8
Layer 1
 62
   252
370
    18
100
AcDbSpline
210
0.0
220
0.0
230
1.0
 70
    11
 71
     3
 72
    36
 73
    32
 74
     0
 42
0.0000000001
 43
0.0000000001
 40
0.0
 40
0.0
 40
0.0
 40
0.0
 40
0.125
 40
0.125
 40
0.125
 40
0.125
 40
0.25
 40
0.25
 40
0.25
 40
0.25
 40
0.375
 40
0.375
 40
0.375
 40
0.375
 40
0.5
 40
0.5
 40
0.5
 40
0.5
 40
0.625
 40
0.625
 40
0.625
 40
0.625
 40
0.75
 40
0.75
 40
0.75
 40
0.75
 40
0.875
 40
0.875
 40
0.875
 40
0.875
 40
1.0
 40
1.0
 40
1.0
 40
1.0
 10
-2.541413385826772
 20
3.52846062992126
 30
0.0
 10
-2.541413385826772
 20
3.52846062992126
 30
0.0
 10
-2.541413385826772
 20
3.52846062992126
 30
0.0
 10
-2.541413385826772
 20
3.52846062992126
 30
0.0
 10
-2.541413385826772
 20
3.52846062992126
 30
0.0
 10
-2.541704724409449
 20
3.549027559055118
 30
0.0
 10
-2.524972440944882
 20
3.56609842519685
 30
0.0
 10
-2.504279527559055
 20
3.566389763779528
 30
0.0
 10
-2.504279527559055
 20
3.566389763779528
 30
0.0
 10
-2.504279527559055
 20
3.566389763779528
 30
0.0
 10
-1.800744094488189
 20
3.576374015748032
 30
0.0
 10
-1.800744094488189
 20
3.576374015748032
 30
0.0
 10
-1.800744094488189
 20
3.576374015748032
 30
0.0
 10
-1.780062992125984
 20
3.576673228346457
 30
0.0
 10
-1.762842519685039
 20
3.56007874015748
 30
0.0
 10
-1.762555118110236
 20
3.539507874015748
 30
0.0
 10
-1.762555118110236
 20
3.539507874015748
 30
0.0
 10
-1.762555118110236
 20
3.539507874015748
 30
0.0
 10
-1.762555118110236
 20
3.539507874015748
 30
0.0
 10
-1.762555118110236
 20
3.539507874015748
 30
0.0
 10
-1.762555118110236
 20
3.539507874015748
 30
0.0
 10
-1.762263779527559
 20
3.518944881889764
 30
0.0
 10
-1.778972440944882
 20
3.501874015748032
 30
0.0
 10
-1.799685039370079
 20
3.50157874015748
 30
0.0
 10
-1.799685039370079
 20
3.50157874015748
 30
0.0
 10
-1.799685039370079
 20
3.50157874015748
 30
0.0
 10
-2.503220472440945
 20
3.491594488188976
 30
0.0
 10
-2.503220472440945
 20
3.491594488188976
 30
0.0
 10
-2.503220472440945
 20
3.491594488188976
 30
0.0
 10
-2.523937007874016
 20
3.491307086614173
 30
0.0
 10
-2.541122047244095
 20
3.507889763779528
 30
0.0
 10
-2.541413385826772
 20
3.52846062992126
 30
0.0
  0
SPLINE
  5
86
330
1F
100
AcDbEntity
  8
Layer 1
 62
   252
370
    18
100
AcDbSpline
210
0.0
220
0.0
230
1.0
 70
    11
 71
     3
 72
    84
 73
    80
 74
     0
 42
0.0000000001
 43
0.0000000001
 40
0.0
 40
0.0
 40
0.0
 40
0.0
 40
0.05
 40
0.05
 40
0.05
 40
0.05
 40
0.1
 40
0.1
 40
0.1
 40
0.1
 40
0.15
 40
0.15
 40
0.15
 40
0.15
 40
0.2
 40
0.2
 40
0.2
 40
0.2
 40
0.25
 40
0.25
 40
0.25
 40
0.25
 40
0.3
 40
0.3
 40
0.3
 40
0.3
 40
0.35
 40
0.35
 40
0.35
 40
0.35
 40
0.4
 40
0.4
 40
0.4
 40
0.4
 40
0.45
 40
0.45
 40
0.45
 40
0.45
 40
0.4999999999999999
 40
0.4999999999999999
 40
0.4999999999999999
 40
0.4999999999999999
 40
0.5499999999999999
 40
0.5499999999999999
 40
0.5499999999999999
 40
0.5499999999999999
 40
0.6
 40
0.6
 40
0.6
 40
0.6
 40
0.65
 40
0.65
 40
0.65
 40
0.65
 40
0.7000000000000001
 40
0.7000000000000001
 40
0.7000000000000001
 40
0.7000000000000001
 40
0.7500000000000001
 40
0.7500000000000001
 40
0.7500000000000001
 40
0.7500000000000001
 40
0.8000000000000002
 40
0.8000000000000002
 40
0.8000000000000002
 40
0.8000000000000002
 40
0.8500000000000002
 40
0.8500000000000002
 40
0.8500000000000002
 40
0.8500000000000002
 40
0.9000000000000002
 40
0.9000000000000002
 40
0.9000000000000002
 40
0.9000000000000002
 40
0.9500000000000003
 40
0.9500000000000003
 40
0.9500000000000003
 40
0.9500000000000003
 40
1.0
 40
1.0
 40
1.0
 40
1.0
 10
-3.984724409448819
 20
3.09805905511811
 30
0.0
 10
-3.984724409448819
 20
3.09805905511811
 30
0.0
 10
-3.984724409448819
 20
3.09805905511811
 30
0.0
 10
-3.984724409448819
 20
3.09805905511811
 30
0.0
 10
-3.984724409448819
 20
3.09805905511811
 30
0.0
 10
-3.985015748031496
 20
3.118625984251969
 30
0.0
 10
-3.968279527559055
 20
3.135696850393701
 30
0.0
 10
-3.947594488188976
 20
3.135988188976378
 30
0.0
 10
-3.947594488188976
 20
3.135988188976378
 30
0.0
 10
-3.947594488188976
 20
3.135988188976378
 30
0.0
 10
-3.633224409448819
 20
3.140456692913386
 30
0.0
 10
-3.633224409448819
 20
3.140456692913386
 30
0.0
 10
-3.633224409448819
 20
3.140456692913386
 30
0.0
 10
-3.633224409448819
 20
3.140456692913386
 30
0.0
 10
-3.637685039370079
 20
3.454822834645669
 30
0.0
 10
-3.637685039370079
 20
3.454822834645669
 30
0.0
 10
-3.637685039370079
 20
3.454822834645669
 30
0.0
 10
-3.637976377952756
 20
3.475503937007874
 30
0.0
 10
-3.621389763779527
 20
3.492724409448819
 30
0.0
 10
-3.600818897637795
 20
3.493015748031496
 30
0.0
 10
-3.600818897637795
 20
3.493015748031496
 30
0.0
 10
-3.600818897637795
 20
3.493015748031496
 30
0.0
 10
-3.600818897637795
 20
3.493015748031496
 30
0.0
 10
-3.600818897637795
 20
3.493015748031496
 30
0.0
 10
-3.600818897637795
 20
3.493015748031496
 30
0.0
 10
-3.580248031496063
 20
3.493311023622047
 30
0.0
 10
-3.563177165354331
 20
3.47659842519685
 30
0.0
 10
-3.562889763779527
 20
3.45588188976378
 30
0.0
 10
-3.562889763779527
 20
3.45588188976378
 30
0.0
 10
-3.562889763779527
 20
3.45588188976378
 30
0.0
 10
-3.558433070866142
 20
3.141511811023622
 30
0.0
 10
-3.558433070866142
 20
3.141511811023622
 30
0.0
 10
-3.558433070866142
 20
3.141511811023622
 30
0.0
 10
-3.558433070866142
 20
3.141511811023622
 30
0.0
 10
-3.24405905511811
 20
3.145976377952756
 30
0.0
 10
-3.24405905511811
 20
3.145976377952756
 30
0.0
 10
-3.24405905511811
 20
3.145976377952756
 30
0.0
 10
-3.223370078740158
 20
3.146267716535433
 30
0.0
 10
-3.206157480314961
 20
3.129677165354331
 30
0.0
 10
-3.205866141732284
 20
3.109106299212598
 30
0.0
 10
-3.205866141732284
 20
3.109106299212598
 30
0.0
 10
-3.205866141732284
 20
3.109106299212598
 30
0.0
 10
-3.205866141732284
 20
3.109106299212598
 30
0.0
 10
-3.205866141732284
 20
3.109106299212598
 30
0.0
 10
-3.205866141732284
 20
3.109106299212598
 30
0.0
 10
-3.205574803149606
 20
3.088543307086614
 30
0.0
 10
-3.222279527559055
 20
3.071472440944882
 30
0.0
 10
-3.243
 20
3.071177165354331
 30
0.0
 10
-3.243
 20
3.071177165354331
 30
0.0
 10
-3.243
 20
3.071177165354331
 30
0.0
 10
-3.557366141732283
 20
3.066716535433071
 30
0.0
 10
-3.557366141732283
 20
3.066716535433071
 30
0.0
 10
-3.557366141732283
 20
3.066716535433071
 30
0.0
 10
-3.557366141732283
 20
3.066716535433071
 30
0.0
 10
-3.552905511811024
 20
2.752346456692913
 30
0.0
 10
-3.552905511811024
 20
2.752346456692913
 30
0.0
 10
-3.552905511811024
 20
2.752346456692913
 30
0.0
 10
-3.552610236220473
 20
2.731633858267716
 30
0.0
 10
-3.569200787401575
 20
2.714448818897638
 30
0.0
 10
-3.589767716535433
 20
2.714149606299213
 30
0.0
 10
-3.589767716535433
 20
2.714149606299213
 30
0.0
 10
-3.589767716535433
 20
2.714149606299213
 30
0.0
 10
-3.589767716535433
 20
2.714149606299213
 30
0.0
 10
-3.589767716535433
 20
2.714149606299213
 30
0.0
 10
-3.589767716535433
 20
2.714149606299213
 30
0.0
 10
-3.610338582677165
 20
2.71386220472441
 30
0.0
 10
-3.627401574803149
 20
2.730594488188976
 30
0.0
 10
-3.627700787401575
 20
2.751283464566929
 30
0.0
 10
-3.627700787401575
 20
2.751283464566929
 30
0.0
 10
-3.627700787401575
 20
2.751283464566929
 30
0.0
 10
-3.632161417322834
 20
3.065657480314961
 30
0.0
 10
-3.632161417322834
 20
3.065657480314961
 30
0.0
 10
-3.632161417322834
 20
3.065657480314961
 30
0.0
 10
-3.632161417322834
 20
3.065657480314961
 30
0.0
 10
-3.946527559055118
 20
3.061196850393701
 30
0.0
 10
-3.946527559055118
 20
3.061196850393701
 30
0.0
 10
-3.946527559055118
 20
3.061196850393701
 30
0.0
 10
-3.967248031496063
 20
3.060905511811024
 30
0.0
 10
-3.984429133858268
 20
3.077488188976378
 30
0.0
 10
-3.984724409448819
 20
3.09805905511811
 30
0.0
  0
SPLINE
  5
87
330
1F
100
AcDbEntity
  8
Layer 1
 62
   252
370
    18
100
AcDbSpline
210
0.0
220
0.0
230
1.0
 70
    11
 71
     3
 72
    36
 73
    32
 74
     0
 42
0.0000000001
 43
0.0000000001
 40
0.0
 40
0.0
 40
0.0
 40
0.0
 40
0.125
 40
0.125
 40
0.125
 40
0.125
 40
0.25
 40
0.25
 40
0.25
 40
0.25
 40
0.375
 40
0.375
 40
0.375
 40
0.375
 40
0.5
 40
0.5
 40
0.5
 40
0.5
 40
0.625
 40
0.625
 40
0.625
 40
0.625
 40
0.75
 40
0.75
 40
0.75
 40
0.75
 40
0.875
 40
0.875
 40
0.875
 40
0.875
 40
1.0
 40
1.0
 40
1.0
 40
1.0
 10
-2.530185039370079
 20
2.737200787401575
 30
0.0
 10
-2.530185039370079
 20
2.737200787401575
 30
0.0
 10
-2.530185039370079
 20
2.737200787401575
 30
0.0
 10
-2.530185039370079
 20
2.737200787401575
 30
0.0
 10
-2.530185039370079
 20
2.737200787401575
 30
0.0
 10
-2.530476377952756
 20
2.757763779527559
 30
0.0
 10
-2.513736220472441
 20
2.774834645669291
 30
0.0
 10
-2.493055118110236
 20
2.775133858267717
 30
0.0
 10
-2.493055118110236
 20
2.775133858267717
 30
0.0
 10
-2.493055118110236
 20
2.775133858267717
 30
0.0
 10
-1.789515748031496
 20
2.78511811023622
 30
0.0
 10
-1.789515748031496
 20
2.78511811023622
 30
0.0
 10
-1.789515748031496
 20
2.78511811023622
 30
0.0
 10
-1.768826771653543
 20
2.785409448818898
 30
0.0
 10
-1.751614173228347
 20
2.768822834645669
 30
0.0
 10
-1.751326771653543
 20
2.748251968503937
 30
0.0
 10
-1.751326771653543
 20
2.748251968503937
 30
0.0
 10
-1.751326771653543
 20
2.748251968503937
 30
0.0
 10
-1.751326771653543
 20
2.748251968503937
 30
0.0
 10
-1.751326771653543
 20
2.748251968503937
 30
0.0
 10
-1.751326771653543
 20
2.748251968503937
 30
0.0
 10
-1.751035433070866
 20
2.727681102362205
 30
0.0
 10
-1.767744094488189
 20
2.710610236220472
 30
0.0
 10
-1.788456692913386
 20
2.710322834645669
 30
0.0
 10
-1.788456692913386
 20
2.710322834645669
 30
0.0
 10
-1.788456692913386
 20
2.710322834645669
 30
0.0
 10
-2.491992125984252
 20
2.700338582677166
 30
0.0
 10
-2.491992125984252
 20
2.700338582677166
 30
0.0
 10
-2.491992125984252
 20
2.700338582677166
 30
0.0
 10
-2.512708661417323
 20
2.700043307086614
 30
0.0
 10
-2.529893700787401
 20
2.716633858267717
 30
0.0
 10
-2.530185039370079
 20
2.737200787401575
 30
0.0
  0
SPLINE
  5
88
330
1F
100
AcDbEntity
  8
Layer 1
 62
   252
370
    18
100
AcDbSpline
210
0.0
220
0.0
230
1.0
 70
    11
 71
     3
 72
    36
 73
    32
 74
     0
 42
0.0000000001
 43
0.0000000001
 40
0.0
 40
0.0
 40
0.0
 40
0.0
 40
0.125
 40
0.125
 40
0.125
 40
0.125
 40
0.25
 40
0.25
 40
0.25
 40
0.25
 40
0.375
 40
0.375
 40
0.375
 40
0.375
 40
0.5
 40
0.5
 40
0.5
 40
0.5
 40
0.625
 40
0.625
 40
0.625
 40
0.625
 40
0.75
 40
0.75
 40
0.75
 40
0.75
 40
0.875
 40
0.875
 40
0.875
 40
0.875
 40
1.0
 40
1.0
 40
1.0
 40
1.0
 10
-5.215751968503937
 20
3.490507874015748
 30
0.0
 10
-5.215751968503937
 20
3.490507874015748
 30
0.0
 10
-5.215751968503937
 20
3.490507874015748
 30
0.0
 10
-5.215751968503937
 20
3.490507874015748
 30
0.0
 10
-5.215751968503937
 20
3.490507874015748
 30
0.0
 10
-5.21603937007874
 20
3.511074803149606
 30
0.0
 10
-5.199307086614173
 20
3.528145669291339
 30
0.0
 10
-5.178625984251968
 20
3.52844094488189
 30
0.0
 10
-5.178625984251968
 20
3.52844094488189
 30
0.0
 10
-5.178625984251968
 20
3.52844094488189
 30
0.0
 10
-4.475086614173228
 20
3.538425196850394
 30
0.0
 10
-4.475086614173228
 20
3.538425196850394
 30
0.0
 10
-4.475086614173228
 20
3.538425196850394
 30
0.0
 10
-4.454397637795275
 20
3.538720472440945
 30
0.0
 10
-4.437185039370079
 20
3.522129921259843
 30
0.0
 10
-4.436893700787402
 20
3.50155905511811
 30
0.0
 10
-4.436893700787402
 20
3.50155905511811
 30
0.0
 10
-4.436893700787402
 20
3.50155905511811
 30
0.0
 10
-4.436893700787402
 20
3.50155905511811
 30
0.0
 10
-4.436893700787402
 20
3.50155905511811
 30
0.0
 10
-4.436893700787402
 20
3.50155905511811
 30
0.0
 10
-4.43659842519685
 20
3.480992125984252
 30
0.0
 10
-4.453311023622048
 20
3.46392125984252
 30
0.0
 10
-4.47401968503937
 20
3.463625984251968
 30
0.0
 10
-4.47401968503937
 20
3.463625984251968
 30
0.0
 10
-4.47401968503937
 20
3.463625984251968
 30
0.0
 10
-5.177559055118111
 20
3.453645669291339
 30
0.0
 10
-5.177559055118111
 20
3.453645669291339
 30
0.0
 10
-5.177559055118111
 20
3.453645669291339
 30
0.0
 10
-5.198267716535433
 20
3.453346456692914
 30
0.0
 10
-5.21546062992126
 20
3.469937007874016
 30
0.0
 10
-5.215751968503937
 20
3.490507874015748
 30
0.0
  0
SPLINE
  5
89
330
1F
100
AcDbEntity
  8
Layer 1
 62
   252
370
    18
100
AcDbSpline
210
0.0
220
0.0
230
1.0
 70
    11
 71
     3
 72
    36
 73
    32
 74
     0
 42
0.0000000001
 43
0.0000000001
 40
0.0
 40
0.0
 40
0.0
 40
0.0
 40
0.125
 40
0.125
 40
0.125
 40
0.125
 40
0.25
 40
0.25
 40
0.25
 40
0.25
 40
0.375
 40
0.375
 40
0.375
 40
0.375
 40
0.5
 40
0.5
 40
0.5
 40
0.5
 40
0.625
 40
0.625
 40
0.625
 40
0.625
 40
0.75
 40
0.75
 40
0.75
 40
0.75
 40
0.875
 40
0.875
 40
0.875
 40
0.875
 40
1.0
 40
1.0
 40
1.0
 40
1.0
 10
-5.204523622047244
 20
2.699248031496063
 30
0.0
 10
-5.204523622047244
 20
2.699248031496063
 30
0.0
 10
-5.204523622047244
 20
2.699248031496063
 30
0.0
 10
-5.204523622047244
 20
2.699248031496063
 30
0.0
 10
-5.204523622047244
 20
2.699248031496063
 30
0.0
 10
-5.204811023622047
 20
2.719818897637795
 30
0.0
 10
-5.18807874015748
 20
2.736885826771653
 30
0.0
 10
-5.167389763779528
 20
2.737185039370079
 30
0.0
 10
-5.167389763779528
 20
2.737185039370079
 30
0.0
 10
-5.167389763779528
 20
2.737185039370079
 30
0.0
 10
-4.463854330708662
 20
2.747165354330709
 30
0.0
 10
-4.463854330708662
 20
2.747165354330709
 30
0.0
 10
-4.463854330708662
 20
2.747165354330709
 30
0.0
 10
-4.443169291338583
 20
2.747464566929134
 30
0.0
 10
-4.425956692913386
 20
2.730874015748031
 30
0.0
 10
-4.425665354330708
 20
2.710303149606299
 30
0.0
 10
-4.425665354330708
 20
2.710303149606299
 30
0.0
 10
-4.425665354330708
 20
2.710303149606299
 30
0.0
 10
-4.425665354330708
 20
2.710303149606299
 30
0.0
 10
-4.425665354330708
 20
2.710303149606299
 30
0.0
 10
-4.425665354330708
 20
2.710303149606299
 30
0.0
 10
-4.425370078740158
 20
2.689732283464567
 30
0.0
 10
-4.442082677165354
 20
2.672665354330709
 30
0.0
 10
-4.462791338582677
 20
2.672370078740157
 30
0.0
 10
-4.462791338582677
 20
2.672370078740157
 30
0.0
 10
-4.462791338582677
 20
2.672370078740157
 30
0.0
 10
-5.166330708661417
 20
2.662385826771653
 30
0.0
 10
-5.166330708661417
 20
2.662385826771653
 30
0.0
 10
-5.166330708661417
 20
2.662385826771653
 30
0.0
 10
-5.187043307086614
 20
2.662090551181102
 30
0.0
 10
-5.204232283464567
 20
2.678681102362205
 30
0.0
 10
-5.204523622047244
 20
2.699248031496063
 30
0.0
  0
SPLINE
  5
8A
330
1F
100
AcDbEntity
  8
Layer 1
 62
   252
370
    18
100
AcDbSpline
210
0.0
220
0.0
230
1.0
 70
    11
 71
     3
 72
    52
 73
    48
 74
     0
 42
0.0000000001
 43
0.0000000001
 40
0.0
 40
0.0
 40
0.0
 40
0.0
 40
0.0833333333333333
 40
0.0833333333333333
 40
0.0833333333333333
 40
0.0833333333333333
 40
0.1666666666666667
 40
0.1666666666666667
 40
0.1666666666666667
 40
0.1666666666666667
 40
0.25
 40
0.25
 40
0.25
 40
0.25
 40
0.3333333333333333
 40
0.3333333333333333
 40
0.3333333333333333
 40
0.3333333333333333
 40
0.4166666666666666
 40
0.4166666666666666
 40
0.4166666666666666
 40
0.4166666666666666
 40
0.4999999999999999
 40
0.4999999999999999
 40
0.4999999999999999
 40
0.4999999999999999
 40
0.5833333333333333
 40
0.5833333333333333
 40
0.5833333333333333
 40
0.5833333333333333
 40
0.6666666666666666
 40
0.6666666666666666
 40
0.6666666666666666
 40
0.6666666666666666
 40
0.75
 40
0.75
 40
0.75
 40
0.75
 40
0.8333333333333334
 40
0.8333333333333334
 40
0.8333333333333334
 40
0.8333333333333334
 40
0.9166666666666667
 40
0.9166666666666667
 40
0.9166666666666667
 40
0.9166666666666667
 40
1.0
 40
1.0
 40
1.0
 40
1.0
 10
-0.878751968503937
 20
2.711787401574803
 30
0.0
 10
-0.9214291338582677
 20
3.14553937007874
 30
0.0
 10
-0.9395590551181102
 20
3.749645669291338
 30
0.0
 10
-0.5411614173228346
 20
3.905854330708662
 30
0.0
 10
-0.5411614173228346
 20
3.905854330708662
 30
0.0
 10
-0.5411614173228346
 20
3.905854330708662
 30
0.0
 10
-0.5311496062992126
 20
3.20040157480315
 30
0.0
 10
-0.5311496062992126
 20
3.20040157480315
 30
0.0
 10
-0.5311496062992126
 20
3.20040157480315
 30
0.0
 10
-0.5308543307086614
 20
3.179771653543307
 30
0.0
 10
-0.5137834645669291
 20
3.16298031496063
 30
0.0
 10
-0.4932204724409449
 20
3.163271653543307
 30
0.0
 10
-0.4932204724409449
 20
3.163271653543307
 30
0.0
 10
-0.4932204724409449
 20
3.163271653543307
 30
0.0
 10
-0.4932204724409449
 20
3.163271653543307
 30
0.0
 10
-0.4932204724409449
 20
3.163271653543307
 30
0.0
 10
-0.4932204724409449
 20
3.163271653543307
 30
0.0
 10
-0.4726496062992126
 20
3.16355905511811
 30
0.0
 10
-0.4560629921259843
 20
3.180748031496063
 30
0.0
 10
-0.4563543307086614
 20
3.20146062992126
 30
0.0
 10
-0.4563543307086614
 20
3.20146062992126
 30
0.0
 10
-0.4563543307086614
 20
3.20146062992126
 30
0.0
 10
-0.4666771653543307
 20
3.928708661417323
 30
0.0
 10
-0.4666771653543307
 20
3.928708661417323
 30
0.0
 10
-0.4666771653543307
 20
3.928708661417323
 30
0.0
 10
-0.4666771653543307
 20
3.928708661417323
 30
0.0
 10
-0.4665905511811024
 20
3.928732283464567
 30
0.0
 10
-0.4665905511811024
 20
3.928732283464567
 30
0.0
 10
-0.4665905511811024
 20
3.928732283464567
 30
0.0
 10
-0.4665905511811024
 20
3.928732283464567
 30
0.0
 10
-0.1260196850393701
 20
3.933562992125984
 30
0.0
 10
-0.1260196850393701
 20
3.933562992125984
 30
0.0
 10
-0.1260196850393701
 20
3.933562992125984
 30
0.0
 10
-0.1260196850393701
 20
3.933562992125984
 30
0.0
 10
-0.1086259842519685
 20
2.707897637795276
 30
0.0
 10
-0.1086259842519685
 20
2.707897637795276
 30
0.0
 10
-0.1086259842519685
 20
2.707897637795276
 30
0.0
 10
-0.1096732283464567
 20
2.564177165354331
 30
0.0
 10
-0.0999803149606299
 20
2.573452755905512
 30
0.0
 10
-0.2270393700787401
 20
2.570933070866142
 30
0.0
 10
-0.2270393700787401
 20
2.570933070866142
 30
0.0
 10
-0.2270393700787401
 20
2.570933070866142
 30
0.0
 10
-0.7464212598425197
 20
2.563566929133858
 30
0.0
 10
-0.7464212598425197
 20
2.563566929133858
 30
0.0
 10
-0.7464212598425197
 20
2.563566929133858
 30
0.0
 10
-0.8900905511811024
 20
2.561527559055118
 30
0.0
 10
-0.8647047244094488
 20
2.568909448818898
 30
0.0
 10
-0.878751968503937
 20
2.711787401574803
 30
0.0
  0
SPLINE
  5
8B
330
1F
100
AcDbEntity
  8
Layer 1
 62
   252
370
    18
100
AcDbSpline
210
0.0
220
0.0
230
1.0
 70
    11
 71
     3
 72
    52
 73
    48
 74
     0
 42
0.0000000001
 43
0.0000000001
 40
0.0
 40
0.0
 40
0.0
 40
0.0
 40
0.0833333333333333
 40
0.0833333333333333
 40
0.0833333333333333
 40
0.0833333333333333
 40
0.1666666666666667
 40
0.1666666666666667
 40
0.1666666666666667
 40
0.1666666666666667
 40
0.25
 40
0.25
 40
0.25
 40
0.25
 40
0.3333333333333333
 40
0.3333333333333333
 40
0.3333333333333333
 40
0.3333333333333333
 40
0.4166666666666666
 40
0.4166666666666666
 40
0.4166666666666666
 40
0.4166666666666666
 40
0.4999999999999999
 40
0.4999999999999999
 40
0.4999999999999999
 40
0.4999999999999999
 40
0.5833333333333333
 40
0.5833333333333333
 40
0.5833333333333333
 40
0.5833333333333333
 40
0.6666666666666666
 40
0.6666666666666666
 40
0.6666666666666666
 40
0.6666666666666666
 40
0.75
 40
0.75
 40
0.75
 40
0.75
 40
0.8333333333333334
 40
0.8333333333333334
 40
0.8333333333333334
 40
0.8333333333333334
 40
0.9166666666666667
 40
0.9166666666666667
 40
0.9166666666666667
 40
0.9166666666666667
 40
1.0
 40
1.0
 40
1.0
 40
1.0
 10
-6.737326771653543
 20
2.573724409448819
 30
0.0
 10
-6.780003937007874
 20
3.007476377952756
 30
0.0
 10
-6.798133858267716
 20
3.611582677165354
 30
0.0
 10
-6.399736220472441
 20
3.767791338582677
 30
0.0
 10
-6.399736220472441
 20
3.767791338582677
 30
0.0
 10
-6.399736220472441
 20
3.767791338582677
 30
0.0
 10
-6.389724409448819
 20
3.062338582677165
 30
0.0
 10
-6.389724409448819
 20
3.062338582677165
 30
0.0
 10
-6.389724409448819
 20
3.062338582677165
 30
0.0
 10
-6.389425196850394
 20
3.041708661417323
 30
0.0
 10
-6.372354330708661
 20
3.024917322834646
 30
0.0
 10
-6.351791338582677
 20
3.025208661417323
 30
0.0
 10
-6.351791338582677
 20
3.025208661417323
 30
0.0
 10
-6.351791338582677
 20
3.025208661417323
 30
0.0
 10
-6.351791338582677
 20
3.025208661417323
 30
0.0
 10
-6.351791338582677
 20
3.025208661417323
 30
0.0
 10
-6.351791338582677
 20
3.025208661417323
 30
0.0
 10
-6.331220472440945
 20
3.025496062992126
 30
0.0
 10
-6.314633858267716
 20
3.042685039370079
 30
0.0
 10
-6.314929133858268
 20
3.063397637795275
 30
0.0
 10
-6.314929133858268
 20
3.063397637795275
 30
0.0
 10
-6.314929133858268
 20
3.063397637795275
 30
0.0
 10
-6.325248031496063
 20
3.790645669291338
 30
0.0
 10
-6.325248031496063
 20
3.790645669291338
 30
0.0
 10
-6.325248031496063
 20
3.790645669291338
 30
0.0
 10
-6.325248031496063
 20
3.790645669291338
 30
0.0
 10
-6.325161417322835
 20
3.790665354330709
 30
0.0
 10
-6.325161417322835
 20
3.790665354330709
 30
0.0
 10
-6.325161417322835
 20
3.790665354330709
 30
0.0
 10
-6.325161417322835
 20
3.790665354330709
 30
0.0
 10
-5.984590551181102
 20
3.7955
 30
0.0
 10
-5.984590551181102
 20
3.7955
 30
0.0
 10
-5.984590551181102
 20
3.7955
 30
0.0
 10
-5.984590551181102
 20
3.7955
 30
0.0
 10
-5.967200787401575
 20
2.569834645669292
 30
0.0
 10
-5.967200787401575
 20
2.569834645669292
 30
0.0
 10
-5.967200787401575
 20
2.569834645669292
 30
0.0
 10
-5.968244094488189
 20
2.426114173228346
 30
0.0
 10
-5.958551181102362
 20
2.435389763779527
 30
0.0
 10
-6.085610236220472
 20
2.432870078740157
 30
0.0
 10
-6.085610236220472
 20
2.432870078740157
 30
0.0
 10
-6.085610236220472
 20
2.432870078740157
 30
0.0
 10
-6.604992125984252
 20
2.425503937007874
 30
0.0
 10
-6.604992125984252
 20
2.425503937007874
 30
0.0
 10
-6.604992125984252
 20
2.425503937007874
 30
0.0
 10
-6.748661417322834
 20
2.423464566929134
 30
0.0
 10
-6.723267716535433
 20
2.430846456692914
 30
0.0
 10
-6.737326771653543
 20
2.573724409448819
 30
0.0
  0
SPLINE
  5
8C
330
1F
100
AcDbEntity
  8
Layer 1
 62
   252
370
    18
100
AcDbSpline
210
0.0
220
0.0
230
1.0
 70
    11
 71
     3
 72
   124
 73
   120
 74
     0
 42
0.0000000001
 43
0.0000000001
 40
0.0
 40
0.0
 40
0.0
 40
0.0
 40
0.0333333333333333
 40
0.0333333333333333
 40
0.0333333333333333
 40
0.0333333333333333
 40
0.0666666666666667
 40
0.0666666666666667
 40
0.0666666666666667
 40
0.0666666666666667
 40
0.1
 40
0.1
 40
0.1
 40
0.1
 40
0.1333333333333333
 40
0.1333333333333333
 40
0.1333333333333333
 40
0.1333333333333333
 40
0.1666666666666667
 40
0.1666666666666667
 40
0.1666666666666667
 40
0.1666666666666667
 40
0.2
 40
0.2
 40
0.2
 40
0.2
 40
0.2333333333333333
 40
0.2333333333333333
 40
0.2333333333333333
 40
0.2333333333333333
 40
0.2666666666666667
 40
0.2666666666666667
 40
0.2666666666666667
 40
0.2666666666666667
 40
0.3
 40
0.3
 40
0.3
 40
0.3
 40
0.3333333333333333
 40
0.3333333333333333
 40
0.3333333333333333
 40
0.3333333333333333
 40
0.3666666666666666
 40
0.3666666666666666
 40
0.3666666666666666
 40
0.3666666666666666
 40
0.4
 40
0.4
 40
0.4
 40
0.4
 40
0.4333333333333333
 40
0.4333333333333333
 40
0.4333333333333333
 40
0.4333333333333333
 40
0.4666666666666666
 40
0.4666666666666666
 40
0.4666666666666666
 40
0.4666666666666666
 40
0.4999999999999999
 40
0.4999999999999999
 40
0.4999999999999999
 40
0.4999999999999999
 40
0.5333333333333333
 40
0.5333333333333333
 40
0.5333333333333333
 40
0.5333333333333333
 40
0.5666666666666667
 40
0.5666666666666667
 40
0.5666666666666667
 40
0.5666666666666667
 40
0.6
 40
0.6
 40
0.6
 40
0.6
 40
0.6333333333333333
 40
0.6333333333333333
 40
0.6333333333333333
 40
0.6333333333333333
 40
0.6666666666666666
 40
0.6666666666666666
 40
0.6666666666666666
 40
0.6666666666666666
 40
0.7
 40
0.7
 40
0.7
 40
0.7
 40
0.7333333333333333
 40
0.7333333333333333
 40
0.7333333333333333
 40
0.7333333333333333
 40
0.7666666666666666
 40
0.7666666666666666
 40
0.7666666666666666
 40
0.7666666666666666
 40
0.7999999999999999
 40
0.7999999999999999
 40
0.7999999999999999
 40
0.7999999999999999
 40
0.8333333333333333
 40
0.8333333333333333
 40
0.8333333333333333
 40
0.8333333333333333
 40
0.8666666666666666
 40
0.8666666666666666
 40
0.8666666666666666
 40
0.8666666666666666
 40
0.8999999999999999
 40
0.8999999999999999
 40
0.8999999999999999
 40
0.8999999999999999
 40
0.9333333333333332
 40
0.9333333333333332
 40
0.9333333333333332
 40
0.9333333333333332
 40
0.9666666666666666
 40
0.9666666666666666
 40
0.9666666666666666
 40
0.9666666666666666
 40
1.0
 40
1.0
 40
1.0
 40
1.0
 10
-9.561141732283465
 20
2.989893700787401
 30
0.0
 10
-9.561141732283465
 20
2.989893700787401
 30
0.0
 10
-8.851838582677166
 20
2.960877952755906
 30
0.0
 10
-8.851838582677166
 20
2.960877952755906
 30
0.0
 10
-8.851838582677166
 20
2.960877952755906
 30
0.0
 10
-8.851838582677166
 20
2.960877952755906
 30
0.0
 10
-8.867972440944882
 20
2.566586614173228
 30
0.0
 10
-8.867972440944882
 20
2.566586614173228
 30
0.0
 10
-8.867972440944882
 20
2.566586614173228
 30
0.0
 10
-8.868818897637794
 20
2.545893700787401
 30
0.0
 10
-8.852692913385827
 20
2.528267716535433
 30
0.0
 10
-8.83214566929134
 20
2.527429133858268
 30
0.0
 10
-8.83214566929134
 20
2.527429133858268
 30
0.0
 10
-8.83214566929134
 20
2.527429133858268
 30
0.0
 10
-8.83214566929134
 20
2.527429133858268
 30
0.0
 10
-8.83214566929134
 20
2.527429133858268
 30
0.0
 10
-8.83214566929134
 20
2.527429133858268
 30
0.0
 10
-8.811586614173228
 20
2.52657874015748
 30
0.0
 10
-8.794074803149606
 20
2.542881889763779
 30
0.0
 10
-8.793232283464567
 20
2.563535433070866
 30
0.0
 10
-8.793232283464567
 20
2.563535433070866
 30
0.0
 10
-8.793232283464567
 20
2.563535433070866
 30
0.0
 10
-8.777102362204724
 20
2.957818897637795
 30
0.0
 10
-8.777102362204724
 20
2.957818897637795
 30
0.0
 10
-8.777102362204724
 20
2.957818897637795
 30
0.0
 10
-8.777102362204724
 20
2.957818897637795
 30
0.0
 10
-8.05851968503937
 20
2.928425196850394
 30
0.0
 10
-8.05851968503937
 20
2.928425196850394
 30
0.0
 10
-8.05851968503937
 20
2.928425196850394
 30
0.0
 10
-7.989259842519685
 20
2.925590551181102
 30
0.0
 10
-7.934917322834646
 20
2.866610236220473
 30
0.0
 10
-7.937748031496063
 20
2.797354330708661
 30
0.0
 10
-7.937748031496063
 20
2.797354330708661
 30
0.0
 10
-7.937748031496063
 20
2.797354330708661
 30
0.0
 10
-7.942452755905512
 20
2.682381889763779
 30
0.0
 10
-7.942452755905512
 20
2.682381889763779
 30
0.0
 10
-7.942452755905512
 20
2.682381889763779
 30
0.0
 10
-7.9405
 20
2.68588188976378
 30
0.0
 10
-7.937740157480315
 20
2.688043307086614
 30
0.0
 10
-7.934775590551181
 20
2.687917322834646
 30
0.0
 10
-7.934775590551181
 20
2.687917322834646
 30
0.0
 10
-7.934775590551181
 20
2.687917322834646
 30
0.0
 10
-7.875775590551181
 20
2.685507874015748
 30
0.0
 10
-7.875775590551181
 20
2.685507874015748
 30
0.0
 10
-7.875775590551181
 20
2.685507874015748
 30
0.0
 10
-7.870358267716536
 20
2.685283464566929
 30
0.0
 10
-7.866244094488189
 20
2.677547244094488
 30
0.0
 10
-7.866622047244094
 20
2.668311023622047
 30
0.0
 10
-7.866622047244094
 20
2.668311023622047
 30
0.0
 10
-7.866622047244094
 20
2.668311023622047
 30
0.0
 10
-7.888255905511811
 20
2.139452755905512
 30
0.0
 10
-7.888255905511811
 20
2.139452755905512
 30
0.0
 10
-7.888255905511811
 20
2.139452755905512
 30
0.0
 10
-7.888633858267717
 20
2.130220472440945
 30
0.0
 10
-7.893370078740158
 20
2.122850393700787
 30
0.0
 10
-7.898779527559055
 20
2.123070866141732
 30
0.0
 10
-7.898779527559055
 20
2.123070866141732
 30
0.0
 10
-7.898779527559055
 20
2.123070866141732
 30
0.0
 10
-7.957779527559055
 20
2.125484251968504
 30
0.0
 10
-7.957779527559055
 20
2.125484251968504
 30
0.0
 10
-7.957779527559055
 20
2.125484251968504
 30
0.0
 10
-7.960751968503937
 20
2.125606299212599
 30
0.0
 10
-7.96332283464567
 20
2.127984251968504
 30
0.0
 10
-7.964984251968504
 20
2.131629921259842
 30
0.0
 10
-7.964984251968504
 20
2.131629921259842
 30
0.0
 10
-7.964984251968504
 20
2.131629921259842
 30
0.0
 10
-7.968657480314961
 20
2.041842519685039
 30
0.0
 10
-7.968657480314961
 20
2.041842519685039
 30
0.0
 10
-7.968657480314961
 20
2.041842519685039
 30
0.0
 10
-7.971488188976378
 20
1.972582677165354
 30
0.0
 10
-8.030468503937009
 20
1.918244094488189
 30
0.0
 10
-8.099720472440945
 20
1.921070866141732
 30
0.0
 10
-8.099720472440945
 20
1.921070866141732
 30
0.0
 10
-8.099720472440945
 20
1.921070866141732
 30
0.0
 10
-9.602350393700787
 20
1.982547244094488
 30
0.0
 10
-9.602350393700787
 20
1.982547244094488
 30
0.0
 10
-9.602350393700787
 20
1.982547244094488
 30
0.0
 10
-9.671602362204725
 20
1.985374015748032
 30
0.0
 10
-9.725948818897638
 20
2.044354330708662
 30
0.0
 10
-9.723114173228346
 20
2.11361811023622
 30
0.0
 10
-9.723114173228346
 20
2.11361811023622
 30
0.0
 10
-9.723114173228346
 20
2.11361811023622
 30
0.0
 10
-9.719503937007874
 20
2.201996062992126
 30
0.0
 10
-9.719503937007874
 20
2.201996062992126
 30
0.0
 10
-9.719503937007874
 20
2.201996062992126
 30
0.0
 10
-9.723216535433071
 20
2.199393700787402
 30
0.0
 10
-9.727374015748032
 20
2.197874015748031
 30
0.0
 10
-9.729925196850393
 20
2.197984251968504
 30
0.0
 10
-9.729925196850393
 20
2.197984251968504
 30
0.0
 10
-9.729925196850393
 20
2.197984251968504
 30
0.0
 10
-9.788925196850395
 20
2.200393700787401
 30
0.0
 10
-9.788925196850395
 20
2.200393700787401
 30
0.0
 10
-9.788925196850395
 20
2.200393700787401
 30
0.0
 10
-9.79434251968504
 20
2.200614173228347
 30
0.0
 10
-9.798448818897638
 20
2.208346456692913
 30
0.0
 10
-9.798070866141732
 20
2.217586614173229
 30
0.0
 10
-9.798070866141732
 20
2.217586614173229
 30
0.0
 10
-9.798070866141732
 20
2.217586614173229
 30
0.0
 10
-9.77644094488189
 20
2.74644094488189
 30
0.0
 10
-9.77644094488189
 20
2.74644094488189
 30
0.0
 10
-9.77644094488189
 20
2.74644094488189
 30
0.0
 10
-9.776062992125985
 20
2.755677165354331
 30
0.0
 10
-9.771330708661417
 20
2.763051181102362
 30
0.0
 10
-9.76592125984252
 20
2.762830708661417
 30
0.0
 10
-9.76592125984252
 20
2.762830708661417
 30
0.0
 10
-9.76592125984252
 20
2.762830708661417
 30
0.0
 10
-9.706913385826772
 20
2.760413385826772
 30
0.0
 10
-9.706913385826772
 20
2.760413385826772
 30
0.0
 10
-9.706913385826772
 20
2.760413385826772
 30
0.0
 10
-9.70436220472441
 20
2.760311023622047
 30
0.0
 10
-9.700342519685039
 20
2.758452755905512
 30
0.0
 10
-9.69686220472441
 20
2.755562992125984
 30
0.0
 10
-9.69686220472441
 20
2.755562992125984
 30
0.0
 10
-9.69686220472441
 20
2.755562992125984
 30
0.0
 10
-9.692212598425197
 20
2.869125984251968
 30
0.0
 10
-9.692212598425197
 20
2.869125984251968
 30
0.0
 10
-9.692212598425197
 20
2.869125984251968
 30
0.0
 10
-9.689374015748031
 20
2.93838188976378
 30
0.0
 10
-9.63040157480315
 20
2.992720472440945
 30
0.0
 10
-9.561141732283465
 20
2.989893700787401
 30
0.0
  0
SPLINE
  5
8D
330
1F
100
AcDbEntity
  8
Layer 1
 62
   252
370
    18
100
AcDbSpline
210
0.0
220
0.0
230
1.0
 70
    11
 71
     3
 72
    36
 73
    32
 74
     0
 42
0.0000000001
 43
0.0000000001
 40
0.0
 40
0.0
 40
0.0
 40
0.0
 40
0.125
 40
0.125
 40
0.125
 40
0.125
 40
0.25
 40
0.25
 40
0.25
 40
0.25
 40
0.375
 40
0.375
 40
0.375
 40
0.375
 40
0.5
 40
0.5
 40
0.5
 40
0.5
 40
0.625
 40
0.625
 40
0.625
 40
0.625
 40
0.75
 40
0.75
 40
0.75
 40
0.75
 40
0.875
 40
0.875
 40
0.875
 40
0.875
 40
1.0
 40
1.0
 40
1.0
 40
1.0
 10
-8.148141732283465
 20
2.820318897637795
 30
0.0
 10
-8.148141732283465
 20
2.820318897637795
 30
0.0
 10
-8.148141732283465
 20
2.820318897637795
 30
0.0
 10
-8.148141732283465
 20
2.820318897637795
 30
0.0
 10
-8.148141732283465
 20
2.820318897637795
 30
0.0
 10
-8.096244094488188
 20
2.818196850393701
 30
0.0
 10
-8.054661417322835
 20
2.79505905511811
 30
0.0
 10
-8.055728346456693
 20
2.768992125984252
 30
0.0
 10
-8.055728346456693
 20
2.768992125984252
 30
0.0
 10
-8.055728346456693
 20
2.768992125984252
 30
0.0
 10
-8.066566929133858
 20
2.503976377952756
 30
0.0
 10
-8.066566929133858
 20
2.503976377952756
 30
0.0
 10
-8.066566929133858
 20
2.503976377952756
 30
0.0
 10
-8.067633858267717
 20
2.477913385826771
 30
0.0
 10
-8.110968503937007
 20
2.458248031496063
 30
0.0
 10
-8.162862204724409
 20
2.460370078740158
 30
0.0
 10
-8.162862204724409
 20
2.460370078740158
 30
0.0
 10
-8.162862204724409
 20
2.460370078740158
 30
0.0
 10
-8.162862204724409
 20
2.460370078740158
 30
0.0
 10
-8.162862204724409
 20
2.460370078740158
 30
0.0
 10
-8.162862204724409
 20
2.460370078740158
 30
0.0
 10
-8.214759842519685
 20
2.462492125984252
 30
0.0
 10
-8.25634251968504
 20
2.485586614173228
 30
0.0
 10
-8.25527559055118
 20
2.511692913385827
 30
0.0
 10
-8.25527559055118
 20
2.511692913385827
 30
0.0
 10
-8.25527559055118
 20
2.511692913385827
 30
0.0
 10
-8.244437007874016
 20
2.776712598425197
 30
0.0
 10
-8.244437007874016
 20
2.776712598425197
 30
0.0
 10
-8.244437007874016
 20
2.776712598425197
 30
0.0
 10
-8.243370078740158
 20
2.802818897637795
 30
0.0
 10
-8.200035433070866
 20
2.82244094488189
 30
0.0
 10
-8.148141732283465
 20
2.820318897637795
 30
0.0
  0
SPLINE
  5
8E
330
1F
100
AcDbEntity
  8
Layer 1
 62
   252
370
    18
100
AcDbSpline
210
0.0
220
0.0
230
1.0
 70
    11
 71
     3
 72
    36
 73
    32
 74
     0
 42
0.0000000001
 43
0.0000000001
 40
0.0
 40
0.0
 40
0.0
 40
0.0
 40
0.125
 40
0.125
 40
0.125
 40
0.125
 40
0.25
 40
0.25
 40
0.25
 40
0.25
 40
0.375
 40
0.375
 40
0.375
 40
0.375
 40
0.5
 40
0.5
 40
0.5
 40
0.5
 40
0.625
 40
0.625
 40
0.625
 40
0.625
 40
0.75
 40
0.75
 40
0.75
 40
0.75
 40
0.875
 40
0.875
 40
0.875
 40
0.875
 40
1.0
 40
1.0
 40
1.0
 40
1.0
 10
-8.513921259842519
 20
2.843677165354331
 30
0.0
 10
-8.513921259842519
 20
2.843677165354331
 30
0.0
 10
-8.513921259842519
 20
2.843677165354331
 30
0.0
 10
-8.513921259842519
 20
2.843677165354331
 30
0.0
 10
-8.513921259842519
 20
2.843677165354331
 30
0.0
 10
-8.462031496062993
 20
2.841555118110236
 30
0.0
 10
-8.420448818897638
 20
2.81842125984252
 30
0.0
 10
-8.421515748031496
 20
2.792354330708661
 30
0.0
 10
-8.421515748031496
 20
2.792354330708661
 30
0.0
 10
-8.421515748031496
 20
2.792354330708661
 30
0.0
 10
-8.43235433070866
 20
2.527342519685039
 30
0.0
 10
-8.43235433070866
 20
2.527342519685039
 30
0.0
 10
-8.43235433070866
 20
2.527342519685039
 30
0.0
 10
-8.43342125984252
 20
2.501271653543307
 30
0.0
 10
-8.47675590551181
 20
2.481610236220472
 30
0.0
 10
-8.528649606299213
 20
2.483732283464567
 30
0.0
 10
-8.528649606299213
 20
2.483732283464567
 30
0.0
 10
-8.528649606299213
 20
2.483732283464567
 30
0.0
 10
-8.528649606299213
 20
2.483732283464567
 30
0.0
 10
-8.528649606299213
 20
2.483732283464567
 30
0.0
 10
-8.528649606299213
 20
2.483732283464567
 30
0.0
 10
-8.580547244094488
 20
2.485858267716536
 30
0.0
 10
-8.622129921259843
 20
2.508948818897638
 30
0.0
 10
-8.621062992125983
 20
2.53505905511811
 30
0.0
 10
-8.621062992125983
 20
2.53505905511811
 30
0.0
 10
-8.621062992125983
 20
2.53505905511811
 30
0.0
 10
-8.610224409448819
 20
2.800074803149606
 30
0.0
 10
-8.610224409448819
 20
2.800074803149606
 30
0.0
 10
-8.610224409448819
 20
2.800074803149606
 30
0.0
 10
-8.60915748031496
 20
2.826177165354331
 30
0.0
 10
-8.565822834645669
 20
2.845807086614173
 30
0.0
 10
-8.513921259842519
 20
2.843677165354331
 30
0.0
  0
SPLINE
  5
8F
330
1F
100
AcDbEntity
  8
Layer 1
 62
   252
370
    18
100
AcDbSpline
210
0.0
220
0.0
230
1.0
 70
    11
 71
     3
 72
    36
 73
    32
 74
     0
 42
0.0000000001
 43
0.0000000001
 40
0.0
 40
0.0
 40
0.0
 40
0.0
 40
0.125
 40
0.125
 40
0.125
 40
0.125
 40
0.25
 40
0.25
 40
0.25
 40
0.25
 40
0.375
 40
0.375
 40
0.375
 40
0.375
 40
0.5
 40
0.5
 40
0.5
 40
0.5
 40
0.625
 40
0.625
 40
0.625
 40
0.625
 40
0.75
 40
0.75
 40
0.75
 40
0.75
 40
0.875
 40
0.875
 40
0.875
 40
0.875
 40
1.0
 40
1.0
 40
1.0
 40
1.0
 10
-9.10836220472441
 20
2.85959842519685
 30
0.0
 10
-9.10836220472441
 20
2.85959842519685
 30
0.0
 10
-9.10836220472441
 20
2.85959842519685
 30
0.0
 10
-9.10836220472441
 20
2.85959842519685
 30
0.0
 10
-9.10836220472441
 20
2.85959842519685
 30
0.0
 10
-9.056464566929133
 20
2.857476377952756
 30
0.0
 10
-9.01488188976378
 20
2.834334645669291
 30
0.0
 10
-9.015948818897638
 20
2.808271653543307
 30
0.0
 10
-9.015948818897638
 20
2.808271653543307
 30
0.0
 10
-9.015948818897638
 20
2.808271653543307
 30
0.0
 10
-9.026787401574802
 20
2.543255905511811
 30
0.0
 10
-9.026787401574802
 20
2.543255905511811
 30
0.0
 10
-9.026787401574802
 20
2.543255905511811
 30
0.0
 10
-9.027854330708662
 20
2.517192913385827
 30
0.0
 10
-9.071188976377952
 20
2.497523622047244
 30
0.0
 10
-9.123082677165355
 20
2.499645669291338
 30
0.0
 10
-9.123082677165355
 20
2.499645669291338
 30
0.0
 10
-9.123082677165355
 20
2.499645669291338
 30
0.0
 10
-9.123082677165355
 20
2.499645669291338
 30
0.0
 10
-9.123082677165355
 20
2.499645669291338
 30
0.0
 10
-9.123082677165355
 20
2.499645669291338
 30
0.0
 10
-9.17498031496063
 20
2.501771653543307
 30
0.0
 10
-9.216562992125985
 20
2.524870078740157
 30
0.0
 10
-9.215496062992125
 20
2.55098031496063
 30
0.0
 10
-9.215496062992125
 20
2.55098031496063
 30
0.0
 10
-9.215496062992125
 20
2.55098031496063
 30
0.0
 10
-9.20465748031496
 20
2.815988188976378
 30
0.0
 10
-9.20465748031496
 20
2.815988188976378
 30
0.0
 10
-9.20465748031496
 20
2.815988188976378
 30
0.0
 10
-9.203590551181103
 20
2.84209842519685
 30
0.0
 10
-9.16025590551181
 20
2.861720472440945
 30
0.0
 10
-9.10836220472441
 20
2.85959842519685
 30
0.0
  0
SPLINE
  5
90
330
1F
100
AcDbEntity
  8
Layer 1
 62
   252
370
    18
100
AcDbSpline
210
0.0
220
0.0
230
1.0
 70
    11
 71
     3
 72
    36
 73
    32
 74
     0
 42
0.0000000001
 43
0.0000000001
 40
0.0
 40
0.0
 40
0.0
 40
0.0
 40
0.125
 40
0.125
 40
0.125
 40
0.125
 40
0.25
 40
0.25
 40
0.25
 40
0.25
 40
0.375
 40
0.375
 40
0.375
 40
0.375
 40
0.5
 40
0.5
 40
0.5
 40
0.5
 40
0.625
 40
0.625
 40
0.625
 40
0.625
 40
0.75
 40
0.75
 40
0.75
 40
0.75
 40
0.875
 40
0.875
 40
0.875
 40
0.875
 40
1.0
 40
1.0
 40
1.0
 40
1.0
 10
-9.474141732283465
 20
2.882964566929134
 30
0.0
 10
-9.474141732283465
 20
2.882964566929134
 30
0.0
 10
-9.474141732283465
 20
2.882964566929134
 30
0.0
 10
-9.474141732283465
 20
2.882964566929134
 30
0.0
 10
-9.474141732283465
 20
2.882964566929134
 30
0.0
 10
-9.422251968503938
 20
2.880842519685039
 30
0.0
 10
-9.380669291338583
 20
2.857700787401575
 30
0.0
 10
-9.38173622047244
 20
2.831633858267717
 30
0.0
 10
-9.38173622047244
 20
2.831633858267717
 30
0.0
 10
-9.38173622047244
 20
2.831633858267717
 30
0.0
 10
-9.392574803149607
 20
2.566622047244095
 30
0.0
 10
-9.392574803149607
 20
2.566622047244095
 30
0.0
 10
-9.392574803149607
 20
2.566622047244095
 30
0.0
 10
-9.393641732283465
 20
2.54055905511811
 30
0.0
 10
-9.436976377952757
 20
2.520889763779528
 30
0.0
 10
-9.488870078740158
 20
2.523011811023622
 30
0.0
 10
-9.488870078740158
 20
2.523011811023622
 30
0.0
 10
-9.488870078740158
 20
2.523011811023622
 30
0.0
 10
-9.488870078740158
 20
2.523011811023622
 30
0.0
 10
-9.488870078740158
 20
2.523011811023622
 30
0.0
 10
-9.488870078740158
 20
2.523011811023622
 30
0.0
 10
-9.540767716535433
 20
2.525133858267717
 30
0.0
 10
-9.582350393700787
 20
2.548228346456693
 30
0.0
 10
-9.58128346456693
 20
2.57434251968504
 30
0.0
 10
-9.58128346456693
 20
2.57434251968504
 30
0.0
 10
-9.58128346456693
 20
2.57434251968504
 30
0.0
 10
-9.570444881889763
 20
2.839354330708662
 30
0.0
 10
-9.570444881889763
 20
2.839354330708662
 30
0.0
 10
-9.570444881889763
 20
2.839354330708662
 30
0.0
 10
-9.569377952755906
 20
2.865464566929134
 30
0.0
 10
-9.526043307086614
 20
2.885086614173229
 30
0.0
 10
-9.474141732283465
 20
2.882964566929134
 30
0.0
  0
SPLINE
  5
91
330
1F
100
AcDbEntity
  8
Layer 1
 62
   252
370
    18
100
AcDbSpline
210
0.0
220
0.0
230
1.0
 70
    27
 71
     3
 72
     8
 73
     4
 74
     0
 42
0.0000000001
 43
0.0000000001
 40
0.0
 40
0.0
 40
0.0
 40
0.0
 40
1.0
 40
1.0
 40
1.0
 40
1.0
 10
-8.168551181102362
 20
2.833429133858268
 30
0.0
 10
-8.168551181102362
 20
2.833429133858268
 30
0.0
 10
-8.168551181102362
 20
2.833429133858268
 30
0.0
 10
-8.168551181102362
 20
2.833429133858268
 30
0.0
  0
SPLINE
  5
92
330
1F
100
AcDbEntity
  8
Layer 1
 62
   252
370
    18
100
AcDbSpline
210
0.0
220
0.0
230
1.0
 70
    27
 71
     3
 72
     8
 73
     4
 74
     0
 42
0.0000000001
 43
0.0000000001
 40
0.0
 40
0.0
 40
0.0
 40
0.0
 40
1.0
 40
1.0
 40
1.0
 40
1.0
 10
-8.506610236220473
 20
2.847259842519685
 30
0.0
 10
-8.506610236220473
 20
2.847259842519685
 30
0.0
 10
-8.506610236220473
 20
2.847259842519685
 30
0.0
 10
-8.506610236220473
 20
2.847259842519685
 30
0.0
  0
SPLINE
  5
93
330
1F
100
AcDbEntity
  8
Layer 1
 62
   252
370
    18
100
AcDbSpline
210
0.0
220
0.0
230
1.0
 70
    27
 71
     3
 72
     8
 73
     4
 74
     0
 42
0.0000000001
 43
0.0000000001
 40
0.0
 40
0.0
 40
0.0
 40
0.0
 40
1.0
 40
1.0
 40
1.0
 40
1.0
 10
-9.131602362204724
 20
2.872822834645669
 30
0.0
 10
-9.131602362204724
 20
2.872822834645669
 30
0.0
 10
-9.131602362204724
 20
2.872822834645669
 30
0.0
 10
-9.131602362204724
 20
2.872822834645669
 30
0.0
  0
SPLINE
  5
94
330
1F
100
AcDbEntity
  8
Layer 1
 62
   252
370
    18
100
AcDbSpline
210
0.0
220
0.0
230
1.0
 70
    27
 71
     3
 72
     8
 73
     4
 74
     0
 42
0.0000000001
 43
0.0000000001
 40
0.0
 40
0.0
 40
0.0
 40
0.0
 40
1.0
 40
1.0
 40
1.0
 40
1.0
 10
-9.469665354330708
 20
2.886653543307087
 30
0.0
 10
-9.469665354330708
 20
2.886653543307087
 30
0.0
 10
-9.469665354330708
 20
2.886653543307087
 30
0.0
 10
-9.469665354330708
 20
2.886653543307087
 30
0.0
  0
SPLINE
  5
95
330
1F
100
AcDbEntity
  8
Layer 1
 62
   252
370
    18
100
AcDbSpline
210
0.0
220
0.0
230
1.0
 70
    11
 71
     3
 72
   108
 73
   104
 74
     0
 42
0.0000000001
 43
0.0000000001
 40
0.0
 40
0.0
 40
0.0
 40
0.0
 40
0.0384615384615385
 40
0.0384615384615385
 40
0.0384615384615385
 40
0.0384615384615385
 40
0.0769230769230769
 40
0.0769230769230769
 40
0.0769230769230769
 40
0.0769230769230769
 40
0.1153846153846154
 40
0.1153846153846154
 40
0.1153846153846154
 40
0.1153846153846154
 40
0.1538461538461539
 40
0.1538461538461539
 40
0.1538461538461539
 40
0.1538461538461539
 40
0.1923076923076923
 40
0.1923076923076923
 40
0.1923076923076923
 40
0.1923076923076923
 40
0.2307692307692308
 40
0.2307692307692308
 40
0.2307692307692308
 40
0.2307692307692308
 40
0.2692307692307693
 40
0.2692307692307693
 40
0.2692307692307693
 40
0.2692307692307693
 40
0.3076923076923077
 40
0.3076923076923077
 40
0.3076923076923077
 40
0.3076923076923077
 40
0.3461538461538461
 40
0.3461538461538461
 40
0.3461538461538461
 40
0.3461538461538461
 40
0.3846153846153846
 40
0.3846153846153846
 40
0.3846153846153846
 40
0.3846153846153846
 40
0.423076923076923
 40
0.423076923076923
 40
0.423076923076923
 40
0.423076923076923
 40
0.4615384615384615
 40
0.4615384615384615
 40
0.4615384615384615
 40
0.4615384615384615
 40
0.4999999999999999
 40
0.4999999999999999
 40
0.4999999999999999
 40
0.4999999999999999
 40
0.5384615384615383
 40
0.5384615384615383
 40
0.5384615384615383
 40
0.5384615384615383
 40
0.5769230769230768
 40
0.5769230769230768
 40
0.5769230769230768
 40
0.5769230769230768
 40
0.6153846153846152
 40
0.6153846153846152
 40
0.6153846153846152
 40
0.6153846153846152
 40
0.6538461538461536
 40
0.6538461538461536
 40
0.6538461538461536
 40
0.6538461538461536
 40
0.6923076923076921
 40
0.6923076923076921
 40
0.6923076923076921
 40
0.6923076923076921
 40
0.7307692307692305
 40
0.7307692307692305
 40
0.7307692307692305
 40
0.7307692307692305
 40
0.7692307692307689
 40
0.7692307692307689
 40
0.7692307692307689
 40
0.7692307692307689
 40
0.8076923076923074
 40
0.8076923076923074
 40
0.8076923076923074
 40
0.8076923076923074
 40
0.8461538461538458
 40
0.8461538461538458
 40
0.8461538461538458
 40
0.8461538461538458
 40
0.8846153846153842
 40
0.8846153846153842
 40
0.8846153846153842
 40
0.8846153846153842
 40
0.9230769230769227
 40
0.9230769230769227
 40
0.9230769230769227
 40
0.9230769230769227
 40
0.9615384615384611
 40
0.9615384615384611
 40
0.9615384615384611
 40
0.9615384615384611
 40
1.0
 40
1.0
 40
1.0
 40
1.0
 10
-6.275543307086614
 20
-1.235838582677165
 30
0.0
 10
-6.275543307086614
 20
-1.235838582677165
 30
0.0
 10
-6.24144094488189
 20
-1.213614173228347
 30
0.0
 10
-6.24144094488189
 20
-1.213614173228347
 30
0.0
 10
-6.24144094488189
 20
-1.213614173228347
 30
0.0
 10
-6.24144094488189
 20
-1.213614173228347
 30
0.0
 10
-6.163972440944882
 20
-1.332456692913386
 30
0.0
 10
-6.163972440944882
 20
-1.332456692913386
 30
0.0
 10
-6.163972440944882
 20
-1.332456692913386
 30
0.0
 10
-6.152669291338583
 20
-1.349799212598425
 30
0.0
 10
-6.129303149606299
 20
-1.354814960629921
 30
0.0
 10
-6.112070866141733
 20
-1.343582677165354
 30
0.0
 10
-6.112070866141733
 20
-1.343582677165354
 30
0.0
 10
-6.112070866141733
 20
-1.343582677165354
 30
0.0
 10
-6.112070866141733
 20
-1.343582677165354
 30
0.0
 10
-6.112070866141733
 20
-1.343582677165354
 30
0.0
 10
-6.112070866141733
 20
-1.343582677165354
 30
0.0
 10
-6.09484251968504
 20
-1.332350393700787
 30
0.0
 10
-6.090027559055118
 20
-1.308917322834646
 30
0.0
 10
-6.101303149606299
 20
-1.291606299212599
 30
0.0
 10
-6.101303149606299
 20
-1.291606299212599
 30
0.0
 10
-6.101303149606299
 20
-1.291606299212599
 30
0.0
 10
-6.178771653543307
 20
-1.172767716535433
 30
0.0
 10
-6.178771653543307
 20
-1.172767716535433
 30
0.0
 10
-6.178771653543307
 20
-1.172767716535433
 30
0.0
 10
-6.178771653543307
 20
-1.172767716535433
 30
0.0
 10
-6.138287401574803
 20
-1.146374015748032
 30
0.0
 10
-6.138287401574803
 20
-1.146374015748032
 30
0.0
 10
-6.138287401574803
 20
-1.146374015748032
 30
0.0
 10
-6.050220472440945
 20
-1.088964566929134
 30
0.0
 10
-5.931192913385827
 20
-1.114066929133858
 30
0.0
 10
-5.873795275590552
 20
-1.202114173228346
 30
0.0
 10
-5.873795275590552
 20
-1.202114173228346
 30
0.0
 10
-5.873795275590552
 20
-1.202114173228346
 30
0.0
 10
-5.792708661417323
 20
-1.326511811023622
 30
0.0
 10
-5.792708661417323
 20
-1.326511811023622
 30
0.0
 10
-5.792708661417323
 20
-1.326511811023622
 30
0.0
 10
-5.717377952755905
 20
-1.327555118110236
 30
0.0
 10
-5.654543307086614
 20
-1.353838582677165
 30
0.0
 10
-5.620728346456693
 20
-1.405720472440945
 30
0.0
 10
-5.620728346456693
 20
-1.405720472440945
 30
0.0
 10
-5.586913385826771
 20
-1.45759842519685
 30
0.0
 10
-5.588216535433071
 20
-1.525696850393701
 30
0.0
 10
-5.617665354330708
 20
-1.59503937007874
 30
0.0
 10
-5.617665354330708
 20
-1.59503937007874
 30
0.0
 10
-5.617665354330708
 20
-1.59503937007874
 30
0.0
 10
-5.564106299212598
 20
-1.677204724409449
 30
0.0
 10
-5.564106299212598
 20
-1.677204724409449
 30
0.0
 10
-5.564106299212598
 20
-1.677204724409449
 30
0.0
 10
-5.506712598425197
 20
-1.765255905511811
 30
0.0
 10
-5.531799212598425
 20
-1.884303149606299
 30
0.0
 10
-5.619846456692914
 20
-1.941696850393701
 30
0.0
 10
-5.619846456692914
 20
-1.941696850393701
 30
0.0
 10
-5.619846456692914
 20
-1.941696850393701
 30
0.0
 10
-5.660342519685039
 20
-1.968086614173228
 30
0.0
 10
-5.660342519685039
 20
-1.968086614173228
 30
0.0
 10
-5.660342519685039
 20
-1.968086614173228
 30
0.0
 10
-5.660342519685039
 20
-1.968086614173228
 30
0.0
 10
-5.922681102362205
 20
-1.565629921259843
 30
0.0
 10
-5.922681102362205
 20
-1.565629921259843
 30
0.0
 10
-5.922681102362205
 20
-1.565629921259843
 30
0.0
 10
-5.93396062992126
 20
-1.548326771653543
 30
0.0
 10
-5.957346456692913
 20
-1.543267716535433
 30
0.0
 10
-5.974582677165355
 20
-1.554503937007874
 30
0.0
 10
-5.974582677165355
 20
-1.554503937007874
 30
0.0
 10
-5.974582677165355
 20
-1.554503937007874
 30
0.0
 10
-5.974582677165355
 20
-1.554503937007874
 30
0.0
 10
-5.974582677165355
 20
-1.554503937007874
 30
0.0
 10
-5.974582677165355
 20
-1.554503937007874
 30
0.0
 10
-5.991818897637796
 20
-1.565736220472441
 30
0.0
 10
-5.996649606299212
 20
-1.589141732283465
 30
0.0
 10
-5.985346456692914
 20
-1.606484251968504
 30
0.0
 10
-5.985346456692914
 20
-1.606484251968504
 30
0.0
 10
-5.985346456692914
 20
-1.606484251968504
 30
0.0
 10
-5.723
 20
-2.008937007874016
 30
0.0
 10
-5.723
 20
-2.008937007874016
 30
0.0
 10
-5.723
 20
-2.008937007874016
 30
0.0
 10
-5.723
 20
-2.008937007874016
 30
0.0
 10
-5.757102362204725
 20
-2.031165354330709
 30
0.0
 10
-5.757102362204725
 20
-2.031165354330709
 30
0.0
 10
-5.757102362204725
 20
-2.031165354330709
 30
0.0
 10
-5.845149606299213
 20
-2.088566929133858
 30
0.0
 10
-5.964188976377953
 20
-2.063488188976378
 30
0.0
 10
-6.021594488188977
 20
-1.97542125984252
 30
0.0
 10
-6.021594488188977
 20
-1.97542125984252
 30
0.0
 10
-6.021594488188977
 20
-1.97542125984252
 30
0.0
 10
-6.073633858267717
 20
-1.895590551181102
 30
0.0
 10
-6.073633858267717
 20
-1.895590551181102
 30
0.0
 10
-6.073633858267717
 20
-1.895590551181102
 30
0.0
 10
-6.151200787401574
 20
-1.895673228346457
 30
0.0
 10
-6.216086614173228
 20
-1.869377952755906
 30
0.0
 10
-6.250653543307086
 20
-1.816338582677165
 30
0.0
 10
-6.250653543307086
 20
-1.816338582677165
 30
0.0
 10
-6.285224409448819
 20
-1.763311023622047
 30
0.0
 10
-6.283102362204724
 20
-1.693334645669291
 30
0.0
 10
-6.251720472440945
 20
-1.622397637795276
 30
0.0
 10
-6.251720472440945
 20
-1.622397637795276
 30
0.0
 10
-6.251720472440945
 20
-1.622397637795276
 30
0.0
 10
-6.331283464566929
 20
-1.500338582677165
 30
0.0
 10
-6.331283464566929
 20
-1.500338582677165
 30
0.0
 10
-6.331283464566929
 20
-1.500338582677165
 30
0.0
 10
-6.388688976377953
 20
-1.412267716535433
 30
0.0
 10
-6.363606299212599
 20
-1.293251968503937
 30
0.0
 10
-6.275543307086614
 20
-1.235838582677165
 30
0.0
  0
SPLINE
  5
96
330
1F
100
AcDbEntity
  8
Layer 1
 62
   252
370
    18
100
AcDbSpline
210
0.0
220
0.0
230
1.0
 70
    11
 71
     3
 72
    52
 73
    48
 74
     0
 42
0.0000000001
 43
0.0000000001
 40
0.0
 40
0.0
 40
0.0
 40
0.0
 40
0.0833333333333333
 40
0.0833333333333333
 40
0.0833333333333333
 40
0.0833333333333333
 40
0.1666666666666667
 40
0.1666666666666667
 40
0.1666666666666667
 40
0.1666666666666667
 40
0.25
 40
0.25
 40
0.25
 40
0.25
 40
0.3333333333333333
 40
0.3333333333333333
 40
0.3333333333333333
 40
0.3333333333333333
 40
0.4166666666666666
 40
0.4166666666666666
 40
0.4166666666666666
 40
0.4166666666666666
 40
0.4999999999999999
 40
0.4999999999999999
 40
0.4999999999999999
 40
0.4999999999999999
 40
0.5833333333333333
 40
0.5833333333333333
 40
0.5833333333333333
 40
0.5833333333333333
 40
0.6666666666666666
 40
0.6666666666666666
 40
0.6666666666666666
 40
0.6666666666666666
 40
0.75
 40
0.75
 40
0.75
 40
0.75
 40
0.8333333333333334
 40
0.8333333333333334
 40
0.8333333333333334
 40
0.8333333333333334
 40
0.9166666666666667
 40
0.9166666666666667
 40
0.9166666666666667
 40
0.9166666666666667
 40
1.0
 40
1.0
 40
1.0
 40
1.0
 10
-6.563759842519685
 20
-0.9384015748031496
 30
0.0
 10
-6.505102362204725
 20
-0.9486771653543307
 30
0.0
 10
-6.45153937007874
 20
-0.9847047244094488
 30
0.0
 10
-6.421035433070866
 20
-1.041145669291339
 30
0.0
 10
-6.421035433070866
 20
-1.041145669291339
 30
0.0
 10
-6.368086614173229
 20
-1.139094488188976
 30
0.0
 10
-6.404582677165354
 20
-1.261464566929134
 30
0.0
 10
-6.502531496062992
 20
-1.314409448818898
 30
0.0
 10
-6.502531496062992
 20
-1.314409448818898
 30
0.0
 10
-6.60048031496063
 20
-1.367354330708662
 30
0.0
 10
-6.722858267716536
 20
-1.330858267716535
 30
0.0
 10
-6.775795275590551
 20
-1.232909448818898
 30
0.0
 10
-6.775795275590551
 20
-1.232909448818898
 30
0.0
 10
-6.814255905511811
 20
-1.161759842519685
 30
0.0
 10
-6.805511811023622
 20
-1.077720472440945
 30
0.0
 10
-6.760299212598425
 20
-1.016767716535433
 30
0.0
 10
-6.760299212598425
 20
-1.016767716535433
 30
0.0
 10
-6.79153937007874
 20
-0.9227874015748031
 30
0.0
 10
-6.837854330708661
 20
-0.8335236220472441
 30
0.0
 10
-6.904503937007874
 20
-0.7505905511811024
 30
0.0
 10
-6.904503937007874
 20
-0.7505905511811024
 30
0.0
 10
-6.959149606299213
 20
-0.8091417322834645
 30
0.0
 10
-7.00053937007874
 20
-0.8926102362204724
 30
0.0
 10
-7.026858267716535
 20
-1.000913385826772
 30
0.0
 10
-7.026858267716535
 20
-1.000913385826772
 30
0.0
 10
-7.033405511811024
 20
-1.027846456692913
 30
0.0
 10
-7.078496062992126
 20
-1.002677165354331
 30
0.0
 10
-7.095177165354331
 20
-0.9805314960629922
 30
0.0
 10
-7.095177165354331
 20
-0.9805314960629922
 30
0.0
 10
-7.180767716535433
 20
-0.8668858267716535
 30
0.0
 10
-7.063275590551181
 20
-0.5410629921259843
 30
0.0
 10
-6.931708661417323
 20
-0.4746535433070866
 30
0.0
 10
-6.931708661417323
 20
-0.4746535433070866
 30
0.0
 10
-6.816220472440945
 20
-0.4163622047244094
 30
0.0
 10
-6.486472440944882
 20
-0.5014488188976378
 30
0.0
 10
-6.425165354330709
 20
-0.6255275590551181
 30
0.0
 10
-6.425165354330709
 20
-0.6255275590551181
 30
0.0
 10
-6.412889763779527
 20
-0.6503818897637795
 30
0.0
 10
-6.419763779527559
 20
-0.7040275590551182
 30
0.0
 10
-6.445543307086615
 20
-0.6938464566929133
 30
0.0
 10
-6.445543307086615
 20
-0.6938464566929133
 30
0.0
 10
-6.549586614173228
 20
-0.6527440944881889
 30
0.0
 10
-6.642948818897638
 20
-0.6391220472440945
 30
0.0
 10
-6.723645669291338
 20
-0.6527440944881889
 30
0.0
 10
-6.723645669291338
 20
-0.6527440944881889
 30
0.0
 10
-6.693090551181102
 20
-0.760255905511811
 30
0.0
 10
-6.641311023622047
 20
-0.8562874015748031
 30
0.0
 10
-6.563759842519685
 20
-0.9384015748031496
 30
0.0
  0
SPLINE
  5
97
330
1F
100
AcDbEntity
  8
Layer 1
 62
   252
370
    18
100
AcDbSpline
210
0.0
220
0.0
230
1.0
 70
    11
 71
     3
 72
    20
 73
    16
 74
     0
 42
0.0000000001
 43
0.0000000001
 40
0.0
 40
0.0
 40
0.0
 40
0.0
 40
0.25
 40
0.25
 40
0.25
 40
0.25
 40
0.5
 40
0.5
 40
0.5
 40
0.5
 40
0.75
 40
0.75
 40
0.75
 40
0.75
 40
1.0
 40
1.0
 40
1.0
 40
1.0
 10
-6.62944094488189
 20
-1.072566929133858
 30
0.0
 10
-6.600897637795276
 20
-1.05713779527559
 30
0.0
 10
-6.565240157480315
 20
-1.067771653543307
 30
0.0
 10
-6.549811023622047
 20
-1.096314960629921
 30
0.0
 10
-6.549811023622047
 20
-1.096314960629921
 30
0.0
 10
-6.534389763779528
 20
-1.124858267716536
 30
0.0
 10
-6.54501968503937
 20
-1.160515748031496
 30
0.0
 10
-6.57355905511811
 20
-1.175944881889764
 30
0.0
 10
-6.57355905511811
 20
-1.175944881889764
 30
0.0
 10
-6.602102362204724
 20
-1.191374015748031
 30
0.0
 10
-6.637763779527559
 20
-1.180736220472441
 30
0.0
 10
-6.653188976377953
 20
-1.152196850393701
 30
0.0
 10
-6.653188976377953
 20
-1.152196850393701
 30
0.0
 10
-6.668614173228346
 20
-1.123653543307087
 30
0.0
 10
-6.657984251968504
 20
-1.087992125984252
 30
0.0
 10
-6.62944094488189
 20
-1.072566929133858
 30
0.0
  0
SPLINE
  5
98
330
1F
100
AcDbEntity
  8
Layer 1
 62
   252
370
    18
100
AcDbSpline
210
0.0
220
0.0
230
1.0
 70
    11
 71
     3
 72
    88
 73
    84
 74
     0
 42
0.0000000001
 43
0.0000000001
 40
0.0
 40
0.0
 40
0.0
 40
0.0
 40
0.0476190476190476
 40
0.0476190476190476
 40
0.0476190476190476
 40
0.0476190476190476
 40
0.0952380952380952
 40
0.0952380952380952
 40
0.0952380952380952
 40
0.0952380952380952
 40
0.1428571428571428
 40
0.1428571428571428
 40
0.1428571428571428
 40
0.1428571428571428
 40
0.1904761904761905
 40
0.1904761904761905
 40
0.1904761904761905
 40
0.1904761904761905
 40
0.2380952380952381
 40
0.2380952380952381
 40
0.2380952380952381
 40
0.2380952380952381
 40
0.2857142857142857
 40
0.2857142857142857
 40
0.2857142857142857
 40
0.2857142857142857
 40
0.3333333333333333
 40
0.3333333333333333
 40
0.3333333333333333
 40
0.3333333333333333
 40
0.3809523809523809
 40
0.3809523809523809
 40
0.3809523809523809
 40
0.3809523809523809
 40
0.4285714285714285
 40
0.4285714285714285
 40
0.4285714285714285
 40
0.4285714285714285
 40
0.4761904761904762
 40
0.4761904761904762
 40
0.4761904761904762
 40
0.4761904761904762
 40
0.5238095238095237
 40
0.5238095238095237
 40
0.5238095238095237
 40
0.5238095238095237
 40
0.5714285714285714
 40
0.5714285714285714
 40
0.5714285714285714
 40
0.5714285714285714
 40
0.6190476190476191
 40
0.6190476190476191
 40
0.6190476190476191
 40
0.6190476190476191
 40
0.6666666666666667
 40
0.6666666666666667
 40
0.6666666666666667
 40
0.6666666666666667
 40
0.7142857142857144
 40
0.7142857142857144
 40
0.7142857142857144
 40
0.7142857142857144
 40
0.7619047619047621
 40
0.7619047619047621
 40
0.7619047619047621
 40
0.7619047619047621
 40
0.8095238095238098
 40
0.8095238095238098
 40
0.8095238095238098
 40
0.8095238095238098
 40
0.8571428571428574
 40
0.8571428571428574
 40
0.8571428571428574
 40
0.8571428571428574
 40
0.9047619047619051
 40
0.9047619047619051
 40
0.9047619047619051
 40
0.9047619047619051
 40
0.9523809523809528
 40
0.9523809523809528
 40
0.9523809523809528
 40
0.9523809523809528
 40
1.0
 40
1.0
 40
1.0
 40
1.0
 10
6.834464566929134
 20
0.657003937007874
 30
0.0
 10
6.834464566929134
 20
0.657003937007874
 30
0.0
 10
8.424779527559055
 20
-0.3911141732283465
 30
0.0
 10
8.424779527559055
 20
-0.3911141732283465
 30
0.0
 10
8.424779527559055
 20
-0.3911141732283465
 30
0.0
 10
8.541106299212599
 20
-0.4677795275590551
 30
0.0
 10
8.569767716535432
 20
-0.6314330708661418
 30
0.0
 10
8.488566929133858
 20
-0.7546377952755906
 30
0.0
 10
8.488566929133858
 20
-0.7546377952755906
 30
0.0
 10
8.488566929133858
 20
-0.7546377952755906
 30
0.0
 10
8.371244094488189
 20
-0.9326496062992126
 30
0.0
 10
8.371244094488189
 20
-0.9326496062992126
 30
0.0
 10
8.371244094488189
 20
-0.9326496062992126
 30
0.0
 10
8.290047244094488
 20
-1.055854330708661
 30
0.0
 10
8.212787401574802
 20
-0.9658031496062992
 30
0.0
 10
8.09651968503937
 20
-0.8891850393700788
 30
0.0
 10
8.09651968503937
 20
-0.8891850393700788
 30
0.0
 10
8.09651968503937
 20
-0.8891850393700788
 30
0.0
 10
8.075874015748031
 20
-0.8755748031496063
 30
0.0
 10
8.075874015748031
 20
-0.8755748031496063
 30
0.0
 10
8.075874015748031
 20
-0.8755748031496063
 30
0.0
 10
8.075874015748031
 20
-0.8755748031496063
 30
0.0
 10
8.164633858267717
 20
-0.7409015748031496
 30
0.0
 10
8.164633858267717
 20
-0.7409015748031496
 30
0.0
 10
8.164633858267717
 20
-0.7409015748031496
 30
0.0
 10
8.176003937007874
 20
-0.7236496062992126
 30
0.0
 10
8.171307086614172
 20
-0.7001889763779527
 30
0.0
 10
8.154129921259843
 20
-0.6888700787401575
 30
0.0
 10
8.154129921259843
 20
-0.6888700787401575
 30
0.0
 10
8.154129921259843
 20
-0.6888700787401575
 30
0.0
 10
8.154129921259843
 20
-0.6888700787401575
 30
0.0
 10
8.154129921259843
 20
-0.6888700787401575
 30
0.0
 10
8.154129921259843
 20
-0.6888700787401575
 30
0.0
 10
8.136956692913385
 20
-0.6775511811023622
 30
0.0
 10
8.113574803149607
 20
-0.6824409448818898
 30
0.0
 10
8.10217716535433
 20
-0.6997401574803149
 30
0.0
 10
8.10217716535433
 20
-0.6997401574803149
 30
0.0
 10
8.10217716535433
 20
-0.6997401574803149
 30
0.0
 10
8.013417322834645
 20
-0.8344094488188977
 30
0.0
 10
8.013417322834645
 20
-0.8344094488188977
 30
0.0
 10
8.013417322834645
 20
-0.8344094488188977
 30
0.0
 10
8.013417322834645
 20
-0.8344094488188977
 30
0.0
 10
8.013389763779527
 20
-0.8343897637795276
 30
0.0
 10
8.013389763779527
 20
-0.8343897637795276
 30
0.0
 10
8.013389763779527
 20
-0.8343897637795276
 30
0.0
 10
8.013389763779527
 20
-0.8343897637795276
 30
0.0
 10
7.837700787401575
 20
-1.100964566929134
 30
0.0
 10
7.837700787401575
 20
-1.100964566929134
 30
0.0
 10
7.837700787401575
 20
-1.100964566929134
 30
0.0
 10
7.837700787401575
 20
-1.100964566929134
 30
0.0
 10
6.392641732283464
 20
-0.1485826771653543
 30
0.0
 10
6.392641732283464
 20
-0.1485826771653543
 30
0.0
 10
6.392641732283464
 20
-0.1485826771653543
 30
0.0
 10
6.392641732283464
 20
-0.1485826771653543
 30
0.0
 10
6.657090551181103
 20
0.2526653543307086
 30
0.0
 10
6.657090551181103
 20
0.2526653543307086
 30
0.0
 10
6.657090551181103
 20
0.2526653543307086
 30
0.0
 10
6.668452755905512
 20
0.2699133858267717
 30
0.0
 10
6.663763779527559
 20
0.2933779527559055
 30
0.0
 10
6.646582677165354
 20
0.3046968503937008
 30
0.0
 10
6.646582677165354
 20
0.3046968503937008
 30
0.0
 10
6.646582677165354
 20
0.3046968503937008
 30
0.0
 10
6.646582677165354
 20
0.3046968503937008
 30
0.0
 10
6.646582677165354
 20
0.3046968503937008
 30
0.0
 10
6.646582677165354
 20
0.3046968503937008
 30
0.0
 10
6.629409448818897
 20
0.316011811023622
 30
0.0
 10
6.606027559055118
 20
0.3111259842519685
 30
0.0
 10
6.594629921259843
 20
0.2938267716535433
 30
0.0
 10
6.594629921259843
 20
0.2938267716535433
 30
0.0
 10
6.594629921259843
 20
0.2938267716535433
 30
0.0
 10
6.505874015748032
 20
0.1591574803149606
 30
0.0
 10
6.505874015748032
 20
0.1591574803149606
 30
0.0
 10
6.505874015748032
 20
0.1591574803149606
 30
0.0
 10
6.389720472440945
 20
0.2356338582677165
 30
0.0
 10
6.276759842519685
 20
0.2711062992125984
 30
0.0
 10
6.35792125984252
 20
0.394255905511811
 30
0.0
 10
6.35792125984252
 20
0.394255905511811
 30
0.0
 10
6.35792125984252
 20
0.394255905511811
 30
0.0
 10
6.475244094488189
 20
0.5722677165354331
 30
0.0
 10
6.475244094488189
 20
0.5722677165354331
 30
0.0
 10
6.475244094488189
 20
0.5722677165354331
 30
0.0
 10
6.556488188976378
 20
0.6955433070866142
 30
0.0
 10
6.718137795275591
 20
0.7336692913385827
 30
0.0
 10
6.834464566929134
 20
0.657003937007874
 30
0.0
  0
SPLINE
  5
99
330
1F
100
AcDbEntity
  8
Layer 1
 62
   252
370
    18
100
AcDbSpline
210
0.0
220
0.0
230
1.0
 70
    11
 71
     3
 72
    68
 73
    64
 74
     0
 42
0.0000000001
 43
0.0000000001
 40
0.0
 40
0.0
 40
0.0
 40
0.0
 40
0.0625
 40
0.0625
 40
0.0625
 40
0.0625
 40
0.125
 40
0.125
 40
0.125
 40
0.125
 40
0.1875
 40
0.1875
 40
0.1875
 40
0.1875
 40
0.25
 40
0.25
 40
0.25
 40
0.25
 40
0.3125
 40
0.3125
 40
0.3125
 40
0.3125
 40
0.375
 40
0.375
 40
0.375
 40
0.375
 40
0.4375
 40
0.4375
 40
0.4375
 40
0.4375
 40
0.5
 40
0.5
 40
0.5
 40
0.5
 40
0.5625
 40
0.5625
 40
0.5625
 40
0.5625
 40
0.625
 40
0.625
 40
0.625
 40
0.625
 40
0.6875
 40
0.6875
 40
0.6875
 40
0.6875
 40
0.75
 40
0.75
 40
0.75
 40
0.75
 40
0.8125
 40
0.8125
 40
0.8125
 40
0.8125
 40
0.875
 40
0.875
 40
0.875
 40
0.875
 40
0.9375
 40
0.9375
 40
0.9375
 40
0.9375
 40
1.0
 40
1.0
 40
1.0
 40
1.0
 10
-3.030200787401575
 20
1.583909448818898
 30
0.0
 10
-3.030200787401575
 20
1.583909448818898
 30
0.0
 10
-3.030200787401575
 20
1.583909448818898
 30
0.0
 10
-3.030200787401575
 20
1.583909448818898
 30
0.0
 10
-3.030200787401575
 20
1.583909448818898
 30
0.0
 10
-3.030200787401575
 20
1.623602362204724
 30
0.0
 10
-3.016291338582677
 20
1.656070866141732
 30
0.0
 10
-2.904429133858268
 20
1.656070866141732
 30
0.0
 10
-2.904429133858268
 20
1.656070866141732
 30
0.0
 10
-2.904429133858268
 20
1.656070866141732
 30
0.0
 10
1.573681102362205
 20
1.656070866141732
 30
0.0
 10
1.573681102362205
 20
1.656070866141732
 30
0.0
 10
1.573681102362205
 20
1.656070866141732
 30
0.0
 10
1.685543307086614
 20
1.656070866141732
 30
0.0
 10
1.695185039370079
 20
1.623602362204724
 30
0.0
 10
1.695185039370079
 20
1.583909448818898
 30
0.0
 10
1.695185039370079
 20
1.583909448818898
 30
0.0
 10
1.695185039370079
 20
1.583909448818898
 30
0.0
 10
1.695185039370079
 20
1.583909448818898
 30
0.0
 10
1.695185039370079
 20
1.583909448818898
 30
0.0
 10
1.695185039370079
 20
1.583909448818898
 30
0.0
 10
1.695185039370079
 20
1.544220472440945
 30
0.0
 10
1.680795275590551
 20
1.524129921259842
 30
0.0
 10
1.573681102362205
 20
1.511748031496063
 30
0.0
 10
1.573681102362205
 20
1.511748031496063
 30
0.0
 10
1.27801968503937
 20
1.477574803149606
 30
0.0
 10
0.1949133858267716
 20
1.453755905511811
 30
0.0
 10
-0.1007677165354331
 20
1.440452755905512
 30
0.0
 10
-0.1007677165354331
 20
1.440452755905512
 30
0.0
 10
-0.3748464566929134
 20
1.386913385826772
 30
0.0
 10
-0.3540196850393701
 20
1.078716535433071
 30
0.0
 10
-0.6256811023622048
 20
1.048169291338583
 30
0.0
 10
-0.6256811023622048
 20
1.048169291338583
 30
0.0
 10
-0.6256811023622048
 20
1.048169291338583
 30
0.0
 10
-0.6256811023622048
 20
1.371236220472441
 30
0.0
 10
-0.6256811023622048
 20
1.371236220472441
 30
0.0
 10
-0.6256811023622048
 20
1.371236220472441
 30
0.0
 10
-0.6256811023622048
 20
1.391881889763779
 30
0.0
 10
-0.6425118110236221
 20
1.40890157480315
 30
0.0
 10
-0.6630826771653543
 20
1.40890157480315
 30
0.0
 10
-0.6630826771653543
 20
1.40890157480315
 30
0.0
 10
-0.6630826771653543
 20
1.40890157480315
 30
0.0
 10
-0.6630826771653543
 20
1.40890157480315
 30
0.0
 10
-0.6630826771653543
 20
1.40890157480315
 30
0.0
 10
-0.6630826771653543
 20
1.40890157480315
 30
0.0
 10
-0.6836535433070866
 20
1.40890157480315
 30
0.0
 10
-0.700484251968504
 20
1.391952755905512
 30
0.0
 10
-0.700484251968504
 20
1.371236220472441
 30
0.0
 10
-0.700484251968504
 20
1.371236220472441
 30
0.0
 10
-0.700484251968504
 20
1.371236220472441
 30
0.0
 10
-0.700484251968504
 20
1.047047244094488
 30
0.0
 10
-0.700484251968504
 20
1.047047244094488
 30
0.0
 10
-0.700484251968504
 20
1.047047244094488
 30
0.0
 10
-0.9745984251968504
 20
1.07153937007874
 30
0.0
 10
-0.8967913385826771
 20
1.425314960629921
 30
0.0
 10
-1.211448818897638
 20
1.439633858267717
 30
0.0
 10
-1.211448818897638
 20
1.439633858267717
 30
0.0
 10
-1.513299212598425
 20
1.452775590551181
 30
0.0
 10
-2.602590551181102
 20
1.476874015748032
 30
0.0
 10
-2.904429133858268
 20
1.511748031496063
 30
0.0
 10
-2.904429133858268
 20
1.511748031496063
 30
0.0
 10
-3.011535433070866
 20
1.524122047244094
 30
0.0
 10
-3.030200787401575
 20
1.544220472440945
 30
0.0
 10
-3.030200787401575
 20
1.583909448818898
 30
0.0
  0
SPLINE
  5
9A
330
1F
100
AcDbEntity
  8
Layer 1
 62
   252
370
    18
100
AcDbSpline
210
0.0
220
0.0
230
1.0
 70
    11
 71
     3
 72
    68
 73
    64
 74
     0
 42
0.0000000001
 43
0.0000000001
 40
0.0
 40
0.0
 40
0.0
 40
0.0
 40
0.0625
 40
0.0625
 40
0.0625
 40
0.0625
 40
0.125
 40
0.125
 40
0.125
 40
0.125
 40
0.1875
 40
0.1875
 40
0.1875
 40
0.1875
 40
0.25
 40
0.25
 40
0.25
 40
0.25
 40
0.3125
 40
0.3125
 40
0.3125
 40
0.3125
 40
0.375
 40
0.375
 40
0.375
 40
0.375
 40
0.4375
 40
0.4375
 40
0.4375
 40
0.4375
 40
0.5
 40
0.5
 40
0.5
 40
0.5
 40
0.5625
 40
0.5625
 40
0.5625
 40
0.5625
 40
0.625
 40
0.625
 40
0.625
 40
0.625
 40
0.6875
 40
0.6875
 40
0.6875
 40
0.6875
 40
0.75
 40
0.75
 40
0.75
 40
0.75
 40
0.8125
 40
0.8125
 40
0.8125
 40
0.8125
 40
0.875
 40
0.875
 40
0.875
 40
0.875
 40
0.9375
 40
0.9375
 40
0.9375
 40
0.9375
 40
1.0
 40
1.0
 40
1.0
 40
1.0
 10
-6.490913385826771
 20
-4.981606299212598
 30
0.0
 10
-6.490913385826771
 20
-4.981606299212598
 30
0.0
 10
-6.490913385826771
 20
-4.981606299212598
 30
0.0
 10
-6.490913385826771
 20
-4.981606299212598
 30
0.0
 10
-6.490913385826771
 20
-4.981606299212598
 30
0.0
 10
-6.462358267716535
 20
-4.954047244094488
 30
0.0
 10
-6.448637795275591
 20
-4.921492125984252
 30
0.0
 10
-6.526303149606299
 20
-4.840988188976378
 30
0.0
 10
-6.526303149606299
 20
-4.840988188976378
 30
0.0
 10
-6.526303149606299
 20
-4.840988188976378
 30
0.0
 10
-8.979484251968504
 20
-2.298232283464567
 30
0.0
 10
-8.979484251968504
 20
-2.298232283464567
 30
0.0
 10
-8.979484251968504
 20
-2.298232283464567
 30
0.0
 10
-9.057153543307086
 20
-2.217724409448819
 30
0.0
 10
-9.087212598425197
 20
-2.233342519685039
 30
0.0
 10
-9.11578346456693
 20
-2.26090157480315
 30
0.0
 10
-9.11578346456693
 20
-2.26090157480315
 30
0.0
 10
-9.11578346456693
 20
-2.26090157480315
 30
0.0
 10
-9.11578346456693
 20
-2.26090157480315
 30
0.0
 10
-9.11578346456693
 20
-2.26090157480315
 30
0.0
 10
-9.11578346456693
 20
-2.26090157480315
 30
0.0
 10
-9.144350393700787
 20
-2.288452755905512
 30
0.0
 10
-9.148807086614173
 20
-2.312791338582677
 30
0.0
 10
-9.083354330708662
 20
-2.398444881889764
 30
0.0
 10
-9.083354330708662
 20
-2.398444881889764
 30
0.0
 10
-8.90265748031496
 20
-2.634925196850394
 30
0.0
 10
-8.495807086614173
 20
-3.090968503937008
 30
0.0
 10
-8.300086614173228
 20
-3.312996062992126
 30
0.0
 10
-8.300086614173228
 20
-3.312996062992126
 30
0.0
 10
-8.148322834645668
 20
-3.547409448818898
 30
0.0
 10
-8.384582677165355
 20
-3.746413385826772
 30
0.0
 10
-8.21794094488189
 20
-3.963129921259843
 30
0.0
 10
-8.21794094488189
 20
-3.963129921259843
 30
0.0
 10
-8.21794094488189
 20
-3.963129921259843
 30
0.0
 10
-7.98544094488189
 20
-3.738814960629921
 30
0.0
 10
-7.98544094488189
 20
-3.738814960629921
 30
0.0
 10
-7.98544094488189
 20
-3.738814960629921
 30
0.0
 10
-7.970582677165354
 20
-3.72448031496063
 30
0.0
 10
-7.946653543307087
 20
-3.724775590551181
 30
0.0
 10
-7.932370078740157
 20
-3.739582677165354
 30
0.0
 10
-7.932370078740157
 20
-3.739582677165354
 30
0.0
 10
-7.932370078740157
 20
-3.739582677165354
 30
0.0
 10
-7.932370078740157
 20
-3.739582677165354
 30
0.0
 10
-7.932370078740157
 20
-3.739582677165354
 30
0.0
 10
-7.932370078740157
 20
-3.739582677165354
 30
0.0
 10
-7.918082677165354
 20
-3.75438188976378
 30
0.0
 10
-7.91859842519685
 20
-3.778259842519685
 30
0.0
 10
-7.933507874015748
 20
-3.792649606299213
 30
0.0
 10
-7.933507874015748
 20
-3.792649606299213
 30
0.0
 10
-7.933507874015748
 20
-3.792649606299213
 30
0.0
 10
-8.166814960629921
 20
-4.017732283464567
 30
0.0
 10
-8.166814960629921
 20
-4.017732283464567
 30
0.0
 10
-8.166814960629921
 20
-4.017732283464567
 30
0.0
 10
-7.958870078740158
 20
-4.198
 30
0.0
 10
-7.758291338582677
 20
-3.896374015748032
 30
0.0
 10
-7.529511811023622
 20
-4.11288188976378
 30
0.0
 10
-7.529511811023622
 20
-4.11288188976378
 30
0.0
 10
-7.310476377952756
 20
-4.320996062992126
 30
0.0
 10
-6.864751968503937
 20
-4.74815748031496
 30
0.0
 10
-6.630173228346457
 20
-4.941200787401574
 30
0.0
 10
-6.630173228346457
 20
-4.941200787401574
 30
0.0
 10
-6.546988188976378
 20
-5.009657480314961
 30
0.0
 10
-6.51948031496063
 20
-5.009161417322835
 30
0.0
 10
-6.490913385826771
 20
-4.981606299212598
 30
0.0
  0
SPLINE
  5
9B
330
1F
100
AcDbEntity
  8
Layer 1
 62
   252
370
    18
100
AcDbSpline
210
0.0
220
0.0
230
1.0
 70
    11
 71
     3
 72
    68
 73
    64
 74
     0
 42
0.0000000001
 43
0.0000000001
 40
0.0
 40
0.0
 40
0.0
 40
0.0
 40
0.0625
 40
0.0625
 40
0.0625
 40
0.0625
 40
0.125
 40
0.125
 40
0.125
 40
0.125
 40
0.1875
 40
0.1875
 40
0.1875
 40
0.1875
 40
0.25
 40
0.25
 40
0.25
 40
0.25
 40
0.3125
 40
0.3125
 40
0.3125
 40
0.3125
 40
0.375
 40
0.375
 40
0.375
 40
0.375
 40
0.4375
 40
0.4375
 40
0.4375
 40
0.4375
 40
0.5
 40
0.5
 40
0.5
 40
0.5
 40
0.5625
 40
0.5625
 40
0.5625
 40
0.5625
 40
0.625
 40
0.625
 40
0.625
 40
0.625
 40
0.6875
 40
0.6875
 40
0.6875
 40
0.6875
 40
0.75
 40
0.75
 40
0.75
 40
0.75
 40
0.8125
 40
0.8125
 40
0.8125
 40
0.8125
 40
0.875
 40
0.875
 40
0.875
 40
0.875
 40
0.9375
 40
0.9375
 40
0.9375
 40
0.9375
 40
1.0
 40
1.0
 40
1.0
 40
1.0
 10
-8.506374015748031
 20
-3.540114173228346
 30
0.0
 10
-8.506374015748031
 20
-3.540114173228346
 30
0.0
 10
-8.506374015748031
 20
-3.540114173228346
 30
0.0
 10
-8.506374015748031
 20
-3.540114173228346
 30
0.0
 10
-8.506374015748031
 20
-3.540114173228346
 30
0.0
 10
-8.477811023622047
 20
-3.512562992125984
 30
0.0
 10
-8.464094488188977
 20
-3.480007874015748
 30
0.0
 10
-8.541763779527558
 20
-3.399507874015748
 30
0.0
 10
-8.541763779527558
 20
-3.399507874015748
 30
0.0
 10
-8.541763779527558
 20
-3.399507874015748
 30
0.0
 10
-11.10428346456693
 20
-0.7434133858267716
 30
0.0
 10
-11.10428346456693
 20
-0.7434133858267716
 30
0.0
 10
-11.10428346456693
 20
-0.7434133858267716
 30
0.0
 10
-11.18195275590551
 20
-0.6629094488188977
 30
0.0
 10
-11.2120157480315
 20
-0.6785196850393701
 30
0.0
 10
-11.24058661417323
 20
-0.7060787401574803
 30
0.0
 10
-11.24058661417323
 20
-0.7060787401574803
 30
0.0
 10
-11.24058661417323
 20
-0.7060787401574803
 30
0.0
 10
-11.24058661417323
 20
-0.7060787401574803
 30
0.0
 10
-11.24058661417323
 20
-0.7060787401574803
 30
0.0
 10
-11.24058661417323
 20
-0.7060787401574803
 30
0.0
 10
-11.26914173228347
 20
-0.7336299212598425
 30
0.0
 10
-11.27361023622047
 20
-0.7579606299212598
 30
0.0
 10
-11.20815354330709
 20
-0.8436220472440945
 30
0.0
 10
-11.20815354330709
 20
-0.8436220472440945
 30
0.0
 10
-11.02745669291339
 20
-1.080094488188976
 30
0.0
 10
-10.56593307086614
 20
-1.592811023622047
 30
0.0
 10
-10.3702125984252
 20
-1.814842519685039
 30
0.0
 10
-10.3702125984252
 20
-1.814842519685039
 30
0.0
 10
-10.21844881889764
 20
-2.049259842519685
 30
0.0
 10
-10.45470866141732
 20
-2.248255905511811
 30
0.0
 10
-10.28807480314961
 20
-2.464972440944882
 30
0.0
 10
-10.28807480314961
 20
-2.464972440944882
 30
0.0
 10
-10.28807480314961
 20
-2.464972440944882
 30
0.0
 10
-10.05557086614173
 20
-2.240661417322835
 30
0.0
 10
-10.05557086614173
 20
-2.240661417322835
 30
0.0
 10
-10.05557086614173
 20
-2.240661417322835
 30
0.0
 10
-10.04071653543307
 20
-2.226330708661417
 30
0.0
 10
-10.01678346456693
 20
-2.226622047244094
 30
0.0
 10
-10.00249212598425
 20
-2.241425196850394
 30
0.0
 10
-10.00249212598425
 20
-2.241425196850394
 30
0.0
 10
-10.00249212598425
 20
-2.241425196850394
 30
0.0
 10
-10.00249212598425
 20
-2.241425196850394
 30
0.0
 10
-10.00249212598425
 20
-2.241425196850394
 30
0.0
 10
-10.00249212598425
 20
-2.241425196850394
 30
0.0
 10
-9.988216535433072
 20
-2.256224409448819
 30
0.0
 10
-9.988732283464566
 20
-2.280110236220473
 30
0.0
 10
-10.00363385826772
 20
-2.294496062992126
 30
0.0
 10
-10.00363385826772
 20
-2.294496062992126
 30
0.0
 10
-10.00363385826772
 20
-2.294496062992126
 30
0.0
 10
-10.23694881889764
 20
-2.519582677165354
 30
0.0
 10
-10.23694881889764
 20
-2.519582677165354
 30
0.0
 10
-10.23694881889764
 20
-2.519582677165354
 30
0.0
 10
-10.02899606299213
 20
-2.699850393700788
 30
0.0
 10
-9.82842125984252
 20
-2.398216535433071
 30
0.0
 10
-9.599641732283464
 20
-2.614724409448819
 30
0.0
 10
-9.599641732283464
 20
-2.614724409448819
 30
0.0
 10
-9.380602362204725
 20
-2.822846456692913
 30
0.0
 10
-8.880208661417322
 20
-3.306665354330709
 30
0.0
 10
-8.645629921259843
 20
-3.499712598425197
 30
0.0
 10
-8.645629921259843
 20
-3.499712598425197
 30
0.0
 10
-8.562452755905511
 20
-3.568173228346457
 30
0.0
 10
-8.534940944881889
 20
-3.567677165354331
 30
0.0
 10
-8.506374015748031
 20
-3.540114173228346
 30
0.0
  0
SPLINE
  5
9C
330
1F
100
AcDbEntity
  8
Layer 1
 62
   252
370
    18
100
AcDbSpline
210
0.0
220
0.0
230
1.0
 70
    11
 71
     3
 72
    68
 73
    64
 74
     0
 42
0.0000000001
 43
0.0000000001
 40
0.0
 40
0.0
 40
0.0
 40
0.0
 40
0.0625
 40
0.0625
 40
0.0625
 40
0.0625
 40
0.125
 40
0.125
 40
0.125
 40
0.125
 40
0.1875
 40
0.1875
 40
0.1875
 40
0.1875
 40
0.25
 40
0.25
 40
0.25
 40
0.25
 40
0.3125
 40
0.3125
 40
0.3125
 40
0.3125
 40
0.375
 40
0.375
 40
0.375
 40
0.375
 40
0.4375
 40
0.4375
 40
0.4375
 40
0.4375
 40
0.5
 40
0.5
 40
0.5
 40
0.5
 40
0.5625
 40
0.5625
 40
0.5625
 40
0.5625
 40
0.625
 40
0.625
 40
0.625
 40
0.625
 40
0.6875
 40
0.6875
 40
0.6875
 40
0.6875
 40
0.75
 40
0.75
 40
0.75
 40
0.75
 40
0.8125
 40
0.8125
 40
0.8125
 40
0.8125
 40
0.875
 40
0.875
 40
0.875
 40
0.875
 40
0.9375
 40
0.9375
 40
0.9375
 40
0.9375
 40
1.0
 40
1.0
 40
1.0
 40
1.0
 10
-8.307854330708661
 20
-3.481724409448819
 30
0.0
 10
-8.307854330708661
 20
-3.481724409448819
 30
0.0
 10
-8.307854330708661
 20
-3.481724409448819
 30
0.0
 10
-8.307854330708661
 20
-3.481724409448819
 30
0.0
 10
-8.307854330708661
 20
-3.481724409448819
 30
0.0
 10
-8.336409448818898
 20
-3.509283464566929
 30
0.0
 10
-8.36944094488189
 20
-3.521818897637795
 30
0.0
 10
-8.447106299212598
 20
-3.441314960629921
 30
0.0
 10
-8.447106299212598
 20
-3.441314960629921
 30
0.0
 10
-8.447106299212598
 20
-3.441314960629921
 30
0.0
 10
-11.00962992125984
 20
-0.7852244094488189
 30
0.0
 10
-11.00962992125984
 20
-0.7852244094488189
 30
0.0
 10
-11.00962992125984
 20
-0.7852244094488189
 30
0.0
 10
-11.08729527559055
 20
-0.7047244094488189
 30
0.0
 10
-11.0706220472441
 20
-0.675240157480315
 30
0.0
 10
-11.04205511811024
 20
-0.6476771653543307
 30
0.0
 10
-11.04205511811024
 20
-0.6476771653543307
 30
0.0
 10
-11.04205511811024
 20
-0.6476771653543307
 30
0.0
 10
-11.04205511811024
 20
-0.6476771653543307
 30
0.0
 10
-11.04205511811024
 20
-0.6476771653543307
 30
0.0
 10
-11.04205511811024
 20
-0.6476771653543307
 30
0.0
 10
-11.01349212598425
 20
-0.6201181102362204
 30
0.0
 10
-10.9890157480315
 20
-0.6165275590551181
 30
0.0
 10
-10.90575984251969
 20
-0.685015748031496
 30
0.0
 10
-10.90575984251969
 20
-0.685015748031496
 30
0.0
 10
-10.67591338582677
 20
-0.8740708661417322
 30
0.0
 10
-10.18007086614173
 20
-1.353677165354331
 30
0.0
 10
-9.965200787401574
 20
-1.557232283464567
 30
0.0
 10
-9.965200787401574
 20
-1.557232283464567
 30
0.0
 10
-9.736377952755905
 20
-1.717303149606299
 30
0.0
 10
-9.529043307086614
 20
-1.488330708661417
 30
0.0
 10
-9.318437007874016
 20
-1.662629921259843
 30
0.0
 10
-9.318437007874016
 20
-1.662629921259843
 30
0.0
 10
-9.318437007874016
 20
-1.662629921259843
 30
0.0
 10
-9.550940944881889
 20
-1.886937007874016
 30
0.0
 10
-9.550940944881889
 20
-1.886937007874016
 30
0.0
 10
-9.550940944881889
 20
-1.886937007874016
 30
0.0
 10
-9.565799212598424
 20
-1.901271653543307
 30
0.0
 10
-9.566354330708661
 20
-1.925200787401575
 30
0.0
 10
-9.552074803149607
 20
-1.940003937007874
 30
0.0
 10
-9.552074803149607
 20
-1.940003937007874
 30
0.0
 10
-9.552074803149607
 20
-1.940003937007874
 30
0.0
 10
-9.552074803149607
 20
-1.940003937007874
 30
0.0
 10
-9.552074803149607
 20
-1.940003937007874
 30
0.0
 10
-9.552074803149607
 20
-1.940003937007874
 30
0.0
 10
-9.537799212598426
 20
-1.954811023622047
 30
0.0
 10
-9.513905511811023
 20
-1.955153543307087
 30
0.0
 10
-9.499
 20
-1.940771653543307
 30
0.0
 10
-9.499
 20
-1.940771653543307
 30
0.0
 10
-9.499
 20
-1.940771653543307
 30
0.0
 10
-9.265688976377954
 20
-1.715677165354331
 30
0.0
 10
-9.265688976377954
 20
-1.715677165354331
 30
0.0
 10
-9.265688976377954
 20
-1.715677165354331
 30
0.0
 10
-9.093
 20
-1.929952755905512
 30
0.0
 10
-9.401618110236221
 20
-2.119590551181102
 30
0.0
 10
-9.193448818897638
 20
-2.355988188976378
 30
0.0
 10
-9.193448818897638
 20
-2.355988188976378
 30
0.0
 10
-8.993322834645669
 20
-2.582346456692914
 30
0.0
 10
-8.527724409448819
 20
-3.099700787401575
 30
0.0
 10
-8.343240157480315
 20
-3.341106299212599
 30
0.0
 10
-8.343240157480315
 20
-3.341106299212599
 30
0.0
 10
-8.277787401574804
 20
-3.426751968503937
 30
0.0
 10
-8.279287401574804
 20
-3.454161417322835
 30
0.0
 10
-8.307854330708661
 20
-3.481724409448819
 30
0.0
  0
SPLINE
  5
9D
330
1F
100
AcDbEntity
  8
Layer 1
 62
   252
370
    18
100
AcDbSpline
210
0.0
220
0.0
230
1.0
 70
    11
 71
     3
 72
    28
 73
    24
 74
     0
 42
0.0000000001
 43
0.0000000001
 40
0.0
 40
0.0
 40
0.0
 40
0.0
 40
0.1666666666666667
 40
0.1666666666666667
 40
0.1666666666666667
 40
0.1666666666666667
 40
0.3333333333333333
 40
0.3333333333333333
 40
0.3333333333333333
 40
0.3333333333333333
 40
0.5
 40
0.5
 40
0.5
 40
0.5
 40
0.6666666666666666
 40
0.6666666666666666
 40
0.6666666666666666
 40
0.6666666666666666
 40
0.8333333333333333
 40
0.8333333333333333
 40
0.8333333333333333
 40
0.8333333333333333
 40
1.0
 40
1.0
 40
1.0
 40
1.0
 10
5.108334645669292
 20
1.049523622047244
 30
0.0
 10
4.908413385826772
 20
1.668086614173228
 30
0.0
 10
4.561263779527559
 20
2.171799212598425
 30
0.0
 10
4.092110236220472
 20
2.580366141732283
 30
0.0
 10
4.092110236220472
 20
2.580366141732283
 30
0.0
 10
4.00838188976378
 20
2.648838582677165
 30
0.0
 10
4.054287401574803
 20
2.794370078740157
 30
0.0
 10
4.236200787401575
 20
2.757771653543307
 30
0.0
 10
4.236200787401575
 20
2.757771653543307
 30
0.0
 10
5.35782283464567
 20
2.601354330708662
 30
0.0
 10
6.448456692913386
 20
2.44044094488189
 30
0.0
 10
7.343188976377952
 20
2.251122047244094
 30
0.0
 10
7.343188976377952
 20
2.251122047244094
 30
0.0
 10
7.457649606299213
 20
2.224228346456693
 30
0.0
 10
7.457003937007874
 20
2.084141732283465
 30
0.0
 10
7.361129921259843
 20
2.035610236220473
 30
0.0
 10
7.361129921259843
 20
2.035610236220473
 30
0.0
 10
7.361129921259843
 20
2.035610236220473
 30
0.0
 10
5.278976377952756
 20
1.015173228346457
 30
0.0
 10
5.278976377952756
 20
1.015173228346457
 30
0.0
 10
5.278976377952756
 20
1.015173228346457
 30
0.0
 10
5.191240157480315
 20
0.9690078740157481
 30
0.0
 10
5.135307086614173
 20
0.9822283464566929
 30
0.0
 10
5.108334645669292
 20
1.049523622047244
 30
0.0
  0
SPLINE
  5
9E
330
1F
100
AcDbEntity
  8
Layer 1
 62
   252
370
    18
100
AcDbSpline
210
0.0
220
0.0
230
1.0
 70
    11
 71
     3
 72
    20
 73
    16
 74
     0
 42
0.0000000001
 43
0.0000000001
 40
0.0
 40
0.0
 40
0.0
 40
0.0
 40
0.25
 40
0.25
 40
0.25
 40
0.25
 40
0.5
 40
0.5
 40
0.5
 40
0.5
 40
0.75
 40
0.75
 40
0.75
 40
0.75
 40
1.0
 40
1.0
 40
1.0
 40
1.0
 10
4.308661417322835
 20
2.539354330708661
 30
0.0
 10
4.280866141732283
 20
2.540838582677166
 30
0.0
 10
4.259527559055118
 20
2.564590551181102
 30
0.0
 10
4.261011811023622
 20
2.59238188976378
 30
0.0
 10
4.261011811023622
 20
2.59238188976378
 30
0.0
 10
4.262496062992126
 20
2.620177165354331
 30
0.0
 10
4.286240157480315
 20
2.641515748031496
 30
0.0
 10
4.314035433070866
 20
2.640031496062992
 30
0.0
 10
4.314035433070866
 20
2.640031496062992
 30
0.0
 10
4.341834645669292
 20
2.638547244094488
 30
0.0
 10
4.363173228346457
 20
2.614795275590551
 30
0.0
 10
4.361688976377953
 20
2.587007874015748
 30
0.0
 10
4.361688976377953
 20
2.587007874015748
 30
0.0
 10
4.360200787401575
 20
2.559208661417323
 30
0.0
 10
4.33646062992126
 20
2.537870078740157
 30
0.0
 10
4.308661417322835
 20
2.539354330708661
 30
0.0
  0
SPLINE
  5
9F
330
1F
100
AcDbEntity
  8
Layer 1
 62
   252
370
    18
100
AcDbSpline
210
0.0
220
0.0
230
1.0
 70
    11
 71
     3
 72
    20
 73
    16
 74
     0
 42
0.0000000001
 43
0.0000000001
 40
0.0
 40
0.0
 40
0.0
 40
0.0
 40
0.25
 40
0.25
 40
0.25
 40
0.25
 40
0.5
 40
0.5
 40
0.5
 40
0.5
 40
0.75
 40
0.75
 40
0.75
 40
0.75
 40
1.0
 40
1.0
 40
1.0
 40
1.0
 10
5.281712598425197
 20
1.145437007874016
 30
0.0
 10
5.253917322834646
 20
1.14692125984252
 30
0.0
 10
5.23257874015748
 20
1.170665354330709
 30
0.0
 10
5.234062992125985
 20
1.19846062992126
 30
0.0
 10
5.234062992125985
 20
1.19846062992126
 30
0.0
 10
5.235547244094488
 20
1.226255905511811
 30
0.0
 10
5.259299212598425
 20
1.247594488188976
 30
0.0
 10
5.287086614173228
 20
1.246110236220472
 30
0.0
 10
5.287086614173228
 20
1.246110236220472
 30
0.0
 10
5.314885826771653
 20
1.244625984251968
 30
0.0
 10
5.336224409448818
 20
1.220881889763779
 30
0.0
 10
5.334740157480315
 20
1.193086614173228
 30
0.0
 10
5.334740157480315
 20
1.193086614173228
 30
0.0
 10
5.333255905511811
 20
1.165291338582677
 30
0.0
 10
5.309511811023622
 20
1.143952755905512
 30
0.0
 10
5.281712598425197
 20
1.145437007874016
 30
0.0
  0
SPLINE
  5
A0
330
1F
100
AcDbEntity
  8
Layer 1
 62
   252
370
    18
100
AcDbSpline
210
0.0
220
0.0
230
1.0
 70
    11
 71
     3
 72
    20
 73
    16
 74
     0
 42
0.0000000001
 43
0.0000000001
 40
0.0
 40
0.0
 40
0.0
 40
0.0
 40
0.25
 40
0.25
 40
0.25
 40
0.25
 40
0.5
 40
0.5
 40
0.5
 40
0.5
 40
0.75
 40
0.75
 40
0.75
 40
0.75
 40
1.0
 40
1.0
 40
1.0
 40
1.0
 10
7.232425196850394
 20
2.067728346456693
 30
0.0
 10
7.204625984251969
 20
2.069204724409449
 30
0.0
 10
7.183287401574803
 20
2.092956692913386
 30
0.0
 10
7.184775590551181
 20
2.120744094488189
 30
0.0
 10
7.184775590551181
 20
2.120744094488189
 30
0.0
 10
7.186259842519685
 20
2.148543307086614
 30
0.0
 10
7.210003937007874
 20
2.16988188976378
 30
0.0
 10
7.237799212598425
 20
2.168397637795275
 30
0.0
 10
7.237799212598425
 20
2.168397637795275
 30
0.0
 10
7.265594488188976
 20
2.166913385826772
 30
0.0
 10
7.286933070866142
 20
2.143169291338582
 30
0.0
 10
7.285448818897637
 20
2.115370078740157
 30
0.0
 10
7.285448818897637
 20
2.115370078740157
 30
0.0
 10
7.283964566929134
 20
2.087582677165354
 30
0.0
 10
7.260216535433071
 20
2.066244094488189
 30
0.0
 10
7.232425196850394
 20
2.067728346456693
 30
0.0
  0
SPLINE
  5
A1
330
1F
100
AcDbEntity
  8
Layer 1
 62
   252
370
    18
100
AcDbSpline
210
0.0
220
0.0
230
1.0
 70
    11
 71
     3
 72
    44
 73
    40
 74
     0
 42
0.0000000001
 43
0.0000000001
 40
0.0
 40
0.0
 40
0.0
 40
0.0
 40
0.1
 40
0.1
 40
0.1
 40
0.1
 40
0.2
 40
0.2
 40
0.2
 40
0.2
 40
0.3
 40
0.3
 40
0.3
 40
0.3
 40
0.4
 40
0.4
 40
0.4
 40
0.4
 40
0.5
 40
0.5
 40
0.5
 40
0.5
 40
0.6
 40
0.6
 40
0.6
 40
0.6
 40
0.7
 40
0.7
 40
0.7
 40
0.7
 40
0.7999999999999999
 40
0.7999999999999999
 40
0.7999999999999999
 40
0.7999999999999999
 40
0.8999999999999999
 40
0.8999999999999999
 40
0.8999999999999999
 40
0.8999999999999999
 40
1.0
 40
1.0
 40
1.0
 40
1.0
 10
-9.942086614173228
 20
2.334393700787401
 30
0.0
 10
-9.947503937007873
 20
2.310062992125984
 30
0.0
 10
-9.961291338582678
 20
2.277366141732283
 30
0.0
 10
-9.977287401574802
 20
2.277366141732283
 30
0.0
 10
-9.977287401574802
 20
2.277366141732283
 30
0.0
 10
-9.977287401574802
 20
2.277366141732283
 30
0.0
 10
-10.50018503937008
 20
2.277366141732283
 30
0.0
 10
-10.50018503937008
 20
2.277366141732283
 30
0.0
 10
-10.50018503937008
 20
2.277366141732283
 30
0.0
 10
-10.51656299212598
 20
2.277366141732283
 30
0.0
 10
-10.53062598425197
 20
2.311625984251969
 30
0.0
 10
-10.53575984251968
 20
2.336102362204724
 30
0.0
 10
-10.53575984251968
 20
2.336102362204724
 30
0.0
 10
-10.57864173228347
 20
2.343456692913386
 30
0.0
 10
-10.61099606299213
 20
2.373629921259842
 30
0.0
 10
-10.61099606299213
 20
2.409476377952756
 30
0.0
 10
-10.61099606299213
 20
2.409476377952756
 30
0.0
 10
-10.61099606299213
 20
2.409476377952756
 30
0.0
 10
-10.61099606299213
 20
2.860011811023622
 30
0.0
 10
-10.61099606299213
 20
2.860011811023622
 30
0.0
 10
-10.61099606299213
 20
2.860011811023622
 30
0.0
 10
-10.61099606299213
 20
2.901311023622047
 30
0.0
 10
-10.56803543307087
 20
2.935094488188976
 30
0.0
 10
-10.51551968503937
 20
2.935094488188976
 30
0.0
 10
-10.51551968503937
 20
2.935094488188976
 30
0.0
 10
-10.51551968503937
 20
2.935094488188976
 30
0.0
 10
-9.942649606299213
 20
2.935094488188976
 30
0.0
 10
-9.942649606299213
 20
2.935094488188976
 30
0.0
 10
-9.942649606299213
 20
2.935094488188976
 30
0.0
 10
-9.890125984251968
 20
2.935094488188976
 30
0.0
 10
-9.847169291338583
 20
2.901311023622047
 30
0.0
 10
-9.847169291338583
 20
2.860011811023622
 30
0.0
 10
-9.847169291338583
 20
2.860011811023622
 30
0.0
 10
-9.847169291338583
 20
2.860011811023622
 30
0.0
 10
-9.847169291338583
 20
2.409476377952756
 30
0.0
 10
-9.847169291338583
 20
2.409476377952756
 30
0.0
 10
-9.847169291338583
 20
2.409476377952756
 30
0.0
 10
-9.847169291338583
 20
2.36832283464567
 30
0.0
 10
-9.889822834645669
 20
2.334633858267717
 30
0.0
 10
-9.942086614173228
 20
2.334393700787401
 30
0.0
  0
SPLINE
  5
A2
330
1F
100
AcDbEntity
  8
Layer 1
 62
   252
370
    18
100
AcDbSpline
210
0.0
220
0.0
230
1.0
 70
    11
 71
     3
 72
    44
 73
    40
 74
     0
 42
0.0000000001
 43
0.0000000001
 40
0.0
 40
0.0
 40
0.0
 40
0.0
 40
0.1
 40
0.1
 40
0.1
 40
0.1
 40
0.2
 40
0.2
 40
0.2
 40
0.2
 40
0.3
 40
0.3
 40
0.3
 40
0.3
 40
0.4
 40
0.4
 40
0.4
 40
0.4
 40
0.5
 40
0.5
 40
0.5
 40
0.5
 40
0.6
 40
0.6
 40
0.6
 40
0.6
 40
0.7
 40
0.7
 40
0.7
 40
0.7
 40
0.7999999999999999
 40
0.7999999999999999
 40
0.7999999999999999
 40
0.7999999999999999
 40
0.8999999999999999
 40
0.8999999999999999
 40
0.8999999999999999
 40
0.8999999999999999
 40
1.0
 40
1.0
 40
1.0
 40
1.0
 10
2.439413385826771
 20
1.209295275590551
 30
0.0
 10
2.433988188976378
 20
1.184968503937008
 30
0.0
 10
2.420200787401575
 20
1.152271653543307
 30
0.0
 10
2.404204724409449
 20
1.152271653543307
 30
0.0
 10
2.404204724409449
 20
1.152271653543307
 30
0.0
 10
2.404204724409449
 20
1.152271653543307
 30
0.0
 10
1.881307086614173
 20
1.152271653543307
 30
0.0
 10
1.881307086614173
 20
1.152271653543307
 30
0.0
 10
1.881307086614173
 20
1.152271653543307
 30
0.0
 10
1.864929133858268
 20
1.152271653543307
 30
0.0
 10
1.850874015748031
 20
1.186531496062992
 30
0.0
 10
1.845728346456693
 20
1.211011811023622
 30
0.0
 10
1.845728346456693
 20
1.211011811023622
 30
0.0
 10
1.802850393700787
 20
1.218358267716535
 30
0.0
 10
1.770496062992126
 20
1.24853937007874
 30
0.0
 10
1.770496062992126
 20
1.284377952755906
 30
0.0
 10
1.770496062992126
 20
1.284377952755906
 30
0.0
 10
1.770496062992126
 20
1.284377952755906
 30
0.0
 10
1.770496062992126
 20
1.734913385826772
 30
0.0
 10
1.770496062992126
 20
1.734913385826772
 30
0.0
 10
1.770496062992126
 20
1.734913385826772
 30
0.0
 10
1.770496062992126
 20
1.776216535433071
 30
0.0
 10
1.813456692913386
 20
1.810003937007874
 30
0.0
 10
1.86598031496063
 20
1.810003937007874
 30
0.0
 10
1.86598031496063
 20
1.810003937007874
 30
0.0
 10
1.86598031496063
 20
1.810003937007874
 30
0.0
 10
2.438842519685039
 20
1.810003937007874
 30
0.0
 10
2.438842519685039
 20
1.810003937007874
 30
0.0
 10
2.438842519685039
 20
1.810003937007874
 30
0.0
 10
2.49136220472441
 20
1.810003937007874
 30
0.0
 10
2.534322834645669
 20
1.776216535433071
 30
0.0
 10
2.534322834645669
 20
1.734913385826772
 30
0.0
 10
2.534322834645669
 20
1.734913385826772
 30
0.0
 10
2.534322834645669
 20
1.734913385826772
 30
0.0
 10
2.534322834645669
 20
1.284377952755906
 30
0.0
 10
2.534322834645669
 20
1.284377952755906
 30
0.0
 10
2.534322834645669
 20
1.284377952755906
 30
0.0
 10
2.534322834645669
 20
1.243228346456693
 30
0.0
 10
2.491669291338583
 20
1.209535433070866
 30
0.0
 10
2.439413385826771
 20
1.209295275590551
 30
0.0
  0
SPLINE
  5
A3
330
1F
100
AcDbEntity
  8
Layer 1
 62
   252
370
    18
100
AcDbSpline
210
0.0
220
0.0
230
1.0
 70
    11
 71
     3
 72
   196
 73
   192
 74
     0
 42
0.0000000001
 43
0.0000000001
 40
0.0
 40
0.0
 40
0.0
 40
0.0
 40
0.0208333333333333
 40
0.0208333333333333
 40
0.0208333333333333
 40
0.0208333333333333
 40
0.0416666666666667
 40
0.0416666666666667
 40
0.0416666666666667
 40
0.0416666666666667
 40
0.0625
 40
0.0625
 40
0.0625
 40
0.0625
 40
0.0833333333333333
 40
0.0833333333333333
 40
0.0833333333333333
 40
0.0833333333333333
 40
0.1041666666666667
 40
0.1041666666666667
 40
0.1041666666666667
 40
0.1041666666666667
 40
0.125
 40
0.125
 40
0.125
 40
0.125
 40
0.1458333333333333
 40
0.1458333333333333
 40
0.1458333333333333
 40
0.1458333333333333
 40
0.1666666666666667
 40
0.1666666666666667
 40
0.1666666666666667
 40
0.1666666666666667
 40
0.1875
 40
0.1875
 40
0.1875
 40
0.1875
 40
0.2083333333333333
 40
0.2083333333333333
 40
0.2083333333333333
 40
0.2083333333333333
 40
0.2291666666666667
 40
0.2291666666666667
 40
0.2291666666666667
 40
0.2291666666666667
 40
0.25
 40
0.25
 40
0.25
 40
0.25
 40
0.2708333333333333
 40
0.2708333333333333
 40
0.2708333333333333
 40
0.2708333333333333
 40
0.2916666666666666
 40
0.2916666666666666
 40
0.2916666666666666
 40
0.2916666666666666
 40
0.3124999999999999
 40
0.3124999999999999
 40
0.3124999999999999
 40
0.3124999999999999
 40
0.3333333333333333
 40
0.3333333333333333
 40
0.3333333333333333
 40
0.3333333333333333
 40
0.3541666666666666
 40
0.3541666666666666
 40
0.3541666666666666
 40
0.3541666666666666
 40
0.3749999999999999
 40
0.3749999999999999
 40
0.3749999999999999
 40
0.3749999999999999
 40
0.3958333333333332
 40
0.3958333333333332
 40
0.3958333333333332
 40
0.3958333333333332
 40
0.4166666666666665
 40
0.4166666666666665
 40
0.4166666666666665
 40
0.4166666666666665
 40
0.4374999999999998
 40
0.4374999999999998
 40
0.4374999999999998
 40
0.4374999999999998
 40
0.4583333333333331
 40
0.4583333333333331
 40
0.4583333333333331
 40
0.4583333333333331
 40
0.4791666666666665
 40
0.4791666666666665
 40
0.4791666666666665
 40
0.4791666666666665
 40
0.4999999999999998
 40
0.4999999999999998
 40
0.4999999999999998
 40
0.4999999999999998
 40
0.5208333333333331
 40
0.5208333333333331
 40
0.5208333333333331
 40
0.5208333333333331
 40
0.5416666666666665
 40
0.5416666666666665
 40
0.5416666666666665
 40
0.5416666666666665
 40
0.5624999999999999
 40
0.5624999999999999
 40
0.5624999999999999
 40
0.5624999999999999
 40
0.5833333333333333
 40
0.5833333333333333
 40
0.5833333333333333
 40
0.5833333333333333
 40
0.6041666666666666
 40
0.6041666666666666
 40
0.6041666666666666
 40
0.6041666666666666
 40
0.625
 40
0.625
 40
0.625
 40
0.625
 40
0.6458333333333334
 40
0.6458333333333334
 40
0.6458333333333334
 40
0.6458333333333334
 40
0.6666666666666667
 40
0.6666666666666667
 40
0.6666666666666667
 40
0.6666666666666667
 40
0.6875000000000001
 40
0.6875000000000001
 40
0.6875000000000001
 40
0.6875000000000001
 40
0.7083333333333335
 40
0.7083333333333335
 40
0.7083333333333335
 40
0.7083333333333335
 40
0.7291666666666669
 40
0.7291666666666669
 40
0.7291666666666669
 40
0.7291666666666669
 40
0.7500000000000002
 40
0.7500000000000002
 40
0.7500000000000002
 40
0.7500000000000002
 40
0.7708333333333336
 40
0.7708333333333336
 40
0.7708333333333336
 40
0.7708333333333336
 40
0.791666666666667
 40
0.791666666666667
 40
0.791666666666667
 40
0.791666666666667
 40
0.8125000000000003
 40
0.8125000000000003
 40
0.8125000000000003
 40
0.8125000000000003
 40
0.8333333333333337
 40
0.8333333333333337
 40
0.8333333333333337
 40
0.8333333333333337
 40
0.8541666666666671
 40
0.8541666666666671
 40
0.8541666666666671
 40
0.8541666666666671
 40
0.8750000000000004
 40
0.8750000000000004
 40
0.8750000000000004
 40
0.8750000000000004
 40
0.8958333333333338
 40
0.8958333333333338
 40
0.8958333333333338
 40
0.8958333333333338
 40
0.9166666666666672
 40
0.9166666666666672
 40
0.9166666666666672
 40
0.9166666666666672
 40
0.9375000000000006
 40
0.9375000000000006
 40
0.9375000000000006
 40
0.9375000000000006
 40
0.9583333333333339
 40
0.9583333333333339
 40
0.9583333333333339
 40
0.9583333333333339
 40
0.9791666666666673
 40
0.9791666666666673
 40
0.9791666666666673
 40
0.9791666666666673
 40
1.0
 40
1.0
 40
1.0
 40
1.0
 10
8.64429527559055
 20
1.719625984251969
 30
0.0
 10
8.64429527559055
 20
1.719625984251969
 30
0.0
 10
7.734125984251969
 20
1.293366141732283
 30
0.0
 10
7.734125984251969
 20
1.293366141732283
 30
0.0
 10
7.734125984251969
 20
1.293366141732283
 30
0.0
 10
7.734125984251969
 20
1.293366141732283
 30
0.0
 10
7.813858267716536
 20
1.123125984251969
 30
0.0
 10
7.813858267716536
 20
1.123125984251969
 30
0.0
 10
7.813858267716536
 20
1.123125984251969
 30
0.0
 10
7.842523622047244
 20
1.06192125984252
 30
0.0
 10
7.815901574803149
 20
0.9884015748031496
 30
0.0
 10
7.7546968503937
 20
0.959732283464567
 30
0.0
 10
7.7546968503937
 20
0.959732283464567
 30
0.0
 10
7.7546968503937
 20
0.959732283464567
 30
0.0
 10
7.322917322834646
 20
0.7575196850393701
 30
0.0
 10
7.322917322834646
 20
0.7575196850393701
 30
0.0
 10
7.322917322834646
 20
0.7575196850393701
 30
0.0
 10
7.261712598425197
 20
0.7288543307086615
 30
0.0
 10
7.188185039370079
 20
0.7554763779527559
 30
0.0
 10
7.159523622047244
 20
0.8166811023622047
 30
0.0
 10
7.159523622047244
 20
0.8166811023622047
 30
0.0
 10
7.159523622047244
 20
0.8166811023622047
 30
0.0
 10
7.111354330708662
 20
0.9195275590551181
 30
0.0
 10
7.111354330708662
 20
0.9195275590551181
 30
0.0
 10
7.111354330708662
 20
0.9195275590551181
 30
0.0
 10
7.111354330708662
 20
0.9195275590551181
 30
0.0
 10
7.426799212598425
 20
1.067263779527559
 30
0.0
 10
7.426799212598425
 20
1.067263779527559
 30
0.0
 10
7.426799212598425
 20
1.067263779527559
 30
0.0
 10
7.445496062992126
 20
1.07601968503937
 30
0.0
 10
7.453771653543307
 20
1.098472440944882
 30
0.0
 10
7.445043307086614
 20
1.117110236220472
 30
0.0
 10
7.445043307086614
 20
1.117110236220472
 30
0.0
 10
7.445043307086614
 20
1.117110236220472
 30
0.0
 10
7.445043307086614
 20
1.117110236220472
 30
0.0
 10
7.445043307086614
 20
1.117110236220472
 30
0.0
 10
7.445043307086614
 20
1.117110236220472
 30
0.0
 10
7.436314960629922
 20
1.135736220472441
 30
0.0
 10
7.413830708661417
 20
1.143787401574803
 30
0.0
 10
7.395066929133859
 20
1.135003937007874
 30
0.0
 10
7.395066929133859
 20
1.135003937007874
 30
0.0
 10
7.395066929133859
 20
1.135003937007874
 30
0.0
 10
7.075909448818898
 20
0.9855314960629922
 30
0.0
 10
7.075909448818898
 20
0.9855314960629922
 30
0.0
 10
7.075909448818898
 20
0.9855314960629922
 30
0.0
 10
7.074248031496063
 20
0.984751968503937
 30
0.0
 10
7.072673228346456
 20
0.9838622047244094
 30
0.0
 10
7.071181102362205
 20
0.9828858267716536
 30
0.0
 10
7.071181102362205
 20
0.9828858267716536
 30
0.0
 10
7.071181102362205
 20
0.9828858267716536
 30
0.0
 10
5.3208031496063
 20
0.1631220472440945
 30
0.0
 10
5.3208031496063
 20
0.1631220472440945
 30
0.0
 10
5.3208031496063
 20
0.1631220472440945
 30
0.0
 10
5.3208031496063
 20
0.1631220472440945
 30
0.0
 10
5.400527559055118
 20
-0.0071141732283465
 30
0.0
 10
5.400527559055118
 20
-0.0071141732283465
 30
0.0
 10
5.400527559055118
 20
-0.0071141732283465
 30
0.0
 10
5.429188976377953
 20
-0.0683188976377953
 30
0.0
 10
5.402566929133858
 20
-0.1418425196850394
 30
0.0
 10
5.341366141732284
 20
-0.170507874015748
 30
0.0
 10
5.341366141732284
 20
-0.170507874015748
 30
0.0
 10
5.341366141732284
 20
-0.170507874015748
 30
0.0
 10
4.909586614173229
 20
-0.3727204724409449
 30
0.0
 10
4.909586614173229
 20
-0.3727204724409449
 30
0.0
 10
4.909586614173229
 20
-0.3727204724409449
 30
0.0
 10
4.84838188976378
 20
-0.4013858267716535
 30
0.0
 10
4.77486220472441
 20
-0.3747637795275591
 30
0.0
 10
4.746200787401575
 20
-0.3135590551181102
 30
0.0
 10
4.746200787401575
 20
-0.3135590551181102
 30
0.0
 10
4.746200787401575
 20
-0.3135590551181102
 30
0.0
 10
4.698031496062992
 20
-0.2107125984251969
 30
0.0
 10
4.698031496062992
 20
-0.2107125984251969
 30
0.0
 10
4.698031496062992
 20
-0.2107125984251969
 30
0.0
 10
4.698031496062992
 20
-0.2107125984251969
 30
0.0
 10
5.015181102362205
 20
-0.0621771653543307
 30
0.0
 10
5.015181102362205
 20
-0.0621771653543307
 30
0.0
 10
5.015181102362205
 20
-0.0621771653543307
 30
0.0
 10
5.033877952755906
 20
-0.0534212598425197
 30
0.0
 10
5.042153543307086
 20
-0.0309606299212598
 30
0.0
 10
5.033425196850394
 20
-0.0123307086614173
 30
0.0
 10
5.033425196850394
 20
-0.0123307086614173
 30
0.0
 10
5.033425196850394
 20
-0.0123307086614173
 30
0.0
 10
5.033425196850394
 20
-0.0123307086614173
 30
0.0
 10
5.033425196850394
 20
-0.0123307086614173
 30
0.0
 10
5.033425196850394
 20
-0.0123307086614173
 30
0.0
 10
5.024700787401575
 20
0.0062913385826772
 30
0.0
 10
5.002212598425197
 20
0.0143503937007874
 30
0.0
 10
4.983452755905512
 20
0.0055629921259843
 30
0.0
 10
4.983452755905512
 20
0.0055629921259843
 30
0.0
 10
4.983452755905512
 20
0.0055629921259843
 30
0.0
 10
4.664295275590551
 20
-0.1439055118110236
 30
0.0
 10
4.664295275590551
 20
-0.1439055118110236
 30
0.0
 10
4.664295275590551
 20
-0.1439055118110236
 30
0.0
 10
4.662633858267717
 20
-0.1446850393700787
 30
0.0
 10
4.66105905511811
 20
-0.1455708661417323
 30
0.0
 10
4.659562992125984
 20
-0.1465551181102362
 30
0.0
 10
4.659562992125984
 20
-0.1465551181102362
 30
0.0
 10
4.659562992125984
 20
-0.1465551181102362
 30
0.0
 10
4.510972440944882
 20
-0.2161417322834646
 30
0.0
 10
4.510972440944882
 20
-0.2161417322834646
 30
0.0
 10
4.510972440944882
 20
-0.2161417322834646
 30
0.0
 10
4.463374015748031
 20
-0.2384330708661417
 30
0.0
 10
4.406188976377953
 20
-0.2177322834645669
 30
0.0
 10
4.38390157480315
 20
-0.1701299212598425
 30
0.0
 10
4.38390157480315
 20
-0.1701299212598425
 30
0.0
 10
4.38390157480315
 20
-0.1701299212598425
 30
0.0
 10
4.233346456692914
 20
0.1513267716535433
 30
0.0
 10
4.233346456692914
 20
0.1513267716535433
 30
0.0
 10
4.233346456692914
 20
0.1513267716535433
 30
0.0
 10
4.211051181102362
 20
0.1989330708661417
 30
0.0
 10
4.231759842519685
 20
0.2561141732283465
 30
0.0
 10
4.279358267716535
 20
0.2784094488188976
 30
0.0
 10
4.279358267716535
 20
0.2784094488188976
 30
0.0
 10
4.279358267716535
 20
0.2784094488188976
 30
0.0
 10
4.733125984251968
 20
0.4909212598425197
 30
0.0
 10
4.733125984251968
 20
0.4909212598425197
 30
0.0
 10
4.733125984251968
 20
0.4909212598425197
 30
0.0
 10
4.724913385826771
 20
0.4963582677165354
 30
0.0
 10
4.717913385826772
 20
0.5042047244094489
 30
0.0
 10
4.713326771653543
 20
0.5139921259842519
 30
0.0
 10
4.713326771653543
 20
0.5139921259842519
 30
0.0
 10
4.713326771653543
 20
0.5139921259842519
 30
0.0
 10
4.713326771653543
 20
0.5139921259842519
 30
0.0
 10
4.713326771653543
 20
0.5139921259842519
 30
0.0
 10
4.713326771653543
 20
0.5139921259842519
 30
0.0
 10
4.700972440944882
 20
0.5403858267716536
 30
0.0
 10
4.687901574803149
 20
0.6197007874015747
 30
0.0
 10
4.711944881889764
 20
0.6309566929133859
 30
0.0
 10
4.711944881889764
 20
0.6309566929133859
 30
0.0
 10
4.711944881889764
 20
0.6309566929133859
 30
0.0
 10
5.319893700787402
 20
0.9156811023622047
 30
0.0
 10
5.319893700787402
 20
0.9156811023622047
 30
0.0
 10
5.319893700787402
 20
0.9156811023622047
 30
0.0
 10
5.343933070866142
 20
0.9269370078740158
 30
0.0
 10
5.396492125984252
 20
0.8661220472440945
 30
0.0
 10
5.408854330708661
 20
0.8397283464566929
 30
0.0
 10
5.408854330708661
 20
0.8397283464566929
 30
0.0
 10
5.408854330708661
 20
0.8397283464566929
 30
0.0
 10
5.408854330708661
 20
0.8397283464566929
 30
0.0
 10
5.408854330708661
 20
0.8397283464566929
 30
0.0
 10
5.408854330708661
 20
0.8397283464566929
 30
0.0
 10
5.413437007874016
 20
0.8299409448818897
 30
0.0
 10
5.414992125984252
 20
0.8195433070866142
 30
0.0
 10
5.41390157480315
 20
0.809751968503937
 30
0.0
 10
5.41390157480315
 20
0.809751968503937
 30
0.0
 10
5.41390157480315
 20
0.809751968503937
 30
0.0
 10
7.153984251968504
 20
1.624692913385827
 30
0.0
 10
7.153984251968504
 20
1.624692913385827
 30
0.0
 10
7.153984251968504
 20
1.624692913385827
 30
0.0
 10
7.147448818897638
 20
1.629889763779528
 30
0.0
 10
7.141909448818898
 20
1.636736220472441
 30
0.0
 10
7.138066929133858
 20
1.644944881889764
 30
0.0
 10
7.138066929133858
 20
1.644944881889764
 30
0.0
 10
7.138066929133858
 20
1.644944881889764
 30
0.0
 10
7.138066929133858
 20
1.644944881889764
 30
0.0
 10
7.138066929133858
 20
1.644944881889764
 30
0.0
 10
7.138066929133858
 20
1.644944881889764
 30
0.0
 10
7.125704724409449
 20
1.671338582677165
 30
0.0
 10
7.112641732283465
 20
1.750649606299213
 30
0.0
 10
7.136681102362204
 20
1.761905511811024
 30
0.0
 10
7.136681102362204
 20
1.761905511811024
 30
0.0
 10
7.136681102362204
 20
1.761905511811024
 30
0.0
 10
7.744629921259842
 20
2.046629921259842
 30
0.0
 10
7.744629921259842
 20
2.046629921259842
 30
0.0
 10
7.744629921259842
 20
2.046629921259842
 30
0.0
 10
7.768673228346457
 20
2.057885826771654
 30
0.0
 10
7.821236220472441
 20
1.997070866141732
 30
0.0
 10
7.833590551181103
 20
1.970681102362205
 30
0.0
 10
7.833590551181103
 20
1.970681102362205
 30
0.0
 10
7.833590551181103
 20
1.970681102362205
 30
0.0
 10
7.833590551181103
 20
1.970681102362205
 30
0.0
 10
7.833590551181103
 20
1.970681102362205
 30
0.0
 10
7.833590551181103
 20
1.970681102362205
 30
0.0
 10
7.837437007874016
 20
1.96248031496063
 30
0.0
 10
7.839145669291338
 20
1.953834645669291
 30
0.0
 10
7.838956692913386
 20
1.94548031496063
 30
0.0
 10
7.838956692913386
 20
1.94548031496063
 30
0.0
 10
7.838956692913386
 20
1.94548031496063
 30
0.0
 10
8.412677165354332
 20
2.214177165354331
 30
0.0
 10
8.412677165354332
 20
2.214177165354331
 30
0.0
 10
8.412677165354332
 20
2.214177165354331
 30
0.0
 10
8.460279527559056
 20
2.236472440944882
 30
0.0
 10
8.517464566929133
 20
2.215763779527559
 30
0.0
 10
8.539759842519684
 20
2.168165354330708
 30
0.0
 10
8.539759842519684
 20
2.168165354330708
 30
0.0
 10
8.539759842519684
 20
2.168165354330708
 30
0.0
 10
8.690307086614173
 20
1.846704724409449
 30
0.0
 10
8.690307086614173
 20
1.846704724409449
 30
0.0
 10
8.690307086614173
 20
1.846704724409449
 30
0.0
 10
8.712602362204725
 20
1.799102362204724
 30
0.0
 10
8.691893700787402
 20
1.741917322834646
 30
0.0
 10
8.64429527559055
 20
1.719625984251969
 30
0.0
  0
SPLINE
  5
A4
330
1F
100
AcDbEntity
  8
Layer 1
 62
   252
370
    18
100
AcDbSpline
210
0.0
220
0.0
230
1.0
 70
    11
 71
     3
 72
    36
 73
    32
 74
     0
 42
0.0000000001
 43
0.0000000001
 40
0.0
 40
0.0
 40
0.0
 40
0.0
 40
0.125
 40
0.125
 40
0.125
 40
0.125
 40
0.25
 40
0.25
 40
0.25
 40
0.25
 40
0.375
 40
0.375
 40
0.375
 40
0.375
 40
0.5
 40
0.5
 40
0.5
 40
0.5
 40
0.625
 40
0.625
 40
0.625
 40
0.625
 40
0.75
 40
0.75
 40
0.75
 40
0.75
 40
0.875
 40
0.875
 40
0.875
 40
0.875
 40
1.0
 40
1.0
 40
1.0
 40
1.0
 10
-11.32439763779528
 20
-5.12028346456693
 30
0.0
 10
-11.43831496062992
 20
-3.608169291338583
 30
0.0
 10
-11.88656692913386
 20
-2.240708661417323
 30
0.0
 10
-12.70201968503937
 20
-1.032145669291339
 30
0.0
 10
-12.70201968503937
 20
-1.032145669291339
 30
0.0
 10
-12.77554724409449
 20
-0.9231732283464567
 30
0.0
 10
-12.72024409448819
 20
-0.7505
 30
0.0
 10
-12.62177559055118
 20
-0.7439015748031496
 30
0.0
 10
-12.62177559055118
 20
-0.7439015748031496
 30
0.0
 10
-12.25750393700787
 20
-0.719496062992126
 30
0.0
 10
-11.88527165354331
 20
-0.6924173228346456
 30
0.0
 10
-11.521
 20
-0.668007874015748
 30
0.0
 10
-11.521
 20
-0.668007874015748
 30
0.0
 10
-11.42256299212598
 20
-0.6614094488188976
 30
0.0
 10
-11.31004330708661
 20
-0.7150944881889764
 30
0.0
 10
-11.2746968503937
 20
-0.8462125984251968
 30
0.0
 10
-11.2746968503937
 20
-0.8462125984251968
 30
0.0
 10
-10.94424803149606
 20
-2.072405511811024
 30
0.0
 10
-10.54456692913386
 20
-3.25848031496063
 30
0.0
 10
-10.07565354330709
 20
-4.404437007874016
 30
0.0
 10
-10.07565354330709
 20
-4.404437007874016
 30
0.0
 10
-10.02422834645669
 20
-4.530110236220472
 30
0.0
 10
-10.08942125984252
 20
-4.643688976377953
 30
0.0
 10
-10.17182677165354
 20
-4.698047244094488
 30
0.0
 10
-10.17182677165354
 20
-4.698047244094488
 30
0.0
 10
-10.17182677165354
 20
-4.698047244094488
 30
0.0
 10
-11.08605905511811
 20
-5.301177165354331
 30
0.0
 10
-11.08605905511811
 20
-5.301177165354331
 30
0.0
 10
-11.08605905511811
 20
-5.301177165354331
 30
0.0
 10
-11.16846062992126
 20
-5.355535433070866
 30
0.0
 10
-11.31447244094488
 20
-5.251964566929134
 30
0.0
 10
-11.32439763779528
 20
-5.12028346456693
 30
0.0
  0
SPLINE
  5
A5
330
1F
100
AcDbEntity
  8
Layer 1
 62
   252
370
    18
100
AcDbSpline
210
0.0
220
0.0
230
1.0
 70
    11
 71
     3
 72
    20
 73
    16
 74
     0
 42
0.0000000001
 43
0.0000000001
 40
0.0
 40
0.0
 40
0.0
 40
0.0
 40
0.25
 40
0.25
 40
0.25
 40
0.25
 40
0.5
 40
0.5
 40
0.5
 40
0.5
 40
0.75
 40
0.75
 40
0.75
 40
0.75
 40
1.0
 40
1.0
 40
1.0
 40
1.0
 10
-10.2374094488189
 20
-4.503228346456693
 30
0.0
 10
-10.2474094488189
 20
-4.473551181102362
 30
0.0
 10
-10.23145669291338
 20
-4.441374015748032
 30
0.0
 10
-10.20177952755905
 20
-4.431374015748031
 30
0.0
 10
-10.20177952755905
 20
-4.431374015748031
 30
0.0
 10
-10.17209448818898
 20
-4.421374015748031
 30
0.0
 10
-10.13992519685039
 20
-4.437326771653543
 30
0.0
 10
-10.12992519685039
 20
-4.467007874015748
 30
0.0
 10
-10.12992519685039
 20
-4.467007874015748
 30
0.0
 10
-10.11992519685039
 20
-4.496685039370079
 30
0.0
 10
-10.13588188976378
 20
-4.528854330708661
 30
0.0
 10
-10.16555905511811
 20
-4.538858267716535
 30
0.0
 10
-10.16555905511811
 20
-4.538858267716535
 30
0.0
 10
-10.19523622047244
 20
-4.548858267716535
 30
0.0
 10
-10.22740551181102
 20
-4.53290157480315
 30
0.0
 10
-10.2374094488189
 20
-4.503228346456693
 30
0.0
  0
SPLINE
  5
A6
330
1F
100
AcDbEntity
  8
Layer 1
 62
   252
370
    18
100
AcDbSpline
210
0.0
220
0.0
230
1.0
 70
    11
 71
     3
 72
    20
 73
    16
 74
     0
 42
0.0000000001
 43
0.0000000001
 40
0.0
 40
0.0
 40
0.0
 40
0.0
 40
0.25
 40
0.25
 40
0.25
 40
0.25
 40
0.5
 40
0.5
 40
0.5
 40
0.5
 40
0.75
 40
0.75
 40
0.75
 40
0.75
 40
1.0
 40
1.0
 40
1.0
 40
1.0
 10
-11.46649606299213
 20
-0.8558582677165354
 30
0.0
 10
-11.4765
 20
-0.8261850393700787
 30
0.0
 10
-11.46054724409449
 20
-0.794007874015748
 30
0.0
 10
-11.43087007874016
 20
-0.784007874015748
 30
0.0
 10
-11.43087007874016
 20
-0.784007874015748
 30
0.0
 10
-11.40119291338583
 20
-0.7740039370078741
 30
0.0
 10
-11.3690157480315
 20
-0.7899606299212598
 30
0.0
 10
-11.3590157480315
 20
-0.8196417322834646
 30
0.0
 10
-11.3590157480315
 20
-0.8196417322834646
 30
0.0
 10
-11.3490157480315
 20
-0.8493188976377952
 30
0.0
 10
-11.36496850393701
 20
-0.8814881889763779
 30
0.0
 10
-11.39465354330709
 20
-0.8914881889763779
 30
0.0
 10
-11.39465354330709
 20
-0.8914881889763779
 30
0.0
 10
-11.42432677165354
 20
-0.901488188976378
 30
0.0
 10
-11.4565
 20
-0.8855354330708661
 30
0.0
 10
-11.46649606299213
 20
-0.8558582677165354
 30
0.0
  0
SPLINE
  5
A7
330
1F
100
AcDbEntity
  8
Layer 1
 62
   252
370
    18
100
AcDbSpline
210
0.0
220
0.0
230
1.0
 70
    11
 71
     3
 72
    20
 73
    16
 74
     0
 42
0.0000000001
 43
0.0000000001
 40
0.0
 40
0.0
 40
0.0
 40
0.0
 40
0.25
 40
0.25
 40
0.25
 40
0.25
 40
0.5
 40
0.5
 40
0.5
 40
0.5
 40
0.75
 40
0.75
 40
0.75
 40
0.75
 40
1.0
 40
1.0
 40
1.0
 40
1.0
 10
-12.62114566929134
 20
-0.9285708661417322
 30
0.0
 10
-12.63114566929134
 20
-0.8988858267716535
 30
0.0
 10
-12.61519291338583
 20
-0.8667165354330708
 30
0.0
 10
-12.5855157480315
 20
-0.8567165354330709
 30
0.0
 10
-12.5855157480315
 20
-0.8567165354330709
 30
0.0
 10
-12.55583858267716
 20
-0.8467165354330709
 30
0.0
 10
-12.52366929133858
 20
-0.8626692913385827
 30
0.0
 10
-12.51366535433071
 20
-0.8923503937007874
 30
0.0
 10
-12.51366535433071
 20
-0.8923503937007874
 30
0.0
 10
-12.50366141732284
 20
-0.92201968503937
 30
0.0
 10
-12.51961811023622
 20
-0.9541968503937008
 30
0.0
 10
-12.54929527559055
 20
-0.9642007874015748
 30
0.0
 10
-12.54929527559055
 20
-0.9642007874015748
 30
0.0
 10
-12.57897244094488
 20
-0.9742007874015748
 30
0.0
 10
-12.61114566929134
 20
-0.9582440944881889
 30
0.0
 10
-12.62114566929134
 20
-0.9285708661417322
 30
0.0
  0
SPLINE
  5
A8
330
1F
100
AcDbEntity
  8
Layer 1
 62
   252
370
    18
100
AcDbSpline
210
0.0
220
0.0
230
1.0
 70
    11
 71
     3
 72
    20
 73
    16
 74
     0
 42
0.0000000001
 43
0.0000000001
 40
0.0
 40
0.0
 40
0.0
 40
0.0
 40
0.25
 40
0.25
 40
0.25
 40
0.25
 40
0.5
 40
0.5
 40
0.5
 40
0.5
 40
0.75
 40
0.75
 40
0.75
 40
0.75
 40
1.0
 40
1.0
 40
1.0
 40
1.0
 10
-11.20047637795276
 20
-5.144452755905512
 30
0.0
 10
-11.21047244094488
 20
-5.114775590551181
 30
0.0
 10
-11.19451968503937
 20
-5.082602362204724
 30
0.0
 10
-11.16484251968504
 20
-5.072602362204725
 30
0.0
 10
-11.16484251968504
 20
-5.072602362204725
 30
0.0
 10
-11.13516929133858
 20
-5.062598425196851
 30
0.0
 10
-11.10299212598425
 20
-5.078555118110236
 30
0.0
 10
-11.09299212598425
 20
-5.108232283464567
 30
0.0
 10
-11.09299212598425
 20
-5.108232283464567
 30
0.0
 10
-11.08298818897638
 20
-5.137909448818897
 30
0.0
 10
-11.09894881889764
 20
-5.170082677165355
 30
0.0
 10
-11.12862598425197
 20
-5.180082677165355
 30
0.0
 10
-11.12862598425197
 20
-5.180082677165355
 30
0.0
 10
-11.1583031496063
 20
-5.190082677165354
 30
0.0
 10
-11.19048031496063
 20
-5.174129921259842
 30
0.0
 10
-11.20047637795276
 20
-5.144452755905512
 30
0.0
  0
ENDSEC
  0
SECTION
  2
OBJECTS
  0
DICTIONARY
  5
C
330
0
100
AcDbDictionary
281
     1
  3
ACAD_GROUP
350
D
  3
ACAD_LAYOUT
350
1A
  3
ACAD_MLEADERSTYLE
350
AA
  3
ACAD_MLINESTYLE
350
17
  3
ACAD_PLOTSETTINGS
350
19
  3
ACAD_PLOTSTYLENAME
350
E
  3
ACAD_SCALELIST
350
3B
  3
ACAD_TABLESTYLE
350
A9
  3
ACAD_VISUALSTYLE
350
2A
  0
DICTIONARY
  5
D
102
{ACAD_REACTORS
330
C
102
}
330
C
100
AcDbDictionary
281
     1
  0
DICTIONARY
  5
1A
102
{ACAD_REACTORS
330
C
102
}
330
C
100
AcDbDictionary
281
     1
  3
Layout1
350
1E
  3
Layout2
350
26
  3
Model
350
22
  0
DICTIONARY
  5
AA
102
{ACAD_REACTORS
330
C
102
}
330
C
100
AcDbDictionary
281
     1
  0
DICTIONARY
  5
17
102
{ACAD_REACTORS
330
C
102
}
330
C
100
AcDbDictionary
281
     1
  3
Standard
350
18
  0
DICTIONARY
  5
19
102
{ACAD_REACTORS
330
C
102
}
330
C
100
AcDbDictionary
281
     1
  0
ACDBDICTIONARYWDFLT
  5
E
102
{ACAD_REACTORS
330
C
102
}
330
C
100
AcDbDictionary
281
     1
  3
Normal
350
F
100
AcDbDictionaryWithDefault
340
F
  0
DICTIONARY
  5
3B
102
{ACAD_REACTORS
330
C
102
}
330
C
100
AcDbDictionary
281
     1
  3
A0
350
3C
  3
A1
350
3D
  3
A2
350
3E
  3
A3
350
3F
  3
A4
350
40
  3
A5
350
41
  3
A6
350
42
  3
A7
350
43
  3
A8
350
44
  3
A9
350
45
  3
B0
350
46
  3
B1
350
47
  3
B2
350
48
  3
B3
350
49
  3
B4
350
4A
  3
B5
350
4B
  3
B6
350
4C
  3
B7
350
4D
  3
B8
350
4E
  3
B9
350
4F
  3
C0
350
50
  3
C1
350
51
  3
C2
350
52
  3
C3
350
53
  3
C4
350
54
  3
C5
350
55
  3
C6
350
56
  3
C7
350
57
  3
C8
350
58
  3
C9
350
59
  3
D0
350
5A
  3
D1
350
5B
  3
D2
350
5C
  0
DICTIONARY
  5
A9
102
{ACAD_REACTORS
330
C
102
}
330
C
100
AcDbDictionary
281
     1
  0
DICTIONARY
  5
2A
102
{ACAD_REACTORS
330
C
102
}
330
C
100
AcDbDictionary
281
     1
  3
2dWireframe
350
2F
  3
3D Hidden
350
31
  3
3dWireframe
350
30
  3
Basic
350
32
  3
Brighten
350
36
  3
ColorChange
350
3A
  3
Conceptual
350
34
  3
Dim
350
35
  3
Facepattern
350
39
  3
Flat
350
2B
  3
FlatWithEdges
350
2C
  3
Gouraud
350
2D
  3
GouraudWithEdges
350
2E
  3
Linepattern
350
38
  3
Realistic
350
33
  3
Thicken
350
37
  0
LAYOUT
  5
1E
102
{ACAD_REACTORS
330
1A
102
}
330
1A
100
AcDbPlotSettings
  1

  2
none_device
  4

  6

 40
0.0
 41
0.0
 42
0.0
 43
0.0
 44
0.0
 45
0.0
 46
0.0
 47
0.0
 48
0.0
 49
0.0
140
0.0
141
0.0
142
1.0
143
1.0
 70
   688
 72
     0
 73
     0
 74
     5
  7

 75
    16
 76
     0
 77
     2
 78
   300
147
1.0
148
0.0
149
0.0
100
AcDbLayout
  1
Layout1
 70
     1
 71
     1
 10
0.0
 20
0.0
 11
12.0
 21
9.0
 12
0.0
 22
0.0
 32
0.0
 14
1.000000000000000E+20
 24
1.000000000000000E+20
 34
1.000000000000000E+20
 15
-1.000000000000000E+20
 25
-1.000000000000000E+20
 35
-1.000000000000000E+20
146
0.0
 13
0.0
 23
0.0
 33
0.0
 16
1.0
 26
0.0
 36
0.0
 17
0.0
 27
1.0
 37
0.0
 76
     0
330
1B
  0
LAYOUT
  5
26
102
{ACAD_REACTORS
330
1A
102
}
330
1A
100
AcDbPlotSettings
  1

  2
none_device
  4

  6

 40
0.0
 41
0.0
 42
0.0
 43
0.0
 44
0.0
 45
0.0
 46
0.0
 47
0.0
 48
0.0
 49
0.0
140
0.0
141
0.0
142
1.0
143
1.0
 70
   688
 72
     0
 73
     0
 74
     5
  7

 75
    16
 76
     0
 77
     2
 78
   300
147
1.0
148
0.0
149
0.0
100
AcDbLayout
  1
Layout2
 70
     1
 71
     2
 10
0.0
 20
0.0
 11
0.0
 21
0.0
 12
0.0
 22
0.0
 32
0.0
 14
0.0
 24
0.0
 34
0.0
 15
0.0
 25
0.0
 35
0.0
146
0.0
 13
0.0
 23
0.0
 33
0.0
 16
1.0
 26
0.0
 36
0.0
 17
0.0
 27
1.0
 37
0.0
 76
     0
330
23
  0
LAYOUT
  5
22
102
{ACAD_REACTORS
330
1A
102
}
330
1A
100
AcDbPlotSettings
  1

  2
none_device
  4

  6

 40
0.0
 41
0.0
 42
0.0
 43
0.0
 44
0.0
 45
0.0
 46
0.0
 47
0.0
 48
0.0
 49
0.0
140
0.0
141
0.0
142
1.0
143
1.0
 70
  1712
 72
     0
 73
     0
 74
     0
  7

 75
     0
 76
     0
 77
     2
 78
   300
147
1.0
148
0.0
149
0.0
100
AcDbLayout
  1
Model
 70
     1
 71
     0
 10
0.0
 20
0.0
 11
12.0
 21
9.0
 12
0.0
 22
0.0
 32
0.0
 14
-12.73928346456693
 24
-7.166704724409449
 34
0.0
 15
11.37474409448819
 25
4.603137795275591
 35
0.0
146
0.0
 13
0.0
 23
0.0
 33
0.0
 16
1.0
 26
0.0
 36
0.0
 17
0.0
 27
1.0
 37
0.0
 76
     0
330
1F
331
29
  0
MLINESTYLE
  5
18
102
{ACAD_REACTORS
330
17
102
}
330
17
100
AcDbMlineStyle
  2
Standard
 70
     0
  3

 62
   256
 51
90.0
 52
90.0
 71
     2
 49
0.5
 62
   256
  6
BYLAYER
 49
-0.5
 62
   256
  6
BYLAYER
  0
ACDBPLACEHOLDER
  5
F
102
{ACAD_REACTORS
330
E
102
}
330
E
  0
SCALE
  5
3C
102
{ACAD_REACTORS
330
3B
102
}
330
3B
100
AcDbScale
 70
     0
300
1:1
140
1.0
141
1.0
290
     1
  0
SCALE
  5
3D
102
{ACAD_REACTORS
330
3B
102
}
330
3B
100
AcDbScale
 70
     0
300
1:2
140
1.0
141
2.0
290
     0
  0
SCALE
  5
3E
102
{ACAD_REACTORS
330
3B
102
}
330
3B
100
AcDbScale
 70
     0
300
1:4
140
1.0
141
4.0
290
     0
  0
SCALE
  5
3F
102
{ACAD_REACTORS
330
3B
102
}
330
3B
100
AcDbScale
 70
     0
300
1:5
140
1.0
141
5.0
290
     0
  0
SCALE
  5
40
102
{ACAD_REACTORS
330
3B
102
}
330
3B
100
AcDbScale
 70
     0
300
1:8
140
1.0
141
8.0
290
     0
  0
SCALE
  5
41
102
{ACAD_REACTORS
330
3B
102
}
330
3B
100
AcDbScale
 70
     0
300
1:10
140
1.0
141
10.0
290
     0
  0
SCALE
  5
42
102
{ACAD_REACTORS
330
3B
102
}
330
3B
100
AcDbScale
 70
     0
300
1:16
140
1.0
141
16.0
290
     0
  0
SCALE
  5
43
102
{ACAD_REACTORS
330
3B
102
}
330
3B
100
AcDbScale
 70
     0
300
1:20
140
1.0
141
20.0
290
     0
  0
SCALE
  5
44
102
{ACAD_REACTORS
330
3B
102
}
330
3B
100
AcDbScale
 70
     0
300
1:30
140
1.0
141
30.0
290
     0
  0
SCALE
  5
45
102
{ACAD_REACTORS
330
3B
102
}
330
3B
100
AcDbScale
 70
     0
300
1:40
140
1.0
141
40.0
290
     0
  0
SCALE
  5
46
102
{ACAD_REACTORS
330
3B
102
}
330
3B
100
AcDbScale
 70
     0
300
1:50
140
1.0
141
50.0
290
     0
  0
SCALE
  5
47
102
{ACAD_REACTORS
330
3B
102
}
330
3B
100
AcDbScale
 70
     0
300
1:100
140
1.0
141
100.0
290
     0
  0
SCALE
  5
48
102
{ACAD_REACTORS
330
3B
102
}
330
3B
100
AcDbScale
 70
     0
300
2:1
140
2.0
141
1.0
290
     0
  0
SCALE
  5
49
102
{ACAD_REACTORS
330
3B
102
}
330
3B
100
AcDbScale
 70
     0
300
4:1
140
4.0
141
1.0
290
     0
  0
SCALE
  5
4A
102
{ACAD_REACTORS
330
3B
102
}
330
3B
100
AcDbScale
 70
     0
300
8:1
140
8.0
141
1.0
290
     0
  0
SCALE
  5
4B
102
{ACAD_REACTORS
330
3B
102
}
330
3B
100
AcDbScale
 70
     0
300
10:1
140
10.0
141
1.0
290
     0
  0
SCALE
  5
4C
102
{ACAD_REACTORS
330
3B
102
}
330
3B
100
AcDbScale
 70
     0
300
100:1
140
100.0
141
1.0
290
     0
  0
SCALE
  5
4D
102
{ACAD_REACTORS
330
3B
102
}
330
3B
100
AcDbScale
 70
     0
300
1/128" = 1'-0"
140
0.0078125
141
12.0
290
     0
  0
SCALE
  5
4E
102
{ACAD_REACTORS
330
3B
102
}
330
3B
100
AcDbScale
 70
     0
300
1/64" = 1'-0"
140
0.015625
141
12.0
290
     0
  0
SCALE
  5
4F
102
{ACAD_REACTORS
330
3B
102
}
330
3B
100
AcDbScale
 70
     0
300
1/32" = 1'-0"
140
0.03125
141
12.0
290
     0
  0
SCALE
  5
50
102
{ACAD_REACTORS
330
3B
102
}
330
3B
100
AcDbScale
 70
     0
300
1/16" = 1'-0"
140
0.0625
141
12.0
290
     0
  0
SCALE
  5
51
102
{ACAD_REACTORS
330
3B
102
}
330
3B
100
AcDbScale
 70
     0
300
3/32" = 1'-0"
140
0.09375
141
12.0
290
     0
  0
SCALE
  5
52
102
{ACAD_REACTORS
330
3B
102
}
330
3B
100
AcDbScale
 70
     0
300
1/8" = 1'-0"
140
0.125
141
12.0
290
     0
  0
SCALE
  5
53
102
{ACAD_REACTORS
330
3B
102
}
330
3B
100
AcDbScale
 70
     0
300
3/16" = 1'-0"
140
0.1875
141
12.0
290
     0
  0
SCALE
  5
54
102
{ACAD_REACTORS
330
3B
102
}
330
3B
100
AcDbScale
 70
     0
300
1/4" = 1'-0"
140
0.25
141
12.0
290
     0
  0
SCALE
  5
55
102
{ACAD_REACTORS
330
3B
102
}
330
3B
100
AcDbScale
 70
     0
300
3/8" = 1'-0"
140
0.375
141
12.0
290
     0
  0
SCALE
  5
56
102
{ACAD_REACTORS
330
3B
102
}
330
3B
100
AcDbScale
 70
     0
300
1/2" = 1'-0"
140
0.5
141
12.0
290
     0
  0
SCALE
  5
57
102
{ACAD_REACTORS
330
3B
102
}
330
3B
100
AcDbScale
 70
     0
300
3/4" = 1'-0"
140
0.75
141
12.0
290
     0
  0
SCALE
  5
58
102
{ACAD_REACTORS
330
3B
102
}
330
3B
100
AcDbScale
 70
     0
300
1" = 1'-0"
140
1.0
141
12.0
290
     0
  0
SCALE
  5
59
102
{ACAD_REACTORS
330
3B
102
}
330
3B
100
AcDbScale
 70
     0
300
1-1/2" = 1'-0"
140
1.5
141
12.0
290
     0
  0
SCALE
  5
5A
102
{ACAD_REACTORS
330
3B
102
}
330
3B
100
AcDbScale
 70
     0
300
3" = 1'-0"
140
3.0
141
12.0
290
     0
  0
SCALE
  5
5B
102
{ACAD_REACTORS
330
3B
102
}
330
3B
100
AcDbScale
 70
     0
300
6" = 1'-0"
140
6.0
141
12.0
290
     0
  0
SCALE
  5
5C
102
{ACAD_REACTORS
330
3B
102
}
330
3B
100
AcDbScale
 70
     0
300
1'-0" = 1'-0"
140
12.0
141
12.0
290
     0
  0
VISUALSTYLE
  5
2F
102
{ACAD_REACTORS
330
2A
102
}
330
2A
100
AcDbVisualStyle
  2
2dWireframe
 70
     4
 71
     0
 72
     2
 73
     0
 90
        0
 40
-0.6
 41
-30.0
 62
     5
 63
     7
421
 16777215
 74
     1
 91
        4
 64
     7
 65
   257
 75
     1
175
     1
 42
1.0
 92
        0
 66
   257
 43
1.0
 76
     1
 77
     6
 78
     2
 67
     7
 79
     5
170
     0
171
     0
290
     0
174
     0
 93
        1
 44
0.0
173
     0
291
     0
 45
0.0
  0
VISUALSTYLE
  5
31
102
{ACAD_REACTORS
330
2A
102
}
330
2A
100
AcDbVisualStyle
  2
3D Hidden
 70
     6
 71
     1
 72
     2
 73
     2
 90
        0
 40
-0.6
 41
-30.0
 62
     5
 63
     7
421
 16777215
 74
     2
 91
        2
 64
     7
 65
   257
 75
     2
175
     1
 42
40.0
 92
        0
 66
   257
 43
1.0
 76
     1
 77
     6
 78
     2
 67
     7
 79
     3
170
     0
171
     0
290
     0
174
     0
 93
        1
 44
0.0
173
     0
291
     0
 45
0.0
  0
VISUALSTYLE
  5
30
102
{ACAD_REACTORS
330
2A
102
}
330
2A
100
AcDbVisualStyle
  2
3dWireframe
 70
     5
 71
     0
 72
     2
 73
     0
 90
        0
 40
-0.6
 41
-30.0
 62
     5
 63
     7
421
 16777215
 74
     1
 91
        4
 64
     7
 65
   257
 75
     1
175
     1
 42
1.0
 92
        0
 66
   257
 43
1.0
 76
     1
 77
     6
 78
     2
 67
     7
 79
     5
170
     0
171
     0
290
     0
174
     0
 93
        1
 44
0.0
173
     0
291
     0
 45
0.0
  0
VISUALSTYLE
  5
32
102
{ACAD_REACTORS
330
2A
102
}
330
2A
100
AcDbVisualStyle
  2
Basic
 70
     7
 71
     1
 72
     0
 73
     1
 90
        0
 40
-0.6
 41
-30.0
 62
     5
 63
     7
421
 16777215
 74
     0
 91
        4
 64
     7
 65
   257
 75
     1
175
     1
 42
1.0
 92
        8
 66
     7
 43
1.0
 76
     1
 77
     6
 78
     2
 67
     7
 79
     5
170
     0
171
     0
290
     0
174
     0
 93
        1
 44
0.0
173
     0
291
     1
 45
0.0
  0
VISUALSTYLE
  5
36
102
{ACAD_REACTORS
330
2A
102
}
330
2A
100
AcDbVisualStyle
  2
Brighten
 70
    12
 71
     2
 72
     2
 73
     0
 90
        0
 40
-0.6
 41
-30.0
 62
     5
 63
     7
421
 16777215
 74
     1
 91
        4
 64
     7
 65
   257
 75
     1
175
     1
 42
1.0
 92
        8
 66
     7
 43
1.0
 76
     1
 77
     6
 78
     2
 67
     7
 79
     5
170
     0
171
     0
290
     0
174
     0
 93
        1
 44
50.0
173
     0
291
     1
 45
0.0
  0
VISUALSTYLE
  5
3A
102
{ACAD_REACTORS
330
2A
102
}
330
2A
100
AcDbVisualStyle
  2
ColorChange
 70
    16
 71
     2
 72
     2
 73
     3
 90
        0
 40
-0.6
 41
-30.0
 62
     5
 63
     8
421
  8421504
 74
     1
 91
        4
 64
     7
 65
   257
 75
     1
175
     1
 42
1.0
 92
        8
 66
     8
424
  8421504
 43
1.0
 76
     1
 77
     6
 78
     2
 67
     7
 79
     5
170
     0
171
     0
290
     0
174
     0
 93
        1
 44
0.0
173
     0
291
     1
 45
0.0
  0
VISUALSTYLE
  5
34
102
{ACAD_REACTORS
330
2A
102
}
330
2A
100
AcDbVisualStyle
  2
Conceptual
 70
     9
 71
     3
 72
     2
 73
     0
 90
        0
 40
-0.6
 41
-30.0
 62
     5
 63
     7
421
 16777215
 74
     2
 91
        2
 64
     7
 65
   257
 75
     1
175
     1
 42
40.0
 92
        8
 66
     7
 43
1.0
 76
     1
 77
     6
 78
     2
 67
     7
 79
     3
170
     0
171
     0
290
     0
174
     0
 93
        1
 44
0.0
173
     0
291
     0
 45
0.0
  0
VISUALSTYLE
  5
35
102
{ACAD_REACTORS
330
2A
102
}
330
2A
100
AcDbVisualStyle
  2
Dim
 70
    11
 71
     2
 72
     2
 73
     0
 90
        0
 40
-0.6
 41
-30.0
 62
     5
 63
     7
421
 16777215
 74
     1
 91
        4
 64
     7
 65
   257
 75
     1
175
     1
 42
1.0
 92
        8
 66
     7
 43
1.0
 76
     1
 77
     6
 78
     2
 67
     7
 79
     5
170
     0
171
     0
290
     0
174
     0
 93
        1
 44
-50.0
173
     0
291
     1
 45
0.0
  0
VISUALSTYLE
  5
39
102
{ACAD_REACTORS
330
2A
102
}
330
2A
100
AcDbVisualStyle
  2
Facepattern
 70
    15
 71
     2
 72
     2
 73
     0
 90
        0
 40
-0.6
 41
-30.0
 62
     5
 63
     7
421
 16777215
 74
     1
 91
        4
 64
     7
 65
   257
 75
     1
175
     1
 42
1.0
 92
        8
 66
     7
 43
1.0
 76
     1
 77
     6
 78
     2
 67
     7
 79
     5
170
     0
171
     0
290
     0
174
     0
 93
        1
 44
0.0
173
     0
291
     1
 45
0.0
  0
VISUALSTYLE
  5
2B
102
{ACAD_REACTORS
330
2A
102
}
330
2A
100
AcDbVisualStyle
  2
Flat
 70
     0
 71
     2
 72
     1
 73
     1
 90
        2
 40
-0.6
 41
30.0
 62
     5
 63
     7
421
 16777215
 74
     0
 91
        4
 64
     7
 65
   257
 75
     1
175
     1
 42
1.0
 92
        8
 66
     7
 43
1.0
 76
     1
 77
     6
 78
     2
 67
     7
 79
     5
170
     0
171
     0
290
     0
174
     0
 93
       13
 44
0.0
173
     0
291
     1
 45
0.0
  0
VISUALSTYLE
  5
2C
102
{ACAD_REACTORS
330
2A
102
}
330
2A
100
AcDbVisualStyle
  2
FlatWithEdges
 70
     1
 71
     2
 72
     1
 73
     1
 90
        2
 40
-0.6
 41
30.0
 62
     5
 63
     7
421
 16777215
 74
     1
 91
        4
 64
     7
 65
   257
 75
     1
175
     1
 42
1.0
 92
        0
 66
   257
 43
1.0
 76
     1
 77
     6
 78
     2
 67
     7
 79
     5
170
     0
171
     0
290
     0
174
     0
 93
       13
 44
0.0
173
     0
291
     1
 45
0.0
  0
VISUALSTYLE
  5
2D
102
{ACAD_REACTORS
330
2A
102
}
330
2A
100
AcDbVisualStyle
  2
Gouraud
 70
     2
 71
     2
 72
     2
 73
     1
 90
        2
 40
-0.6
 41
30.0
 62
     5
 63
     7
421
 16777215
 74
     0
 91
        4
 64
     7
 65
   257
 75
     1
175
     1
 42
1.0
 92
        0
 66
     7
 43
1.0
 76
     1
 77
     6
 78
     2
 67
     7
 79
     5
170
     0
171
     0
290
     0
174
     0
 93
       13
 44
0.0
173
     0
291
     1
 45
0.0
  0
VISUALSTYLE
  5
2E
102
{ACAD_REACTORS
330
2A
102
}
330
2A
100
AcDbVisualStyle
  2
GouraudWithEdges
 70
     3
 71
     2
 72
     2
 73
     1
 90
        2
 40
-0.6
 41
30.0
 62
     5
 63
     7
421
 16777215
 74
     1
 91
        4
 64
     7
 65
   257
 75
     1
175
     1
 42
1.0
 92
        0
 66
   257
 43
1.0
 76
     1
 77
     6
 78
     2
 67
     7
 79
     5
170
     0
171
     0
290
     0
174
     0
 93
       13
 44
0.0
173
     0
291
     1
 45
0.0
  0
VISUALSTYLE
  5
38
102
{ACAD_REACTORS
330
2A
102
}
330
2A
100
AcDbVisualStyle
  2
Linepattern
 70
    14
 71
     2
 72
     2
 73
     0
 90
        0
 40
-0.6
 41
-30.0
 62
     5
 63
     7
421
 16777215
 74
     1
 91
        4
 64
     7
 65
   257
 75
     7
175
     7
 42
1.0
 92
        8
 66
     7
 43
1.0
 76
     1
 77
     6
 78
     2
 67
     7
 79
     5
170
     0
171
     0
290
     0
174
     0
 93
        1
 44
0.0
173
     0
291
     1
 45
0.0
  0
VISUALSTYLE
  5
33
102
{ACAD_REACTORS
330
2A
102
}
330
2A
100
AcDbVisualStyle
  2
Realistic
 70
     8
 71
     2
 72
     2
 73
     0
 90
        0
 40
-0.6
 41
-30.0
 62
     5
 63
     7
421
 16777215
 74
     1
 91
        0
 64
     7
 65
   257
 75
     1
175
     1
 42
1.0
 92
        8
 66
     8
424
  7895160
 43
1.0
 76
     1
 77
     6
 78
     2
 67
     7
 79
     5
170
     0
171
     0
290
     0
174
     0
 93
       13
 44
0.0
173
     0
291
     0
 45
0.0
  0
VISUALSTYLE
  5
37
102
{ACAD_REACTORS
330
2A
102
}
330
2A
100
AcDbVisualStyle
  2
Thicken
 70
    13
 71
     2
 72
     2
 73
     0
 90
        0
 40
-0.6
 41
-30.0
 62
     5
 63
     7
421
 16777215
 74
     1
 91
        4
 64
     7
 65
   257
 75
     1
175
     1
 42
1.0
 92
       12
 66
     7
 43
1.0
 76
     1
 77
     6
 78
     2
 67
     7
 79
     5
170
     0
171
     0
290
     0
174
     0
 93
        1
 44
0.0
173
     0
291
     1
 45
0.0
  0
ENDSEC
  0
EOF
