999
"DXF R12 Output" (www.mydxf.blogspot.com)
 0 
SECTION
 2 
HEADER
 9 
$ACADVER
 1 
AC1009
 9 
$EXTMIN
 10 
 0 
 20 
 0 
 9 
$EXTMAX
 10 
 8.5 
 20 
 11 
 0 
ENDSEC
 0 
SECTION
 2 
ENTITIES
0
LINE
8
Layer 1
10
51.505556
20
14.111111
11
51.663101
21
14.372376
0
LINE
8
Layer 1
10
51.663101
20
14.372376
11
51.832240
21
14.413749
0
LINE
8
Layer 1
10
51.832240
20
14.413749
11
52.092085
21
14.127311
0
LINE
8
Layer 1
10
52.092085
20
14.127311
11
52.058666
21
13.832773
0
LINE
8
Layer 1
10
52.058666
20
13.832773
11
51.505556
21
14.111111
0
LINE
8
Layer 1
10
51.505556
20
14.111111
11
51.505556
21
14.111111
0
LINE
8
Layer 1
10
52.514184
20
15.073765
11
52.473485
21
15.470468
0
LINE
8
Layer 1
10
52.473485
20
15.470468
11
52.623082
21
15.539322
0
LINE
8
Layer 1
10
52.623082
20
15.539322
11
53.135827
21
15.122494
0
LINE
8
Layer 1
10
53.135827
20
15.122494
11
53.337750
21
14.681303
0
LINE
8
Layer 1
10
53.337750
20
14.681303
11
53.098820
21
14.719701
0
LINE
8
Layer 1
10
53.098820
20
14.719701
11
52.514184
21
15.073765
0
LINE
8
Layer 1
10
52.514184
20
15.073765
11
52.514184
21
15.073765
0
LINE
8
Layer 1
10
39.769858
20
16.721667
11
38.672457
21
18.382434
0
LINE
8
Layer 1
10
38.672457
20
18.382434
11
38.496342
21
18.975503
0
LINE
8
Layer 1
10
38.496342
20
18.975503
11
39.043440
21
18.479269
0
LINE
8
Layer 1
10
39.043440
20
18.479269
11
40.115676
21
16.872128
0
LINE
8
Layer 1
10
40.115676
20
16.872128
11
40.919675
21
15.875601
0
LINE
8
Layer 1
10
40.919675
20
15.875601
11
40.986917
21
15.664616
0
LINE
8
Layer 1
10
40.986917
20
15.664616
11
40.890797
21
15.619789
0
LINE
8
Layer 1
10
40.890797
20
15.619789
11
40.387904
21
15.952532
0
LINE
8
Layer 1
10
40.387904
20
15.952532
11
39.769858
21
16.721667
0
LINE
8
Layer 1
10
39.769858
20
16.721667
11
39.769858
21
16.721667
0
LINE
8
Layer 1
10
50.729444
20
16.530069
11
50.445298
21
17.683227
0
LINE
8
Layer 1
10
50.445298
20
17.683227
11
50.404267
21
18.336691
0
LINE
8
Layer 1
10
50.404267
20
18.336691
11
50.525387
21
18.575570
0
LINE
8
Layer 1
10
50.525387
20
18.575570
11
50.727692
21
18.484976
0
LINE
8
Layer 1
10
50.727692
20
18.484976
11
51.051993
21
17.655807
0
LINE
8
Layer 1
10
51.051993
20
17.655807
11
51.012058
21
17.087454
0
LINE
8
Layer 1
10
51.012058
20
17.087454
11
50.729444
21
16.530069
0
LINE
8
Layer 1
10
50.729444
20
16.530069
11
50.729444
21
16.530069
0
LINE
8
Layer 1
10
80.778195
20
23.636111
11
80.482147
21
25.380822
0
LINE
8
Layer 1
10
80.482147
20
25.380822
11
80.745777
21
26.848407
0
LINE
8
Layer 1
10
80.745777
20
26.848407
11
81.448456
21
28.099549
0
LINE
8
Layer 1
10
81.448456
20
28.099549
11
82.469559
21
29.194931
0
LINE
8
Layer 1
10
82.469559
20
29.194931
11
84.984526
21
31.161153
0
LINE
8
Layer 1
10
84.984526
20
31.161153
11
86.237136
21
32.153360
0
LINE
8
Layer 1
10
86.237136
20
32.153360
11
87.325663
21
33.232542
0
LINE
8
Layer 1
10
87.325663
20
33.232542
11
87.881576
21
33.774293
0
LINE
8
Layer 1
10
87.881576
20
33.774293
11
88.472974
21
34.147295
0
LINE
8
Layer 1
10
88.472974
20
34.147295
11
89.074813
21
34.357195
0
LINE
8
Layer 1
10
89.074813
20
34.357195
11
89.662049
21
34.409642
0
LINE
8
Layer 1
10
89.662049
20
34.409642
11
90.209639
21
34.310286
0
LINE
8
Layer 1
10
90.209639
20
34.310286
11
90.692538
21
34.064775
0
LINE
8
Layer 1
10
90.692538
20
34.064775
11
91.085702
21
33.678757
0
LINE
8
Layer 1
10
91.085702
20
33.678757
11
91.364088
21
33.157882
0
LINE
8
Layer 1
10
91.364088
20
33.157882
11
91.813249
21
35.139001
0
LINE
8
Layer 1
10
91.813249
20
35.139001
11
92.434859
21
36.353526
0
LINE
8
Layer 1
10
92.434859
20
36.353526
11
92.809312
21
36.689558
0
LINE
8
Layer 1
10
92.809312
20
36.689558
11
93.225651
21
36.853430
0
LINE
8
Layer 1
10
93.225651
20
36.853430
11
93.683469
21
36.851640
0
LINE
8
Layer 1
10
93.683469
20
36.851640
11
94.182356
21
36.690684
0
LINE
8
Layer 1
10
94.182356
20
36.690684
11
94.727498
21
36.941296
0
LINE
8
Layer 1
10
94.727498
20
36.941296
11
95.146756
21
36.698433
0
LINE
8
Layer 1
10
95.146756
20
36.698433
11
95.718651
21
35.555738
0
LINE
8
Layer 1
10
95.718651
20
35.555738
11
95.926803
21
35.067635
0
LINE
8
Layer 1
10
95.926803
20
35.067635
11
96.120100
21
34.909512
0
LINE
8
Layer 1
10
96.120100
20
34.909512
11
96.326300
21
35.287235
0
LINE
8
Layer 1
10
96.326300
20
35.287235
11
96.573159
21
36.406667
0
LINE
8
Layer 1
10
96.573159
20
36.406667
11
96.741857
21
35.484087
0
LINE
8
Layer 1
10
96.741857
20
35.484087
11
96.823670
21
35.379893
0
LINE
8
Layer 1
10
96.823670
20
35.379893
11
96.902321
21
35.476490
0
LINE
8
Layer 1
10
96.902321
20
35.476490
11
97.163228
21
37.311674
0
LINE
8
Layer 1
10
97.163228
20
37.311674
11
97.285242
21
40.123069
0
LINE
8
Layer 1
10
97.285242
20
40.123069
11
97.197723
21
42.121526
0
LINE
8
Layer 1
10
97.197723
20
42.121526
11
96.675774
21
50.011529
0
LINE
8
Layer 1
10
96.675774
20
50.011529
11
96.353673
21
57.911018
0
LINE
8
Layer 1
10
96.353673
20
57.911018
11
96.081468
21
65.813146
0
LINE
8
Layer 1
10
96.081468
20
65.813146
11
95.709209
21
73.711062
0
LINE
8
Layer 1
10
95.709209
20
73.711062
11
95.630403
21
77.501384
0
LINE
8
Layer 1
10
95.630403
20
77.501384
11
95.381613
21
81.673745
0
LINE
8
Layer 1
10
95.381613
20
81.673745
11
95.173098
21
85.524410
0
LINE
8
Layer 1
10
95.173098
20
85.524410
11
95.215115
21
88.349644
0
LINE
8
Layer 1
10
95.215115
20
88.349644
11
95.847769
21
86.063450
0
LINE
8
Layer 1
10
95.847769
20
86.063450
11
96.234700
21
83.736775
0
LINE
8
Layer 1
10
96.234700
20
83.736775
11
96.507229
21
79.001945
0
LINE
8
Layer 1
10
96.507229
20
79.001945
11
96.504369
21
74.225086
0
LINE
8
Layer 1
10
96.504369
20
74.225086
11
96.697792
21
69.486128
0
LINE
8
Layer 1
10
96.697792
20
69.486128
11
97.102824
21
60.780347
0
LINE
8
Layer 1
10
97.102824
20
60.780347
11
97.575539
21
52.068139
0
LINE
8
Layer 1
10
97.575539
20
52.068139
11
97.837652
21
43.356526
0
LINE
8
Layer 1
10
97.837652
20
43.356526
11
97.802768
21
39.003135
0
LINE
8
Layer 1
10
97.802768
20
39.003135
11
97.610876
21
34.652526
0
LINE
8
Layer 1
10
97.610876
20
34.652526
11
97.288298
21
33.715305
0
LINE
8
Layer 1
10
97.288298
20
33.715305
11
96.831034
21
33.402698
0
LINE
8
Layer 1
10
96.831034
20
33.402698
11
96.282710
21
33.538634
0
LINE
8
Layer 1
10
96.282710
20
33.538634
11
95.686953
21
33.947039
0
LINE
8
Layer 1
10
95.686953
20
33.947039
11
94.527639
21
34.876964
0
LINE
8
Layer 1
10
94.527639
20
34.876964
11
94.051334
21
35.046338
0
LINE
8
Layer 1
10
94.051334
20
35.046338
11
93.702099
21
34.783889
0
LINE
8
Layer 1
10
93.702099
20
34.783889
11
93.438187
21
35.140133
0
LINE
8
Layer 1
10
93.438187
20
35.140133
11
93.198188
21
35.245585
0
LINE
8
Layer 1
10
93.198188
20
35.245585
11
92.773968
21
34.867564
0
LINE
8
Layer 1
10
92.773968
20
34.867564
11
92.036919
21
32.899976
0
LINE
8
Layer 1
10
92.036919
20
32.899976
11
91.660250
21
31.964214
0
LINE
8
Layer 1
10
91.660250
20
31.964214
11
91.235593
21
31.496343
0
LINE
8
Layer 1
10
91.235593
20
31.496343
11
90.995294
21
31.540024
0
LINE
8
Layer 1
10
90.995294
20
31.540024
11
90.731027
21
31.823265
0
LINE
8
Layer 1
10
90.731027
20
31.823265
11
90.114634
21
33.271883
0
LINE
8
Layer 1
10
90.114634
20
33.271883
11
88.692788
21
32.870998
0
LINE
8
Layer 1
10
88.692788
20
32.870998
11
87.530436
21
32.333308
0
LINE
8
Layer 1
10
87.530436
20
32.333308
11
85.645236
21
30.944435
0
LINE
8
Layer 1
10
85.645236
20
30.944435
11
83.781068
21
29.299111
0
LINE
8
Layer 1
10
83.781068
20
29.299111
11
82.645008
21
28.440856
0
LINE
8
Layer 1
10
82.645008
20
28.440856
11
81.259971
21
27.591182
0
LINE
8
Layer 1
10
81.259971
20
27.591182
11
80.986019
21
25.477593
0
LINE
8
Layer 1
10
80.986019
20
25.477593
11
80.903929
21
23.338739
0
LINE
8
Layer 1
10
80.903929
20
23.338739
11
80.840828
21
19.050000
0
LINE
8
Layer 1
10
80.840828
20
19.050000
11
80.778195
21
23.636111
0
LINE
8
Layer 1
10
80.778195
20
23.636111
11
80.778195
21
23.636111
0
LINE
8
Layer 1
10
44.941106
20
20.651546
11
45.311203
21
21.744678
0
LINE
8
Layer 1
10
45.311203
20
21.744678
11
45.417311
21
22.803360
0
LINE
8
Layer 1
10
45.417311
20
22.803360
11
45.277480
21
23.753291
0
LINE
8
Layer 1
10
45.277480
20
23.753291
11
44.909754
21
24.520169
0
LINE
8
Layer 1
10
44.909754
20
24.520169
11
44.332183
21
25.029692
0
LINE
8
Layer 1
10
44.332183
20
25.029692
11
43.562813
21
25.207558
0
LINE
8
Layer 1
10
43.562813
20
25.207558
11
42.619691
21
24.979465
0
LINE
8
Layer 1
10
42.619691
20
24.979465
11
41.520864
21
24.271111
0
LINE
8
Layer 1
10
41.520864
20
24.271111
11
41.461417
21
24.732934
0
LINE
8
Layer 1
10
41.461417
20
24.732934
11
41.569990
21
25.099385
0
LINE
8
Layer 1
10
41.569990
20
25.099385
11
42.191656
21
25.596137
0
LINE
8
Layer 1
10
42.191656
20
25.596137
11
43.186785
21
25.861303
0
LINE
8
Layer 1
10
43.186785
20
25.861303
11
44.356304
21
25.994815
0
LINE
8
Layer 1
10
44.356304
20
25.994815
11
46.422205
21
26.266616
0
LINE
8
Layer 1
10
46.422205
20
26.266616
11
46.920437
21
26.604771
0
LINE
8
Layer 1
10
46.920437
20
26.604771
11
46.948778
21
26.868134
0
LINE
8
Layer 1
10
46.948778
20
26.868134
11
46.796757
21
27.211009
0
LINE
8
Layer 1
10
46.796757
20
27.211009
11
44.649435
21
26.546493
0
LINE
8
Layer 1
10
44.649435
20
26.546493
11
42.270247
21
26.222532
0
LINE
8
Layer 1
10
42.270247
20
26.222532
11
41.262777
21
26.293238
0
LINE
8
Layer 1
10
41.262777
20
26.293238
11
40.520227
21
26.575057
0
LINE
8
Layer 1
10
40.520227
20
26.575057
11
40.150228
21
27.109981
0
LINE
8
Layer 1
10
40.150228
20
27.109981
11
40.260408
21
27.940000
0
LINE
8
Layer 1
10
40.260408
20
27.940000
11
39.318781
21
27.597396
0
LINE
8
Layer 1
10
39.318781
20
27.597396
11
39.174478
21
27.580324
0
LINE
8
Layer 1
10
39.174478
20
27.580324
11
39.199144
21
27.647328
0
LINE
8
Layer 1
10
39.199144
20
27.647328
11
40.256904
21
28.474976
0
LINE
8
Layer 1
10
40.256904
20
28.474976
11
40.849831
21
29.027783
0
LINE
8
Layer 1
10
40.849831
20
29.027783
11
41.095811
21
29.523308
0
LINE
8
Layer 1
10
41.095811
20
29.523308
11
40.997372
21
29.714447
0
LINE
8
Layer 1
10
40.997372
20
29.714447
11
40.702607
21
29.849095
0
LINE
8
Layer 1
10
40.702607
20
29.849095
11
39.377987
21
29.892690
0
LINE
8
Layer 1
10
39.377987
20
29.892690
11
38.127160
21
30.238323
0
LINE
8
Layer 1
10
38.127160
20
30.238323
11
37.283580
21
30.635873
0
LINE
8
Layer 1
10
37.283580
20
30.635873
11
36.803569
21
31.050891
0
LINE
8
Layer 1
10
36.803569
20
31.050891
11
36.643448
21
31.448928
0
LINE
8
Layer 1
10
36.643448
20
31.448928
11
36.759541
21
31.795534
0
LINE
8
Layer 1
10
36.759541
20
31.795534
11
37.108170
21
32.056260
0
LINE
8
Layer 1
10
37.108170
20
32.056260
11
37.645656
21
32.196657
0
LINE
8
Layer 1
10
37.645656
20
32.196657
11
38.328323
21
32.182274
0
LINE
8
Layer 1
10
38.328323
20
32.182274
11
39.165255
21
33.341504
0
LINE
8
Layer 1
10
39.165255
20
33.341504
11
39.874490
21
34.272971
0
LINE
8
Layer 1
10
39.874490
20
34.272971
11
39.940389
21
34.585271
0
LINE
8
Layer 1
10
39.940389
20
34.585271
11
39.685365
21
34.759004
0
LINE
8
Layer 1
10
39.685365
20
34.759004
11
37.827215
21
34.581933
0
LINE
8
Layer 1
10
37.827215
20
34.581933
11
37.456640
21
34.843100
0
LINE
8
Layer 1
10
37.456640
20
34.843100
11
37.478180
21
35.075332
0
LINE
8
Layer 1
10
37.478180
20
35.075332
11
38.053096
21
35.498869
0
LINE
8
Layer 1
10
38.053096
20
35.498869
11
38.284215
21
35.713116
0
LINE
8
Layer 1
10
38.284215
20
35.713116
11
38.262938
21
35.944308
0
LINE
8
Layer 1
10
38.262938
20
35.944308
11
37.828138
21
36.203916
0
LINE
8
Layer 1
10
37.828138
20
36.203916
11
36.818686
21
36.503410
0
LINE
8
Layer 1
10
36.818686
20
36.503410
11
36.408062
21
35.735067
0
LINE
8
Layer 1
10
36.408062
20
35.735067
11
35.785791
21
35.458788
0
LINE
8
Layer 1
10
35.785791
20
35.458788
11
35.073263
21
35.495854
0
LINE
8
Layer 1
10
35.073263
20
35.495854
11
34.391872
21
35.667546
0
LINE
8
Layer 1
10
34.391872
20
35.667546
11
33.863009
21
35.795144
0
LINE
8
Layer 1
10
33.863009
20
35.795144
11
33.608065
21
35.699928
0
LINE
8
Layer 1
10
33.608065
20
35.699928
11
33.748433
21
35.203179
0
LINE
8
Layer 1
10
33.748433
20
35.203179
11
34.405505
21
34.126178
0
LINE
8
Layer 1
10
34.405505
20
34.126178
11
34.371748
21
33.379735
0
LINE
8
Layer 1
10
34.371748
20
33.379735
11
34.769030
21
32.425660
0
LINE
8
Layer 1
10
34.769030
20
32.425660
11
36.050636
21
30.513050
0
LINE
8
Layer 1
10
36.050636
20
30.513050
11
36.638175
21
29.625217
0
LINE
8
Layer 1
10
36.638175
20
29.625217
11
34.919497
21
30.999032
0
LINE
8
Layer 1
10
34.919497
20
30.999032
11
32.476991
21
32.943097
0
LINE
8
Layer 1
10
32.476991
20
32.943097
11
30.422863
21
34.321708
0
LINE
8
Layer 1
10
30.422863
20
34.321708
11
25.396462
21
37.531161
0
LINE
8
Layer 1
10
25.396462
20
37.531161
11
24.452411
21
38.393419
0
LINE
8
Layer 1
10
24.452411
20
38.393419
11
23.943855
21
39.165209
0
LINE
8
Layer 1
10
23.943855
20
39.165209
11
23.801523
21
39.781425
0
LINE
8
Layer 1
10
23.801523
20
39.781425
11
23.956149
21
40.176965
0
LINE
8
Layer 1
10
23.956149
20
40.176965
11
24.338464
21
40.286723
0
LINE
8
Layer 1
10
24.338464
20
40.286723
11
24.879200
21
40.045597
0
LINE
8
Layer 1
10
24.879200
20
40.045597
11
25.509088
21
39.388483
0
LINE
8
Layer 1
10
25.509088
20
39.388483
11
26.158861
21
38.250275
0
LINE
8
Layer 1
10
26.158861
20
38.250275
11
26.891654
21
37.650336
0
LINE
8
Layer 1
10
26.891654
20
37.650336
11
28.059410
21
36.957207
0
LINE
8
Layer 1
10
28.059410
20
36.957207
11
30.705514
21
35.701653
0
LINE
8
Layer 1
10
30.705514
20
35.701653
11
31.686715
21
35.344363
0
LINE
8
Layer 1
10
31.686715
20
35.344363
11
32.108584
21
35.304155
0
LINE
8
Layer 1
10
32.108584
20
35.304155
11
31.722546
21
35.683597
0
LINE
8
Layer 1
10
31.722546
20
35.683597
11
30.280029
21
36.585257
0
LINE
8
Layer 1
10
30.280029
20
36.585257
11
29.648264
21
37.284871
0
LINE
8
Layer 1
10
29.648264
20
37.284871
11
29.613085
21
37.733828
0
LINE
8
Layer 1
10
29.613085
20
37.733828
11
30.035523
21
37.973347
0
LINE
8
Layer 1
10
30.035523
20
37.973347
11
30.776610
21
38.044644
0
LINE
8
Layer 1
10
30.776610
20
38.044644
11
32.658855
21
37.847449
0
LINE
8
Layer 1
10
32.658855
20
37.847449
11
34.148073
21
37.471985
0
LINE
8
Layer 1
10
34.148073
20
37.471985
11
33.166372
21
38.040551
0
LINE
8
Layer 1
10
33.166372
20
38.040551
11
32.383591
21
38.711796
0
LINE
8
Layer 1
10
32.383591
20
38.711796
11
31.839755
21
39.413246
0
LINE
8
Layer 1
10
31.839755
20
39.413246
11
31.574889
21
40.072430
0
LINE
8
Layer 1
10
31.574889
20
40.072430
11
31.629019
21
40.616877
0
LINE
8
Layer 1
10
31.629019
20
40.616877
11
32.042171
21
40.974113
0
LINE
8
Layer 1
10
32.042171
20
40.974113
11
32.854369
21
41.071667
0
LINE
8
Layer 1
10
32.854369
20
41.071667
11
34.105638
21
40.837067
0
LINE
8
Layer 1
10
34.105638
20
40.837067
11
35.899288
21
40.614074
0
LINE
8
Layer 1
10
35.899288
20
40.614074
11
37.050672
21
40.609345
0
LINE
8
Layer 1
10
37.050672
20
40.609345
11
37.209018
21
40.716334
0
LINE
8
Layer 1
10
37.209018
20
40.716334
11
36.995003
21
40.910894
0
LINE
8
Layer 1
10
36.995003
20
40.910894
11
35.167494
21
41.606738
0
LINE
8
Layer 1
10
35.167494
20
41.606738
11
33.947781
21
41.774678
0
LINE
8
Layer 1
10
33.947781
20
41.774678
11
32.997264
21
42.142797
0
LINE
8
Layer 1
10
32.997264
20
42.142797
11
32.349818
21
42.640922
0
LINE
8
Layer 1
10
32.349818
20
42.640922
11
32.039317
21
43.198882
0
LINE
8
Layer 1
10
32.039317
20
43.198882
11
32.099637
21
43.746504
0
LINE
8
Layer 1
10
32.099637
20
43.746504
11
32.564653
21
44.213615
0
LINE
8
Layer 1
10
32.564653
20
44.213615
11
33.468238
21
44.530044
0
LINE
8
Layer 1
10
33.468238
20
44.530044
11
34.844268
21
44.625618
0
LINE
8
Layer 1
10
34.844268
20
44.625618
11
36.266353
21
44.914489
0
LINE
8
Layer 1
10
36.266353
20
44.914489
11
36.411083
21
45.028098
0
LINE
8
Layer 1
10
36.411083
20
45.028098
11
36.259761
21
45.127207
0
LINE
8
Layer 1
10
36.259761
20
45.127207
11
33.916315
21
45.469399
0
LINE
8
Layer 1
10
33.916315
20
45.469399
11
32.557344
21
45.671482
0
LINE
8
Layer 1
10
32.557344
20
45.671482
11
31.725463
21
45.942629
0
LINE
8
Layer 1
10
31.725463
20
45.942629
11
31.659975
21
46.115447
0
LINE
8
Layer 1
10
31.659975
20
46.115447
11
31.909613
21
46.319145
0
LINE
8
Layer 1
10
31.909613
20
46.319145
11
33.598736
21
46.837332
0
LINE
8
Layer 1
10
33.598736
20
46.837332
11
34.550368
21
48.940451
0
LINE
8
Layer 1
10
34.550368
20
48.940451
11
35.737331
21
51.613053
0
LINE
8
Layer 1
10
35.737331
20
51.613053
11
35.995787
21
52.636161
0
LINE
8
Layer 1
10
35.995787
20
52.636161
11
35.967185
21
52.977236
0
LINE
8
Layer 1
10
35.967185
20
52.977236
11
35.805145
21
53.169542
0
LINE
8
Layer 1
10
35.805145
20
53.169542
11
35.488503
21
53.186742
0
LINE
8
Layer 1
10
35.488503
20
53.186742
11
34.996095
21
53.002497
0
LINE
8
Layer 1
10
34.996095
20
53.002497
11
33.399326
21
51.924325
0
LINE
8
Layer 1
10
33.399326
20
51.924325
11
32.498967
21
49.667443
0
LINE
8
Layer 1
10
32.498967
20
49.667443
11
31.365225
21
47.440716
0
LINE
8
Layer 1
10
31.365225
20
47.440716
11
30.745938
21
46.596523
0
LINE
8
Layer 1
10
30.745938
20
46.596523
11
30.110428
21
46.069303
0
LINE
8
Layer 1
10
30.110428
20
46.069303
11
29.472736
21
45.962203
0
LINE
8
Layer 1
10
29.472736
20
45.962203
11
28.846904
21
46.378365
0
LINE
8
Layer 1
10
28.846904
20
46.378365
11
27.209688
21
46.172412
0
LINE
8
Layer 1
10
27.209688
20
46.172412
11
25.723361
21
45.658457
0
LINE
8
Layer 1
10
25.723361
20
45.658457
11
24.459617
21
44.874818
0
LINE
8
Layer 1
10
24.459617
20
44.874818
11
23.490148
21
43.859815
0
LINE
8
Layer 1
10
23.490148
20
43.859815
11
22.886649
21
42.651766
0
LINE
8
Layer 1
10
22.886649
20
42.651766
11
22.720810
21
41.288991
0
LINE
8
Layer 1
10
22.720810
20
41.288991
11
23.064326
21
39.809809
0
LINE
8
Layer 1
10
23.064326
20
39.809809
11
23.988889
21
38.252538
0
LINE
8
Layer 1
10
23.988889
20
38.252538
11
23.474388
21
38.219281
0
LINE
8
Layer 1
10
23.474388
20
38.219281
11
23.054323
21
38.354411
0
LINE
8
Layer 1
10
23.054323
20
38.354411
11
22.458325
21
39.003541
0
LINE
8
Layer 1
10
22.458325
20
39.003541
11
22.122539
21
39.947348
0
LINE
8
Layer 1
10
22.122539
20
39.947348
11
21.968610
21
40.933252
0
LINE
8
Layer 1
10
21.968610
20
40.933252
11
21.892906
21
42.021031
0
LINE
8
Layer 1
10
21.892906
20
42.021031
11
21.604375
21
40.246235
0
LINE
8
Layer 1
10
21.604375
20
40.246235
11
21.417785
21
39.813587
0
LINE
8
Layer 1
10
21.417785
20
39.813587
11
21.289353
21
40.150870
0
LINE
8
Layer 1
10
21.289353
20
40.150870
11
21.078203
21
41.902756
0
LINE
8
Layer 1
10
21.078203
20
41.902756
11
20.931106
21
42.701122
0
LINE
8
Layer 1
10
20.931106
20
42.701122
11
20.713407
21
43.036947
0
LINE
8
Layer 1
10
20.713407
20
43.036947
11
20.392918
21
42.602111
0
LINE
8
Layer 1
10
20.392918
20
42.602111
11
19.937448
21
41.088496
0
LINE
8
Layer 1
10
19.937448
20
41.088496
11
19.727500
21
40.652773
0
LINE
8
Layer 1
10
19.727500
20
40.652773
11
19.626558
21
40.065738
0
LINE
8
Layer 1
10
19.626558
20
40.065738
11
19.675205
21
38.570503
0
LINE
8
Layer 1
10
19.675205
20
38.570503
11
20.239173
21
35.224800
0
LINE
8
Layer 1
10
20.239173
20
35.224800
11
20.448530
21
33.905426
0
LINE
8
Layer 1
10
20.448530
20
33.905426
11
20.405491
21
33.175769
0
LINE
8
Layer 1
10
20.405491
20
33.175769
11
20.241517
21
33.115068
0
LINE
8
Layer 1
10
20.241517
20
33.115068
11
19.957075
21
33.301376
0
LINE
8
Layer 1
10
19.957075
20
33.301376
11
18.950297
21
34.547796
0
LINE
8
Layer 1
10
18.950297
20
34.547796
11
18.341621
21
35.588325
0
LINE
8
Layer 1
10
18.341621
20
35.588325
11
17.998434
21
36.655477
0
LINE
8
Layer 1
10
17.998434
20
36.655477
11
17.867346
21
37.749982
0
LINE
8
Layer 1
10
17.867346
20
37.749982
11
17.894965
21
38.872567
0
LINE
8
Layer 1
10
17.894965
20
38.872567
11
18.212757
21
41.204894
0
LINE
8
Layer 1
10
18.212757
20
41.204894
11
18.524677
21
43.658285
0
LINE
8
Layer 1
10
18.524677
20
43.658285
11
17.516585
21
40.236300
0
LINE
8
Layer 1
10
17.516585
20
40.236300
11
17.378555
21
39.894427
0
LINE
8
Layer 1
10
17.378555
20
39.894427
11
17.310830
21
40.003616
0
LINE
8
Layer 1
10
17.310830
20
40.003616
11
17.435720
21
42.066402
0
LINE
8
Layer 1
10
17.435720
20
42.066402
11
17.654658
21
42.792589
0
LINE
8
Layer 1
10
17.654658
20
42.792589
11
18.149321
21
43.693837
0
LINE
8
Layer 1
10
18.149321
20
43.693837
11
19.355758
21
45.610568
0
LINE
8
Layer 1
10
19.355758
20
45.610568
11
19.762500
21
46.420578
0
LINE
8
Layer 1
10
19.762500
20
46.420578
11
19.834904
21
46.994701
0
LINE
8
Layer 1
10
19.834904
20
46.994701
11
19.698067
21
47.161200
0
LINE
8
Layer 1
10
19.698067
20
47.161200
11
19.420452
21
47.230201
0
LINE
8
Layer 1
10
19.420452
20
47.230201
11
18.366628
21
47.024341
0
LINE
8
Layer 1
10
18.366628
20
47.024341
11
17.298485
21
45.793709
0
LINE
8
Layer 1
10
17.298485
20
45.793709
11
16.121781
21
44.852040
0
LINE
8
Layer 1
10
16.121781
20
44.852040
11
15.756538
21
44.680818
0
LINE
8
Layer 1
10
15.756538
20
44.680818
11
15.680737
21
44.811339
0
LINE
8
Layer 1
10
15.680737
20
44.811339
11
16.819576
21
46.283612
0
LINE
8
Layer 1
10
16.819576
20
46.283612
11
17.888577
21
47.397402
0
LINE
8
Layer 1
10
17.888577
20
47.397402
11
18.977435
21
47.992820
0
LINE
8
Layer 1
10
18.977435
20
47.992820
11
20.085588
21
48.211419
0
LINE
8
Layer 1
10
20.085588
20
48.211419
11
21.212473
21
48.194748
0
LINE
8
Layer 1
10
21.212473
20
48.194748
11
23.520191
21
48.021807
0
LINE
8
Layer 1
10
23.520191
20
48.021807
11
24.699898
21
48.148639
0
LINE
8
Layer 1
10
24.699898
20
48.148639
11
25.896087
21
48.606408
0
LINE
8
Layer 1
10
25.896087
20
48.606408
11
26.327098
21
49.729774
0
LINE
8
Layer 1
10
26.327098
20
49.729774
11
26.333844
21
50.406363
0
LINE
8
Layer 1
10
26.333844
20
50.406363
11
25.999641
21
50.722252
0
LINE
8
Layer 1
10
25.999641
20
50.722252
11
25.407804
21
50.763518
0
LINE
8
Layer 1
10
25.407804
20
50.763518
11
23.784500
21
50.366486
0
LINE
8
Layer 1
10
23.784500
20
50.366486
11
22.130460
21
49.903882
0
LINE
8
Layer 1
10
22.130460
20
49.903882
11
20.666348
21
49.524342
0
LINE
8
Layer 1
10
20.666348
20
49.524342
11
19.346482
21
48.910142
0
LINE
8
Layer 1
10
19.346482
20
48.910142
11
18.143577
21
48.108089
0
LINE
8
Layer 1
10
18.143577
20
48.108089
11
17.030345
21
47.164989
0
LINE
8
Layer 1
10
17.030345
20
47.164989
11
14.963759
21
45.042876
0
LINE
8
Layer 1
10
14.963759
20
45.042876
11
12.928435
21
42.918259
0
LINE
8
Layer 1
10
12.928435
20
42.918259
11
12.985516
21
45.320496
0
LINE
8
Layer 1
10
12.985516
20
45.320496
11
13.403382
21
47.678096
0
LINE
8
Layer 1
10
13.403382
20
47.678096
11
13.949568
21
49.979256
0
LINE
8
Layer 1
10
13.949568
20
49.979256
11
14.391610
21
52.212175
0
LINE
8
Layer 1
10
14.391610
20
52.212175
11
14.962437
21
55.741610
0
LINE
8
Layer 1
10
14.962437
20
55.741610
11
15.783690
21
59.331623
0
LINE
8
Layer 1
10
15.783690
20
59.331623
11
16.512621
21
62.965954
0
LINE
8
Layer 1
10
16.512621
20
62.965954
11
16.735357
21
64.794656
0
LINE
8
Layer 1
10
16.735357
20
64.794656
11
16.806481
21
66.628340
0
LINE
8
Layer 1
10
16.806481
20
66.628340
11
17.521715
21
70.884005
0
LINE
8
Layer 1
10
17.521715
20
70.884005
11
18.413326
21
75.106386
0
LINE
8
Layer 1
10
18.413326
20
75.106386
11
19.242679
21
79.336612
0
LINE
8
Layer 1
10
19.242679
20
79.336612
11
19.771140
21
83.615815
0
LINE
8
Layer 1
10
19.771140
20
83.615815
11
20.582615
21
88.139275
0
LINE
8
Layer 1
10
20.582615
20
88.139275
11
21.320386
21
92.703493
0
LINE
8
Layer 1
10
21.320386
20
92.703493
11
21.794156
21
94.953895
0
LINE
8
Layer 1
10
21.794156
20
94.953895
11
22.408528
21
97.158098
0
LINE
8
Layer 1
10
22.408528
20
97.158098
11
23.216509
21
99.297306
0
LINE
8
Layer 1
10
23.216509
20
99.297306
11
24.271111
21
101.352723
0
LINE
8
Layer 1
10
24.271111
20
101.352723
11
23.381800
21
101.334849
0
LINE
8
Layer 1
10
23.381800
20
101.334849
11
22.648002
21
101.454050
0
LINE
8
Layer 1
10
22.648002
20
101.454050
11
22.055781
21
101.695945
0
LINE
8
Layer 1
10
22.055781
20
101.695945
11
21.591202
21
102.046153
0
LINE
8
Layer 1
10
21.591202
20
102.046153
11
20.989219
21
103.013979
0
LINE
8
Layer 1
10
20.989219
20
103.013979
11
20.730564
21
104.242475
0
LINE
8
Layer 1
10
20.730564
20
104.242475
11
20.703746
21
105.616589
0
LINE
8
Layer 1
10
20.703746
20
105.616589
11
20.797275
21
107.021267
0
LINE
8
Layer 1
10
20.797275
20
107.021267
11
20.899411
21
109.462106
0
LINE
8
Layer 1
10
20.899411
20
109.462106
11
21.372409
21
110.800088
0
LINE
8
Layer 1
10
21.372409
20
110.800088
11
21.406117
21
112.202932
0
LINE
8
Layer 1
10
21.406117
20
112.202932
11
21.008879
21
114.845473
0
LINE
8
Layer 1
10
21.008879
20
114.845473
11
21.004538
21
115.906307
0
LINE
8
Layer 1
10
21.004538
20
115.906307
11
21.144257
21
116.332488
0
LINE
8
Layer 1
10
21.144257
20
116.332488
11
21.414120
21
116.674274
0
LINE
8
Layer 1
10
21.414120
20
116.674274
11
21.840789
21
116.920485
0
LINE
8
Layer 1
10
21.840789
20
116.920485
11
22.450928
21
117.059942
0
LINE
8
Layer 1
10
22.450928
20
117.059942
11
24.328265
21
116.973879
0
LINE
8
Layer 1
10
24.328265
20
116.973879
11
28.183519
21
116.761318
0
LINE
8
Layer 1
10
28.183519
20
116.761318
11
30.173981
21
116.814016
0
LINE
8
Layer 1
10
30.173981
20
116.814016
11
31.999969
21
117.111958
0
LINE
8
Layer 1
10
31.999969
20
117.111958
11
33.506711
21
117.759585
0
LINE
8
Layer 1
10
33.506711
20
117.759585
11
34.091999
21
118.247170
0
LINE
8
Layer 1
10
34.091999
20
118.247170
11
34.539435
21
118.861343
0
LINE
8
Layer 1
10
34.539435
20
118.861343
11
34.829675
21
119.615158
0
LINE
8
Layer 1
10
34.829675
20
119.615158
11
34.943370
21
120.521672
0
LINE
8
Layer 1
10
34.943370
20
120.521672
11
34.861174
21
121.593940
0
LINE
8
Layer 1
10
34.861174
20
121.593940
11
34.563741
21
122.845017
0
LINE
8
Layer 1
10
34.563741
20
122.845017
11
35.145763
21
123.487787
0
LINE
8
Layer 1
10
35.145763
20
123.487787
11
35.982005
21
123.949536
0
LINE
8
Layer 1
10
35.982005
20
123.949536
11
36.903997
21
124.229979
0
LINE
8
Layer 1
10
36.903997
20
124.229979
11
37.743265
21
124.328830
0
LINE
8
Layer 1
10
37.743265
20
124.328830
11
38.331337
21
124.245804
0
LINE
8
Layer 1
10
38.331337
20
124.245804
11
38.499741
21
123.980616
0
LINE
8
Layer 1
10
38.499741
20
123.980616
11
38.080005
21
123.532979
0
LINE
8
Layer 1
10
38.080005
20
123.532979
11
36.903657
21
122.902610
0
LINE
8
Layer 1
10
36.903657
20
122.902610
11
36.376399
21
121.993713
0
LINE
8
Layer 1
10
36.376399
20
121.993713
11
36.100258
21
121.119296
0
LINE
8
Layer 1
10
36.100258
20
121.119296
11
36.057281
21
120.354114
0
LINE
8
Layer 1
10
36.057281
20
120.354114
11
36.229515
21
119.772923
0
LINE
8
Layer 1
10
36.229515
20
119.772923
11
36.599008
21
119.450478
0
LINE
8
Layer 1
10
36.599008
20
119.450478
11
37.147805
21
119.461534
0
LINE
8
Layer 1
10
37.147805
20
119.461534
11
37.857953
21
119.880848
0
LINE
8
Layer 1
10
37.857953
20
119.880848
11
38.711499
21
120.783174
0
LINE
8
Layer 1
10
38.711499
20
120.783174
11
42.331510
21
122.420591
0
LINE
8
Layer 1
10
42.331510
20
122.420591
11
46.056767
21
123.856975
0
LINE
8
Layer 1
10
46.056767
20
123.856975
11
47.964305
21
124.370904
0
LINE
8
Layer 1
10
47.964305
20
124.370904
11
49.904684
21
124.679924
0
LINE
8
Layer 1
10
49.904684
20
124.679924
11
51.880083
21
124.732484
0
LINE
8
Layer 1
10
51.880083
20
124.732484
11
53.892676
21
124.477033
0
LINE
8
Layer 1
10
53.892676
20
124.477033
11
58.387736
21
124.065919
0
LINE
8
Layer 1
10
58.387736
20
124.065919
11
62.901920
21
123.582685
0
LINE
8
Layer 1
10
62.901920
20
123.582685
11
65.130137
21
123.210388
0
LINE
8
Layer 1
10
65.130137
20
123.210388
11
67.319880
21
122.695700
0
LINE
8
Layer 1
10
67.319880
20
122.695700
11
69.456729
21
121.997166
0
LINE
8
Layer 1
10
69.456729
20
121.997166
11
71.526267
21
121.073333
0
LINE
8
Layer 1
10
71.526267
20
121.073333
11
71.665501
21
123.032559
0
LINE
8
Layer 1
10
71.665501
20
123.032559
11
71.948837
21
124.694217
0
LINE
8
Layer 1
10
71.948837
20
124.694217
11
72.135935
21
125.077617
0
LINE
8
Layer 1
10
72.135935
20
125.077617
11
72.348730
21
124.983616
0
LINE
8
Layer 1
10
72.348730
20
124.983616
11
72.583778
21
124.277879
0
LINE
8
Layer 1
10
72.583778
20
124.277879
11
72.837635
21
122.826069
0
LINE
8
Layer 1
10
72.837635
20
122.826069
11
73.113332
21
121.971981
0
LINE
8
Layer 1
10
73.113332
20
121.971981
11
73.574130
21
121.158383
0
LINE
8
Layer 1
10
73.574130
20
121.158383
11
74.926090
21
119.714287
0
LINE
8
Layer 1
10
74.926090
20
119.714287
11
76.643623
21
118.617050
0
LINE
8
Layer 1
10
76.643623
20
118.617050
11
78.476839
21
117.989943
0
LINE
8
Layer 1
10
78.476839
20
117.989943
11
78.790992
21
118.620585
0
LINE
8
Layer 1
10
78.790992
20
118.620585
11
79.175746
21
119.074984
0
LINE
8
Layer 1
10
79.175746
20
119.074984
11
79.624751
21
119.374153
0
LINE
8
Layer 1
10
79.624751
20
119.374153
11
80.131656
21
119.539105
0
LINE
8
Layer 1
10
80.131656
20
119.539105
11
81.293765
21
119.550406
0
LINE
8
Layer 1
10
81.293765
20
119.550406
11
82.611271
21
119.276990
0
LINE
8
Layer 1
10
82.611271
20
119.276990
11
85.509268
21
118.548415
0
LINE
8
Layer 1
10
85.509268
20
118.548415
11
86.988154
21
118.429459
0
LINE
8
Layer 1
10
86.988154
20
118.429459
11
88.419229
21
118.698194
0
LINE
8
Layer 1
10
88.419229
20
118.698194
11
89.083480
21
118.282104
0
LINE
8
Layer 1
10
89.083480
20
118.282104
11
89.742182
21
118.062268
0
LINE
8
Layer 1
10
89.742182
20
118.062268
11
91.043448
21
118.086191
0
LINE
8
Layer 1
10
91.043448
20
118.086191
11
92.324040
21
118.519629
0
LINE
8
Layer 1
10
92.324040
20
118.519629
11
93.584968
21
119.112244
0
LINE
8
Layer 1
10
93.584968
20
119.112244
11
94.827244
21
119.613699
0
LINE
8
Layer 1
10
94.827244
20
119.613699
11
96.051880
21
119.773658
0
LINE
8
Layer 1
10
96.051880
20
119.773658
11
96.657899
21
119.647346
0
LINE
8
Layer 1
10
96.657899
20
119.647346
11
97.259888
21
119.341784
0
LINE
8
Layer 1
10
97.259888
20
119.341784
11
97.857973
21
118.825679
0
LINE
8
Layer 1
10
97.857973
20
118.825679
11
98.452280
21
118.067739
0
LINE
8
Layer 1
10
98.452280
20
118.067739
11
99.209233
21
117.602997
0
LINE
8
Layer 1
10
99.209233
20
117.602997
11
99.761677
21
117.077720
0
LINE
8
Layer 1
10
99.761677
20
117.077720
11
100.132287
21
116.501841
0
LINE
8
Layer 1
10
100.132287
20
116.501841
11
100.343740
21
115.885296
0
LINE
8
Layer 1
10
100.343740
20
115.885296
11
100.379872
21
114.569945
0
LINE
8
Layer 1
10
100.379872
20
114.569945
11
100.051477
21
113.211139
0
LINE
8
Layer 1
10
100.051477
20
113.211139
11
99.026718
21
110.681066
0
LINE
8
Layer 1
10
99.026718
20
110.681066
11
98.693162
21
109.668748
0
LINE
8
Layer 1
10
98.693162
20
109.668748
11
98.720693
21
108.930875
0
LINE
8
Layer 1
10
98.720693
20
108.930875
11
99.569282
21
108.411980
0
LINE
8
Layer 1
10
99.569282
20
108.411980
11
100.576538
21
107.583832
0
LINE
8
Layer 1
10
100.576538
20
107.583832
11
102.429436
21
105.562261
0
LINE
8
Layer 1
10
102.429436
20
105.562261
11
102.956269
21
104.650084
0
LINE
8
Layer 1
10
102.956269
20
104.650084
11
103.004154
21
103.991142
0
LINE
8
Layer 1
10
103.004154
20
103.991142
11
102.798677
21
103.800579
0
LINE
8
Layer 1
10
102.798677
20
103.800579
11
102.413687
21
103.726058
0
LINE
8
Layer 1
10
102.413687
20
103.726058
11
101.025463
21
103.995453
0
LINE
8
Layer 1
10
101.025463
20
103.995453
11
98.871427
21
105.700225
0
LINE
8
Layer 1
10
98.871427
20
105.700225
11
97.676663
21
106.604792
0
LINE
8
Layer 1
10
97.676663
20
106.604792
11
96.543229
21
107.306819
0
LINE
8
Layer 1
10
96.543229
20
107.306819
11
95.575996
21
107.628311
0
LINE
8
Layer 1
10
95.575996
20
107.628311
11
95.187477
21
107.590733
0
LINE
8
Layer 1
10
95.187477
20
107.590733
11
94.879834
21
107.391274
0
LINE
8
Layer 1
10
94.879834
20
107.391274
11
94.666176
21
107.007683
0
LINE
8
Layer 1
10
94.666176
20
107.007683
11
94.559613
21
106.417712
0
LINE
8
Layer 1
10
94.559613
20
106.417712
11
94.720204
21
104.529631
0
LINE
8
Layer 1
10
94.720204
20
104.529631
11
93.901898
21
103.888222
0
LINE
8
Layer 1
10
93.901898
20
103.888222
11
93.619545
21
103.904999
0
LINE
8
Layer 1
10
93.619545
20
103.904999
11
93.404391
21
104.108878
0
LINE
8
Layer 1
10
93.404391
20
104.108878
11
93.123677
21
104.964280
0
LINE
8
Layer 1
10
93.123677
20
104.964280
11
92.955749
21
106.227112
0
LINE
8
Layer 1
10
92.955749
20
106.227112
11
92.542223
21
109.065795
0
LINE
8
Layer 1
10
92.542223
20
109.065795
11
92.088613
21
110.187012
0
LINE
8
Layer 1
10
92.088613
20
110.187012
11
91.754593
21
110.573637
0
LINE
8
Layer 1
10
91.754593
20
110.573637
11
91.331762
21
110.806388
0
LINE
8
Layer 1
10
91.331762
20
110.806388
11
91.790576
21
111.333352
0
LINE
8
Layer 1
10
91.790576
20
111.333352
11
92.109535
21
111.920688
0
LINE
8
Layer 1
10
92.109535
20
111.920688
11
92.362100
21
113.204478
0
LINE
8
Layer 1
10
92.362100
20
113.204478
11
92.157878
21
114.513771
0
LINE
8
Layer 1
10
92.157878
20
114.513771
11
91.565291
21
115.704578
0
LINE
8
Layer 1
10
91.565291
20
115.704578
11
90.652759
21
116.632911
0
LINE
8
Layer 1
10
90.652759
20
116.632911
11
89.488703
21
117.154782
0
LINE
8
Layer 1
10
89.488703
20
117.154782
11
88.833735
21
117.218298
0
LINE
8
Layer 1
10
88.833735
20
117.218298
11
88.141545
21
117.126202
0
LINE
8
Layer 1
10
88.141545
20
117.126202
11
87.420683
21
116.860497
0
LINE
8
Layer 1
10
87.420683
20
116.860497
11
86.679704
21
116.403183
0
LINE
8
Layer 1
10
86.679704
20
116.403183
11
85.690070
21
116.553632
0
LINE
8
Layer 1
10
85.690070
20
116.553632
11
84.691092
21
116.520055
0
LINE
8
Layer 1
10
84.691092
20
116.520055
11
83.785883
21
116.322082
0
LINE
8
Layer 1
10
83.785883
20
116.322082
11
83.077556
21
115.979344
0
LINE
8
Layer 1
10
83.077556
20
115.979344
11
82.669225
21
115.511472
0
LINE
8
Layer 1
10
82.669225
20
115.511472
11
82.664003
21
114.938098
0
LINE
8
Layer 1
10
82.664003
20
114.938098
11
83.165002
21
114.278851
0
LINE
8
Layer 1
10
83.165002
20
114.278851
11
84.275337
21
113.553362
0
LINE
8
Layer 1
10
84.275337
20
113.553362
11
85.384654
21
113.480321
0
LINE
8
Layer 1
10
85.384654
20
113.480321
11
86.719126
21
113.600012
0
LINE
8
Layer 1
10
86.719126
20
113.600012
11
89.282031
21
113.963047
0
LINE
8
Layer 1
10
89.282031
20
113.963047
11
90.119713
21
113.979123
0
LINE
8
Layer 1
10
90.119713
20
113.979123
11
90.342134
21
113.896084
0
LINE
8
Layer 1
10
90.342134
20
113.896084
11
90.401045
21
113.733390
0
LINE
8
Layer 1
10
90.401045
20
113.733390
11
89.930653
21
113.112213
0
LINE
8
Layer 1
10
89.930653
20
113.112213
11
88.513161
21
112.001958
0
LINE
8
Layer 1
10
88.513161
20
112.001958
11
87.921258
21
111.533206
0
LINE
8
Layer 1
10
87.921258
20
111.533206
11
87.596109
21
111.043653
0
LINE
8
Layer 1
10
87.596109
20
111.043653
11
87.505407
21
110.533875
0
LINE
8
Layer 1
10
87.505407
20
110.533875
11
87.616843
21
110.004448
0
LINE
8
Layer 1
10
87.616843
20
110.004448
11
88.316901
21
108.888961
0
LINE
8
Layer 1
10
88.316901
20
108.888961
11
89.437820
21
107.701807
0
LINE
8
Layer 1
10
89.437820
20
107.701807
11
90.721135
21
106.447603
0
LINE
8
Layer 1
10
90.721135
20
106.447603
11
91.908386
21
105.130965
0
LINE
8
Layer 1
10
91.908386
20
105.130965
11
92.741108
21
103.756511
0
LINE
8
Layer 1
10
92.741108
20
103.756511
11
92.943751
21
103.049045
0
LINE
8
Layer 1
10
92.943751
20
103.049045
11
92.960839
21
102.328856
0
LINE
8
Layer 1
10
92.960839
20
102.328856
11
94.179505
21
98.322692
0
LINE
8
Layer 1
10
94.179505
20
98.322692
11
95.192983
21
94.256183
0
LINE
8
Layer 1
10
95.192983
20
94.256183
11
95.952035
21
90.138559
0
LINE
8
Layer 1
10
95.952035
20
90.138559
11
96.407424
21
85.979051
0
LINE
8
Layer 1
10
96.407424
20
85.979051
11
95.111270
21
90.954683
0
LINE
8
Layer 1
10
95.111270
20
90.954683
11
94.002265
21
96.021058
0
LINE
8
Layer 1
10
94.002265
20
96.021058
11
93.350196
21
98.518416
0
LINE
8
Layer 1
10
93.350196
20
98.518416
11
92.543618
21
100.954631
0
LINE
8
Layer 1
10
92.543618
20
100.954631
11
91.515431
21
103.301759
0
LINE
8
Layer 1
10
91.515431
20
103.301759
11
90.198538
21
105.531857
0
LINE
8
Layer 1
10
90.198538
20
105.531857
11
88.856221
21
105.737055
0
LINE
8
Layer 1
10
88.856221
20
105.737055
11
87.417793
21
105.794787
0
LINE
8
Layer 1
10
87.417793
20
105.794787
11
84.467944
21
105.513007
0
LINE
8
Layer 1
10
84.467944
20
105.513007
11
81.779661
21
104.776825
0
LINE
8
Layer 1
10
81.779661
20
104.776825
11
80.668191
21
104.266554
0
LINE
8
Layer 1
10
80.668191
20
104.266554
11
79.783613
21
103.676548
0
LINE
8
Layer 1
10
79.783613
20
103.676548
11
79.293796
21
104.801972
0
LINE
8
Layer 1
10
79.293796
20
104.801972
11
78.650806
21
105.358724
0
LINE
8
Layer 1
10
78.650806
20
105.358724
11
77.909638
21
105.450923
0
LINE
8
Layer 1
10
77.909638
20
105.450923
11
77.125294
21
105.182688
0
LINE
8
Layer 1
10
77.125294
20
105.182688
11
76.352770
21
104.658137
0
LINE
8
Layer 1
10
76.352770
20
104.658137
11
75.647066
21
103.981389
0
LINE
8
Layer 1
10
75.647066
20
103.981389
11
74.656112
21
102.587778
0
LINE
8
Layer 1
10
74.656112
20
102.587778
11
74.234420
21
102.729685
0
LINE
8
Layer 1
10
74.234420
20
102.729685
11
73.928304
21
102.980110
0
LINE
8
Layer 1
10
73.928304
20
102.980110
11
73.591412
21
103.740618
0
LINE
8
Layer 1
10
73.591412
20
103.740618
11
73.502661
21
104.737519
0
LINE
8
Layer 1
10
73.502661
20
104.737519
11
73.519273
21
105.839032
0
LINE
8
Layer 1
10
73.519273
20
105.839032
11
73.498473
21
106.913374
0
LINE
8
Layer 1
10
73.498473
20
106.913374
11
73.297483
21
107.828764
0
LINE
8
Layer 1
10
73.297483
20
107.828764
11
72.773527
21
108.453418
0
LINE
8
Layer 1
10
72.773527
20
108.453418
11
72.345820
21
108.615538
0
LINE
8
Layer 1
10
72.345820
20
108.615538
11
71.783829
21
108.655556
0
LINE
8
Layer 1
10
71.783829
20
108.655556
11
70.440047
21
108.861118
0
LINE
8
Layer 1
10
70.440047
20
108.861118
11
69.495372
21
108.754163
0
LINE
8
Layer 1
10
69.495372
20
108.754163
11
68.879806
21
108.381362
0
LINE
8
Layer 1
10
68.879806
20
108.381362
11
68.523349
21
107.789385
0
LINE
8
Layer 1
10
68.523349
20
107.789385
11
68.356003
21
107.024900
0
LINE
8
Layer 1
10
68.356003
20
107.024900
11
68.307770
21
106.134578
0
LINE
8
Layer 1
10
68.307770
20
106.134578
11
68.288642
21
104.163100
0
LINE
8
Layer 1
10
68.288642
20
104.163100
11
67.286189
21
105.611298
0
LINE
8
Layer 1
10
67.286189
20
105.611298
11
67.037224
21
105.867960
0
LINE
8
Layer 1
10
67.037224
20
105.867960
11
66.897306
21
105.847161
0
LINE
8
Layer 1
10
66.897306
20
105.847161
11
66.767233
21
105.075670
0
LINE
8
Layer 1
10
66.767233
20
105.075670
11
66.541207
21
103.501809
0
LINE
8
Layer 1
10
66.541207
20
103.501809
11
65.984598
21
103.658842
0
LINE
8
Layer 1
10
65.984598
20
103.658842
11
65.528128
21
103.937441
0
LINE
8
Layer 1
10
65.528128
20
103.937441
11
64.879489
21
104.804357
0
LINE
8
Layer 1
10
64.879489
20
104.804357
11
64.523060
21
105.992586
0
LINE
8
Layer 1
10
64.523060
20
105.992586
11
64.386613
21
107.392158
0
LINE
8
Layer 1
10
64.386613
20
107.392158
11
64.484744
21
110.385443
0
LINE
8
Layer 1
10
64.484744
20
110.385443
11
64.596044
21
112.904444
0
LINE
8
Layer 1
10
64.596044
20
112.904444
11
62.008997
21
113.302899
0
LINE
8
Layer 1
10
62.008997
20
113.302899
11
59.764010
21
113.616056
0
LINE
8
Layer 1
10
59.764010
20
113.616056
11
58.904873
21
113.489637
0
LINE
8
Layer 1
10
58.904873
20
113.489637
11
58.293353
21
113.040681
0
LINE
8
Layer 1
10
58.293353
20
113.040681
11
57.983484
21
112.168783
0
LINE
8
Layer 1
10
57.983484
20
112.168783
11
58.029300
21
110.773540
0
LINE
8
Layer 1
10
58.029300
20
110.773540
11
58.200242
21
108.282473
0
LINE
8
Layer 1
10
58.200242
20
108.282473
11
58.067261
21
106.950229
0
LINE
8
Layer 1
10
58.067261
20
106.950229
11
57.782075
21
105.668925
0
LINE
8
Layer 1
10
57.782075
20
105.668925
11
57.339758
21
104.520121
0
LINE
8
Layer 1
10
57.339758
20
104.520121
11
56.735384
21
103.585376
0
LINE
8
Layer 1
10
56.735384
20
103.585376
11
55.964026
21
102.946252
0
LINE
8
Layer 1
10
55.964026
20
102.946252
11
55.020758
21
102.684307
0
LINE
8
Layer 1
10
55.020758
20
102.684307
11
54.927721
21
104.027636
0
LINE
8
Layer 1
10
54.927721
20
104.027636
11
55.128794
21
105.540664
0
LINE
8
Layer 1
10
55.128794
20
105.540664
11
55.706344
21
108.605393
0
LINE
8
Layer 1
10
55.706344
20
108.605393
11
55.729361
21
109.921883
0
LINE
8
Layer 1
10
55.729361
20
109.921883
11
55.597111
21
110.474706
0
LINE
8
Layer 1
10
55.597111
20
110.474706
11
55.339567
21
110.937647
0
LINE
8
Layer 1
10
55.339567
20
110.937647
11
54.934638
21
111.296006
0
LINE
8
Layer 1
10
54.934638
20
111.296006
11
54.360231
21
111.535082
0
LINE
8
Layer 1
10
54.360231
20
111.535082
11
53.594257
21
111.640173
0
LINE
8
Layer 1
10
53.594257
20
111.640173
11
52.614624
21
111.596580
0
LINE
8
Layer 1
10
52.614624
20
111.596580
11
52.891157
21
111.998526
0
LINE
8
Layer 1
10
52.891157
20
111.998526
11
53.490827
21
112.266006
0
LINE
8
Layer 1
10
53.490827
20
112.266006
11
55.019938
21
112.661546
0
LINE
8
Layer 1
10
55.019938
20
112.661546
11
55.629561
21
112.921596
0
LINE
8
Layer 1
10
55.629561
20
112.921596
11
55.922684
21
113.311158
0
LINE
8
Layer 1
10
55.922684
20
113.311158
11
55.739396
21
113.896227
0
LINE
8
Layer 1
10
55.739396
20
113.896227
11
54.919790
21
114.742797
0
LINE
8
Layer 1
10
54.919790
20
114.742797
11
53.592826
21
114.792818
0
LINE
8
Layer 1
10
53.592826
20
114.792818
11
52.376462
21
115.027527
0
LINE
8
Layer 1
10
52.376462
20
115.027527
11
50.191517
21
115.613642
0
LINE
8
Layer 1
10
50.191517
20
115.613642
11
49.180927
21
115.746365
0
LINE
8
Layer 1
10
49.180927
20
115.746365
11
48.196920
21
115.626410
0
LINE
8
Layer 1
10
48.196920
20
115.626410
11
47.218492
21
115.144433
0
LINE
8
Layer 1
10
47.218492
20
115.144433
11
46.224639
21
114.191095
0
LINE
8
Layer 1
10
46.224639
20
114.191095
11
44.289791
21
113.910849
0
LINE
8
Layer 1
10
44.289791
20
113.910849
11
42.217436
21
113.927626
0
LINE
8
Layer 1
10
42.217436
20
113.927626
11
40.206600
21
113.925279
0
LINE
8
Layer 1
10
40.206600
20
113.925279
11
39.286449
21
113.818138
0
LINE
8
Layer 1
10
39.286449
20
113.818138
11
38.456314
21
113.587660
0
LINE
8
Layer 1
10
38.456314
20
113.587660
11
37.935958
21
112.516083
0
LINE
8
Layer 1
10
37.935958
20
112.516083
11
37.754960
21
111.718918
0
LINE
8
Layer 1
10
37.754960
20
111.718918
11
37.868900
21
111.159974
0
LINE
8
Layer 1
10
37.868900
20
111.159974
11
38.233358
21
110.803059
0
LINE
8
Layer 1
10
38.233358
20
110.803059
11
38.803914
21
110.611982
0
LINE
8
Layer 1
10
38.803914
20
110.611982
11
39.536147
21
110.550550
0
LINE
8
Layer 1
10
39.536147
20
110.550550
11
41.307964
21
110.671859
0
LINE
8
Layer 1
10
41.307964
20
110.671859
11
42.448302
21
110.947604
0
LINE
8
Layer 1
10
42.448302
20
110.947604
11
43.848177
21
110.884432
0
LINE
8
Layer 1
10
43.848177
20
110.884432
11
45.285180
21
110.568831
0
LINE
8
Layer 1
10
45.285180
20
110.568831
11
46.536902
21
110.087289
0
LINE
8
Layer 1
10
46.536902
20
110.087289
11
47.380934
21
109.526294
0
LINE
8
Layer 1
10
47.380934
20
109.526294
11
47.580563
21
109.243029
0
LINE
8
Layer 1
10
47.580563
20
109.243029
11
47.594867
21
108.972333
0
LINE
8
Layer 1
10
47.594867
20
108.972333
11
47.396043
21
108.725018
0
LINE
8
Layer 1
10
47.396043
20
108.725018
11
46.956291
21
108.511894
0
LINE
8
Layer 1
10
46.956291
20
108.511894
11
45.242799
21
108.231466
0
LINE
8
Layer 1
10
45.242799
20
108.231466
11
42.764050
21
108.029715
0
LINE
8
Layer 1
10
42.764050
20
108.029715
11
39.679615
21
107.560125
0
LINE
8
Layer 1
10
39.679615
20
107.560125
11
38.492920
21
107.165387
0
LINE
8
Layer 1
10
38.492920
20
107.165387
11
37.853991
21
106.632284
0
LINE
8
Layer 1
10
37.853991
20
106.632284
11
37.812770
21
106.306408
0
LINE
8
Layer 1
10
37.812770
20
106.306408
11
37.995888
21
105.937015
0
LINE
8
Layer 1
10
37.995888
20
105.937015
11
39.151676
21
105.055778
0
LINE
8
Layer 1
10
39.151676
20
105.055778
11
42.097408
21
104.963996
0
LINE
8
Layer 1
10
42.097408
20
104.963996
11
42.740872
21
104.866920
0
LINE
8
Layer 1
10
42.740872
20
104.866920
11
43.141634
21
104.689961
0
LINE
8
Layer 1
10
43.141634
20
104.689961
11
43.196938
21
104.408006
0
LINE
8
Layer 1
10
43.196938
20
104.408006
11
42.804026
21
103.995939
0
LINE
8
Layer 1
10
42.804026
20
103.995939
11
45.093718
21
104.364634
0
LINE
8
Layer 1
10
45.093718
20
104.364634
11
47.985816
21
104.897070
0
LINE
8
Layer 1
10
47.985816
20
104.897070
11
49.218401
21
104.963497
0
LINE
8
Layer 1
10
49.218401
20
104.963497
11
50.074346
21
104.757427
0
LINE
8
Layer 1
10
50.074346
20
104.757427
11
50.306158
21
104.519557
0
LINE
8
Layer 1
10
50.306158
20
104.519557
11
50.377906
21
104.174384
0
LINE
8
Layer 1
10
50.377906
20
104.174384
11
49.953333
21
103.109889
0
LINE
8
Layer 1
10
49.953333
20
103.109889
11
49.697527
21
102.588052
0
LINE
8
Layer 1
10
49.697527
20
102.588052
11
49.313883
21
102.171217
0
LINE
8
Layer 1
10
49.313883
20
102.171217
11
48.217798
21
101.608623
0
LINE
8
Layer 1
10
48.217798
20
101.608623
11
46.774512
21
101.334242
0
LINE
8
Layer 1
10
46.774512
20
101.334242
11
45.093456
21
101.260210
0
LINE
8
Layer 1
10
45.093456
20
101.260210
11
41.455762
21
101.361736
0
LINE
8
Layer 1
10
41.455762
20
101.361736
11
39.717987
21
101.361565
0
LINE
8
Layer 1
10
39.717987
20
101.361565
11
38.180171
21
101.210285
0
LINE
8
Layer 1
10
38.180171
20
101.210285
11
37.285383
21
100.993359
0
LINE
8
Layer 1
10
37.285383
20
100.993359
11
36.323136
21
100.909535
0
LINE
8
Layer 1
10
36.323136
20
100.909535
11
34.254478
21
101.033734
0
LINE
8
Layer 1
10
34.254478
20
101.033734
11
29.947954
21
101.697357
0
LINE
8
Layer 1
10
29.947954
20
101.697357
11
27.942921
21
101.806969
0
LINE
8
Layer 1
10
27.942921
20
101.806969
11
27.028394
21
101.712204
0
LINE
8
Layer 1
10
27.028394
20
101.712204
11
26.191930
21
101.481907
0
LINE
8
Layer 1
10
26.191930
20
101.481907
11
25.448080
21
101.089215
0
LINE
8
Layer 1
10
25.448080
20
101.089215
11
24.811397
21
100.507265
0
LINE
8
Layer 1
10
24.811397
20
100.507265
11
24.296432
21
99.709194
0
LINE
8
Layer 1
10
24.296432
20
99.709194
11
23.917738
21
98.668137
0
LINE
8
Layer 1
10
23.917738
20
98.668137
11
22.994478
21
95.871351
0
LINE
8
Layer 1
10
22.994478
20
95.871351
11
22.315595
21
93.026511
0
LINE
8
Layer 1
10
22.315595
20
93.026511
11
21.399738
21
87.247320
0
LINE
8
Layer 1
10
21.399738
20
87.247320
11
20.587713
21
81.439855
0
LINE
8
Layer 1
10
20.587713
20
81.439855
11
20.038621
21
78.559674
0
LINE
8
Layer 1
10
20.038621
20
78.559674
11
19.297066
21
75.713409
0
LINE
8
Layer 1
10
19.297066
20
75.713409
11
18.468772
21
71.167355
0
LINE
8
Layer 1
10
18.468772
20
71.167355
11
17.830389
21
66.592280
0
LINE
8
Layer 1
10
17.830389
20
66.592280
11
17.157912
21
62.021626
0
LINE
8
Layer 1
10
17.157912
20
62.021626
11
16.227335
21
57.488839
0
LINE
8
Layer 1
10
16.227335
20
57.488839
11
15.720218
21
54.426551
0
LINE
8
Layer 1
10
15.720218
20
54.426551
11
14.936222
21
50.975576
0
LINE
8
Layer 1
10
14.936222
20
50.975576
11
14.366801
21
47.888673
0
LINE
8
Layer 1
10
14.366801
20
47.888673
11
14.316136
21
46.716986
0
LINE
8
Layer 1
10
14.316136
20
46.716986
11
14.503410
21
45.918603
0
LINE
8
Layer 1
10
14.503410
20
45.918603
11
15.738756
21
47.192599
0
LINE
8
Layer 1
10
15.738756
20
47.192599
11
17.170598
21
48.385494
0
LINE
8
Layer 1
10
17.170598
20
48.385494
11
18.752678
21
49.450415
0
LINE
8
Layer 1
10
18.752678
20
49.450415
11
20.438735
21
50.340488
0
LINE
8
Layer 1
10
20.438735
20
50.340488
11
22.182510
21
51.008840
0
LINE
8
Layer 1
10
22.182510
20
51.008840
11
23.937742
21
51.408600
0
LINE
8
Layer 1
10
23.937742
20
51.408600
11
25.658173
21
51.492894
0
LINE
8
Layer 1
10
25.658173
20
51.492894
11
27.297543
21
51.214850
0
LINE
8
Layer 1
10
27.297543
20
51.214850
11
27.218058
21
49.946790
0
LINE
8
Layer 1
10
27.218058
20
49.946790
11
27.403909
21
49.273844
0
LINE
8
Layer 1
10
27.403909
20
49.273844
11
27.789650
21
49.037760
0
LINE
8
Layer 1
10
27.789650
20
49.037760
11
28.309840
21
49.080288
0
LINE
8
Layer 1
10
28.309840
20
49.080288
11
29.491786
21
49.368178
0
LINE
8
Layer 1
10
29.491786
20
49.368178
11
30.022656
21
49.297038
0
LINE
8
Layer 1
10
30.022656
20
49.297038
11
30.426197
21
48.871508
0
LINE
8
Layer 1
10
30.426197
20
48.871508
11
30.974139
21
50.352614
0
LINE
8
Layer 1
10
30.974139
20
50.352614
11
31.811402
21
51.725928
0
LINE
8
Layer 1
10
31.811402
20
51.725928
11
32.865217
21
52.906059
0
LINE
8
Layer 1
10
32.865217
20
52.906059
11
34.062811
21
53.807614
0
LINE
8
Layer 1
10
34.062811
20
53.807614
11
35.331416
21
54.345201
0
LINE
8
Layer 1
10
35.331416
20
54.345201
11
36.598261
21
54.433428
0
LINE
8
Layer 1
10
36.598261
20
54.433428
11
37.790575
21
53.986902
0
LINE
8
Layer 1
10
37.790575
20
53.986902
11
38.336042
21
53.536422
0
LINE
8
Layer 1
10
38.336042
20
53.536422
11
38.835587
21
52.920231
0
LINE
8
Layer 1
10
38.835587
20
52.920231
11
39.442265
21
51.953836
0
LINE
8
Layer 1
10
39.442265
20
51.953836
11
40.332744
21
51.230080
0
LINE
8
Layer 1
10
40.332744
20
51.230080
11
41.406699
21
50.711571
0
LINE
8
Layer 1
10
41.406699
20
50.711571
11
42.563803
21
50.360912
0
LINE
8
Layer 1
10
42.563803
20
50.360912
11
44.726158
21
50.013567
0
LINE
8
Layer 1
10
44.726158
20
50.013567
11
46.017203
21
49.888885
0
LINE
8
Layer 1
10
46.017203
20
49.888885
11
45.376633
21
49.219384
0
LINE
8
Layer 1
10
45.376633
20
49.219384
11
44.738526
21
48.785173
0
LINE
8
Layer 1
10
44.738526
20
48.785173
11
44.105321
21
48.559744
0
LINE
8
Layer 1
10
44.105321
20
48.559744
11
43.479458
21
48.516591
0
LINE
8
Layer 1
10
43.479458
20
48.516591
11
42.259514
21
48.871074
0
LINE
8
Layer 1
10
42.259514
20
48.871074
11
41.098211
21
49.636560
0
LINE
8
Layer 1
10
41.098211
20
49.636560
11
39.029590
21
51.552281
0
LINE
8
Layer 1
10
39.029590
20
51.552281
11
38.161305
21
52.278388
0
LINE
8
Layer 1
10
38.161305
20
52.278388
11
37.429725
21
52.567242
0
LINE
8
Layer 1
10
37.429725
20
52.567242
11
37.049436
21
51.835903
0
LINE
8
Layer 1
10
37.049436
20
51.835903
11
36.796844
21
50.987121
0
LINE
8
Layer 1
10
36.796844
20
50.987121
11
36.489724
21
49.338091
0
LINE
8
Layer 1
10
36.489724
20
49.338091
11
36.342684
21
48.738273
0
LINE
8
Layer 1
10
36.342684
20
48.738273
11
36.138317
21
48.421874
0
LINE
8
Layer 1
10
36.138317
20
48.421874
11
35.830367
21
48.489109
0
LINE
8
Layer 1
10
35.830367
20
48.489109
11
35.372576
21
49.040195
0
LINE
8
Layer 1
10
35.372576
20
49.040195
11
35.872195
21
48.225519
0
LINE
8
Layer 1
10
35.872195
20
48.225519
11
35.946622
21
47.514522
0
LINE
8
Layer 1
10
35.946622
20
47.514522
11
35.678015
21
46.872304
0
LINE
8
Layer 1
10
35.678015
20
46.872304
11
35.148528
21
46.263964
0
LINE
8
Layer 1
10
35.148528
20
46.263964
11
36.043646
21
46.309069
0
LINE
8
Layer 1
10
36.043646
20
46.309069
11
36.777265
21
46.527871
0
LINE
8
Layer 1
10
36.777265
20
46.527871
11
37.787249
21
46.994459
0
LINE
8
Layer 1
10
37.787249
20
46.994459
11
38.077234
21
46.996189
0
LINE
8
Layer 1
10
38.077234
20
46.996189
11
38.232961
21
46.679509
0
LINE
8
Layer 1
10
38.232961
20
46.679509
11
38.168879
21
44.598804
0
LINE
8
Layer 1
10
38.168879
20
44.598804
11
37.598680
21
44.047146
0
LINE
8
Layer 1
10
37.598680
20
44.047146
11
36.888851
21
43.699669
0
LINE
8
Layer 1
10
36.888851
20
43.699669
11
35.554283
21
43.340911
0
LINE
8
Layer 1
10
35.554283
20
43.340911
11
35.181535
21
43.191456
0
LINE
8
Layer 1
10
35.181535
20
43.191456
11
35.173140
21
42.969834
0
LINE
8
Layer 1
10
35.173140
20
42.969834
11
36.753388
21
42.033743
0
LINE
8
Layer 1
10
36.753388
20
42.033743
11
38.175148
21
41.194896
0
LINE
8
Layer 1
10
38.175148
20
41.194896
11
38.702192
21
41.092403
0
LINE
8
Layer 1
10
38.702192
20
41.092403
11
39.111724
21
41.157029
0
LINE
8
Layer 1
10
39.111724
20
41.157029
11
39.407529
21
41.355648
0
LINE
8
Layer 1
10
39.407529
20
41.355648
11
39.593390
21
41.655134
0
LINE
8
Layer 1
10
39.593390
20
41.655134
11
39.650419
21
42.424200
0
LINE
8
Layer 1
10
39.650419
20
42.424200
11
40.063584
21
42.414171
0
LINE
8
Layer 1
10
40.063584
20
42.414171
11
40.538283
21
42.257821
0
LINE
8
Layer 1
10
40.538283
20
42.257821
11
41.587559
21
41.751849
0
LINE
8
Layer 1
10
41.587559
20
41.751849
11
42.628800
21
41.397663
0
LINE
8
Layer 1
10
42.628800
20
41.397663
11
43.093456
21
41.431045
0
LINE
8
Layer 1
10
43.093456
20
41.431045
11
43.492561
21
41.686641
0
LINE
8
Layer 1
10
43.492561
20
41.686641
11
43.411295
21
41.612418
0
LINE
8
Layer 1
10
43.411295
20
41.612418
11
43.529250
21
41.556006
0
LINE
8
Layer 1
10
43.529250
20
41.556006
11
44.222622
21
41.481871
0
LINE
8
Layer 1
10
44.222622
20
41.481871
11
46.457820
21
41.385117
0
LINE
8
Layer 1
10
46.457820
20
41.385117
11
47.438849
21
41.303511
0
LINE
8
Layer 1
10
47.438849
20
41.303511
11
47.954967
21
41.160424
0
LINE
8
Layer 1
10
47.954967
20
41.160424
11
47.725775
21
40.926364
0
LINE
8
Layer 1
10
47.725775
20
40.926364
11
46.470875
21
40.571835
0
LINE
8
Layer 1
10
46.470875
20
40.571835
11
47.556889
21
40.221541
0
LINE
8
Layer 1
10
47.556889
20
40.221541
11
48.649938
21
40.069223
0
LINE
8
Layer 1
10
48.649938
20
40.069223
11
49.660507
21
40.124646
0
LINE
8
Layer 1
10
49.660507
20
40.124646
11
50.499082
21
40.397574
0
LINE
8
Layer 1
10
50.499082
20
40.397574
11
51.076149
21
40.897773
0
LINE
8
Layer 1
10
51.076149
20
40.897773
11
51.302192
21
41.635009
0
LINE
8
Layer 1
10
51.302192
20
41.635009
11
51.087697
21
42.619045
0
LINE
8
Layer 1
10
51.087697
20
42.619045
11
50.343150
21
43.859648
0
LINE
8
Layer 1
10
50.343150
20
43.859648
11
51.258690
21
42.940551
0
LINE
8
Layer 1
10
51.258690
20
42.940551
11
51.908303
21
41.864793
0
LINE
8
Layer 1
10
51.908303
20
41.864793
11
52.332930
21
40.666366
0
LINE
8
Layer 1
10
52.332930
20
40.666366
11
52.573512
21
39.379261
0
LINE
8
Layer 1
10
52.573512
20
39.379261
11
52.666307
21
36.674985
0
LINE
8
Layer 1
10
52.666307
20
36.674985
11
52.514218
21
34.023901
0
LINE
8
Layer 1
10
52.514218
20
34.023901
11
52.938114
21
33.208814
0
LINE
8
Layer 1
10
52.938114
20
33.208814
11
53.124789
21
33.115231
0
LINE
8
Layer 1
10
53.124789
20
33.115231
11
53.291573
21
33.197791
0
LINE
8
Layer 1
10
53.291573
20
33.197791
11
53.556335
21
33.791851
0
LINE
8
Layer 1
10
53.556335
20
33.791851
11
53.714142
21
34.792010
0
LINE
8
Layer 1
10
53.714142
20
34.792010
11
53.746735
21
35.999288
0
LINE
8
Layer 1
10
53.746735
20
35.999288
11
53.635856
21
37.214704
0
LINE
8
Layer 1
10
53.635856
20
37.214704
11
53.363246
21
38.239274
0
LINE
8
Layer 1
10
53.363246
20
38.239274
11
52.910647
21
38.874017
0
LINE
8
Layer 1
10
52.910647
20
38.874017
11
53.215977
21
41.011082
0
LINE
8
Layer 1
10
53.215977
20
41.011082
11
53.423531
21
42.716914
0
LINE
8
Layer 1
10
53.423531
20
42.716914
11
53.726371
21
43.306043
0
LINE
8
Layer 1
10
53.726371
20
43.306043
11
54.287640
21
43.664874
0
LINE
8
Layer 1
10
54.287640
20
43.664874
11
55.201631
21
43.752577
0
LINE
8
Layer 1
10
55.201631
20
43.752577
11
56.562633
21
43.528321
0
LINE
8
Layer 1
10
56.562633
20
43.528321
11
57.911649
21
43.681039
0
LINE
8
Layer 1
10
57.911649
20
43.681039
11
58.302242
21
43.829830
0
LINE
8
Layer 1
10
58.302242
20
43.829830
11
57.425190
21
44.122568
0
LINE
8
Layer 1
10
57.425190
20
44.122568
11
56.365534
21
44.420414
0
LINE
8
Layer 1
10
56.365534
20
44.420414
11
56.527873
21
44.575588
0
LINE
8
Layer 1
10
56.527873
20
44.575588
11
57.557331
21
44.737243
0
LINE
8
Layer 1
10
57.557331
20
44.737243
11
58.062002
21
44.396821
0
LINE
8
Layer 1
10
58.062002
20
44.396821
11
58.788714
21
44.292706
0
LINE
8
Layer 1
10
58.788714
20
44.292706
11
60.409390
21
44.425913
0
LINE
8
Layer 1
10
60.409390
20
44.425913
11
61.053913
21
44.479488
0
LINE
8
Layer 1
10
61.053913
20
44.479488
11
61.421601
21
44.401881
0
LINE
8
Layer 1
10
61.421601
20
44.401881
11
61.387734
21
44.101219
0
LINE
8
Layer 1
10
61.387734
20
44.101219
11
60.827593
21
43.485630
0
LINE
8
Layer 1
10
60.827593
20
43.485630
11
62.136952
21
43.742591
0
LINE
8
Layer 1
10
62.136952
20
43.742591
11
62.341682
21
43.757597
0
LINE
8
Layer 1
10
62.341682
20
43.757597
11
62.292990
21
43.708449
0
LINE
8
Layer 1
10
62.292990
20
43.708449
11
60.262184
21
43.042743
0
LINE
8
Layer 1
10
60.262184
20
43.042743
11
54.648574
21
41.252902
0
LINE
8
Layer 1
10
54.648574
20
41.252902
11
55.125310
21
40.531909
0
LINE
8
Layer 1
10
55.125310
20
40.531909
11
55.734219
21
40.124216
0
LINE
8
Layer 1
10
55.734219
20
40.124216
11
56.384519
21
39.982617
0
LINE
8
Layer 1
10
56.384519
20
39.982617
11
56.985426
21
40.059908
0
LINE
8
Layer 1
10
56.985426
20
40.059908
11
57.446155
21
40.308883
0
LINE
8
Layer 1
10
57.446155
20
40.308883
11
57.675924
21
40.682339
0
LINE
8
Layer 1
10
57.675924
20
40.682339
11
57.583948
21
41.133071
0
LINE
8
Layer 1
10
57.583948
20
41.133071
11
57.079444
21
41.613873
0
LINE
8
Layer 1
10
57.079444
20
41.613873
11
58.062650
21
41.761915
0
LINE
8
Layer 1
10
58.062650
20
41.761915
11
59.092047
21
41.771627
0
LINE
8
Layer 1
10
59.092047
20
41.771627
11
61.175430
21
41.525376
0
LINE
8
Layer 1
10
61.175430
20
41.525376
11
63.101631
21
41.173746
0
LINE
8
Layer 1
10
63.101631
20
41.173746
11
64.642684
21
41.015364
0
LINE
8
Layer 1
10
64.642684
20
41.015364
11
61.989266
21
40.093975
0
LINE
8
Layer 1
10
61.989266
20
40.093975
11
61.760803
21
39.957226
0
LINE
8
Layer 1
10
61.760803
20
39.957226
11
61.904390
21
39.899615
0
LINE
8
Layer 1
10
61.904390
20
39.899615
11
63.703900
21
40.105197
0
LINE
8
Layer 1
10
63.703900
20
40.105197
11
64.571924
21
40.216593
0
LINE
8
Layer 1
10
64.571924
20
40.216593
11
65.032886
21
40.084494
0
LINE
8
Layer 1
10
65.032886
20
40.084494
11
65.160415
21
39.796532
0
LINE
8
Layer 1
10
65.160415
20
39.796532
11
65.028141
21
39.440339
0
LINE
8
Layer 1
10
65.028141
20
39.440339
11
64.709694
21
39.103547
0
LINE
8
Layer 1
10
64.709694
20
39.103547
11
64.278702
21
38.873789
0
LINE
8
Layer 1
10
64.278702
20
38.873789
11
63.808796
21
38.838695
0
LINE
8
Layer 1
10
63.808796
20
38.838695
11
63.373604
21
39.085898
0
LINE
8
Layer 1
10
63.373604
20
39.085898
11
63.743907
21
37.741676
0
LINE
8
Layer 1
10
63.743907
20
37.741676
11
64.221463
21
37.037766
0
LINE
8
Layer 1
10
64.221463
20
37.037766
11
64.780506
21
36.848275
0
LINE
8
Layer 1
10
64.780506
20
36.848275
11
65.395272
21
37.047309
0
LINE
8
Layer 1
10
65.395272
20
37.047309
11
66.688903
21
38.107373
0
LINE
8
Layer 1
10
66.688903
20
38.107373
11
67.896229
21
39.210807
0
LINE
8
Layer 1
10
67.896229
20
39.210807
11
68.853564
21
39.554666
0
LINE
8
Layer 1
10
68.853564
20
39.554666
11
69.251776
21
39.838271
0
LINE
8
Layer 1
10
69.251776
20
39.838271
11
69.196275
21
40.083266
0
LINE
8
Layer 1
10
69.196275
20
40.083266
11
68.792471
21
40.311296
0
LINE
8
Layer 1
10
68.792471
20
40.311296
11
67.361589
21
40.803042
0
LINE
8
Layer 1
10
67.361589
20
40.803042
11
65.802403
21
41.486667
0
LINE
8
Layer 1
10
65.802403
20
41.486667
11
65.630716
21
41.950431
0
LINE
8
Layer 1
10
65.630716
20
41.950431
11
65.683928
21
42.314017
0
LINE
8
Layer 1
10
65.683928
20
42.314017
11
66.048592
21
42.837817
0
LINE
8
Layer 1
10
66.048592
20
42.837817
11
66.151815
21
43.046612
0
LINE
8
Layer 1
10
66.151815
20
43.046612
11
66.063479
21
43.252392
0
LINE
8
Layer 1
10
66.063479
20
43.252392
11
64.895674
21
43.752070
0
LINE
8
Layer 1
10
64.895674
20
43.752070
11
64.862300
21
44.484204
0
LINE
8
Layer 1
10
64.862300
20
44.484204
11
65.192855
21
45.140950
0
LINE
8
Layer 1
10
65.192855
20
45.140950
11
66.236110
21
46.146571
0
LINE
8
Layer 1
10
66.236110
20
46.146571
11
66.593991
21
46.454591
0
LINE
8
Layer 1
10
66.593991
20
46.454591
11
66.606163
21
46.605513
0
LINE
8
Layer 1
10
66.606163
20
46.605513
11
64.883741
21
46.354357
0
LINE
8
Layer 1
10
64.883741
20
46.354357
11
64.078917
21
46.485888
0
LINE
8
Layer 1
10
64.078917
20
46.485888
11
63.366321
21
46.940864
0
LINE
8
Layer 1
10
63.366321
20
46.940864
11
62.799486
21
47.562684
0
LINE
8
Layer 1
10
62.799486
20
47.562684
11
62.431943
21
48.194742
0
LINE
8
Layer 1
10
62.431943
20
48.194742
11
62.317223
21
48.680438
0
LINE
8
Layer 1
10
62.317223
20
48.680438
11
62.508857
21
48.863169
0
LINE
8
Layer 1
10
62.508857
20
48.863169
11
63.060376
21
48.586330
0
LINE
8
Layer 1
10
63.060376
20
48.586330
11
64.025312
21
47.693320
0
LINE
8
Layer 1
10
64.025312
20
47.693320
11
65.374491
21
47.551916
0
LINE
8
Layer 1
10
65.374491
20
47.551916
11
66.623247
21
47.865130
0
LINE
8
Layer 1
10
66.623247
20
47.865130
11
67.780614
21
48.506034
0
LINE
8
Layer 1
10
67.780614
20
48.506034
11
68.855627
21
49.347701
0
LINE
8
Layer 1
10
68.855627
20
49.347701
11
70.794726
21
51.125610
0
LINE
8
Layer 1
10
70.794726
20
51.125610
11
71.676882
21
51.807996
0
LINE
8
Layer 1
10
71.676882
20
51.807996
11
72.512820
21
52.183434
0
LINE
8
Layer 1
10
72.512820
20
52.183434
11
73.086643
21
52.135759
0
LINE
8
Layer 1
10
73.086643
20
52.135759
11
73.597368
21
51.905644
0
LINE
8
Layer 1
10
73.597368
20
51.905644
11
74.455497
21
51.043987
0
LINE
8
Layer 1
10
74.455497
20
51.043987
11
75.139157
21
49.890257
0
LINE
8
Layer 1
10
75.139157
20
49.890257
11
75.700297
21
48.736250
0
LINE
8
Layer 1
10
75.700297
20
48.736250
11
76.190868
21
47.873759
0
LINE
8
Layer 1
10
76.190868
20
47.873759
11
76.425923
21
47.643018
0
LINE
8
Layer 1
10
76.425923
20
47.643018
11
76.662818
21
47.594579
0
LINE
8
Layer 1
10
76.662818
20
47.594579
11
76.908045
21
47.764917
0
LINE
8
Layer 1
10
76.908045
20
47.764917
11
77.168098
21
48.190506
0
LINE
8
Layer 1
10
77.168098
20
48.190506
11
77.758657
21
49.953333
0
LINE
8
Layer 1
10
77.758657
20
49.953333
11
78.843520
21
48.994097
0
LINE
8
Layer 1
10
78.843520
20
48.994097
11
79.769938
21
48.241882
0
LINE
8
Layer 1
10
79.769938
20
48.241882
11
80.239208
21
48.104615
0
LINE
8
Layer 1
10
80.239208
20
48.104615
11
80.747440
21
48.212552
0
LINE
8
Layer 1
10
80.747440
20
48.212552
11
81.320825
21
48.630177
0
LINE
8
Layer 1
10
81.320825
20
48.630177
11
81.985556
21
49.421971
0
LINE
8
Layer 1
10
81.985556
20
49.421971
11
83.317718
21
48.849597
0
LINE
8
Layer 1
10
83.317718
20
48.849597
11
84.553852
21
48.105126
0
LINE
8
Layer 1
10
84.553852
20
48.105126
11
85.666576
21
47.202569
0
LINE
8
Layer 1
10
85.666576
20
47.202569
11
86.628511
21
46.155941
0
LINE
8
Layer 1
10
86.628511
20
46.155941
11
87.412276
21
44.979254
0
LINE
8
Layer 1
10
87.412276
20
44.979254
11
87.990493
21
43.686521
0
LINE
8
Layer 1
10
87.990493
20
43.686521
11
88.335780
21
42.291755
0
LINE
8
Layer 1
10
88.335780
20
42.291755
11
88.420758
21
40.808969
0
LINE
8
Layer 1
10
88.420758
20
40.808969
11
88.302544
21
39.894565
0
LINE
8
Layer 1
10
88.302544
20
39.894565
11
88.049034
21
39.057897
0
LINE
8
Layer 1
10
88.049034
20
39.057897
11
87.407703
21
37.916467
0
LINE
8
Layer 1
10
87.407703
20
37.916467
11
87.155676
21
37.761054
0
LINE
8
Layer 1
10
87.155676
20
37.761054
11
87.039933
21
37.982072
0
LINE
8
Layer 1
10
87.039933
20
37.982072
11
87.128373
21
38.654198
0
LINE
8
Layer 1
10
87.128373
20
38.654198
11
87.488889
21
39.852103
0
LINE
8
Layer 1
10
87.488889
20
39.852103
11
87.239190
21
39.763730
0
LINE
8
Layer 1
10
87.239190
20
39.763730
11
86.989851
21
39.453461
0
LINE
8
Layer 1
10
86.989851
20
39.453461
11
86.526099
21
38.612080
0
LINE
8
Layer 1
10
86.526099
20
38.612080
11
86.165326
21
38.217643
0
LINE
8
Layer 1
10
86.165326
20
38.217643
11
85.975224
21
39.159835
0
LINE
8
Layer 1
10
85.975224
20
39.159835
11
85.506708
21
38.708839
0
LINE
8
Layer 1
10
85.506708
20
38.708839
11
85.185273
21
38.103472
0
LINE
8
Layer 1
10
85.185273
20
38.103472
11
84.872454
21
36.946473
0
LINE
8
Layer 1
10
84.872454
20
36.946473
11
84.825473
21
36.653265
0
LINE
8
Layer 1
10
84.825473
20
36.653265
11
84.814380
21
36.722533
0
LINE
8
Layer 1
10
84.814380
20
36.722533
11
84.788663
21
38.465345
0
LINE
8
Layer 1
10
84.788663
20
38.465345
11
85.037227
21
39.102267
0
LINE
8
Layer 1
10
85.037227
20
39.102267
11
85.169586
21
39.802604
0
LINE
8
Layer 1
10
85.169586
20
39.802604
11
85.277545
21
41.060753
0
LINE
8
Layer 1
10
85.277545
20
41.060753
11
85.349072
21
41.452179
0
LINE
8
Layer 1
10
85.349072
20
41.452179
11
85.496247
21
41.574248
0
LINE
8
Layer 1
10
85.496247
20
41.574248
11
86.209398
21
40.677544
0
LINE
8
Layer 1
10
86.209398
20
40.677544
11
86.393838
21
41.910110
0
LINE
8
Layer 1
10
86.393838
20
41.910110
11
86.306009
21
43.108043
0
LINE
8
Layer 1
10
86.306009
20
43.108043
11
85.974010
21
44.223398
0
LINE
8
Layer 1
10
85.974010
20
44.223398
11
85.425941
21
45.208231
0
LINE
8
Layer 1
10
85.425941
20
45.208231
11
84.689902
21
46.014597
0
LINE
8
Layer 1
10
84.689902
20
46.014597
11
83.793993
21
46.594549
0
LINE
8
Layer 1
10
83.793993
20
46.594549
11
82.766313
21
46.900144
0
LINE
8
Layer 1
10
82.766313
20
46.900144
11
81.634962
21
46.883436
0
LINE
8
Layer 1
10
81.634962
20
46.883436
11
80.068082
21
46.736698
0
LINE
8
Layer 1
10
80.068082
20
46.736698
11
78.393135
21
46.723967
0
LINE
8
Layer 1
10
78.393135
20
46.723967
11
77.906915
21
46.652699
0
LINE
8
Layer 1
10
77.906915
20
46.652699
11
77.863814
21
46.476748
0
LINE
8
Layer 1
10
77.863814
20
46.476748
11
79.733815
21
45.626548
0
LINE
8
Layer 1
10
79.733815
20
45.626548
11
79.283819
21
44.987496
0
LINE
8
Layer 1
10
79.283819
20
44.987496
11
79.088037
21
44.039600
0
LINE
8
Layer 1
10
79.088037
20
44.039600
11
79.100155
21
42.956989
0
LINE
8
Layer 1
10
79.100155
20
42.956989
11
79.273858
21
41.913792
0
LINE
8
Layer 1
10
79.273858
20
41.913792
11
79.562830
21
41.084137
0
LINE
8
Layer 1
10
79.562830
20
41.084137
11
79.920758
21
40.642153
0
LINE
8
Layer 1
10
79.920758
20
40.642153
11
80.111107
21
40.620954
0
LINE
8
Layer 1
10
80.111107
20
40.620954
11
80.301327
21
40.761970
0
LINE
8
Layer 1
10
80.301327
20
40.761970
11
80.658222
21
41.617717
0
LINE
8
Layer 1
10
80.658222
20
41.617717
11
81.487995
21
40.403271
0
LINE
8
Layer 1
10
81.487995
20
40.403271
11
81.860291
21
40.130678
0
LINE
8
Layer 1
10
81.860291
20
40.130678
11
81.941641
21
40.542906
0
LINE
8
Layer 1
10
81.941641
20
40.542906
11
81.898575
21
41.382924
0
LINE
8
Layer 1
10
81.898575
20
41.382924
11
81.897621
21
42.393700
0
LINE
8
Layer 1
10
81.897621
20
42.393700
11
82.105311
21
43.318203
0
LINE
8
Layer 1
10
82.105311
20
43.318203
11
82.339437
21
43.667780
0
LINE
8
Layer 1
10
82.339437
20
43.667780
11
82.688173
21
43.899402
0
LINE
8
Layer 1
10
82.688173
20
43.899402
11
83.172335
21
43.980939
0
LINE
8
Layer 1
10
83.172335
20
43.980939
11
83.812738
21
43.880264
0
LINE
8
Layer 1
10
83.812738
20
43.880264
11
84.695890
21
44.347698
0
LINE
8
Layer 1
10
84.695890
20
44.347698
11
84.978099
21
44.320069
0
LINE
8
Layer 1
10
84.978099
20
44.320069
11
84.469754
21
43.186155
0
LINE
8
Layer 1
10
84.469754
20
43.186155
11
84.044230
21
42.283135
0
LINE
8
Layer 1
10
84.044230
20
42.283135
11
83.747828
21
41.291584
0
LINE
8
Layer 1
10
83.747828
20
41.291584
11
83.763063
21
40.313135
0
LINE
8
Layer 1
10
83.763063
20
40.313135
11
83.944580
21
39.860584
0
LINE
8
Layer 1
10
83.944580
20
39.860584
11
84.272450
21
39.449420
0
LINE
8
Layer 1
10
84.272450
20
39.449420
11
84.224659
21
37.549539
0
LINE
8
Layer 1
10
84.224659
20
37.549539
11
84.153450
21
37.375690
0
LINE
8
Layer 1
10
84.153450
20
37.375690
11
84.051381
21
37.562339
0
LINE
8
Layer 1
10
84.051381
20
37.562339
11
83.756701
21
38.546441
0
LINE
8
Layer 1
10
83.756701
20
38.546441
11
83.344704
21
39.560469
0
LINE
8
Layer 1
10
83.344704
20
39.560469
11
83.269585
21
38.527687
0
LINE
8
Layer 1
10
83.269585
20
38.527687
11
82.912047
21
37.811124
0
LINE
8
Layer 1
10
82.912047
20
37.811124
11
82.362327
21
37.399330
0
LINE
8
Layer 1
10
82.362327
20
37.399330
11
81.710660
21
37.280853
0
LINE
8
Layer 1
10
81.710660
20
37.280853
11
81.047283
21
37.444244
0
LINE
8
Layer 1
10
81.047283
20
37.444244
11
80.462433
21
37.878050
0
LINE
8
Layer 1
10
80.462433
20
37.878050
11
80.046345
21
38.570823
0
LINE
8
Layer 1
10
80.046345
20
38.570823
11
79.889257
21
39.511111
0
LINE
8
Layer 1
10
79.889257
20
39.511111
11
79.014730
21
36.473212
0
LINE
8
Layer 1
10
79.014730
20
36.473212
11
78.904136
21
36.285874
0
LINE
8
Layer 1
10
78.904136
20
36.285874
11
78.828064
21
36.486321
0
LINE
8
Layer 1
10
78.828064
20
36.486321
11
78.762098
21
38.368427
0
LINE
8
Layer 1
10
78.762098
20
38.368427
11
78.910708
21
39.540745
0
LINE
8
Layer 1
10
78.910708
20
39.540745
11
78.741429
21
40.771962
0
LINE
8
Layer 1
10
78.741429
20
40.771962
11
78.354683
21
41.905351
0
LINE
8
Layer 1
10
78.354683
20
41.905351
11
77.850889
21
42.784189
0
LINE
8
Layer 1
10
77.850889
20
42.784189
11
77.330469
21
43.251750
0
LINE
8
Layer 1
10
77.330469
20
43.251750
11
77.095406
21
43.282325
0
LINE
8
Layer 1
10
77.095406
20
43.282325
11
76.893843
21
43.151309
0
LINE
8
Layer 1
10
76.893843
20
43.151309
11
76.641433
21
42.326141
0
LINE
8
Layer 1
10
76.641433
20
42.326141
11
76.673659
21
40.619522
0
LINE
8
Layer 1
10
76.673659
20
40.619522
11
76.319233
21
38.926106
0
LINE
8
Layer 1
10
76.319233
20
38.926106
11
76.209047
21
38.673054
0
LINE
8
Layer 1
10
76.209047
20
38.673054
11
76.134358
21
38.733414
0
LINE
8
Layer 1
10
76.134358
20
38.733414
11
76.052760
21
40.873584
0
LINE
8
Layer 1
10
76.052760
20
40.873584
11
75.987852
21
43.086796
0
LINE
8
Layer 1
10
75.987852
20
43.086796
11
75.922552
21
43.188242
0
LINE
8
Layer 1
10
75.922552
20
43.188242
11
75.823841
21
42.985407
0
LINE
8
Layer 1
10
75.823841
20
42.985407
11
75.498624
21
41.419814
0
LINE
8
Layer 1
10
75.498624
20
41.419814
11
75.354368
21
40.050280
0
LINE
8
Layer 1
10
75.354368
20
40.050280
11
74.776870
21
38.487902
0
LINE
8
Layer 1
10
74.776870
20
38.487902
11
73.879575
21
36.909599
0
LINE
8
Layer 1
10
73.879575
20
36.909599
11
72.775925
21
35.492291
0
LINE
8
Layer 1
10
72.775925
20
35.492291
11
71.579366
21
34.412897
0
LINE
8
Layer 1
10
71.579366
20
34.412897
11
70.403342
21
33.848338
0
LINE
8
Layer 1
10
70.403342
20
33.848338
11
69.858482
21
33.814409
0
LINE
8
Layer 1
10
69.858482
20
33.814409
11
69.361298
21
33.975534
0
LINE
8
Layer 1
10
69.361298
20
33.975534
11
68.925969
21
34.353826
0
LINE
8
Layer 1
10
68.925969
20
34.353826
11
68.566676
21
34.971403
0
LINE
8
Layer 1
10
68.566676
20
34.971403
11
69.744758
21
35.848723
0
LINE
8
Layer 1
10
69.744758
20
35.848723
11
69.960440
21
36.134075
0
LINE
8
Layer 1
10
69.960440
20
36.134075
11
69.964929
21
36.328430
0
LINE
8
Layer 1
10
69.964929
20
36.328430
11
69.453478
21
36.477773
0
LINE
8
Layer 1
10
69.453478
20
36.477773
11
68.436693
21
36.364001
0
LINE
8
Layer 1
10
68.436693
20
36.364001
11
65.792280
21
35.616109
0
LINE
8
Layer 1
10
65.792280
20
35.616109
11
64.617228
21
35.116487
0
LINE
8
Layer 1
10
64.617228
20
35.116487
11
63.842000
21
34.622746
0
LINE
8
Layer 1
10
63.842000
20
34.622746
11
63.399278
21
34.245173
0
LINE
8
Layer 1
10
63.399278
20
34.245173
11
62.864369
21
33.980335
0
LINE
8
Layer 1
10
62.864369
20
33.980335
11
61.588980
21
33.721608
0
LINE
8
Layer 1
10
61.588980
20
33.721608
11
60.157806
21
33.712055
0
LINE
8
Layer 1
10
60.157806
20
33.712055
11
58.712819
21
33.817164
0
LINE
8
Layer 1
10
58.712819
20
33.817164
11
57.395994
21
33.902425
0
LINE
8
Layer 1
10
57.395994
20
33.902425
11
56.349302
21
33.833327
0
LINE
8
Layer 1
10
56.349302
20
33.833327
11
55.714717
21
33.475359
0
LINE
8
Layer 1
10
55.714717
20
33.475359
11
55.596332
21
33.146015
0
LINE
8
Layer 1
10
55.596332
20
33.146015
11
55.634213
21
32.694011
0
LINE
8
Layer 1
10
55.634213
20
32.694011
11
56.492749
21
32.288588
0
LINE
8
Layer 1
10
56.492749
20
32.288588
11
57.586607
21
32.013224
0
LINE
8
Layer 1
10
57.586607
20
32.013224
11
60.055578
21
31.631697
0
LINE
8
Layer 1
10
60.055578
20
31.631697
11
61.218334
21
31.415041
0
LINE
8
Layer 1
10
61.218334
20
31.415041
11
62.191699
21
31.107463
0
LINE
8
Layer 1
10
62.191699
20
31.107463
11
62.869495
21
30.653718
0
LINE
8
Layer 1
10
62.869495
20
30.653718
11
63.145543
21
29.998560
0
LINE
8
Layer 1
10
63.145543
20
29.998560
11
62.005231
21
29.904695
0
LINE
8
Layer 1
10
62.005231
20
29.904695
11
60.464676
21
29.978039
0
LINE
8
Layer 1
10
60.464676
20
29.978039
11
57.262215
21
30.234941
0
LINE
8
Layer 1
10
57.262215
20
30.234941
11
56.139996
21
30.222794
0
LINE
8
Layer 1
10
56.139996
20
30.222794
11
55.816697
21
30.138761
0
LINE
8
Layer 1
10
55.816697
20
30.138761
11
55.696911
21
29.986445
0
LINE
8
Layer 1
10
55.696911
20
29.986445
11
56.202803
21
29.428041
0
LINE
8
Layer 1
10
56.202803
20
29.428041
11
57.927517
21
28.449730
0
LINE
8
Layer 1
10
57.927517
20
28.449730
11
58.997534
21
28.080017
0
LINE
8
Layer 1
10
58.997534
20
28.080017
11
59.823635
21
27.569646
0
LINE
8
Layer 1
10
59.823635
20
27.569646
11
60.397755
21
27.017036
0
LINE
8
Layer 1
10
60.397755
20
27.017036
11
60.711827
21
26.520610
0
LINE
8
Layer 1
10
60.711827
20
26.520610
11
60.757784
21
26.178787
0
LINE
8
Layer 1
10
60.757784
20
26.178787
11
60.527561
21
26.089989
0
LINE
8
Layer 1
10
60.527561
20
26.089989
11
60.013091
21
26.352636
0
LINE
8
Layer 1
10
60.013091
20
26.352636
11
59.206308
21
27.065151
0
LINE
8
Layer 1
10
59.206308
20
27.065151
11
58.384545
21
27.591738
0
LINE
8
Layer 1
10
58.384545
20
27.591738
11
58.206329
21
27.587311
0
LINE
8
Layer 1
10
58.206329
20
27.587311
11
58.146948
21
27.440852
0
LINE
8
Layer 1
10
58.146948
20
27.440852
11
58.553591
21
25.981418
0
LINE
8
Layer 1
10
58.553591
20
25.981418
11
58.762500
21
25.110250
0
LINE
8
Layer 1
10
58.762500
20
25.110250
11
58.684916
21
24.436369
0
LINE
8
Layer 1
10
58.684916
20
24.436369
11
58.470667
21
24.241752
0
LINE
8
Layer 1
10
58.470667
20
24.241752
11
58.103171
21
24.178465
0
LINE
8
Layer 1
10
58.103171
20
24.178465
11
56.799601
21
24.555227
0
LINE
8
Layer 1
10
56.799601
20
24.555227
11
56.431842
21
24.798808
0
LINE
8
Layer 1
10
56.431842
20
24.798808
11
56.684080
21
24.405093
0
LINE
8
Layer 1
10
56.684080
20
24.405093
11
58.092794
21
22.661662
0
LINE
8
Layer 1
10
58.092794
20
22.661662
11
59.114222
21
21.236701
0
LINE
8
Layer 1
10
59.114222
20
21.236701
11
59.085059
21
21.154257
0
LINE
8
Layer 1
10
59.085059
20
21.154257
11
58.882354
21
21.241075
0
LINE
8
Layer 1
10
58.882354
20
21.241075
11
57.836844
21
22.041979
0
LINE
8
Layer 1
10
57.836844
20
22.041979
11
57.180918
21
22.629224
0
LINE
8
Layer 1
10
57.180918
20
22.629224
11
56.520705
21
23.423833
0
LINE
8
Layer 1
10
56.520705
20
23.423833
11
55.280120
21
24.978801
0
LINE
8
Layer 1
10
55.280120
20
24.978801
11
54.746100
21
25.410987
0
LINE
8
Layer 1
10
54.746100
20
25.410987
11
54.300494
21
25.394192
0
LINE
8
Layer 1
10
54.300494
20
25.394192
11
53.966479
21
24.764331
0
LINE
8
Layer 1
10
53.966479
20
24.764331
11
53.767231
21
23.357318
0
LINE
8
Layer 1
10
53.767231
20
23.357318
11
53.262007
21
22.728759
0
LINE
8
Layer 1
10
53.262007
20
22.728759
11
52.805863
21
22.399930
0
LINE
8
Layer 1
10
52.805863
20
22.399930
11
52.396266
21
22.337888
0
LINE
8
Layer 1
10
52.396266
20
22.337888
11
52.030683
21
22.509691
0
LINE
8
Layer 1
10
52.030683
20
22.509691
11
51.421426
21
23.423062
0
LINE
8
Layer 1
10
51.421426
20
23.423062
11
50.957830
21
24.876505
0
LINE
8
Layer 1
10
50.957830
20
24.876505
11
50.386568
21
28.349451
0
LINE
8
Layer 1
10
50.386568
20
28.349451
11
50.154792
21
30.820216
0
LINE
8
Layer 1
10
50.154792
20
30.820216
11
49.198957
21
30.376749
0
LINE
8
Layer 1
10
49.198957
20
30.376749
11
48.096243
21
30.072863
0
LINE
8
Layer 1
10
48.096243
20
30.072863
11
45.883907
21
29.718743
0
LINE
8
Layer 1
10
45.883907
20
29.718743
11
44.385235
21
29.427681
0
LINE
8
Layer 1
10
44.385235
20
29.427681
11
44.174603
21
29.202617
0
LINE
8
Layer 1
10
44.174603
20
29.202617
11
44.467681
21
28.869502
0
LINE
8
Layer 1
10
44.467681
20
28.869502
11
42.737934
21
28.017811
0
LINE
8
Layer 1
10
42.737934
20
28.017811
11
41.394011
21
27.106444
0
LINE
8
Layer 1
10
41.394011
20
27.106444
11
41.142361
21
26.773478
0
LINE
8
Layer 1
10
41.142361
20
26.773478
11
41.317919
21
26.599710
0
LINE
8
Layer 1
10
41.317919
20
26.599710
11
42.030938
21
26.643179
0
LINE
8
Layer 1
10
42.030938
20
26.643179
11
43.391667
21
26.961922
0
LINE
8
Layer 1
10
43.391667
20
26.961922
11
45.745643
21
27.914054
0
LINE
8
Layer 1
10
45.745643
20
27.914054
11
48.388599
21
28.601685
0
LINE
8
Layer 1
10
48.388599
20
28.601685
11
49.291828
21
28.647337
0
LINE
8
Layer 1
10
49.291828
20
28.647337
11
49.546722
21
28.560802
0
LINE
8
Layer 1
10
49.546722
20
28.560802
11
49.635361
21
28.388093
0
LINE
8
Layer 1
10
49.635361
20
28.388093
11
49.208552
21
27.744363
0
LINE
8
Layer 1
10
49.208552
20
27.744363
11
47.800754
21
26.636557
0
LINE
8
Layer 1
10
47.800754
20
26.636557
11
46.965253
21
25.423635
0
LINE
8
Layer 1
10
46.965253
20
25.423635
11
46.915511
21
25.113967
0
LINE
8
Layer 1
10
46.915511
20
25.113967
11
47.058420
21
24.960463
0
LINE
8
Layer 1
10
47.058420
20
24.960463
11
47.764127
21
24.996854
0
LINE
8
Layer 1
10
47.764127
20
24.996854
11
48.766247
21
25.282622
0
LINE
8
Layer 1
10
48.766247
20
25.282622
11
49.748650
21
25.567581
0
LINE
8
Layer 1
10
49.748650
20
25.567581
11
50.395208
21
25.601547
0
LINE
8
Layer 1
10
50.395208
20
25.601547
11
50.493755
21
25.446224
0
LINE
8
Layer 1
10
50.493755
20
25.446224
11
50.389792
21
25.134333
0
LINE
8
Layer 1
10
50.389792
20
25.134333
11
49.416276
21
23.915754
0
LINE
8
Layer 1
10
49.416276
20
23.915754
11
48.801399
21
23.631741
0
LINE
8
Layer 1
10
48.801399
20
23.631741
11
48.199642
21
23.009538
0
LINE
8
Layer 1
10
48.199642
20
23.009538
11
47.040951
21
21.356077
0
LINE
8
Layer 1
10
47.040951
20
21.356077
11
46.486749
21
20.627577
0
LINE
8
Layer 1
10
46.486749
20
20.627577
11
45.951130
21
20.166402
0
LINE
8
Layer 1
10
45.951130
20
20.166402
11
45.435460
21
20.123932
0
LINE
8
Layer 1
10
45.435460
20
20.123932
11
44.941106
21
20.651546
0
LINE
8
Layer 1
10
44.941106
20
20.651546
11
44.941106
21
20.651546
0
LINE
8
Layer 1
10
47.476210
20
22.963759
11
48.118323
21
23.436839
0
LINE
8
Layer 1
10
48.118323
20
23.436839
11
48.169268
21
23.885137
0
LINE
8
Layer 1
10
48.169268
20
23.885137
11
47.806345
21
24.249883
0
LINE
8
Layer 1
10
47.806345
20
24.249883
11
47.206854
21
24.472307
0
LINE
8
Layer 1
10
47.206854
20
24.472307
11
46.548095
21
24.493639
0
LINE
8
Layer 1
10
46.548095
20
24.493639
11
46.007368
21
24.255107
0
LINE
8
Layer 1
10
46.007368
20
24.255107
11
45.761972
21
23.697943
0
LINE
8
Layer 1
10
45.761972
20
23.697943
11
45.989209
21
22.763376
0
LINE
8
Layer 1
10
45.989209
20
22.763376
11
45.336570
21
21.321621
0
LINE
8
Layer 1
10
45.336570
20
21.321621
11
45.414832
21
21.082078
0
LINE
8
Layer 1
10
45.414832
20
21.082078
11
45.683623
21
21.105627
0
LINE
8
Layer 1
10
45.683623
20
21.105627
11
46.555218
21
21.768603
0
LINE
8
Layer 1
10
46.555218
20
21.768603
11
47.476210
21
22.963759
0
LINE
8
Layer 1
10
47.476210
20
22.963759
11
47.476210
21
22.963759
0
LINE
8
Layer 1
10
53.077037
20
25.004736
11
53.612429
21
26.930263
0
LINE
8
Layer 1
10
53.612429
20
26.930263
11
54.052401
21
29.165238
0
LINE
8
Layer 1
10
54.052401
20
29.165238
11
54.068828
21
30.174748
0
LINE
8
Layer 1
10
54.068828
20
30.174748
11
53.860069
21
30.992797
0
LINE
8
Layer 1
10
53.860069
20
30.992797
11
53.359014
21
31.529775
0
LINE
8
Layer 1
10
53.359014
20
31.529775
11
52.498552
21
31.696076
0
LINE
8
Layer 1
10
52.498552
20
31.696076
11
51.942087
21
30.550508
0
LINE
8
Layer 1
10
51.942087
20
30.550508
11
51.675367
21
29.417278
0
LINE
8
Layer 1
10
51.675367
20
29.417278
11
51.632195
21
28.295789
0
LINE
8
Layer 1
10
51.632195
20
28.295789
11
51.746377
21
27.185444
0
LINE
8
Layer 1
10
51.746377
20
27.185444
11
52.182019
21
24.995794
0
LINE
8
Layer 1
10
52.182019
20
24.995794
11
52.452730
21
22.843546
0
LINE
8
Layer 1
10
52.452730
20
22.843546
11
52.691380
21
22.755399
0
LINE
8
Layer 1
10
52.691380
20
22.755399
11
52.839878
21
22.897305
0
LINE
8
Layer 1
10
52.839878
20
22.897305
11
52.954943
21
23.615910
0
LINE
8
Layer 1
10
52.954943
20
23.615910
11
52.974979
21
24.488631
0
LINE
8
Layer 1
10
52.974979
20
24.488631
11
53.077037
21
25.004736
0
LINE
8
Layer 1
10
53.077037
20
25.004736
11
53.077037
21
25.004736
0
LINE
8
Layer 1
10
58.301856
20
24.872719
11
58.030429
21
25.746845
0
LINE
8
Layer 1
10
58.030429
20
25.746845
11
57.456652
21
26.465626
0
LINE
8
Layer 1
10
57.456652
20
26.465626
11
56.732185
21
26.997653
0
LINE
8
Layer 1
10
56.732185
20
26.997653
11
56.008685
21
27.311517
0
LINE
8
Layer 1
10
56.008685
20
27.311517
11
55.437810
21
27.375811
0
LINE
8
Layer 1
10
55.437810
20
27.375811
11
55.171216
21
27.159126
0
LINE
8
Layer 1
10
55.171216
20
27.159126
11
55.360562
21
26.630054
0
LINE
8
Layer 1
10
55.360562
20
26.630054
11
56.157506
21
25.757186
0
LINE
8
Layer 1
10
56.157506
20
25.757186
11
57.176578
21
24.845928
0
LINE
8
Layer 1
10
57.176578
20
24.845928
11
57.747950
21
24.570506
0
LINE
8
Layer 1
10
57.747950
20
24.570506
11
58.029838
21
24.627963
0
LINE
8
Layer 1
10
58.029838
20
24.627963
11
58.301856
21
24.872719
0
LINE
8
Layer 1
10
58.301856
20
24.872719
11
58.301856
21
24.872719
0
LINE
8
Layer 1
10
43.180000
20
29.415861
11
42.877695
21
29.436527
0
LINE
8
Layer 1
10
42.877695
20
29.436527
11
42.646323
21
29.329769
0
LINE
8
Layer 1
10
42.646323
20
29.329769
11
42.427257
21
28.977022
0
LINE
8
Layer 1
10
42.427257
20
28.977022
11
42.455004
21
28.852552
0
LINE
8
Layer 1
10
42.455004
20
28.852552
11
42.584563
21
28.843695
0
LINE
8
Layer 1
10
42.584563
20
28.843695
11
43.180000
21
29.415861
0
LINE
8
Layer 1
10
43.180000
20
29.415861
11
43.180000
21
29.415861
0
LINE
8
Layer 1
10
42.756667
20
30.480000
11
38.073240
21
31.438360
0
LINE
8
Layer 1
10
38.073240
20
31.438360
11
37.360643
21
31.509127
0
LINE
8
Layer 1
10
37.360643
20
31.509127
11
37.210087
21
31.479249
0
LINE
8
Layer 1
10
37.210087
20
31.479249
11
37.229905
21
31.396182
0
LINE
8
Layer 1
10
37.229905
20
31.396182
11
39.511111
21
30.386790
0
LINE
8
Layer 1
10
39.511111
20
30.386790
11
41.159950
21
30.192617
0
LINE
8
Layer 1
10
41.159950
20
30.192617
11
41.991618
21
30.235985
0
LINE
8
Layer 1
10
41.991618
20
30.235985
11
42.756667
21
30.480000
0
LINE
8
Layer 1
10
42.756667
20
30.480000
11
42.756667
21
30.480000
0
LINE
8
Layer 1
10
44.940598
20
30.679599
11
43.619205
21
30.674876
0
LINE
8
Layer 1
10
43.619205
20
30.674876
11
43.600032
21
30.633124
0
LINE
8
Layer 1
10
43.600032
20
30.633124
11
43.842581
21
30.586749
0
LINE
8
Layer 1
10
43.842581
20
30.586749
11
44.614965
21
30.545047
0
LINE
8
Layer 1
10
44.614965
20
30.545047
11
44.895861
21
30.582177
0
LINE
8
Layer 1
10
44.895861
20
30.582177
11
44.940598
21
30.679599
0
LINE
8
Layer 1
10
44.940598
20
30.679599
11
44.940598
21
30.679599
0
LINE
8
Layer 1
10
51.708654
20
35.830044
11
51.541849
21
36.225112
0
LINE
8
Layer 1
10
51.541849
20
36.225112
11
51.388617
21
36.327179
0
LINE
8
Layer 1
10
51.388617
20
36.327179
11
51.128063
21
35.838286
0
LINE
8
Layer 1
10
51.128063
20
35.838286
11
50.826926
21
33.390232
0
LINE
8
Layer 1
10
50.826926
20
33.390232
11
50.888285
21
31.461514
0
LINE
8
Layer 1
10
50.888285
20
31.461514
11
50.969997
21
31.409187
0
LINE
8
Layer 1
10
50.969997
20
31.409187
11
51.080852
21
31.621790
0
LINE
8
Layer 1
10
51.080852
20
31.621790
11
51.395184
21
33.027761
0
LINE
8
Layer 1
10
51.395184
20
33.027761
11
51.634028
21
34.420077
0
LINE
8
Layer 1
10
51.634028
20
34.420077
11
51.708654
21
35.830044
0
LINE
8
Layer 1
10
51.708654
20
35.830044
11
51.708654
21
35.830044
0
LINE
8
Layer 1
10
57.626250
20
31.237233
11
57.014496
21
31.242397
0
LINE
8
Layer 1
10
57.014496
20
31.242397
11
57.216299
21
31.117517
0
LINE
8
Layer 1
10
57.216299
20
31.117517
11
57.623078
21
31.052495
0
LINE
8
Layer 1
10
57.623078
20
31.052495
11
57.713151
21
31.101775
0
LINE
8
Layer 1
10
57.713151
20
31.101775
11
57.626250
21
31.237233
0
LINE
8
Layer 1
10
57.626250
20
31.237233
11
57.626250
21
31.237233
0
LINE
8
Layer 1
10
47.060556
20
31.942117
11
48.781036
21
32.396342
0
LINE
8
Layer 1
10
48.781036
20
32.396342
11
49.355051
21
32.806215
0
LINE
8
Layer 1
10
49.355051
20
32.806215
11
49.297219
21
32.991758
0
LINE
8
Layer 1
10
49.297219
20
32.991758
11
49.054870
21
33.162901
0
LINE
8
Layer 1
10
49.054870
20
33.162901
11
48.152762
21
33.457565
0
LINE
8
Layer 1
10
48.152762
20
33.457565
11
45.631839
21
33.825492
0
LINE
8
Layer 1
10
45.631839
20
33.825492
11
43.970434
21
33.839317
0
LINE
8
Layer 1
10
43.970434
20
33.839317
11
44.637278
21
34.118018
0
LINE
8
Layer 1
10
44.637278
20
34.118018
11
44.665298
21
34.240420
0
LINE
8
Layer 1
10
44.665298
20
34.240420
11
44.533211
21
34.345741
0
LINE
8
Layer 1
10
44.533211
20
34.345741
11
43.056177
21
34.509473
0
LINE
8
Layer 1
10
43.056177
20
34.509473
11
42.205127
21
34.376090
0
LINE
8
Layer 1
10
42.205127
20
34.376090
11
41.626997
21
34.052947
0
LINE
8
Layer 1
10
41.626997
20
34.052947
11
41.521827
21
33.809373
0
LINE
8
Layer 1
10
41.521827
20
33.809373
11
41.582747
21
33.505349
0
LINE
8
Layer 1
10
41.582747
20
33.505349
11
42.333333
21
32.698600
0
LINE
8
Layer 1
10
42.333333
20
32.698600
11
41.455553
21
32.231326
0
LINE
8
Layer 1
10
41.455553
20
32.231326
11
41.343163
21
32.041005
0
LINE
8
Layer 1
10
41.343163
20
32.041005
11
41.413743
21
31.878868
0
LINE
8
Layer 1
10
41.413743
20
31.878868
11
41.999729
21
31.637062
0
LINE
8
Layer 1
10
41.999729
20
31.637062
11
43.005338
21
31.501746
0
LINE
8
Layer 1
10
43.005338
20
31.501746
11
45.442737
21
31.533930
0
LINE
8
Layer 1
10
45.442737
20
31.533930
11
46.458180
21
31.693105
0
LINE
8
Layer 1
10
46.458180
20
31.693105
11
47.060556
21
31.942117
0
LINE
8
Layer 1
10
47.060556
20
31.942117
11
47.060556
21
31.942117
0
LINE
8
Layer 1
10
49.671111
20
31.625546
11
49.339196
21
31.754040
0
LINE
8
Layer 1
10
49.339196
20
31.754040
11
49.216334
21
31.503665
0
LINE
8
Layer 1
10
49.216334
20
31.503665
11
49.320860
21
31.314230
0
LINE
8
Layer 1
10
49.320860
20
31.314230
11
49.671111
21
31.625546
0
LINE
8
Layer 1
10
49.671111
20
31.625546
11
49.671111
21
31.625546
0
LINE
8
Layer 1
10
54.892222
20
32.173333
11
54.342174
21
32.461177
0
LINE
8
Layer 1
10
54.342174
20
32.461177
11
54.398722
21
32.188191
0
LINE
8
Layer 1
10
54.398722
20
32.188191
11
54.702021
21
31.907777
0
LINE
8
Layer 1
10
54.702021
20
31.907777
11
54.833749
21
31.937721
0
LINE
8
Layer 1
10
54.833749
20
31.937721
11
54.892222
21
32.173333
0
LINE
8
Layer 1
10
54.892222
20
32.173333
11
54.892222
21
32.173333
0
LINE
8
Layer 1
10
40.922222
20
33.036657
11
40.590307
21
33.165151
0
LINE
8
Layer 1
10
40.590307
20
33.165151
11
40.467445
21
32.914776
0
LINE
8
Layer 1
10
40.467445
20
32.914776
11
40.571971
21
32.725341
0
LINE
8
Layer 1
10
40.571971
20
32.725341
11
40.922222
21
33.036657
0
LINE
8
Layer 1
10
40.922222
20
33.036657
11
40.922222
21
33.036657
0
LINE
8
Layer 1
10
55.089778
20
34.769781
11
54.552909
21
34.845796
0
LINE
8
Layer 1
10
54.552909
20
34.845796
11
54.798248
21
34.514349
0
LINE
8
Layer 1
10
54.798248
20
34.514349
11
55.189352
21
34.310617
0
LINE
8
Layer 1
10
55.189352
20
34.310617
11
55.240677
21
34.423888
0
LINE
8
Layer 1
10
55.240677
20
34.423888
11
55.089778
21
34.769781
0
LINE
8
Layer 1
10
55.089778
20
34.769781
11
55.089778
21
34.769781
0
LINE
8
Layer 1
10
19.169919
20
36.682155
11
19.012270
21
39.097993
0
LINE
8
Layer 1
10
19.012270
20
39.097993
11
18.969916
21
41.538953
0
LINE
8
Layer 1
10
18.969916
20
41.538953
11
18.940049
21
42.262805
0
LINE
8
Layer 1
10
18.940049
20
42.262805
11
18.876696
21
42.385679
0
LINE
8
Layer 1
10
18.876696
20
42.385679
11
18.566452
21
40.018818
0
LINE
8
Layer 1
10
18.566452
20
40.018818
11
18.597832
21
38.292010
0
LINE
8
Layer 1
10
18.597832
20
38.292010
11
18.962793
21
36.126745
0
LINE
8
Layer 1
10
18.962793
20
36.126745
11
19.280450
21
35.073349
0
LINE
8
Layer 1
10
19.280450
20
35.073349
11
19.169920
21
36.682152
0
LINE
8
Layer 1
10
19.169920
20
36.682152
11
19.169919
21
36.682155
0
LINE
8
Layer 1
10
19.169919
20
36.682155
11
19.169919
21
36.682155
0
LINE
8
Layer 1
10
47.554444
20
35.277778
11
47.396282
21
35.534354
0
LINE
8
Layer 1
10
47.396282
20
35.534354
11
47.015405
21
35.618705
0
LINE
8
Layer 1
10
47.015405
20
35.618705
11
46.077724
21
35.455024
0
LINE
8
Layer 1
10
46.077724
20
35.455024
11
45.767027
21
35.299139
0
LINE
8
Layer 1
10
45.767027
20
35.299139
11
45.725830
21
35.155322
0
LINE
8
Layer 1
10
45.725830
20
35.155322
11
46.077187
21
35.069645
0
LINE
8
Layer 1
10
46.077187
20
35.069645
11
46.944150
21
35.088184
0
LINE
8
Layer 1
10
46.944150
20
35.088184
11
47.554444
21
35.277778
0
LINE
8
Layer 1
10
47.554444
20
35.277778
11
47.554444
21
35.277778
0
LINE
8
Layer 1
10
56.726667
20
35.277778
11
55.523187
21
35.691566
0
LINE
8
Layer 1
10
55.523187
20
35.691566
11
55.904071
21
35.376468
0
LINE
8
Layer 1
10
55.904071
20
35.376468
11
56.696253
21
35.012026
0
LINE
8
Layer 1
10
56.696253
20
35.012026
11
56.879997
21
35.023656
0
LINE
8
Layer 1
10
56.879997
20
35.023656
11
56.726667
21
35.277778
0
LINE
8
Layer 1
10
56.726667
20
35.277778
11
56.726667
21
35.277778
0
LINE
8
Layer 1
10
60.183889
20
35.182469
11
59.364067
21
35.247462
0
LINE
8
Layer 1
10
59.364067
20
35.247462
11
59.504042
21
35.114960
0
LINE
8
Layer 1
10
59.504042
20
35.114960
11
59.983940
21
35.016211
0
LINE
8
Layer 1
10
59.983940
20
35.016211
11
60.157651
21
35.051761
0
LINE
8
Layer 1
10
60.157651
20
35.051761
11
60.183889
21
35.182469
0
LINE
8
Layer 1
10
60.183889
20
35.182469
11
60.183889
21
35.182469
0
LINE
8
Layer 1
10
61.524444
20
35.277778
11
61.278994
21
35.559254
0
LINE
8
Layer 1
10
61.278994
20
35.559254
11
61.110336
21
35.603080
0
LINE
8
Layer 1
10
61.110336
20
35.603080
11
60.990073
21
35.292235
0
LINE
8
Layer 1
10
60.990073
20
35.292235
11
61.136995
21
34.974161
0
LINE
8
Layer 1
10
61.136995
20
34.974161
11
61.302320
21
35.008951
0
LINE
8
Layer 1
10
61.302320
20
35.008951
11
61.524444
21
35.277778
0
LINE
8
Layer 1
10
61.524444
20
35.277778
11
61.524444
21
35.277778
0
LINE
8
Layer 1
10
71.724740
20
35.839095
11
72.239074
21
36.945634
0
LINE
8
Layer 1
10
72.239074
20
36.945634
11
72.261847
21
37.166472
0
LINE
8
Layer 1
10
72.261847
20
37.166472
11
72.165133
21
37.209561
0
LINE
8
Layer 1
10
72.165133
20
37.209561
11
71.135071
21
36.262493
0
LINE
8
Layer 1
10
71.135071
20
36.262493
11
70.620272
21
35.577958
0
LINE
8
Layer 1
10
70.620272
20
35.577958
11
70.399843
21
35.103727
0
LINE
8
Layer 1
10
70.399843
20
35.103727
11
70.468974
21
35.027735
0
LINE
8
Layer 1
10
70.468974
20
35.027735
11
70.694445
21
35.103029
0
LINE
8
Layer 1
10
70.694445
20
35.103029
11
71.724740
21
35.839095
0
LINE
8
Layer 1
10
71.724740
20
35.839095
11
71.724740
21
35.839095
0
LINE
8
Layer 1
10
41.910000
20
35.560000
11
40.939117
21
35.853622
0
LINE
8
Layer 1
10
40.939117
20
35.853622
11
40.686212
21
35.758973
0
LINE
8
Layer 1
10
40.686212
20
35.758973
11
41.045201
21
35.564838
0
LINE
8
Layer 1
10
41.045201
20
35.564838
11
41.910000
21
35.560000
0
LINE
8
Layer 1
10
41.910000
20
35.560000
11
41.910000
21
35.560000
0
LINE
8
Layer 1
10
49.595185
20
35.473355
11
48.634801
21
35.510825
0
LINE
8
Layer 1
10
48.634801
20
35.510825
11
48.841690
21
35.390952
0
LINE
8
Layer 1
10
48.841690
20
35.390952
11
49.425326
21
35.312280
0
LINE
8
Layer 1
10
49.425326
20
35.312280
11
49.611386
21
35.350440
0
LINE
8
Layer 1
10
49.611386
20
35.350440
11
49.595185
21
35.473355
0
LINE
8
Layer 1
10
49.595185
20
35.473355
11
49.595185
21
35.473355
0
LINE
8
Layer 1
10
64.485780
20
35.556771
11
64.391744
21
35.715556
0
LINE
8
Layer 1
10
64.391744
20
35.715556
11
64.248681
21
35.703893
0
LINE
8
Layer 1
10
64.248681
20
35.703893
11
63.967262
21
35.419388
0
LINE
8
Layer 1
10
63.967262
20
35.419388
11
63.945102
21
35.203574
0
LINE
8
Layer 1
10
63.945102
20
35.203574
11
64.485780
21
35.556771
0
LINE
8
Layer 1
10
64.485780
20
35.556771
11
64.485780
21
35.556771
0
LINE
8
Layer 1
10
39.722910
20
35.912778
11
39.192479
21
36.558660
0
LINE
8
Layer 1
10
39.192479
20
36.558660
11
38.913646
21
36.722938
0
LINE
8
Layer 1
10
38.913646
20
36.722938
11
38.836388
21
36.554145
0
LINE
8
Layer 1
10
38.836388
20
36.554145
11
38.910681
21
36.200814
0
LINE
8
Layer 1
10
38.910681
20
36.200814
11
39.313830
21
35.534672
0
LINE
8
Layer 1
10
39.313830
20
35.534672
11
39.542641
21
35.518927
0
LINE
8
Layer 1
10
39.542641
20
35.518927
11
39.722910
21
35.912778
0
LINE
8
Layer 1
10
39.722910
20
35.912778
11
39.722910
21
35.912778
0
LINE
8
Layer 1
10
63.500000
20
35.999990
11
63.091295
21
36.087085
0
LINE
8
Layer 1
10
63.091295
20
36.087085
11
62.998453
21
35.827963
0
LINE
8
Layer 1
10
62.998453
20
35.827963
11
63.156384
21
35.654854
0
LINE
8
Layer 1
10
63.156384
20
35.654854
11
63.500000
21
35.999990
0
LINE
8
Layer 1
10
63.500000
20
35.999990
11
63.500000
21
35.999990
0
LINE
8
Layer 1
10
35.648940
20
37.030290
11
35.157044
21
37.244830
0
LINE
8
Layer 1
10
35.157044
20
37.244830
11
35.005287
21
37.173785
0
LINE
8
Layer 1
10
35.005287
20
37.173785
11
35.322994
21
36.623517
0
LINE
8
Layer 1
10
35.322994
20
36.623517
11
35.803674
21
36.276635
0
LINE
8
Layer 1
10
35.803674
20
36.276635
11
35.855633
21
36.459824
0
LINE
8
Layer 1
10
35.855633
20
36.459824
11
35.648940
21
37.030290
0
LINE
8
Layer 1
10
35.648940
20
37.030290
11
35.648940
21
37.030290
0
LINE
8
Layer 1
10
50.306111
20
36.598084
11
50.496564
21
37.349429
0
LINE
8
Layer 1
10
50.496564
20
37.349429
11
50.478418
21
37.896180
0
LINE
8
Layer 1
10
50.478418
20
37.896180
11
50.281351
21
38.260058
0
LINE
8
Layer 1
10
50.281351
20
38.260058
11
49.935041
21
38.462783
0
LINE
8
Layer 1
10
49.935041
20
38.462783
11
48.913402
21
38.471655
0
LINE
8
Layer 1
10
48.913402
20
38.471655
11
47.650925
21
38.096563
0
LINE
8
Layer 1
10
47.650925
20
38.096563
11
46.385030
21
37.511269
0
LINE
8
Layer 1
10
46.385030
20
37.511269
11
45.353142
21
36.889538
0
LINE
8
Layer 1
10
45.353142
20
36.889538
11
44.792683
21
36.405134
0
LINE
8
Layer 1
10
44.792683
20
36.405134
11
44.763434
21
36.268731
0
LINE
8
Layer 1
10
44.763434
20
36.268731
11
44.941075
21
36.231822
0
LINE
8
Layer 1
10
44.941075
20
36.231822
11
47.635648
21
36.288010
0
LINE
8
Layer 1
10
47.635648
20
36.288010
11
50.306111
21
36.598084
0
LINE
8
Layer 1
10
50.306111
20
36.598084
11
50.306111
21
36.598084
0
LINE
8
Layer 1
10
60.352836
20
36.563910
11
59.434731
21
37.161679
0
LINE
8
Layer 1
10
59.434731
20
37.161679
11
58.232451
21
37.496097
0
LINE
8
Layer 1
10
58.232451
20
37.496097
11
56.961032
21
37.608582
0
LINE
8
Layer 1
10
56.961032
20
37.608582
11
55.835508
21
37.540556
0
LINE
8
Layer 1
10
55.835508
20
37.540556
11
55.070914
21
37.333438
0
LINE
8
Layer 1
10
55.070914
20
37.333438
11
54.891164
21
37.190664
0
LINE
8
Layer 1
10
54.891164
20
37.190664
11
54.882285
21
37.028649
0
LINE
8
Layer 1
10
54.882285
20
37.028649
11
55.484657
21
36.667609
0
LINE
8
Layer 1
10
55.484657
20
36.667609
11
57.093064
21
36.291737
0
LINE
8
Layer 1
10
57.093064
20
36.291737
11
58.731986
21
36.343727
0
LINE
8
Layer 1
10
58.731986
20
36.343727
11
60.352836
21
36.563910
0
LINE
8
Layer 1
10
60.352836
20
36.563910
11
60.352836
21
36.563910
0
LINE
8
Layer 1
10
39.793333
20
36.971111
11
41.211845
21
37.085525
0
LINE
8
Layer 1
10
41.211845
20
37.085525
11
41.831164
21
37.341681
0
LINE
8
Layer 1
10
41.831164
20
37.341681
11
41.838430
21
37.591928
0
LINE
8
Layer 1
10
41.838430
20
37.591928
11
41.537469
21
37.951212
0
LINE
8
Layer 1
10
41.537469
20
37.951212
11
42.781497
21
37.495995
0
LINE
8
Layer 1
10
42.781497
20
37.495995
11
43.816865
21
37.440208
0
LINE
8
Layer 1
10
43.816865
20
37.440208
11
44.591957
21
37.687264
0
LINE
8
Layer 1
10
44.591957
20
37.687264
11
45.055154
21
38.140574
0
LINE
8
Layer 1
10
45.055154
20
38.140574
11
45.154841
21
38.703551
0
LINE
8
Layer 1
10
45.154841
20
38.703551
11
44.839400
21
39.279606
0
LINE
8
Layer 1
10
44.839400
20
39.279606
11
44.057215
21
39.772151
0
LINE
8
Layer 1
10
44.057215
20
39.772151
11
42.756667
21
40.084598
0
LINE
8
Layer 1
10
42.756667
20
40.084598
11
44.200400
21
39.932716
0
LINE
8
Layer 1
10
44.200400
20
39.932716
11
44.560815
21
39.976864
0
LINE
8
Layer 1
10
44.560815
20
39.976864
11
43.385523
21
40.293442
0
LINE
8
Layer 1
10
43.385523
20
40.293442
11
42.526737
21
40.385967
0
LINE
8
Layer 1
10
42.526737
20
40.385967
11
41.938471
21
40.314713
0
LINE
8
Layer 1
10
41.938471
20
40.314713
11
41.851552
21
40.189558
0
LINE
8
Layer 1
10
41.851552
20
40.189558
11
41.959185
21
39.989727
0
LINE
8
Layer 1
10
41.959185
20
39.989727
11
42.927338
21
39.321057
0
LINE
8
Layer 1
10
42.927338
20
39.321057
11
42.728391
21
39.129993
0
LINE
8
Layer 1
10
42.728391
20
39.129993
11
41.961358
21
38.791633
0
LINE
8
Layer 1
10
41.961358
20
38.791633
11
39.603997
21
38.058836
0
LINE
8
Layer 1
10
39.603997
20
38.058836
11
38.454151
21
37.857303
0
LINE
8
Layer 1
10
38.454151
20
37.857303
11
37.617184
21
37.894284
0
LINE
8
Layer 1
10
37.617184
20
37.894284
11
37.384856
21
38.032359
0
LINE
8
Layer 1
10
37.384856
20
38.032359
11
37.313337
21
38.266231
0
LINE
8
Layer 1
10
37.313337
20
38.266231
11
37.762852
21
39.069597
0
LINE
8
Layer 1
10
37.762852
20
39.069597
11
36.231218
21
39.030596
0
LINE
8
Layer 1
10
36.231218
20
39.030596
11
35.847869
21
38.908246
0
LINE
8
Layer 1
10
35.847869
20
38.908246
11
35.680284
21
38.733518
0
LINE
8
Layer 1
10
35.680284
20
38.733518
11
35.874764
21
38.275500
0
LINE
8
Layer 1
10
35.874764
20
38.275500
11
36.579371
21
37.753678
0
LINE
8
Layer 1
10
36.579371
20
37.753678
11
38.577819
21
36.907176
0
LINE
8
Layer 1
10
38.577819
20
36.907176
11
39.401086
21
36.776770
0
LINE
8
Layer 1
10
39.401086
20
36.776770
11
39.665793
21
36.827276
0
LINE
8
Layer 1
10
39.665793
20
36.827276
11
39.793333
21
36.971111
0
LINE
8
Layer 1
10
39.793333
20
36.971111
11
39.793333
21
36.971111
0
LINE
8
Layer 1
10
63.767149
20
37.238045
11
63.759431
21
37.844517
0
LINE
8
Layer 1
10
63.759431
20
37.844517
11
63.580512
21
38.301927
0
LINE
8
Layer 1
10
63.580512
20
38.301927
11
63.263757
21
38.627371
0
LINE
8
Layer 1
10
63.263757
20
38.627371
11
62.842534
21
38.837945
0
LINE
8
Layer 1
10
62.842534
20
38.837945
11
61.820144
21
38.982865
0
LINE
8
Layer 1
10
61.820144
20
38.982865
11
60.780271
21
38.873450
0
LINE
8
Layer 1
10
60.780271
20
38.873450
11
59.989843
21
38.646464
0
LINE
8
Layer 1
10
59.989843
20
38.646464
11
59.715789
21
38.438673
0
LINE
8
Layer 1
10
59.715789
20
38.438673
11
60.225038
21
38.386840
0
LINE
8
Layer 1
10
60.225038
20
38.386840
11
61.784518
21
38.627730
0
LINE
8
Layer 1
10
61.784518
20
38.627730
11
61.413501
21
38.088836
0
LINE
8
Layer 1
10
61.413501
20
38.088836
11
61.397899
21
37.714318
0
LINE
8
Layer 1
10
61.397899
20
37.714318
11
61.648411
21
37.474159
0
LINE
8
Layer 1
10
61.648411
20
37.474159
11
62.075736
21
37.338337
0
LINE
8
Layer 1
10
62.075736
20
37.338337
11
63.767149
21
37.238045
0
LINE
8
Layer 1
10
63.767149
20
37.238045
11
63.767149
21
37.238045
0
LINE
8
Layer 1
10
70.789202
20
38.256873
11
71.838661
21
38.703232
0
LINE
8
Layer 1
10
71.838661
20
38.703232
11
72.764710
21
39.432595
0
LINE
8
Layer 1
10
72.764710
20
39.432595
11
73.526324
21
40.355821
0
LINE
8
Layer 1
10
73.526324
20
40.355821
11
74.082479
21
41.383771
0
LINE
8
Layer 1
10
74.082479
20
41.383771
11
74.392151
21
42.427303
0
LINE
8
Layer 1
10
74.392151
20
42.427303
11
74.414314
21
43.397279
0
LINE
8
Layer 1
10
74.414314
20
43.397279
11
74.107946
21
44.204558
0
LINE
8
Layer 1
10
74.107946
20
44.204558
11
73.432021
21
44.759999
0
LINE
8
Layer 1
10
73.432021
20
44.759999
11
74.133600
21
43.169816
0
LINE
8
Layer 1
10
74.133600
20
43.169816
11
74.143440
21
42.948269
0
LINE
8
Layer 1
10
74.143440
20
42.948269
11
73.987352
21
43.030950
0
LINE
8
Layer 1
10
73.987352
20
43.030950
11
73.361508
21
43.874603
0
LINE
8
Layer 1
10
73.361508
20
43.874603
11
72.624298
21
45.231979
0
LINE
8
Layer 1
10
72.624298
20
45.231979
11
72.143610
21
44.422809
0
LINE
8
Layer 1
10
72.143610
20
44.422809
11
72.215432
21
43.695299
0
LINE
8
Layer 1
10
72.215432
20
43.695299
11
72.613619
21
43.038366
0
LINE
8
Layer 1
10
72.613619
20
43.038366
11
73.112027
21
42.440930
0
LINE
8
Layer 1
10
73.112027
20
42.440930
11
73.484513
21
41.891911
0
LINE
8
Layer 1
10
73.484513
20
41.891911
11
73.504930
21
41.380228
0
LINE
8
Layer 1
10
73.504930
20
41.380228
11
72.947136
21
40.894800
0
LINE
8
Layer 1
10
72.947136
20
40.894800
11
71.584987
21
40.424546
0
LINE
8
Layer 1
10
71.584987
20
40.424546
11
69.344372
21
38.765213
0
LINE
8
Layer 1
10
69.344372
20
38.765213
11
68.182401
21
37.691666
0
LINE
8
Layer 1
10
68.182401
20
37.691666
11
68.138314
21
37.449168
0
LINE
8
Layer 1
10
68.138314
20
37.449168
11
68.522777
21
37.442641
0
LINE
8
Layer 1
10
68.522777
20
37.442641
11
70.789202
21
38.256873
0
LINE
8
Layer 1
10
70.789202
20
38.256873
11
70.789202
21
38.256873
0
LINE
8
Layer 1
10
72.531111
20
40.640000
11
72.776562
21
40.921477
0
LINE
8
Layer 1
10
72.776562
20
40.921477
11
72.945219
21
40.965302
0
LINE
8
Layer 1
10
72.945219
20
40.965302
11
73.065483
21
40.654457
0
LINE
8
Layer 1
10
73.065483
20
40.654457
11
72.918560
21
40.336383
0
LINE
8
Layer 1
10
72.918560
20
40.336383
11
72.753235
21
40.371173
0
LINE
8
Layer 1
10
72.753235
20
40.371173
11
72.531111
21
40.640000
0
LINE
8
Layer 1
10
72.531111
20
40.640000
11
72.531111
21
40.640000
0
LINE
8
Layer 1
10
51.065887
20
39.616050
11
50.825760
21
39.202778
0
LINE
8
Layer 1
10
50.825760
20
39.202778
11
50.804919
21
38.801500
0
LINE
8
Layer 1
10
50.804919
20
38.801500
11
51.119739
21
38.247091
0
LINE
8
Layer 1
10
51.119739
20
38.247091
11
51.304722
21
38.200046
0
LINE
8
Layer 1
10
51.304722
20
38.200046
11
51.407634
21
38.377162
0
LINE
8
Layer 1
10
51.407634
20
38.377162
11
51.353135
21
38.831483
0
LINE
8
Layer 1
10
51.353135
20
38.831483
11
51.065887
21
39.616050
0
LINE
8
Layer 1
10
51.065887
20
39.616050
11
51.065887
21
39.616050
0
LINE
8
Layer 1
10
73.373454
20
38.170556
11
73.203832
21
38.894697
0
LINE
8
Layer 1
10
73.203832
20
38.894697
11
73.018381
21
39.112784
0
LINE
8
Layer 1
10
73.018381
20
39.112784
11
72.849249
21
38.974396
0
LINE
8
Layer 1
10
72.849249
20
38.974396
11
72.728580
21
38.629110
0
LINE
8
Layer 1
10
72.728580
20
38.629110
11
72.761216
21
37.916159
0
LINE
8
Layer 1
10
72.761216
20
37.916159
11
72.978812
21
37.847649
0
LINE
8
Layer 1
10
72.978812
20
37.847649
11
73.373454
21
38.170556
0
LINE
8
Layer 1
10
73.373454
20
38.170556
11
73.373454
21
38.170556
0
LINE
8
Layer 1
10
82.557614
20
38.087675
11
81.847434
21
38.201912
0
LINE
8
Layer 1
10
81.847434
20
38.201912
11
81.635594
21
37.932791
0
LINE
8
Layer 1
10
81.635594
20
37.932791
11
81.884765
21
37.741113
0
LINE
8
Layer 1
10
81.884765
20
37.741113
11
82.557614
21
38.087675
0
LINE
8
Layer 1
10
82.557614
20
38.087675
11
82.557614
21
38.087675
0
LINE
8
Layer 1
10
38.558814
20
38.514023
11
38.561007
21
39.162800
0
LINE
8
Layer 1
10
38.561007
20
39.162800
11
38.261422
21
38.742066
0
LINE
8
Layer 1
10
38.261422
20
38.742066
11
38.110532
21
38.207311
0
LINE
8
Layer 1
10
38.110532
20
38.207311
11
38.231622
21
38.195765
0
LINE
8
Layer 1
10
38.231622
20
38.195765
11
38.558814
21
38.514023
0
LINE
8
Layer 1
10
38.558814
20
38.514023
11
38.558814
21
38.514023
0
LINE
8
Layer 1
10
56.229487
20
38.581821
11
54.908094
21
38.577098
0
LINE
8
Layer 1
10
54.908094
20
38.577098
11
54.888920
21
38.535346
0
LINE
8
Layer 1
10
54.888920
20
38.535346
11
55.131469
21
38.488971
0
LINE
8
Layer 1
10
55.131469
20
38.488971
11
55.903854
21
38.447269
0
LINE
8
Layer 1
10
55.903854
20
38.447269
11
56.184749
21
38.484399
0
LINE
8
Layer 1
10
56.184749
20
38.484399
11
56.229487
21
38.581821
0
LINE
8
Layer 1
10
56.229487
20
38.581821
11
56.229487
21
38.581821
0
LINE
8
Layer 1
10
82.969010
20
40.005000
11
82.698718
21
40.297812
0
LINE
8
Layer 1
10
82.698718
20
40.297812
11
82.531057
21
40.223115
0
LINE
8
Layer 1
10
82.531057
20
40.223115
11
82.452819
21
39.538892
0
LINE
8
Layer 1
10
82.452819
20
39.538892
11
82.632677
21
39.087723
0
LINE
8
Layer 1
10
82.632677
20
39.087723
11
82.787635
21
39.304344
0
LINE
8
Layer 1
10
82.787635
20
39.304344
11
82.969010
21
40.005000
0
LINE
8
Layer 1
10
82.969010
20
40.005000
11
82.969010
21
40.005000
0
LINE
8
Layer 1
10
58.190694
20
39.421678
11
57.578941
21
39.426841
0
LINE
8
Layer 1
10
57.578941
20
39.426841
11
57.780744
21
39.301961
0
LINE
8
Layer 1
10
57.780744
20
39.301961
11
58.187522
21
39.236940
0
LINE
8
Layer 1
10
58.187522
20
39.236940
11
58.277595
21
39.286220
0
LINE
8
Layer 1
10
58.277595
20
39.286220
11
58.190694
21
39.421678
0
LINE
8
Layer 1
10
58.190694
20
39.421678
11
58.190694
21
39.421678
0
LINE
8
Layer 1
10
87.361316
20
42.783737
11
87.022836
21
43.543397
0
LINE
8
Layer 1
10
87.022836
20
43.543397
11
86.941920
21
43.592060
0
LINE
8
Layer 1
10
86.941920
20
43.592060
11
86.909207
21
43.471182
0
LINE
8
Layer 1
10
86.909207
20
43.471182
11
87.100216
21
42.060784
0
LINE
8
Layer 1
10
87.100216
20
42.060784
11
87.421776
21
41.011863
0
LINE
8
Layer 1
10
87.421776
20
41.011863
11
87.361319
21
42.783735
0
LINE
8
Layer 1
10
87.361319
20
42.783735
11
87.361316
21
42.783737
0
LINE
8
Layer 1
10
87.361316
20
42.783737
11
87.361316
21
42.783737
0
LINE
8
Layer 1
10
71.244847
20
41.178124
11
71.068714
21
41.332742
0
LINE
8
Layer 1
10
71.068714
20
41.332742
11
70.801348
21
41.320483
0
LINE
8
Layer 1
10
70.801348
20
41.320483
11
70.276029
21
41.040734
0
LINE
8
Layer 1
10
70.276029
20
41.040734
11
70.159634
21
40.895945
0
LINE
8
Layer 1
10
70.159634
20
40.895945
11
70.235119
21
40.829680
0
LINE
8
Layer 1
10
70.235119
20
40.829680
11
71.244847
21
41.178124
0
LINE
8
Layer 1
10
71.244847
20
41.178124
11
71.244847
21
41.178124
0
LINE
8
Layer 1
10
68.890665
20
42.075966
11
70.080103
21
42.626341
0
LINE
8
Layer 1
10
70.080103
20
42.626341
11
70.248609
21
42.835653
0
LINE
8
Layer 1
10
70.248609
20
42.835653
11
68.885011
21
42.598715
0
LINE
8
Layer 1
10
68.885011
20
42.598715
11
67.524240
21
42.100404
0
LINE
8
Layer 1
10
67.524240
20
42.100404
11
67.503751
21
42.021148
0
LINE
8
Layer 1
10
67.503751
20
42.021148
11
67.696280
21
41.982998
0
LINE
8
Layer 1
10
67.696280
20
41.982998
11
68.890665
21
42.075966
0
LINE
8
Layer 1
10
68.890665
20
42.075966
11
68.890665
21
42.075966
0
LINE
8
Layer 1
10
68.890665
20
42.075966
11
68.890665
21
42.075966
0
LINE
8
Layer 1
10
83.255556
20
42.501910
11
82.964657
21
42.718919
0
LINE
8
Layer 1
10
82.964657
20
42.718919
11
82.687237
21
42.702641
0
LINE
8
Layer 1
10
82.687237
20
42.702641
11
82.312102
21
42.312796
0
LINE
8
Layer 1
10
82.312102
20
42.312796
11
82.284023
21
42.110511
0
LINE
8
Layer 1
10
82.284023
20
42.110511
11
82.408694
21
42.017507
0
LINE
8
Layer 1
10
82.408694
20
42.017507
11
82.720932
21
42.119427
0
LINE
8
Layer 1
10
82.720932
20
42.119427
11
83.255556
21
42.501910
0
LINE
8
Layer 1
10
83.255556
20
42.501910
11
83.255556
21
42.501910
0
LINE
8
Layer 1
10
21.760222
20
45.244845
11
22.937524
21
46.752392
0
LINE
8
Layer 1
10
22.937524
20
46.752392
11
22.893277
21
46.954825
0
LINE
8
Layer 1
10
22.893277
20
46.954825
11
22.579468
21
46.904296
0
LINE
8
Layer 1
10
22.579468
20
46.904296
11
21.600270
21
46.388147
0
LINE
8
Layer 1
10
21.600270
20
46.388147
11
20.914150
21
45.891532
0
LINE
8
Layer 1
10
20.914150
20
45.891532
11
20.367093
21
44.823946
0
LINE
8
Layer 1
10
20.367093
20
44.823946
11
20.347526
21
44.449016
0
LINE
8
Layer 1
10
20.347526
20
44.449016
11
20.462963
21
44.216056
0
LINE
8
Layer 1
10
20.462963
20
44.216056
11
20.687677
21
44.152113
0
LINE
8
Layer 1
10
20.687677
20
44.152113
11
20.995944
21
44.284233
0
LINE
8
Layer 1
10
20.995944
20
44.284233
11
21.760222
21
45.244845
0
LINE
8
Layer 1
10
21.760222
20
45.244845
11
21.760222
21
45.244845
0
LINE
8
Layer 1
10
71.120000
20
45.044639
11
71.327312
21
45.700149
0
LINE
8
Layer 1
10
71.327312
20
45.700149
11
71.227038
21
45.864676
0
LINE
8
Layer 1
10
71.227038
20
45.864676
11
70.600440
21
45.328170
0
LINE
8
Layer 1
10
70.600440
20
45.328170
11
70.233622
21
44.649899
0
LINE
8
Layer 1
10
70.233622
20
44.649899
11
70.458073
21
44.637219
0
LINE
8
Layer 1
10
70.458073
20
44.637219
11
71.120000
21
45.044639
0
LINE
8
Layer 1
10
71.120000
20
45.044639
11
71.120000
21
45.044639
0
LINE
8
Layer 1
10
71.120000
20
45.044639
11
71.120000
21
45.044639
0
LINE
8
Layer 1
10
69.104022
20
44.842379
11
69.089795
21
45.332813
0
LINE
8
Layer 1
10
69.089795
20
45.332813
11
68.891641
21
45.479027
0
LINE
8
Layer 1
10
68.891641
20
45.479027
11
68.319536
21
45.146986
0
LINE
8
Layer 1
10
68.319536
20
45.146986
11
68.133577
21
44.872827
0
LINE
8
Layer 1
10
68.133577
20
44.872827
11
68.139674
21
44.662641
0
LINE
8
Layer 1
10
68.139674
20
44.662641
11
68.431824
21
44.618476
0
LINE
8
Layer 1
10
68.431824
20
44.618476
11
69.104022
21
44.842379
0
LINE
8
Layer 1
10
69.104022
20
44.842379
11
69.104022
21
44.842379
0
LINE
8
Layer 1
10
75.722113
20
45.137279
11
75.198175
21
45.992434
0
LINE
8
Layer 1
10
75.198175
20
45.992434
11
74.860273
21
46.289965
0
LINE
8
Layer 1
10
74.860273
20
46.289965
11
74.690238
21
46.186520
0
LINE
8
Layer 1
10
74.690238
20
46.186520
11
74.669900
21
45.838745
0
LINE
8
Layer 1
10
74.669900
20
45.838745
11
75.005633
21
45.036792
0
LINE
8
Layer 1
10
75.005633
20
45.036792
11
75.325365
21
44.895907
0
LINE
8
Layer 1
10
75.325365
20
44.895907
11
75.722113
21
45.137279
0
LINE
8
Layer 1
10
75.722113
20
45.137279
11
75.722113
21
45.137279
0
LINE
8
Layer 1
10
22.860000
20
45.612202
11
22.625633
21
45.806765
0
LINE
8
Layer 1
10
22.625633
20
45.806765
11
22.477725
21
45.759260
0
LINE
8
Layer 1
10
22.477725
20
45.759260
11
22.402290
21
45.311007
0
LINE
8
Layer 1
10
22.402290
20
45.311007
11
22.555711
21
45.013351
0
LINE
8
Layer 1
10
22.555711
20
45.013351
11
22.860000
21
45.612202
0
LINE
8
Layer 1
10
22.860000
20
45.612202
11
22.860000
21
45.612202
0
LINE
8
Layer 1
10
26.528889
20
46.143333
11
26.407290
21
46.469980
0
LINE
8
Layer 1
10
26.407290
20
46.469980
11
26.305137
21
46.510470
0
LINE
8
Layer 1
10
26.305137
20
46.510470
11
26.189760
21
46.118638
0
LINE
8
Layer 1
10
26.189760
20
46.118638
11
26.243948
21
45.739154
0
LINE
8
Layer 1
10
26.243948
20
45.739154
11
26.528889
21
46.143333
0
LINE
8
Layer 1
10
26.528889
20
46.143333
11
26.528889
21
46.143333
0
LINE
8
Layer 1
10
67.733333
20
46.442212
11
67.324629
21
46.529308
0
LINE
8
Layer 1
10
67.324629
20
46.529308
11
67.231786
21
46.270186
0
LINE
8
Layer 1
10
67.231786
20
46.270186
11
67.389717
21
46.097077
0
LINE
8
Layer 1
10
67.389717
20
46.097077
11
67.733333
21
46.442212
0
LINE
8
Layer 1
10
67.733333
20
46.442212
11
67.733333
21
46.442212
0
LINE
8
Layer 1
10
73.515254
20
46.796593
11
74.194051
21
47.951225
0
LINE
8
Layer 1
10
74.194051
20
47.951225
11
74.314025
21
48.945612
0
LINE
8
Layer 1
10
74.314025
20
48.945612
11
74.028887
21
49.743076
0
LINE
8
Layer 1
10
74.028887
20
49.743076
11
73.492351
21
50.306942
0
LINE
8
Layer 1
10
73.492351
20
50.306942
11
72.858129
21
50.600531
0
LINE
8
Layer 1
10
72.858129
20
50.600531
11
72.279935
21
50.587166
0
LINE
8
Layer 1
10
72.279935
20
50.587166
11
71.911481
21
50.230171
0
LINE
8
Layer 1
10
71.911481
20
50.230171
11
71.906480
21
49.492868
0
LINE
8
Layer 1
10
71.906480
20
49.492868
11
70.755759
21
48.204897
0
LINE
8
Layer 1
10
70.755759
20
48.204897
11
70.528514
21
47.857671
0
LINE
8
Layer 1
10
70.528514
20
47.857671
11
70.527115
21
47.636752
0
LINE
8
Layer 1
10
70.527115
20
47.636752
11
71.183153
21
47.359243
0
LINE
8
Layer 1
10
71.183153
20
47.359243
11
72.686474
21
46.943185
0
LINE
8
Layer 1
10
72.686474
20
46.943185
11
72.204703
21
46.709809
0
LINE
8
Layer 1
10
72.204703
20
46.709809
11
72.049536
21
46.485787
0
LINE
8
Layer 1
10
72.049536
20
46.485787
11
72.141295
21
46.297162
0
LINE
8
Layer 1
10
72.141295
20
46.297162
11
72.400301
21
46.169981
0
LINE
8
Layer 1
10
72.400301
20
46.169981
11
73.101348
21
46.204130
0
LINE
8
Layer 1
10
73.101348
20
46.204130
11
73.384033
21
46.417550
0
LINE
8
Layer 1
10
73.384033
20
46.417550
11
73.515254
21
46.796593
0
LINE
8
Layer 1
10
73.515254
20
46.796593
11
73.515254
21
46.796593
0
LINE
8
Layer 1
10
76.058889
20
46.284444
11
75.508842
21
46.572288
0
LINE
8
Layer 1
10
75.508842
20
46.572288
11
75.565390
21
46.299302
0
LINE
8
Layer 1
10
75.565390
20
46.299302
11
75.868687
21
46.018888
0
LINE
8
Layer 1
10
75.868687
20
46.018888
11
76.000415
21
46.048832
0
LINE
8
Layer 1
10
76.000415
20
46.048832
11
76.058889
21
46.284444
0
LINE
8
Layer 1
10
76.058889
20
46.284444
11
76.058889
21
46.284444
0
LINE
8
Layer 1
10
28.178771
20
47.704161
11
27.976182
21
48.088966
0
LINE
8
Layer 1
10
27.976182
20
48.088966
11
27.782883
21
48.074117
0
LINE
8
Layer 1
10
27.782883
20
48.074117
11
27.521341
21
47.424875
0
LINE
8
Layer 1
10
27.521341
20
47.424875
11
27.588514
21
46.915275
0
LINE
8
Layer 1
10
27.588514
20
46.915275
11
27.806109
21
47.074980
0
LINE
8
Layer 1
10
27.806109
20
47.074980
11
28.178771
21
47.704161
0
LINE
8
Layer 1
10
28.178771
20
47.704161
11
28.178771
21
47.704161
0
LINE
8
Layer 1
10
69.597177
20
47.619118
11
69.326933
21
47.624193
0
LINE
8
Layer 1
10
69.326933
20
47.624193
11
69.235397
21
47.494176
0
LINE
8
Layer 1
10
69.235397
20
47.494176
11
69.385456
21
47.096152
0
LINE
8
Layer 1
10
69.385456
20
47.096152
11
69.641376
21
46.959611
0
LINE
8
Layer 1
10
69.641376
20
46.959611
11
69.597177
21
47.619118
0
LINE
8
Layer 1
10
69.597177
20
47.619118
11
69.597177
21
47.619118
0
LINE
8
Layer 1
10
69.914101
20
48.824444
11
70.296186
21
49.380136
0
LINE
8
Layer 1
10
70.296186
20
49.380136
11
70.231230
21
49.494679
0
LINE
8
Layer 1
10
70.231230
20
49.494679
11
69.435946
21
48.965081
0
LINE
8
Layer 1
10
69.435946
20
48.965081
11
68.879739
21
48.365164
0
LINE
8
Layer 1
10
68.879739
20
48.365164
11
69.113631
21
48.391810
0
LINE
8
Layer 1
10
69.113631
20
48.391810
11
69.914101
21
48.824444
0
LINE
8
Layer 1
10
69.914101
20
48.824444
11
69.914101
21
48.824444
0
LINE
8
Layer 1
10
34.355185
20
102.077799
11
33.394801
21
102.115270
0
LINE
8
Layer 1
10
33.394801
20
102.115270
11
33.601690
21
101.995397
0
LINE
8
Layer 1
10
33.601690
20
101.995397
11
34.185326
21
101.916725
0
LINE
8
Layer 1
10
34.185326
20
101.916725
11
34.371386
21
101.954885
0
LINE
8
Layer 1
10
34.371386
20
101.954885
11
34.355185
21
102.077799
0
LINE
8
Layer 1
10
34.355185
20
102.077799
11
34.355185
21
102.077799
0
LINE
8
Layer 1
10
44.975055
20
102.061693
11
48.591886
21
103.640833
0
LINE
8
Layer 1
10
48.591886
20
103.640833
11
49.091076
21
103.940494
0
LINE
8
Layer 1
10
49.091076
20
103.940494
11
49.164708
21
104.042466
0
LINE
8
Layer 1
10
49.164708
20
104.042466
11
49.093101
21
104.104391
0
LINE
8
Layer 1
10
49.093101
20
104.104391
11
46.935339
21
103.829461
0
LINE
8
Layer 1
10
46.935339
20
103.829461
11
44.666731
21
103.102300
0
LINE
8
Layer 1
10
44.666731
20
103.102300
11
43.185548
21
102.603815
0
LINE
8
Layer 1
10
43.185548
20
102.603815
11
42.597543
21
102.578084
0
LINE
8
Layer 1
10
42.597543
20
102.578084
11
42.035155
21
102.774831
0
LINE
8
Layer 1
10
42.035155
20
102.774831
11
41.441304
21
103.249158
0
LINE
8
Layer 1
10
41.441304
20
103.249158
11
40.758912
21
104.056169
0
LINE
8
Layer 1
10
40.758912
20
104.056169
11
39.996522
21
103.881581
0
LINE
8
Layer 1
10
39.996522
20
103.881581
11
39.315323
21
103.882245
0
LINE
8
Layer 1
10
39.315323
20
103.882245
11
38.718835
21
104.033337
0
LINE
8
Layer 1
10
38.718835
20
104.033337
11
38.210579
21
104.310034
0
LINE
8
Layer 1
10
38.210579
20
104.310034
11
37.472848
21
105.140948
0
LINE
8
Layer 1
10
37.472848
20
105.140948
11
37.130297
21
106.176398
0
LINE
8
Layer 1
10
37.130297
20
106.176398
11
37.211095
21
107.217794
0
LINE
8
Layer 1
10
37.211095
20
107.217794
11
37.743409
21
108.066549
0
LINE
8
Layer 1
10
37.743409
20
108.066549
11
38.187687
21
108.356626
0
LINE
8
Layer 1
10
38.187687
20
108.356626
11
38.755407
21
108.524073
0
LINE
8
Layer 1
10
38.755407
20
108.524073
11
39.450089
21
108.544064
0
LINE
8
Layer 1
10
39.450089
20
108.544064
11
40.275256
21
108.391777
0
LINE
8
Layer 1
10
40.275256
20
108.391777
11
42.735626
21
108.613287
0
LINE
8
Layer 1
10
42.735626
20
108.613287
11
45.217909
21
109.063586
0
LINE
8
Layer 1
10
45.217909
20
109.063586
11
45.952249
21
109.326770
0
LINE
8
Layer 1
10
45.952249
20
109.326770
11
46.102591
21
109.459511
0
LINE
8
Layer 1
10
46.102591
20
109.459511
11
46.074045
21
109.589836
0
LINE
8
Layer 1
10
46.074045
20
109.589836
11
45.377289
21
109.833680
0
LINE
8
Layer 1
10
45.377289
20
109.833680
11
43.655973
21
110.039198
0
LINE
8
Layer 1
10
43.655973
20
110.039198
11
41.823059
21
109.756749
0
LINE
8
Layer 1
10
41.823059
20
109.756749
11
40.244656
21
109.450652
0
LINE
8
Layer 1
10
40.244656
20
109.450652
11
39.504374
21
109.413395
0
LINE
8
Layer 1
10
39.504374
20
109.413395
11
38.771893
21
109.519815
0
LINE
8
Layer 1
10
38.771893
20
109.519815
11
38.028603
21
109.819778
0
LINE
8
Layer 1
10
38.028603
20
109.819778
11
37.255896
21
110.363145
0
LINE
8
Layer 1
10
37.255896
20
110.363145
11
37.084610
21
112.117689
0
LINE
8
Layer 1
10
37.084610
20
112.117689
11
37.210662
21
112.779462
0
LINE
8
Layer 1
10
37.210662
20
112.779462
11
37.460237
21
113.315575
0
LINE
8
Layer 1
10
37.460237
20
113.315575
11
38.277140
21
114.064825
0
LINE
8
Layer 1
10
38.277140
20
114.064825
11
39.429680
21
114.473462
0
LINE
8
Layer 1
10
39.429680
20
114.473462
11
40.812219
21
114.649507
0
LINE
8
Layer 1
10
40.812219
20
114.649507
11
42.319116
21
114.700981
0
LINE
8
Layer 1
10
42.319116
20
114.700981
11
45.283436
21
114.862308
0
LINE
8
Layer 1
10
45.283436
20
114.862308
11
46.136343
21
115.546984
0
LINE
8
Layer 1
10
46.136343
20
115.546984
11
46.210844
21
115.756187
0
LINE
8
Layer 1
10
46.210844
20
115.756187
11
46.087039
21
115.891678
0
LINE
8
Layer 1
10
46.087039
20
115.891678
11
45.353503
21
115.986661
0
LINE
8
Layer 1
10
45.353503
20
115.986661
11
44.153712
21
115.922206
0
LINE
8
Layer 1
10
44.153712
20
115.922206
11
41.227272
21
115.676077
0
LINE
8
Layer 1
10
41.227272
20
115.676077
11
39.936578
21
115.674948
0
LINE
8
Layer 1
10
39.936578
20
115.674948
11
39.051538
21
115.875473
0
LINE
8
Layer 1
10
39.051538
20
115.875473
11
38.218742
21
115.484923
0
LINE
8
Layer 1
10
38.218742
20
115.484923
11
37.400458
21
115.517000
0
LINE
8
Layer 1
10
37.400458
20
115.517000
11
36.636677
21
115.845216
0
LINE
8
Layer 1
10
36.636677
20
115.845216
11
35.967389
21
116.343080
0
LINE
8
Layer 1
10
35.967389
20
116.343080
11
35.072256
21
117.341802
0
LINE
8
Layer 1
10
35.072256
20
117.341802
11
34.926392
21
117.589682
0
LINE
8
Layer 1
10
34.926392
20
117.589682
11
35.034985
21
117.501256
0
LINE
8
Layer 1
10
35.034985
20
117.501256
11
35.218164
21
116.032802
0
LINE
8
Layer 1
10
35.218164
20
116.032802
11
35.154109
21
114.516123
0
LINE
8
Layer 1
10
35.154109
20
114.516123
11
34.737218
21
111.499426
0
LINE
8
Layer 1
10
34.737218
20
111.499426
11
34.610843
21
110.080078
0
LINE
8
Layer 1
10
34.610843
20
110.080078
11
34.690157
21
108.773841
0
LINE
8
Layer 1
10
34.690157
20
108.773841
11
35.088390
21
107.621050
0
LINE
8
Layer 1
10
35.088390
20
107.621050
11
35.918772
21
106.662039
0
LINE
8
Layer 1
10
35.918772
20
106.662039
11
36.200960
21
104.873460
0
LINE
8
Layer 1
10
36.200960
20
104.873460
11
36.808142
21
103.568878
0
LINE
8
Layer 1
10
36.808142
20
103.568878
11
37.699227
21
102.679657
0
LINE
8
Layer 1
10
37.699227
20
102.679657
11
38.833127
21
102.137159
0
LINE
8
Layer 1
10
38.833127
20
102.137159
11
40.168749
21
101.872751
0
LINE
8
Layer 1
10
40.168749
20
101.872751
11
41.665005
21
101.817794
0
LINE
8
Layer 1
10
41.665005
20
101.817794
11
44.975055
21
102.061693
0
LINE
8
Layer 1
10
44.975055
20
102.061693
11
44.975055
21
102.061693
0
LINE
8
Layer 1
10
44.975055
20
102.061693
11
44.975055
21
102.061693
0
LINE
8
Layer 1
10
37.958562
20
103.011639
11
38.800799
21
103.676390
0
LINE
8
Layer 1
10
38.800799
20
103.676390
11
39.542371
21
103.882884
0
LINE
8
Layer 1
10
39.542371
20
103.882884
11
40.113290
21
103.765284
0
LINE
8
Layer 1
10
40.113290
20
103.765284
11
40.443569
21
103.457755
0
LINE
8
Layer 1
10
40.443569
20
103.457755
11
40.463223
21
103.094462
0
LINE
8
Layer 1
10
40.463223
20
103.094462
11
40.102264
21
102.809568
0
LINE
8
Layer 1
10
40.102264
20
102.809568
11
39.290706
21
102.737239
0
LINE
8
Layer 1
10
39.290706
20
102.737239
11
37.958562
21
103.011639
0
LINE
8
Layer 1
10
37.958562
20
103.011639
11
37.958562
21
103.011639
0
LINE
8
Layer 1
10
35.473598
20
107.707142
11
35.492246
21
108.144150
0
LINE
8
Layer 1
10
35.492246
20
108.144150
11
35.621086
21
108.305979
0
LINE
8
Layer 1
10
35.621086
20
108.305979
11
35.978299
21
108.104739
0
LINE
8
Layer 1
10
35.978299
20
108.104739
11
36.083162
21
107.704701
0
LINE
8
Layer 1
10
36.083162
20
107.704701
11
35.896563
21
107.618032
0
LINE
8
Layer 1
10
35.896563
20
107.618032
11
35.473598
21
107.707142
0
LINE
8
Layer 1
10
35.473598
20
107.707142
11
35.473598
21
107.707142
0
LINE
8
Layer 1
10
35.609730
20
109.283159
11
35.302223
21
110.182848
0
LINE
8
Layer 1
10
35.302223
20
110.182848
11
35.211334
21
111.298046
0
LINE
8
Layer 1
10
35.211334
20
111.298046
11
35.290940
21
112.443514
0
LINE
8
Layer 1
10
35.290940
20
112.443514
11
35.494918
21
113.434012
0
LINE
8
Layer 1
10
35.494918
20
113.434012
11
35.777144
21
114.084298
0
LINE
8
Layer 1
10
35.777144
20
114.084298
11
35.933187
21
114.223974
0
LINE
8
Layer 1
10
35.933187
20
114.223974
11
36.091497
21
114.209131
0
LINE
8
Layer 1
10
36.091497
20
114.209131
11
36.391851
21
113.623272
0
LINE
8
Layer 1
10
36.391851
20
113.623272
11
36.632086
21
112.141479
0
LINE
8
Layer 1
10
36.632086
20
112.141479
11
36.650254
21
110.190746
0
LINE
8
Layer 1
10
36.650254
20
110.190746
11
36.375532
21
109.326519
0
LINE
8
Layer 1
10
36.375532
20
109.326519
11
36.068167
21
109.167226
0
LINE
8
Layer 1
10
36.068167
20
109.167226
11
35.609730
21
109.283159
0
LINE
8
Layer 1
10
35.609730
20
109.283159
11
35.609730
21
109.283159
0
LINE
8
Layer 1
10
27.738264
20
102.836225
11
30.934261
21
103.813296
0
LINE
8
Layer 1
10
30.934261
20
103.813296
11
31.166569
21
103.948481
0
LINE
8
Layer 1
10
31.166569
20
103.948481
11
30.960869
21
103.987231
0
LINE
8
Layer 1
10
30.960869
20
103.987231
11
28.812786
21
103.669816
0
LINE
8
Layer 1
10
28.812786
20
103.669816
11
28.176837
21
103.302958
0
LINE
8
Layer 1
10
28.176837
20
103.302958
11
27.486716
21
103.092169
0
LINE
8
Layer 1
10
27.486716
20
103.092169
11
26.032612
21
103.076518
0
LINE
8
Layer 1
10
26.032612
20
103.076518
11
24.627784
21
103.498305
0
LINE
8
Layer 1
10
24.627784
20
103.498305
11
23.449542
21
104.232973
0
LINE
8
Layer 1
10
23.449542
20
104.232973
11
22.675195
21
105.155964
0
LINE
8
Layer 1
10
22.675195
20
105.155964
11
22.494891
21
105.649157
0
LINE
8
Layer 1
10
22.494891
20
105.649157
11
22.482053
21
106.142721
0
LINE
8
Layer 1
10
22.482053
20
106.142721
11
22.658843
21
106.621087
0
LINE
8
Layer 1
10
22.658843
20
106.621087
11
23.047425
21
107.068685
0
LINE
8
Layer 1
10
23.047425
20
107.068685
11
23.669963
21
107.469947
0
LINE
8
Layer 1
10
23.669963
20
107.469947
11
24.548620
21
107.809301
0
LINE
8
Layer 1
10
24.548620
20
107.809301
11
25.622865
21
107.848418
0
LINE
8
Layer 1
10
25.622865
20
107.848418
11
26.566647
21
108.064446
0
LINE
8
Layer 1
10
26.566647
20
108.064446
11
27.307424
21
108.394097
0
LINE
8
Layer 1
10
27.307424
20
108.394097
11
27.772654
21
108.774085
0
LINE
8
Layer 1
10
27.772654
20
108.774085
11
27.889794
21
109.141123
0
LINE
8
Layer 1
10
27.889794
20
109.141123
11
27.586301
21
109.431925
0
LINE
8
Layer 1
10
27.586301
20
109.431925
11
26.789632
21
109.583203
0
LINE
8
Layer 1
10
26.789632
20
109.583203
11
25.427245
21
109.531670
0
LINE
8
Layer 1
10
25.427245
20
109.531670
11
24.369888
21
109.464046
0
LINE
8
Layer 1
10
24.369888
20
109.464046
11
23.644150
21
109.675824
0
LINE
8
Layer 1
10
23.644150
20
109.675824
11
23.207546
21
110.097002
0
LINE
8
Layer 1
10
23.207546
20
110.097002
11
23.017592
21
110.657578
0
LINE
8
Layer 1
10
23.017592
20
110.657578
11
23.031801
21
111.287549
0
LINE
8
Layer 1
10
23.031801
20
111.287549
11
23.207689
21
111.916912
0
LINE
8
Layer 1
10
23.207689
20
111.916912
11
23.874560
21
112.893804
0
LINE
8
Layer 1
10
23.874560
20
112.893804
11
24.336254
21
113.583438
0
LINE
8
Layer 1
10
24.336254
20
113.583438
11
25.047118
21
113.967028
0
LINE
8
Layer 1
10
25.047118
20
113.967028
11
25.941788
21
114.129375
0
LINE
8
Layer 1
10
25.941788
20
114.129375
11
26.954904
21
114.155280
0
LINE
8
Layer 1
10
26.954904
20
114.155280
11
29.075021
21
114.136966
0
LINE
8
Layer 1
10
29.075021
20
114.136966
11
30.051298
21
114.262350
0
LINE
8
Layer 1
10
30.051298
20
114.262350
11
30.884571
21
114.590495
0
LINE
8
Layer 1
10
30.884571
20
114.590495
11
32.072696
21
115.350455
0
LINE
8
Layer 1
10
32.072696
20
115.350455
11
32.180857
21
115.636390
0
LINE
8
Layer 1
10
32.180857
20
115.636390
11
32.015822
21
115.866782
0
LINE
8
Layer 1
10
32.015822
20
115.866782
11
31.018380
21
116.182398
0
LINE
8
Layer 1
10
31.018380
20
116.182398
11
29.384802
21
116.340224
0
LINE
8
Layer 1
10
29.384802
20
116.340224
11
25.426968
21
116.354193
0
LINE
8
Layer 1
10
25.426968
20
116.354193
11
22.577778
21
116.252058
0
LINE
8
Layer 1
10
22.577778
20
116.252058
11
25.091246
21
115.993404
0
LINE
8
Layer 1
10
25.091246
20
115.993404
11
27.690171
21
115.600704
0
LINE
8
Layer 1
10
27.690171
20
115.600704
11
28.451326
21
115.390772
0
LINE
8
Layer 1
10
28.451326
20
115.390772
11
28.597514
21
115.288830
0
LINE
8
Layer 1
10
28.597514
20
115.288830
11
28.549419
21
115.191351
0
LINE
8
Layer 1
10
28.549419
20
115.191351
11
27.756309
21
115.017116
0
LINE
8
Layer 1
10
27.756309
20
115.017116
11
25.843853
21
114.882741
0
LINE
8
Layer 1
10
25.843853
20
114.882741
11
23.876909
21
115.153670
0
LINE
8
Layer 1
10
23.876909
20
115.153670
11
22.247674
21
115.446538
0
LINE
8
Layer 1
10
22.247674
20
115.446538
11
21.716234
21
115.359658
0
LINE
8
Layer 1
10
21.716234
20
115.359658
11
21.457065
21
114.988413
0
LINE
8
Layer 1
10
21.457065
20
114.988413
11
21.532783
21
114.236186
0
LINE
8
Layer 1
10
21.532783
20
114.236186
11
22.006001
21
113.006362
0
LINE
8
Layer 1
10
22.006001
20
113.006362
11
22.000394
21
111.364740
0
LINE
8
Layer 1
10
22.000394
20
111.364740
11
21.745079
21
109.461181
0
LINE
8
Layer 1
10
21.745079
20
109.461181
11
21.430314
21
107.473421
0
LINE
8
Layer 1
10
21.430314
20
107.473421
11
21.246353
21
105.579196
0
LINE
8
Layer 1
10
21.246353
20
105.579196
11
21.383455
21
103.956241
0
LINE
8
Layer 1
10
21.383455
20
103.956241
11
21.631859
21
103.302032
0
LINE
8
Layer 1
10
21.631859
20
103.302032
11
22.031874
21
102.782292
0
LINE
8
Layer 1
10
22.031874
20
102.782292
11
22.607283
21
102.419238
0
LINE
8
Layer 1
10
22.607283
20
102.419238
11
23.381868
21
102.235085
0
LINE
8
Layer 1
10
23.381868
20
102.235085
11
24.379410
21
102.252052
0
LINE
8
Layer 1
10
24.379410
20
102.252052
11
25.623692
21
102.492356
0
LINE
8
Layer 1
10
25.623692
20
102.492356
11
26.695708
21
102.586744
0
LINE
8
Layer 1
10
26.695708
20
102.586744
11
27.738264
21
102.836225
0
LINE
8
Layer 1
10
27.738264
20
102.836225
11
27.738264
21
102.836225
0
LINE
8
Layer 1
10
22.192874
20
104.000510
11
22.334184
21
104.353367
0
LINE
8
Layer 1
10
22.334184
20
104.353367
11
22.484273
21
104.439700
0
LINE
8
Layer 1
10
22.484273
20
104.439700
11
22.712480
21
104.144213
0
LINE
8
Layer 1
10
22.712480
20
104.144213
11
22.680884
21
103.776874
0
LINE
8
Layer 1
10
22.680884
20
103.776874
11
22.506219
21
103.773393
0
LINE
8
Layer 1
10
22.506219
20
103.773393
11
22.192874
21
104.000510
0
LINE
8
Layer 1
10
22.192874
20
104.000510
11
22.192874
21
104.000510
0
LINE
8
Layer 1
10
36.228051
20
102.668208
11
36.355472
21
103.297095
0
LINE
8
Layer 1
10
36.355472
20
103.297095
11
36.320997
21
103.877390
0
LINE
8
Layer 1
10
36.320997
20
103.877390
11
35.876503
21
104.913986
0
LINE
8
Layer 1
10
35.876503
20
104.913986
11
35.114864
21
105.821557
0
LINE
8
Layer 1
10
35.114864
20
105.821557
11
34.256375
21
106.643663
0
LINE
8
Layer 1
10
34.256375
20
106.643663
11
33.521330
21
107.423863
0
LINE
8
Layer 1
10
33.521330
20
107.423863
11
33.130024
21
108.205719
0
LINE
8
Layer 1
10
33.130024
20
108.205719
11
33.132115
21
108.610880
0
LINE
8
Layer 1
10
33.132115
20
108.610880
11
33.302751
21
109.032791
0
LINE
8
Layer 1
10
33.302751
20
109.032791
11
34.259805
21
109.948638
0
LINE
8
Layer 1
10
34.259805
20
109.948638
11
34.526820
21
112.395110
0
LINE
8
Layer 1
10
34.526820
20
112.395110
11
34.477654
21
113.517683
0
LINE
8
Layer 1
10
34.477654
20
113.517683
11
34.278921
21
114.406089
0
LINE
8
Layer 1
10
34.278921
20
114.406089
11
33.909780
21
114.935037
0
LINE
8
Layer 1
10
33.909780
20
114.935037
11
33.349392
21
114.979233
0
LINE
8
Layer 1
10
33.349392
20
114.979233
11
32.576916
21
114.413385
0
LINE
8
Layer 1
10
32.576916
20
114.413385
11
31.571514
21
113.112200
0
LINE
8
Layer 1
10
31.571514
20
113.112200
11
30.196478
21
111.673814
0
LINE
8
Layer 1
10
30.196478
20
111.673814
11
29.982997
21
111.176555
0
LINE
8
Layer 1
10
29.982997
20
111.176555
11
30.005788
21
110.752233
0
LINE
8
Layer 1
10
30.005788
20
110.752233
11
30.520927
21
109.897342
0
LINE
8
Layer 1
10
30.520927
20
109.897342
11
31.263381
21
108.659026
0
LINE
8
Layer 1
10
31.263381
20
108.659026
11
30.142899
21
108.592182
0
LINE
8
Layer 1
10
30.142899
20
108.592182
11
29.037182
21
108.089975
0
LINE
8
Layer 1
10
29.037182
20
108.089975
11
28.070407
21
107.306003
0
LINE
8
Layer 1
10
28.070407
20
107.306003
11
27.366749
21
106.393860
0
LINE
8
Layer 1
10
27.366749
20
106.393860
11
27.050383
21
105.507143
0
LINE
8
Layer 1
10
27.050383
20
105.507143
11
27.076240
21
105.121318
0
LINE
8
Layer 1
10
27.076240
20
105.121318
11
27.245485
21
104.799448
0
LINE
8
Layer 1
10
27.245485
20
104.799448
11
27.573641
21
104.560732
0
LINE
8
Layer 1
10
27.573641
20
104.560732
11
28.076230
21
104.424370
0
LINE
8
Layer 1
10
28.076230
20
104.424370
11
29.666794
21
104.535507
0
LINE
8
Layer 1
10
29.666794
20
104.535507
11
30.340736
21
104.705114
0
LINE
8
Layer 1
10
30.340736
20
104.705114
11
31.075804
21
104.718339
0
LINE
8
Layer 1
10
31.075804
20
104.718339
11
32.369864
21
104.364739
0
LINE
8
Layer 1
10
32.369864
20
104.364739
11
32.749129
21
104.042463
0
LINE
8
Layer 1
10
32.749129
20
104.042463
11
32.830066
21
103.652902
0
LINE
8
Layer 1
10
32.830066
20
103.652902
11
32.522812
21
103.218330
0
LINE
8
Layer 1
10
32.522812
20
103.218330
11
31.737503
21
102.761024
0
LINE
8
Layer 1
10
31.737503
20
102.761024
11
32.981270
21
103.112310
0
LINE
8
Layer 1
10
32.981270
20
103.112310
11
34.118296
21
103.053495
0
LINE
8
Layer 1
10
34.118296
20
103.053495
11
36.228051
21
102.668208
0
LINE
8
Layer 1
10
36.228051
20
102.668208
11
36.228051
21
102.668208
0
LINE
8
Layer 1
10
33.443333
20
103.857778
11
33.593883
21
104.160721
0
LINE
8
Layer 1
10
33.593883
20
104.160721
11
33.788936
21
103.889374
0
LINE
8
Layer 1
10
33.788936
20
103.889374
11
33.811188
21
103.602229
0
LINE
8
Layer 1
10
33.811188
20
103.602229
11
33.443333
21
103.857778
0
LINE
8
Layer 1
10
33.443333
20
103.857778
11
33.443333
21
103.857778
0
LINE
8
Layer 1
10
66.574286
20
109.302730
11
70.609193
21
109.342633
0
LINE
8
Layer 1
10
70.609193
20
109.342633
11
72.764625
21
109.219288
0
LINE
8
Layer 1
10
72.764625
20
109.219288
11
73.618405
21
109.049472
0
LINE
8
Layer 1
10
73.618405
20
109.049472
11
74.224444
21
108.780011
0
LINE
8
Layer 1
10
74.224444
20
108.780011
11
74.499935
21
108.944643
0
LINE
8
Layer 1
10
74.499935
20
108.944643
11
74.732685
21
108.944232
0
LINE
8
Layer 1
10
74.732685
20
108.944232
11
75.099403
21
108.561301
0
LINE
8
Layer 1
10
75.099403
20
108.561301
11
75.643836
21
107.058131
0
LINE
8
Layer 1
10
75.643836
20
107.058131
11
75.939331
21
106.389965
0
LINE
8
Layer 1
10
75.939331
20
106.389965
11
76.328867
21
106.078794
0
LINE
8
Layer 1
10
76.328867
20
106.078794
11
76.871334
21
106.350655
0
LINE
8
Layer 1
10
76.871334
20
106.350655
11
77.625623
21
107.431584
0
LINE
8
Layer 1
10
77.625623
20
107.431584
11
77.079584
21
110.252504
0
LINE
8
Layer 1
10
77.079584
20
110.252504
11
76.417107
21
113.044860
0
LINE
8
Layer 1
10
76.417107
20
113.044860
11
75.134676
21
118.643127
0
LINE
8
Layer 1
10
75.134676
20
118.643127
11
74.747241
21
118.818981
0
LINE
8
Layer 1
10
74.747241
20
118.818981
11
74.514495
21
118.786585
0
LINE
8
Layer 1
10
74.514495
20
118.786585
11
74.422291
21
118.199161
0
LINE
8
Layer 1
10
74.422291
20
118.199161
11
75.095547
21
115.648615
0
LINE
8
Layer 1
10
75.095547
20
115.648615
11
75.497878
21
114.093967
0
LINE
8
Layer 1
10
75.497878
20
114.093967
11
75.701922
21
112.625385
0
LINE
8
Layer 1
10
75.701922
20
112.625385
11
75.526114
21
111.447105
0
LINE
8
Layer 1
10
75.526114
20
111.447105
11
75.239026
21
111.030653
0
LINE
8
Layer 1
10
75.239026
20
111.030653
11
74.788889
21
110.763365
0
LINE
8
Layer 1
10
74.788889
20
110.763365
11
74.500976
21
110.422224
0
LINE
8
Layer 1
10
74.500976
20
110.422224
11
74.195269
21
110.450510
0
LINE
8
Layer 1
10
74.195269
20
110.450510
11
73.470309
21
111.083746
0
LINE
8
Layer 1
10
73.470309
20
111.083746
11
73.020978
21
111.422891
0
LINE
8
Layer 1
10
73.020978
20
111.422891
11
72.493692
21
111.599848
0
LINE
8
Layer 1
10
72.493692
20
111.599848
11
71.873412
21
111.481716
0
LINE
8
Layer 1
10
71.873412
20
111.481716
11
71.145098
21
110.935590
0
LINE
8
Layer 1
10
71.145098
20
110.935590
11
70.072518
21
110.763022
0
LINE
8
Layer 1
10
70.072518
20
110.763022
11
69.103085
21
110.765505
0
LINE
8
Layer 1
10
69.103085
20
110.765505
11
68.248792
21
110.948321
0
LINE
8
Layer 1
10
68.248792
20
110.948321
11
67.521632
21
111.316751
0
LINE
8
Layer 1
10
67.521632
20
111.316751
11
66.933597
21
111.876077
0
LINE
8
Layer 1
10
66.933597
20
111.876077
11
66.496680
21
112.631578
0
LINE
8
Layer 1
10
66.496680
20
112.631578
11
66.222875
21
113.588537
0
LINE
8
Layer 1
10
66.222875
20
113.588537
11
66.124173
21
114.752235
0
LINE
8
Layer 1
10
66.124173
20
114.752235
11
65.768202
21
116.196626
0
LINE
8
Layer 1
10
65.768202
20
116.196626
11
65.668473
21
116.245171
0
LINE
8
Layer 1
10
65.668473
20
116.245171
11
65.607058
21
115.963896
0
LINE
8
Layer 1
10
65.607058
20
115.963896
11
65.536696
21
113.329795
0
LINE
8
Layer 1
10
65.536696
20
113.329795
11
65.322083
21
111.121354
0
LINE
8
Layer 1
10
65.322083
20
111.121354
11
65.246633
21
108.505326
0
LINE
8
Layer 1
10
65.246633
20
108.505326
11
65.409048
21
106.227094
0
LINE
8
Layer 1
10
65.409048
20
106.227094
11
65.610299
21
105.447583
0
LINE
8
Layer 1
10
65.610299
20
105.447583
11
65.908030
21
105.032040
0
LINE
8
Layer 1
10
65.908030
20
105.032040
11
66.150320
21
107.184994
0
LINE
8
Layer 1
10
66.150320
20
107.184994
11
66.292481
21
108.256950
0
LINE
8
Layer 1
10
66.292481
20
108.256950
11
66.574286
21
109.302730
0
LINE
8
Layer 1
10
66.574286
20
109.302730
11
66.574286
21
109.302730
0
LINE
8
Layer 1
10
76.370386
20
108.257690
11
76.183544
21
109.282348
0
LINE
8
Layer 1
10
76.183544
20
109.282348
11
76.251940
21
109.590699
0
LINE
8
Layer 1
10
76.251940
20
109.590699
11
76.750738
21
108.905575
0
LINE
8
Layer 1
10
76.750738
20
108.905575
11
77.059360
21
107.896508
0
LINE
8
Layer 1
10
77.059360
20
107.896508
11
76.890036
21
107.799931
0
LINE
8
Layer 1
10
76.890036
20
107.799931
11
76.370386
21
108.257690
0
LINE
8
Layer 1
10
76.370386
20
108.257690
11
76.370386
21
108.257690
0
LINE
8
Layer 1
10
71.966667
20
110.207778
11
72.195283
21
110.571608
0
LINE
8
Layer 1
10
72.195283
20
110.571608
11
72.348807
21
110.628542
0
LINE
8
Layer 1
10
72.348807
20
110.628542
11
72.450126
21
110.227610
0
LINE
8
Layer 1
10
72.450126
20
110.227610
11
72.309715
21
109.816762
0
LINE
8
Layer 1
10
72.309715
20
109.816762
11
72.161077
21
109.861301
0
LINE
8
Layer 1
10
72.161077
20
109.861301
11
71.966667
21
110.207778
0
LINE
8
Layer 1
10
71.966667
20
110.207778
11
71.966667
21
110.207778
0
LINE
8
Layer 1
10
66.040000
20
111.353321
11
66.242998
21
111.788264
0
LINE
8
Layer 1
10
66.242998
20
111.788264
11
66.382322
21
111.814908
0
LINE
8
Layer 1
10
66.382322
20
111.814908
11
66.481300
21
111.211359
0
LINE
8
Layer 1
10
66.481300
20
111.211359
11
66.359627
21
110.678792
0
LINE
8
Layer 1
10
66.359627
20
110.678792
11
66.223140
21
110.794162
0
LINE
8
Layer 1
10
66.223140
20
110.794162
11
66.040000
21
111.353321
0
LINE
8
Layer 1
10
66.040000
20
111.353321
11
66.040000
21
111.353321
0
LINE
8
Layer 1
10
102.469414
20
104.661934
11
101.739236
21
105.581177
0
LINE
8
Layer 1
10
101.739236
20
105.581177
11
100.632014
21
106.518912
0
LINE
8
Layer 1
10
100.632014
20
106.518912
11
98.196520
21
108.381244
0
LINE
8
Layer 1
10
98.196520
20
108.381244
11
97.323289
21
109.271533
0
LINE
8
Layer 1
10
97.323289
20
109.271533
11
97.072344
21
109.698953
0
LINE
8
Layer 1
10
97.072344
20
109.698953
11
96.983098
21
110.111698
0
LINE
8
Layer 1
10
96.983098
20
110.111698
11
97.083992
21
110.507623
0
LINE
8
Layer 1
10
97.083992
20
110.507623
11
97.403466
21
110.884585
0
LINE
8
Layer 1
10
97.403466
20
110.884585
11
98.811915
21
111.573040
0
LINE
8
Layer 1
10
98.811915
20
111.573040
11
99.325576
21
111.986113
0
LINE
8
Layer 1
10
99.325576
20
111.986113
11
99.654683
21
112.503295
0
LINE
8
Layer 1
10
99.654683
20
112.503295
11
99.823285
21
113.097196
0
LINE
8
Layer 1
10
99.823285
20
113.097196
11
99.855430
21
113.740426
0
LINE
8
Layer 1
10
99.855430
20
113.740426
11
99.606539
21
115.065315
0
LINE
8
Layer 1
10
99.606539
20
115.065315
11
99.100390
21
116.258846
0
LINE
8
Layer 1
10
99.100390
20
116.258846
11
98.529366
21
117.101899
0
LINE
8
Layer 1
10
98.529366
20
117.101899
11
98.085847
21
117.375357
0
LINE
8
Layer 1
10
98.085847
20
117.375357
11
97.972021
21
117.230013
0
LINE
8
Layer 1
10
97.972021
20
117.230013
11
97.962215
21
116.860102
0
LINE
8
Layer 1
10
97.962215
20
116.860102
11
98.350852
21
115.337015
0
LINE
8
Layer 1
10
98.350852
20
115.337015
11
98.798797
21
114.621235
0
LINE
8
Layer 1
10
98.798797
20
114.621235
11
98.979582
21
113.968339
0
LINE
8
Layer 1
10
98.979582
20
113.968339
11
98.929122
21
113.384785
0
LINE
8
Layer 1
10
98.929122
20
113.384785
11
98.683332
21
112.877028
0
LINE
8
Layer 1
10
98.683332
20
112.877028
11
98.278127
21
112.451522
0
LINE
8
Layer 1
10
98.278127
20
112.451522
11
97.749423
21
112.114724
0
LINE
8
Layer 1
10
97.749423
20
112.114724
11
96.465178
21
111.733071
0
LINE
8
Layer 1
10
96.465178
20
111.733071
11
95.117919
21
111.783713
0
LINE
8
Layer 1
10
95.117919
20
111.783713
11
94.510448
21
111.987283
0
LINE
8
Layer 1
10
94.510448
20
111.987283
11
93.994969
21
112.318293
0
LINE
8
Layer 1
10
93.994969
20
112.318293
11
93.607398
21
112.783198
0
LINE
8
Layer 1
10
93.607398
20
112.783198
11
93.383649
21
113.388454
0
LINE
8
Layer 1
10
93.383649
20
113.388454
11
93.359639
21
114.140517
0
LINE
8
Layer 1
10
93.359639
20
114.140517
11
93.571283
21
115.045841
0
LINE
8
Layer 1
10
93.571283
20
115.045841
11
93.097488
21
115.940205
0
LINE
8
Layer 1
10
93.097488
20
115.940205
11
92.975526
21
116.699259
0
LINE
8
Layer 1
10
92.975526
20
116.699259
11
93.116366
21
117.311881
0
LINE
8
Layer 1
10
93.116366
20
117.311881
11
93.430979
21
117.766950
0
LINE
8
Layer 1
10
93.430979
20
117.766950
11
93.830336
21
118.053347
0
LINE
8
Layer 1
10
93.830336
20
118.053347
11
94.225406
21
118.159948
0
LINE
8
Layer 1
10
94.225406
20
118.159948
11
94.527160
21
118.075635
0
LINE
8
Layer 1
10
94.527160
20
118.075635
11
94.646569
21
117.789285
0
LINE
8
Layer 1
10
94.646569
20
117.789285
11
96.258501
21
117.987351
0
LINE
8
Layer 1
10
96.258501
20
117.987351
11
97.050064
21
118.255325
0
LINE
8
Layer 1
10
97.050064
20
118.255325
11
97.051274
21
118.422204
0
LINE
8
Layer 1
10
97.051274
20
118.422204
11
96.743073
21
118.614570
0
LINE
8
Layer 1
10
96.743073
20
118.614570
11
95.059342
21
119.086446
0
LINE
8
Layer 1
10
95.059342
20
119.086446
11
94.148958
21
118.742229
0
LINE
8
Layer 1
10
94.148958
20
118.742229
11
93.440852
21
118.295656
0
LINE
8
Layer 1
10
93.440852
20
118.295656
11
92.914753
21
117.757728
0
LINE
8
Layer 1
10
92.914753
20
117.757728
11
92.550393
21
117.139446
0
LINE
8
Layer 1
10
92.550393
20
117.139446
11
92.225809
21
115.705828
0
LINE
8
Layer 1
10
92.225809
20
115.705828
11
92.304944
21
114.082811
0
LINE
8
Layer 1
10
92.304944
20
114.082811
11
93.025747
21
110.620625
0
LINE
8
Layer 1
10
93.025747
20
110.620625
11
93.343103
21
108.957476
0
LINE
8
Layer 1
10
93.343103
20
108.957476
11
93.415556
21
107.456971
0
LINE
8
Layer 1
10
93.415556
20
107.456971
11
93.628011
21
105.366636
0
LINE
8
Layer 1
10
93.628011
20
105.366636
11
93.809978
21
105.179566
0
LINE
8
Layer 1
10
93.809978
20
105.179566
11
94.008903
21
105.431712
0
LINE
8
Layer 1
10
94.008903
20
105.431712
11
94.357032
21
106.855105
0
LINE
8
Layer 1
10
94.357032
20
106.855105
11
94.471194
21
108.839721
0
LINE
8
Layer 1
10
94.471194
20
108.839721
11
95.479309
21
108.521336
0
LINE
8
Layer 1
10
95.479309
20
108.521336
11
96.614213
21
107.936662
0
LINE
8
Layer 1
10
96.614213
20
107.936662
11
99.006044
21
106.384545
0
LINE
8
Layer 1
10
99.006044
20
106.384545
11
101.130005
21
105.015568
0
LINE
8
Layer 1
10
101.130005
20
105.015568
11
101.930071
21
104.659821
0
LINE
8
Layer 1
10
101.930071
20
104.659821
11
102.469414
21
104.661934
0
LINE
8
Layer 1
10
102.469414
20
104.661934
11
102.469414
21
104.661934
0
LINE
8
Layer 1
10
95.411962
20
109.618208
11
95.389855
21
110.075845
0
LINE
8
Layer 1
10
95.389855
20
110.075845
11
95.571052
21
110.159186
0
LINE
8
Layer 1
10
95.571052
20
110.159186
11
96.149382
21
109.690062
0
LINE
8
Layer 1
10
96.149382
20
109.690062
11
96.359002
21
109.185012
0
LINE
8
Layer 1
10
96.359002
20
109.185012
11
96.079311
21
109.223443
0
LINE
8
Layer 1
10
96.079311
20
109.223443
11
95.411962
21
109.618208
0
LINE
8
Layer 1
10
95.411962
20
109.618208
11
95.411962
21
109.618208
0
LINE
8
Layer 1
10
25.860245
20
106.115556
11
26.003236
21
106.768556
0
LINE
8
Layer 1
10
26.003236
20
106.768556
11
25.972969
21
107.207951
0
LINE
8
Layer 1
10
25.972969
20
107.207951
11
25.801136
21
107.458621
0
LINE
8
Layer 1
10
25.801136
20
107.458621
11
25.519430
21
107.545443
0
LINE
8
Layer 1
10
25.519430
20
107.545443
11
24.753167
21
107.327057
0
LINE
8
Layer 1
10
24.753167
20
107.327057
11
23.927715
21
106.751820
0
LINE
8
Layer 1
10
23.927715
20
106.751820
11
23.296613
21
106.018760
0
LINE
8
Layer 1
10
23.296613
20
106.018760
11
23.113397
21
105.326903
0
LINE
8
Layer 1
10
23.113397
20
105.326903
11
23.268977
21
105.058621
0
LINE
8
Layer 1
10
23.268977
20
105.058621
11
23.631606
21
104.875275
0
LINE
8
Layer 1
10
23.631606
20
104.875275
11
25.104775
21
104.862904
0
LINE
8
Layer 1
10
25.104775
20
104.862904
11
25.405583
21
105.057945
0
LINE
8
Layer 1
10
25.405583
20
105.057945
11
25.860245
21
106.115556
0
LINE
8
Layer 1
10
25.860245
20
106.115556
11
25.860245
21
106.115556
0
LINE
8
Layer 1
10
25.860245
20
106.115556
11
25.860245
21
106.115556
0
LINE
8
Layer 1
10
85.713632
20
106.439644
11
87.775428
21
106.646342
0
LINE
8
Layer 1
10
87.775428
20
106.646342
11
88.102634
21
106.787703
0
LINE
8
Layer 1
10
88.102634
20
106.787703
11
88.033919
21
106.939319
0
LINE
8
Layer 1
10
88.033919
20
106.939319
11
86.928337
21
107.228056
0
LINE
8
Layer 1
10
86.928337
20
107.228056
11
84.897917
21
107.422034
0
LINE
8
Layer 1
10
84.897917
20
107.422034
11
83.483976
21
107.096321
0
LINE
8
Layer 1
10
83.483976
20
107.096321
11
82.385095
21
106.948190
0
LINE
8
Layer 1
10
82.385095
20
106.948190
11
82.031470
21
107.011533
0
LINE
8
Layer 1
10
82.031470
20
107.011533
11
81.849812
21
107.204250
0
LINE
8
Layer 1
10
81.849812
20
107.204250
11
81.871188
21
107.554667
0
LINE
8
Layer 1
10
81.871188
20
107.554667
11
82.126667
21
108.091111
0
LINE
8
Layer 1
10
82.126667
20
108.091111
11
81.606905
21
109.576758
0
LINE
8
Layer 1
10
81.606905
20
109.576758
11
81.536174
21
110.725012
0
LINE
8
Layer 1
10
81.536174
20
110.725012
11
81.850779
21
111.558535
0
LINE
8
Layer 1
10
81.850779
20
111.558535
11
82.487023
21
112.099985
0
LINE
8
Layer 1
10
82.487023
20
112.099985
11
83.381212
21
112.372024
0
LINE
8
Layer 1
10
83.381212
20
112.372024
11
84.469650
21
112.397312
0
LINE
8
Layer 1
10
84.469650
20
112.397312
11
85.688640
21
112.198509
0
LINE
8
Layer 1
10
85.688640
20
112.198509
11
86.974488
21
111.798275
0
LINE
8
Layer 1
10
86.974488
20
111.798275
11
86.947380
21
112.097623
0
LINE
8
Layer 1
10
86.947380
20
112.097623
11
86.765121
21
112.319895
0
LINE
8
Layer 1
10
86.765121
20
112.319895
11
86.035293
21
112.592352
0
LINE
8
Layer 1
10
86.035293
20
112.592352
11
83.815403
21
112.862901
0
LINE
8
Layer 1
10
83.815403
20
112.862901
11
82.725914
21
113.097555
0
LINE
8
Layer 1
10
82.725914
20
113.097555
11
81.917111
21
113.556170
0
LINE
8
Layer 1
10
81.917111
20
113.556170
11
81.680557
21
113.906427
0
LINE
8
Layer 1
10
81.680557
20
113.906427
11
81.589281
21
114.357029
0
LINE
8
Layer 1
10
81.589281
20
114.357029
11
81.668321
21
114.922762
0
LINE
8
Layer 1
10
81.668321
20
114.922762
11
81.942711
21
115.618411
0
LINE
8
Layer 1
10
81.942711
20
115.618411
11
81.594766
21
116.138236
0
LINE
8
Layer 1
10
81.594766
20
116.138236
11
81.492837
21
116.526429
0
LINE
8
Layer 1
10
81.492837
20
116.526429
11
81.598133
21
116.800681
0
LINE
8
Layer 1
10
81.598133
20
116.800681
11
81.871866
21
116.978682
0
LINE
8
Layer 1
10
81.871866
20
116.978682
11
82.769485
21
117.116688
0
LINE
8
Layer 1
10
82.769485
20
117.116688
11
83.875383
21
117.081971
0
LINE
8
Layer 1
10
83.875383
20
117.081971
11
84.879245
21
117.016050
0
LINE
8
Layer 1
10
84.879245
20
117.016050
11
85.470759
21
117.060447
0
LINE
8
Layer 1
10
85.470759
20
117.060447
11
85.514912
21
117.168241
0
LINE
8
Layer 1
10
85.514912
20
117.168241
11
85.339611
21
117.356683
0
LINE
8
Layer 1
10
85.339611
20
117.356683
11
84.175490
21
118.046279
0
LINE
8
Layer 1
10
84.175490
20
118.046279
11
82.466628
21
118.487012
0
LINE
8
Layer 1
10
82.466628
20
118.487012
11
80.810195
21
118.554232
0
LINE
8
Layer 1
10
80.810195
20
118.554232
11
80.235448
21
118.352032
0
LINE
8
Layer 1
10
80.235448
20
118.352032
11
79.954378
21
117.941563
0
LINE
8
Layer 1
10
79.954378
20
117.941563
11
80.060508
21
117.284526
0
LINE
8
Layer 1
10
80.060508
20
117.284526
11
80.647362
21
116.342624
0
LINE
8
Layer 1
10
80.647362
20
116.342624
11
80.844932
21
115.071653
0
LINE
8
Layer 1
10
80.844932
20
115.071653
11
80.859093
21
113.601037
0
LINE
8
Layer 1
10
80.859093
20
113.601037
11
80.651428
21
110.455926
0
LINE
8
Layer 1
10
80.651428
20
110.455926
11
80.586719
21
108.978957
0
LINE
8
Layer 1
10
80.586719
20
108.978957
11
80.652836
21
107.697397
0
LINE
8
Layer 1
10
80.652836
20
107.697397
11
80.928339
21
106.710009
0
LINE
8
Layer 1
10
80.928339
20
106.710009
11
81.491785
21
106.115556
0
LINE
8
Layer 1
10
81.491785
20
106.115556
11
85.713632
21
106.439644
0
LINE
8
Layer 1
10
85.713632
20
106.439644
11
85.713632
21
106.439644
0
LINE
8
Layer 1
10
57.382836
20
110.405662
11
56.957373
21
112.031374
0
LINE
8
Layer 1
10
56.957373
20
112.031374
11
57.115513
21
113.184207
0
LINE
8
Layer 1
10
57.115513
20
113.184207
11
57.705319
21
113.937902
0
LINE
8
Layer 1
10
57.705319
20
113.937902
11
58.574853
21
114.366202
0
LINE
8
Layer 1
10
58.574853
20
114.366202
11
59.572177
21
114.542851
0
LINE
8
Layer 1
10
59.572177
20
114.542851
11
60.545354
21
114.541590
0
LINE
8
Layer 1
10
60.545354
20
114.541590
11
61.811518
21
114.300309
0
LINE
8
Layer 1
10
61.811518
20
114.300309
11
59.762601
21
114.823187
0
LINE
8
Layer 1
10
59.762601
20
114.823187
11
58.151513
21
115.712555
0
LINE
8
Layer 1
10
58.151513
20
115.712555
11
57.823594
21
116.157436
0
LINE
8
Layer 1
10
57.823594
20
116.157436
11
57.981259
21
116.529256
0
LINE
8
Layer 1
10
57.981259
20
116.529256
11
58.749883
21
116.773120
0
LINE
8
Layer 1
10
58.749883
20
116.773120
11
60.254842
21
116.834133
0
LINE
8
Layer 1
10
60.254842
20
116.834133
11
62.044496
21
116.795597
0
LINE
8
Layer 1
10
62.044496
20
116.795597
11
62.930631
21
117.065878
0
LINE
8
Layer 1
10
62.930631
20
117.065878
11
62.939192
21
117.253784
0
LINE
8
Layer 1
10
62.939192
20
117.253784
11
62.607050
21
117.443245
0
LINE
8
Layer 1
10
62.607050
20
117.443245
11
60.767558
21
117.725968
0
LINE
8
Layer 1
10
60.767558
20
117.725968
11
54.235699
21
117.672280
0
LINE
8
Layer 1
10
54.235699
20
117.672280
11
51.251474
21
117.474703
0
LINE
8
Layer 1
10
51.251474
20
117.474703
11
50.473512
21
117.297796
0
LINE
8
Layer 1
10
50.473512
20
117.297796
11
50.343535
21
117.185383
0
LINE
8
Layer 1
10
50.343535
20
117.185383
11
50.416881
21
117.055311
0
LINE
8
Layer 1
10
50.416881
20
117.055311
11
51.938452
21
117.183726
0
LINE
8
Layer 1
10
51.938452
20
117.183726
11
52.855869
21
116.963750
0
LINE
8
Layer 1
10
52.855869
20
116.963750
11
52.998604
21
116.761727
0
LINE
8
Layer 1
10
52.998604
20
116.761727
11
52.883002
21
116.518942
0
LINE
8
Layer 1
10
52.883002
20
116.518942
11
51.733724
21
115.972865
0
LINE
8
Layer 1
10
51.733724
20
115.972865
11
52.871747
21
116.097611
0
LINE
8
Layer 1
10
52.871747
20
116.097611
11
53.804492
21
116.035789
0
LINE
8
Layer 1
10
53.804492
20
116.035789
11
54.552639
21
115.806804
0
LINE
8
Layer 1
10
54.552639
20
115.806804
11
55.136865
21
115.430060
0
LINE
8
Layer 1
10
55.136865
20
115.430060
11
55.577851
21
114.924965
0
LINE
8
Layer 1
10
55.577851
20
114.924965
11
55.896274
21
114.310923
0
LINE
8
Layer 1
10
55.896274
20
114.310923
11
56.248150
21
112.833621
0
LINE
8
Layer 1
10
56.248150
20
112.833621
11
56.391028
21
109.425497
0
LINE
8
Layer 1
10
56.391028
20
109.425497
11
56.512892
21
107.805163
0
LINE
8
Layer 1
10
56.512892
20
107.805163
11
56.888947
21
106.447640
0
LINE
8
Layer 1
10
56.888947
20
106.447640
11
57.278858
21
107.321689
0
LINE
8
Layer 1
10
57.278858
20
107.321689
11
57.361358
21
108.351388
0
LINE
8
Layer 1
10
57.361358
20
108.351388
11
57.382836
21
110.405662
0
LINE
8
Layer 1
10
57.382836
20
110.405662
11
57.382836
21
110.405662
0
LINE
8
Layer 1
10
79.277574
20
106.939644
11
79.615700
21
107.781759
0
LINE
8
Layer 1
10
79.615700
20
107.781759
11
79.680611
21
108.821142
0
LINE
8
Layer 1
10
79.680611
20
108.821142
11
79.535956
21
109.889433
0
LINE
8
Layer 1
10
79.535956
20
109.889433
11
79.245385
21
110.818272
0
LINE
8
Layer 1
10
79.245385
20
110.818272
11
78.872546
21
111.439302
0
LINE
8
Layer 1
10
78.872546
20
111.439302
11
78.481090
21
111.584162
0
LINE
8
Layer 1
10
78.481090
20
111.584162
11
78.134665
21
111.084493
0
LINE
8
Layer 1
10
78.134665
20
111.084493
11
77.896920
21
109.771937
0
LINE
8
Layer 1
10
77.896920
20
109.771937
11
78.053711
21
109.413610
0
LINE
8
Layer 1
10
78.053711
20
109.413610
11
78.112812
21
108.890842
0
LINE
8
Layer 1
10
78.112812
20
108.890842
11
78.142345
21
107.683315
0
LINE
8
Layer 1
10
78.142345
20
107.683315
11
78.214980
21
107.164224
0
LINE
8
Layer 1
10
78.214980
20
107.164224
11
78.394329
21
106.812026
0
LINE
8
Layer 1
10
78.394329
20
106.812026
11
78.731494
21
106.709554
0
LINE
8
Layer 1
10
78.731494
20
106.709554
11
79.277574
21
106.939644
0
LINE
8
Layer 1
10
79.277574
20
106.939644
11
79.277574
21
106.939644
0
LINE
8
Layer 1
10
86.599847
20
109.679573
11
86.092703
21
110.497765
0
LINE
8
Layer 1
10
86.092703
20
110.497765
11
85.309440
21
110.973837
0
LINE
8
Layer 1
10
85.309440
20
110.973837
11
84.396805
21
111.140837
0
LINE
8
Layer 1
10
84.396805
20
111.140837
11
83.501548
21
111.031812
0
LINE
8
Layer 1
10
83.501548
20
111.031812
11
82.770419
21
110.679809
0
LINE
8
Layer 1
10
82.770419
20
110.679809
11
82.350165
21
110.117877
0
LINE
8
Layer 1
10
82.350165
20
110.117877
11
82.387537
21
109.379062
0
LINE
8
Layer 1
10
82.387537
20
109.379062
11
83.029284
21
108.496412
0
LINE
8
Layer 1
10
83.029284
20
108.496412
11
84.788183
21
108.328576
0
LINE
8
Layer 1
10
84.788183
20
108.328576
11
86.912728
21
108.027389
0
LINE
8
Layer 1
10
86.912728
20
108.027389
11
87.670016
21
108.034180
0
LINE
8
Layer 1
10
87.670016
20
108.034180
11
87.988192
21
108.256503
0
LINE
8
Layer 1
10
87.988192
20
108.256503
11
87.690416
21
108.777316
0
LINE
8
Layer 1
10
87.690416
20
108.777316
11
86.599847
21
109.679573
0
LINE
8
Layer 1
10
86.599847
20
109.679573
11
86.599847
21
109.679573
0
LINE
8
Layer 1
10
27.896355
20
110.729802
11
28.999696
21
111.617535
0
LINE
8
Layer 1
10
28.999696
20
111.617535
11
29.602580
21
112.350801
0
LINE
8
Layer 1
10
29.602580
20
112.350801
11
29.763975
21
112.928463
0
LINE
8
Layer 1
10
29.763975
20
112.928463
11
29.542853
21
113.349383
0
LINE
8
Layer 1
10
29.542853
20
113.349383
11
28.998185
21
113.612423
0
LINE
8
Layer 1
10
28.998185
20
113.612423
11
28.188940
21
113.716444
0
LINE
8
Layer 1
10
28.188940
20
113.716444
11
26.012605
21
113.442879
0
LINE
8
Layer 1
10
26.012605
20
113.442879
11
25.282829
21
113.557201
0
LINE
8
Layer 1
10
25.282829
20
113.557201
11
24.770995
21
113.352320
0
LINE
8
Layer 1
10
24.770995
20
113.352320
11
24.446007
21
112.910891
0
LINE
8
Layer 1
10
24.446007
20
112.910891
11
24.276768
21
112.315569
0
LINE
8
Layer 1
10
24.276768
20
112.315569
11
24.281148
21
110.993868
0
LINE
8
Layer 1
10
24.281148
20
110.993868
11
24.535359
21
110.048461
0
LINE
8
Layer 1
10
24.535359
20
110.048461
11
26.238256
21
110.286520
0
LINE
8
Layer 1
10
26.238256
20
110.286520
11
27.896355
21
110.729802
0
LINE
8
Layer 1
10
27.896355
20
110.729802
11
27.896355
21
110.729802
0
LINE
8
Layer 1
10
72.126512
20
111.750511
11
72.334909
21
113.548781
0
LINE
8
Layer 1
10
72.334909
20
113.548781
11
72.340787
21
115.342970
0
LINE
8
Layer 1
10
72.340787
20
115.342970
11
72.107345
21
117.061585
0
LINE
8
Layer 1
10
72.107345
20
117.061585
11
71.597781
21
118.633134
0
LINE
8
Layer 1
10
71.597781
20
118.633134
11
70.775296
21
119.986123
0
LINE
8
Layer 1
10
70.775296
20
119.986123
11
69.603088
21
121.049061
0
LINE
8
Layer 1
10
69.603088
20
121.049061
11
68.044358
21
121.750454
0
LINE
8
Layer 1
10
68.044358
20
121.750454
11
66.062304
21
122.018809
0
LINE
8
Layer 1
10
66.062304
20
122.018809
11
61.286767
21
122.967151
0
LINE
8
Layer 1
10
61.286767
20
122.967151
11
56.434817
21
123.458803
0
LINE
8
Layer 1
10
56.434817
20
123.458803
11
51.554569
21
123.560704
0
LINE
8
Layer 1
10
51.554569
20
123.560704
11
46.694135
21
123.339793
0
LINE
8
Layer 1
10
46.694135
20
123.339793
11
43.821407
21
121.998247
0
LINE
8
Layer 1
10
43.821407
20
121.998247
11
40.391020
21
120.417738
0
LINE
8
Layer 1
10
40.391020
20
120.417738
11
38.872070
21
119.523808
0
LINE
8
Layer 1
10
38.872070
20
119.523808
11
37.700142
21
118.553259
0
LINE
8
Layer 1
10
37.700142
20
118.553259
11
37.037382
21
117.500467
0
LINE
8
Layer 1
10
37.037382
20
117.500467
11
36.947611
21
116.941471
0
LINE
8
Layer 1
10
36.947611
20
116.941471
11
37.045937
21
116.359805
0
LINE
8
Layer 1
10
37.045937
20
116.359805
11
38.967687
21
116.836030
0
LINE
8
Layer 1
10
38.967687
20
116.836030
11
40.851293
21
117.109394
0
LINE
8
Layer 1
10
40.851293
20
117.109394
11
44.551476
21
117.315330
0
LINE
8
Layer 1
10
44.551476
20
117.315330
11
48.241290
21
117.513193
0
LINE
8
Layer 1
10
48.241290
20
117.513193
11
50.111935
21
117.776465
0
LINE
8
Layer 1
10
50.111935
20
117.776465
11
52.015540
21
118.238562
0
LINE
8
Layer 1
10
52.015540
20
118.238562
11
53.429041
21
118.219016
0
LINE
8
Layer 1
10
53.429041
20
118.219016
11
55.163297
21
118.350808
0
LINE
8
Layer 1
10
55.163297
20
118.350808
11
58.970479
21
118.652129
0
LINE
8
Layer 1
10
58.970479
20
118.652129
11
60.731609
21
118.613522
0
LINE
8
Layer 1
10
60.731609
20
118.613522
11
62.189899
21
118.309979
0
LINE
8
Layer 1
10
62.189899
20
118.309979
11
62.756760
21
118.026335
0
LINE
8
Layer 1
10
62.756760
20
118.026335
11
63.189450
21
117.637431
0
LINE
8
Layer 1
10
63.189450
20
117.637431
11
63.468481
21
117.130259
0
LINE
8
Layer 1
10
63.468481
20
117.130259
11
63.574366
21
116.491810
0
LINE
8
Layer 1
10
63.574366
20
116.491810
11
60.043881
21
116.074715
0
LINE
8
Layer 1
10
60.043881
20
116.074715
11
59.578548
21
115.920379
0
LINE
8
Layer 1
10
59.578548
20
115.920379
11
59.572478
21
115.744685
0
LINE
8
Layer 1
10
59.572478
20
115.744685
11
61.522824
21
115.326563
0
LINE
8
Layer 1
10
61.522824
20
115.326563
11
62.778817
21
114.559071
0
LINE
8
Layer 1
10
62.778817
20
114.559071
11
63.236772
21
114.457167
0
LINE
8
Layer 1
10
63.236772
20
114.457167
11
63.600823
21
114.509588
0
LINE
8
Layer 1
10
63.600823
20
114.509588
11
64.105591
21
114.976704
0
LINE
8
Layer 1
10
64.105591
20
114.976704
11
64.409865
21
115.759011
0
LINE
8
Layer 1
10
64.409865
20
115.759011
11
64.883916
21
117.463571
0
LINE
8
Layer 1
10
64.883916
20
117.463571
11
65.287185
21
117.983006
0
LINE
8
Layer 1
10
65.287185
20
117.983006
11
65.581457
21
118.071396
0
LINE
8
Layer 1
10
65.581457
20
118.071396
11
65.956945
21
118.012001
0
LINE
8
Layer 1
10
65.956945
20
118.012001
11
66.730979
21
115.126608
0
LINE
8
Layer 1
10
66.730979
20
115.126608
11
67.049109
21
113.815752
0
LINE
8
Layer 1
10
67.049109
20
113.815752
11
67.460501
21
112.698477
0
LINE
8
Layer 1
10
67.460501
20
112.698477
11
68.069547
21
111.854050
0
LINE
8
Layer 1
10
68.069547
20
111.854050
11
68.980637
21
111.361736
0
LINE
8
Layer 1
10
68.980637
20
111.361736
11
70.298161
21
111.300801
0
LINE
8
Layer 1
10
70.298161
20
111.300801
11
72.126512
21
111.750511
0
LINE
8
Layer 1
10
72.126512
20
111.750511
11
72.126512
21
111.750511
0
LINE
8
Layer 1
10
96.848112
20
113.382778
11
97.338311
21
114.067584
0
LINE
8
Layer 1
10
97.338311
20
114.067584
11
97.619591
21
114.712768
0
LINE
8
Layer 1
10
97.619591
20
114.712768
11
97.718098
21
115.309215
0
LINE
8
Layer 1
10
97.718098
20
115.309215
11
97.659977
21
115.847812
0
LINE
8
Layer 1
10
97.659977
20
115.847812
11
97.178429
21
116.715008
0
LINE
8
Layer 1
10
97.178429
20
116.715008
11
96.384110
21
117.241452
0
LINE
8
Layer 1
10
96.384110
20
117.241452
11
95.486180
21
117.354239
0
LINE
8
Layer 1
10
95.486180
20
117.354239
11
94.693802
21
116.980467
0
LINE
8
Layer 1
10
94.693802
20
116.980467
11
94.402557
21
116.588338
0
LINE
8
Layer 1
10
94.402557
20
116.588338
11
94.216136
21
116.047231
0
LINE
8
Layer 1
10
94.216136
20
116.047231
11
94.160683
21
115.348032
0
LINE
8
Layer 1
10
94.160683
20
115.348032
11
94.262344
21
114.481627
0
LINE
8
Layer 1
10
94.262344
20
114.481627
11
94.266813
21
113.842499
0
LINE
8
Layer 1
10
94.266813
20
113.842499
11
94.427903
21
113.270903
0
LINE
8
Layer 1
10
94.427903
20
113.270903
11
94.712839
21
112.804756
0
LINE
8
Layer 1
10
94.712839
20
112.804756
11
95.088847
21
112.481972
0
LINE
8
Layer 1
10
95.088847
20
112.481972
11
95.523152
21
112.340467
0
LINE
8
Layer 1
10
95.523152
20
112.340467
11
95.982980
21
112.418156
0
LINE
8
Layer 1
10
95.982980
20
112.418156
11
96.435558
21
112.752954
0
LINE
8
Layer 1
10
96.435558
20
112.752954
11
96.848112
21
113.382778
0
LINE
8
Layer 1
10
96.848112
20
113.382778
11
96.848112
21
113.382778
0
LINE
8
Layer 1
10
78.768440
20
112.930787
11
79.321309
21
113.225770
0
LINE
8
Layer 1
10
79.321309
20
113.225770
11
79.637289
21
113.610522
0
LINE
8
Layer 1
10
79.637289
20
113.610522
11
79.747562
21
114.060731
0
LINE
8
Layer 1
10
79.747562
20
114.060731
11
79.683311
21
114.552090
0
LINE
8
Layer 1
10
79.683311
20
114.552090
11
79.155963
21
115.561021
0
LINE
8
Layer 1
10
79.155963
20
115.561021
11
78.304702
21
116.442842
0
LINE
8
Layer 1
10
78.304702
20
116.442842
11
77.378986
21
117.003081
0
LINE
8
Layer 1
10
77.378986
20
117.003081
11
76.966164
21
117.101835
0
LINE
8
Layer 1
10
76.966164
20
117.101835
11
76.628274
21
117.047267
0
LINE
8
Layer 1
10
76.628274
20
117.047267
11
76.396499
21
116.815067
0
LINE
8
Layer 1
10
76.396499
20
116.815067
11
76.302021
21
116.380927
0
LINE
8
Layer 1
10
76.302021
20
116.380927
11
76.649687
21
114.809591
0
LINE
8
Layer 1
10
76.649687
20
114.809591
11
76.808000
21
113.835655
0
LINE
8
Layer 1
10
76.808000
20
113.835655
11
77.157671
21
113.008991
0
LINE
8
Layer 1
10
77.157671
20
113.008991
11
77.430621
21
112.739426
0
LINE
8
Layer 1
10
77.430621
20
112.739426
11
77.783037
21
112.612926
0
LINE
8
Layer 1
10
77.783037
20
112.612926
11
78.225463
21
112.664908
0
LINE
8
Layer 1
10
78.225463
20
112.664908
11
78.768440
21
112.930787
0
LINE
8
Layer 1
10
78.768440
20
112.930787
11
78.768440
21
112.930787
0
LINE
8
Layer 1
10
73.020151
20
117.702536
11
72.669607
21
117.908198
0
LINE
8
Layer 1
10
72.669607
20
117.908198
11
72.549723
21
117.840752
0
LINE
8
Layer 1
10
72.549723
20
117.840752
11
72.740926
21
117.315231
0
LINE
8
Layer 1
10
72.740926
20
117.315231
11
73.071742
21
116.983363
0
LINE
8
Layer 1
10
73.071742
20
116.983363
11
73.126373
21
117.157982
0
LINE
8
Layer 1
10
73.126373
20
117.157982
11
73.020151
21
117.702536
0
LINE
8
Layer 1
10
73.020151
20
117.702536
11
73.020151
21
117.702536
0
LINE
8
Layer 1
10
89.538875
20
117.591558
11
88.646272
21
118.160857
0
LINE
8
Layer 1
10
88.646272
20
118.160857
11
87.848977
21
118.309806
0
LINE
8
Layer 1
10
87.848977
20
118.309806
11
87.226850
21
118.167252
0
LINE
8
Layer 1
10
87.226850
20
118.167252
11
86.859753
21
117.862041
0
LINE
8
Layer 1
10
86.859753
20
117.862041
11
86.827545
21
117.523020
0
LINE
8
Layer 1
10
86.827545
20
117.523020
11
87.210089
21
117.279035
0
LINE
8
Layer 1
10
87.210089
20
117.279035
11
88.087246
21
117.258932
0
LINE
8
Layer 1
10
88.087246
20
117.258932
11
89.538875
21
117.591558
0
LINE
8
Layer 1
10
89.538875
20
117.591558
11
89.538875
21
117.591558
0
LINE
8
Layer 1
10
35.949605
20
122.921652
11
35.458635
21
122.660588
0
LINE
8
Layer 1
10
35.458635
20
122.660588
11
35.207721
21
122.081307
0
LINE
8
Layer 1
10
35.207721
20
122.081307
11
35.144053
21
121.368230
0
LINE
8
Layer 1
10
35.144053
20
121.368230
11
35.214819
21
120.705780
0
LINE
8
Layer 1
10
35.214819
20
120.705780
11
35.367210
21
120.278379
0
LINE
8
Layer 1
10
35.367210
20
120.278379
11
35.548415
21
120.270449
0
LINE
8
Layer 1
10
35.548415
20
120.270449
11
35.705623
21
120.866411
0
LINE
8
Layer 1
10
35.705623
20
120.866411
11
35.786023
21
122.250688
0
LINE
8
Layer 1
10
35.786023
20
122.250688
11
35.949605
21
122.921652
0
LINE
8
Layer 1
10
35.949605
20
122.921652
11
35.949605
21
122.921652
0
LINE
8
Layer 1
10
35.949605
20
122.921652
11
35.949605
21
122.921652
0
LINE
8
Layer 1
10
36.773355
20
20.955000
11
35.796786
21
22.425980
0
LINE
8
Layer 1
10
35.796786
20
22.425980
11
35.770246
21
22.682638
0
LINE
8
Layer 1
10
35.770246
20
22.682638
11
35.957373
21
22.659381
0
LINE
8
Layer 1
10
35.957373
20
22.659381
11
36.690143
21
21.891044
0
LINE
8
Layer 1
10
36.690143
20
21.891044
11
37.430123
21
20.356816
0
LINE
8
Layer 1
10
37.430123
20
20.356816
11
36.773352
21
20.955000
0
LINE
8
Layer 1
10
36.773352
20
20.955000
11
36.773355
21
20.955000
0
LINE
8
Layer 1
10
36.773355
20
20.955000
11
36.773355
21
20.955000
0
LINE
8
Layer 1
10
26.525782
20
23.306854
11
26.741827
21
24.680935
0
LINE
8
Layer 1
10
26.741827
20
24.680935
11
26.715484
21
25.855838
0
LINE
8
Layer 1
10
26.715484
20
25.855838
11
26.457484
21
26.799421
0
LINE
8
Layer 1
10
26.457484
20
26.799421
11
25.978559
21
27.479544
0
LINE
8
Layer 1
10
25.978559
20
27.479544
11
25.289440
21
27.864065
0
LINE
8
Layer 1
10
25.289440
20
27.864065
11
24.400859
21
27.920846
0
LINE
8
Layer 1
10
24.400859
20
27.920846
11
23.323548
21
27.617744
0
LINE
8
Layer 1
10
23.323548
20
27.617744
11
22.068237
21
26.922620
0
LINE
8
Layer 1
10
22.068237
20
26.922620
11
20.188219
21
26.384473
0
LINE
8
Layer 1
10
20.188219
20
26.384473
11
18.313197
21
26.161960
0
LINE
8
Layer 1
10
18.313197
20
26.161960
11
16.518941
21
26.277628
0
LINE
8
Layer 1
10
16.518941
20
26.277628
11
14.881219
21
26.754024
0
LINE
8
Layer 1
10
14.881219
20
26.754024
11
13.475799
21
27.613692
0
LINE
8
Layer 1
10
13.475799
20
27.613692
11
12.378451
21
28.879181
0
LINE
8
Layer 1
10
12.378451
20
28.879181
11
11.664944
21
30.573035
0
LINE
8
Layer 1
10
11.664944
20
30.573035
11
11.411045
21
32.717802
0
LINE
8
Layer 1
10
11.411045
20
32.717802
11
11.089743
21
34.974175
0
LINE
8
Layer 1
10
11.089743
20
34.974175
11
11.089862
21
38.121675
0
LINE
8
Layer 1
10
11.089862
20
38.121675
11
11.434621
21
40.653621
0
LINE
8
Layer 1
10
11.434621
20
40.653621
11
11.743496
21
41.217924
0
LINE
8
Layer 1
10
11.743496
20
41.217924
11
11.933328
21
41.242261
0
LINE
8
Layer 1
10
11.933328
20
41.242261
11
12.147239
21
41.063333
0
LINE
8
Layer 1
10
12.147239
20
41.063333
11
11.936188
21
37.914580
0
LINE
8
Layer 1
10
11.936188
20
37.914580
11
11.847462
21
34.468500
0
LINE
8
Layer 1
10
11.847462
20
34.468500
11
11.991825
21
32.720470
0
LINE
8
Layer 1
10
11.991825
20
32.720470
11
12.338193
21
31.001917
0
LINE
8
Layer 1
10
12.338193
20
31.001917
11
12.943708
21
29.347443
0
LINE
8
Layer 1
10
12.943708
20
29.347443
11
13.865512
21
27.791653
0
LINE
8
Layer 1
10
13.865512
20
27.791653
11
15.396318
21
27.039258
0
LINE
8
Layer 1
10
15.396318
20
27.039258
11
16.990436
21
26.779167
0
LINE
8
Layer 1
10
16.990436
20
26.779167
11
18.627775
21
26.893080
0
LINE
8
Layer 1
10
18.627775
20
26.893080
11
20.288243
21
27.262698
0
LINE
8
Layer 1
10
20.288243
20
27.262698
11
23.598209
21
28.295854
0
LINE
8
Layer 1
10
23.598209
20
28.295854
11
25.207525
21
28.722794
0
LINE
8
Layer 1
10
25.207525
20
28.722794
11
26.759609
21
28.932243
0
LINE
8
Layer 1
10
26.759609
20
28.932243
11
26.857354
21
26.581276
0
LINE
8
Layer 1
10
26.857354
20
26.581276
11
26.804348
21
23.212049
0
LINE
8
Layer 1
10
26.804348
20
23.212049
11
26.670516
21
21.296572
0
LINE
8
Layer 1
10
26.670516
20
21.296572
11
26.595141
21
21.656492
0
LINE
8
Layer 1
10
26.595141
20
21.656492
11
26.525782
21
23.306854
0
LINE
8
Layer 1
10
26.525782
20
23.306854
11
26.525782
21
23.306854
0
LINE
8
Layer 1
10
59.269706
20
23.279664
11
59.113904
21
24.304903
0
LINE
8
Layer 1
10
59.113904
20
24.304903
11
59.165675
21
24.764235
0
LINE
8
Layer 1
10
59.165675
20
24.764235
11
59.343491
21
24.794149
0
LINE
8
Layer 1
10
59.343491
20
24.794149
11
59.565822
21
24.531138
0
LINE
8
Layer 1
10
59.565822
20
24.531138
11
59.817910
21
23.672305
0
LINE
8
Layer 1
10
59.817910
20
23.672305
11
59.684610
21
23.349465
0
LINE
8
Layer 1
10
59.684610
20
23.349465
11
59.269706
21
23.279664
0
LINE
8
Layer 1
10
59.269706
20
23.279664
11
59.269706
21
23.279664
0
LINE
8
Layer 1
10
69.747322
20
24.862925
11
69.576090
21
25.473046
0
LINE
8
Layer 1
10
69.576090
20
25.473046
11
69.561163
21
26.029497
0
LINE
8
Layer 1
10
69.561163
20
26.029497
11
69.894516
21
26.975127
0
LINE
8
Layer 1
10
69.894516
20
26.975127
11
70.535969
21
27.687277
0
LINE
8
Layer 1
10
70.535969
20
27.687277
11
71.274112
21
28.153412
0
LINE
8
Layer 1
10
71.274112
20
28.153412
11
71.897532
21
28.360994
0
LINE
8
Layer 1
10
71.897532
20
28.360994
11
72.194818
21
28.297487
0
LINE
8
Layer 1
10
72.194818
20
28.297487
11
71.954560
21
27.950354
0
LINE
8
Layer 1
10
71.954560
20
27.950354
11
70.965345
21
27.307057
0
LINE
8
Layer 1
10
70.965345
20
27.307057
11
70.558676
21
26.245400
0
LINE
8
Layer 1
10
70.558676
20
26.245400
11
70.156520
21
24.578492
0
LINE
8
Layer 1
10
70.156520
20
24.578492
11
69.854270
21
23.664834
0
LINE
8
Layer 1
10
69.854270
20
23.664834
11
69.747322
21
24.862925
0
LINE
8
Layer 1
10
69.747322
20
24.862925
11
69.747322
21
24.862925
0
LINE
8
Layer 1
10
33.563083
20
25.047222
11
32.997494
21
25.682799
0
LINE
8
Layer 1
10
32.997494
20
25.682799
11
32.959570
21
25.769205
0
LINE
8
Layer 1
10
32.959570
20
25.769205
11
33.734581
21
25.029658
0
LINE
8
Layer 1
10
33.734581
20
25.029658
11
34.423843
21
24.298894
0
LINE
8
Layer 1
10
34.423843
20
24.298894
11
33.563083
21
25.047222
0
LINE
8
Layer 1
10
33.563083
20
25.047222
11
33.563083
21
25.047222
0
LINE
8
Layer 1
10
61.383333
20
24.553333
11
62.082208
21
24.870840
0
LINE
8
Layer 1
10
62.082208
20
24.870840
11
62.181507
21
24.768078
0
LINE
8
Layer 1
10
62.181507
20
24.768078
11
62.154271
21
24.588114
0
LINE
8
Layer 1
10
62.154271
20
24.588114
11
61.840865
21
24.287999
0
LINE
8
Layer 1
10
61.840865
20
24.287999
11
61.615031
21
24.313557
0
LINE
8
Layer 1
10
61.615031
20
24.313557
11
61.383333
21
24.553333
0
LINE
8
Layer 1
10
61.383333
20
24.553333
11
61.383333
21
24.553333
0
LINE
8
Layer 1
10
65.052222
20
24.553333
11
65.202772
21
24.856276
0
LINE
8
Layer 1
10
65.202772
20
24.856276
11
65.397825
21
24.584930
0
LINE
8
Layer 1
10
65.397825
20
24.584930
11
65.420077
21
24.297785
0
LINE
8
Layer 1
10
65.420077
20
24.297785
11
65.052222
21
24.553333
0
LINE
8
Layer 1
10
65.052222
20
24.553333
11
65.052222
21
24.553333
0
LINE
8
Layer 1
10
66.486744
20
25.079898
11
66.526748
21
25.863502
0
LINE
8
Layer 1
10
66.526748
20
25.863502
11
66.754192
21
25.504569
0
LINE
8
Layer 1
10
66.754192
20
25.504569
11
66.847911
21
24.933300
0
LINE
8
Layer 1
10
66.847911
20
24.933300
11
66.744261
21
24.858728
0
LINE
8
Layer 1
10
66.744261
20
24.858728
11
66.486744
21
25.079898
0
LINE
8
Layer 1
10
66.486744
20
25.079898
11
66.486744
21
25.079898
0
LINE
8
Layer 1
10
62.653333
20
25.647667
11
63.230168
21
26.443276
0
LINE
8
Layer 1
10
63.230168
20
26.443276
11
63.284747
21
26.102686
0
LINE
8
Layer 1
10
63.284747
20
26.102686
11
63.023619
21
25.534586
0
LINE
8
Layer 1
10
63.023619
20
25.534586
11
62.839212
21
25.449186
0
LINE
8
Layer 1
10
62.839212
20
25.449186
11
62.653333
21
25.647667
0
LINE
8
Layer 1
10
62.653333
20
25.647667
11
62.653333
21
25.647667
0
LINE
8
Layer 1
10
64.490625
20
26.242066
11
64.555319
21
26.883077
0
LINE
8
Layer 1
10
64.555319
20
26.883077
11
64.715673
21
27.139504
0
LINE
8
Layer 1
10
64.715673
20
27.139504
11
64.914615
21
27.112064
0
LINE
8
Layer 1
10
64.914615
20
27.112064
11
65.095073
21
26.901479
0
LINE
8
Layer 1
10
65.095073
20
26.901479
11
65.172250
21
26.333748
0
LINE
8
Layer 1
10
65.172250
20
26.333748
11
64.954824
21
26.178041
0
LINE
8
Layer 1
10
64.954824
20
26.178041
11
64.490625
21
26.242066
0
LINE
8
Layer 1
10
64.490625
20
26.242066
11
64.490625
21
26.242066
0
LINE
8
Layer 1
10
66.760765
20
26.222060
11
66.903418
21
26.729200
0
LINE
8
Layer 1
10
66.903418
20
26.729200
11
66.845233
21
27.149979
0
LINE
8
Layer 1
10
66.845233
20
27.149979
11
66.502476
21
27.744678
0
LINE
8
Layer 1
10
66.502476
20
27.744678
11
66.405966
21
27.924710
0
LINE
8
Layer 1
10
66.405966
20
27.924710
11
66.484741
21
28.030604
0
LINE
8
Layer 1
10
66.484741
20
28.030604
11
67.544273
21
28.032202
0
LINE
8
Layer 1
10
67.544273
20
28.032202
11
67.369675
21
26.722893
0
LINE
8
Layer 1
10
67.369675
20
26.722893
11
67.151707
21
26.141918
0
LINE
8
Layer 1
10
67.151707
20
26.141918
11
66.981883
21
26.070662
0
LINE
8
Layer 1
10
66.981883
20
26.070662
11
66.760765
21
26.222060
0
LINE
8
Layer 1
10
66.760765
20
26.222060
11
66.760765
21
26.222060
0
LINE
8
Layer 1
10
31.629373
20
27.272505
11
31.069654
21
28.375422
0
LINE
8
Layer 1
10
31.069654
20
28.375422
11
31.682458
21
27.677209
0
LINE
8
Layer 1
10
31.682458
20
27.677209
11
32.268719
21
26.776645
0
LINE
8
Layer 1
10
32.268719
20
26.776645
11
32.177188
21
26.750098
0
LINE
8
Layer 1
10
32.177188
20
26.750098
11
31.629373
21
27.272505
0
LINE
8
Layer 1
10
31.629373
20
27.272505
11
31.629373
21
27.272505
0
LINE
8
Layer 1
10
34.017687
20
27.258930
11
33.780362
21
28.145414
0
LINE
8
Layer 1
10
33.780362
20
28.145414
11
33.821210
21
28.346278
0
LINE
8
Layer 1
10
33.821210
20
28.346278
11
34.316689
21
27.555825
0
LINE
8
Layer 1
10
34.316689
20
27.555825
11
34.662667
21
26.616925
0
LINE
8
Layer 1
10
34.662667
20
26.616925
11
34.516638
21
26.632230
0
LINE
8
Layer 1
10
34.516638
20
26.632230
11
34.017687
21
27.258930
0
LINE
8
Layer 1
10
34.017687
20
27.258930
11
34.017687
21
27.258930
0
LINE
8
Layer 1
10
62.935556
20
27.322337
11
63.406553
21
28.210631
0
LINE
8
Layer 1
10
63.406553
20
28.210631
11
63.770774
21
28.577637
0
LINE
8
Layer 1
10
63.770774
20
28.577637
11
64.014322
21
28.557102
0
LINE
8
Layer 1
10
64.014322
20
28.557102
11
64.123300
21
28.282768
0
LINE
8
Layer 1
10
64.123300
20
28.282768
11
64.083809
21
27.888381
0
LINE
8
Layer 1
10
64.083809
20
27.888381
11
63.881953
21
27.507684
0
LINE
8
Layer 1
10
63.881953
20
27.507684
11
63.503834
21
27.274422
0
LINE
8
Layer 1
10
63.503834
20
27.274422
11
62.935556
21
27.322340
0
LINE
8
Layer 1
10
62.935556
20
27.322340
11
62.935556
21
27.322337
0
LINE
8
Layer 1
10
62.935556
20
27.322337
11
62.935556
21
27.322337
0
LINE
8
Layer 1
10
73.518889
20
27.657778
11
73.565029
21
27.921515
0
LINE
8
Layer 1
10
73.565029
20
27.921515
11
73.690402
21
27.953794
0
LINE
8
Layer 1
10
73.690402
20
27.953794
11
73.994014
21
27.636185
0
LINE
8
Layer 1
10
73.994014
20
27.636185
11
74.060063
21
27.329372
0
LINE
8
Layer 1
10
74.060063
20
27.329372
11
73.518889
21
27.657778
0
LINE
8
Layer 1
10
73.518889
20
27.657778
11
73.518889
21
27.657778
0
LINE
8
Layer 1
10
65.324093
20
28.645556
11
66.005371
21
30.595423
0
LINE
8
Layer 1
10
66.005371
20
30.595423
11
65.881982
21
29.359087
0
LINE
8
Layer 1
10
65.881982
20
29.359087
11
65.479649
21
27.765985
0
LINE
8
Layer 1
10
65.479649
20
27.765985
11
65.397089
21
27.643540
0
LINE
8
Layer 1
10
65.397089
20
27.643540
11
65.338166
21
27.719846
0
LINE
8
Layer 1
10
65.338166
20
27.719846
11
65.324093
21
28.645556
0
LINE
8
Layer 1
10
65.324093
20
28.645556
11
65.324093
21
28.645556
0
LINE
8
Layer 1
10
58.702222
20
29.351111
11
58.560869
21
29.639624
0
LINE
8
Layer 1
10
58.560869
20
29.639624
11
58.661680
21
29.697476
0
LINE
8
Layer 1
10
58.661680
20
29.697476
11
59.186240
21
29.417655
0
LINE
8
Layer 1
10
59.186240
20
29.417655
11
59.468792
21
29.104562
0
LINE
8
Layer 1
10
59.468792
20
29.104562
11
58.702222
21
29.351111
0
LINE
8
Layer 1
10
58.702222
20
29.351111
11
58.702222
21
29.351111
0
LINE
8
Layer 1
10
63.782222
20
29.633333
11
64.549985
21
29.868187
0
LINE
8
Layer 1
10
64.549985
20
29.868187
11
64.293227
21
29.586174
0
LINE
8
Layer 1
10
64.293227
20
29.586174
11
63.780966
21
29.327740
0
LINE
8
Layer 1
10
63.780966
20
29.327740
11
63.669341
21
29.376256
0
LINE
8
Layer 1
10
63.669341
20
29.376256
11
63.782222
21
29.633333
0
LINE
8
Layer 1
10
63.782222
20
29.633333
11
63.782222
21
29.633333
0
LINE
8
Layer 1
10
34.148889
20
30.762222
11
33.775625
21
31.443446
0
LINE
8
Layer 1
10
33.775625
20
31.443446
11
33.802298
21
31.549033
0
LINE
8
Layer 1
10
33.802298
20
31.549033
11
34.468877
21
30.795298
0
LINE
8
Layer 1
10
34.468877
20
30.795298
11
34.975462
21
30.025026
0
LINE
8
Layer 1
10
34.975462
20
30.025026
11
34.148889
21
30.762222
0
LINE
8
Layer 1
10
34.148889
20
30.762222
11
34.148889
21
30.762222
0
LINE
8
Layer 1
10
33.302222
20
30.480000
11
33.569543
21
30.719955
0
LINE
8
Layer 1
10
33.569543
20
30.719955
11
33.699073
21
30.450972
0
LINE
8
Layer 1
10
33.699073
20
30.450972
11
33.630177
21
30.196503
0
LINE
8
Layer 1
10
33.630177
20
30.196503
11
33.302222
21
30.480000
0
LINE
8
Layer 1
10
33.302222
20
30.480000
11
33.302222
21
30.480000
0
LINE
8
Layer 1
10
21.325923
20
30.961719
11
21.364199
21
31.262743
0
LINE
8
Layer 1
10
21.364199
20
31.262743
11
21.563464
21
30.928632
0
LINE
8
Layer 1
10
21.563464
20
30.928632
11
21.643958
21
30.611065
0
LINE
8
Layer 1
10
21.643958
20
30.611065
11
21.325923
21
30.961719
0
LINE
8
Layer 1
10
21.325923
20
30.961719
11
21.325923
21
30.961719
0
LINE
8
Layer 1
10
65.234047
20
31.397222
11
66.196894
21
32.282484
0
LINE
8
Layer 1
10
66.196894
20
32.282484
11
65.767405
21
31.561614
0
LINE
8
Layer 1
10
65.767405
20
31.561614
11
65.071238
21
30.758548
0
LINE
8
Layer 1
10
65.071238
20
30.758548
11
64.974917
21
30.802422
0
LINE
8
Layer 1
10
64.974917
20
30.802422
11
65.234047
21
31.397222
0
LINE
8
Layer 1
10
65.234047
20
31.397222
11
65.234047
21
31.397222
0
LINE
8
Layer 1
10
19.367089
20
31.760914
11
19.255681
21
32.423317
0
LINE
8
Layer 1
10
19.255681
20
32.423317
11
19.465597
21
32.031219
0
LINE
8
Layer 1
10
19.465597
20
32.031219
11
19.626258
21
31.503968
0
LINE
8
Layer 1
10
19.626258
20
31.503968
11
19.367089
21
31.760914
0
LINE
8
Layer 1
10
19.367089
20
31.760914
11
19.367089
21
31.760914
0
LINE
8
Layer 1
10
29.749002
20
31.797086
11
29.299599
21
33.034029
0
LINE
8
Layer 1
10
29.299599
20
33.034029
11
29.256957
21
33.633420
0
LINE
8
Layer 1
10
29.256957
20
33.633420
11
29.485720
21
33.731378
0
LINE
8
Layer 1
10
29.485720
20
33.731378
11
29.850534
21
33.464022
0
LINE
8
Layer 1
10
29.850534
20
33.464022
11
30.216041
21
32.967469
0
LINE
8
Layer 1
10
30.216041
20
32.967469
11
30.446889
21
32.377839
0
LINE
8
Layer 1
10
30.446889
20
32.377839
11
30.407720
21
31.831249
0
LINE
8
Layer 1
10
30.407720
20
31.831249
11
29.963181
21
31.463818
0
LINE
8
Layer 1
10
29.963181
20
31.463818
11
29.749002
21
31.797086
0
LINE
8
Layer 1
10
29.749002
20
31.797086
11
29.749002
21
31.797086
0
LINE
8
Layer 1
10
29.749002
20
31.797086
11
29.749002
21
31.797086
0
LINE
8
Layer 1
10
31.197609
20
31.871612
11
31.259884
21
32.210040
0
LINE
8
Layer 1
10
31.259884
20
32.210040
11
31.373453
21
32.292987
0
LINE
8
Layer 1
10
31.373453
20
32.292987
11
31.616297
21
32.010014
0
LINE
8
Layer 1
10
31.616297
20
32.010014
11
31.649797
21
31.657840
0
LINE
8
Layer 1
10
31.649797
20
31.657840
11
31.501685
21
31.654286
0
LINE
8
Layer 1
10
31.501685
20
31.654286
11
31.197609
21
31.871612
0
LINE
8
Layer 1
10
31.197609
20
31.871612
11
31.197609
21
31.871612
0
LINE
8
Layer 1
10
62.754253
20
32.346293
11
62.716395
21
32.654269
0
LINE
8
Layer 1
10
62.716395
20
32.654269
11
62.909655
21
32.792040
0
LINE
8
Layer 1
10
62.909655
20
32.792040
11
63.548928
21
32.721394
0
LINE
8
Layer 1
10
63.548928
20
32.721394
11
63.774639
21
32.595187
0
LINE
8
Layer 1
10
63.774639
20
32.595187
11
63.790864
21
32.463198
0
LINE
8
Layer 1
10
63.790864
20
32.463198
11
62.754253
21
32.346293
0
LINE
8
Layer 1
10
62.754253
20
32.346293
11
62.754253
21
32.346293
0
LINE
8
Layer 1
10
67.328144
20
32.820503
11
67.727752
21
33.231949
0
LINE
8
Layer 1
10
67.727752
20
33.231949
11
67.593985
21
32.863485
0
LINE
8
Layer 1
10
67.593985
20
32.863485
11
67.327297
21
32.473530
0
LINE
8
Layer 1
10
67.327297
20
32.473530
11
67.328144
21
32.820503
0
LINE
8
Layer 1
10
67.328144
20
32.820503
11
67.328144
21
32.820503
0
LINE
8
Layer 1
10
66.604444
20
33.144454
11
67.014079
21
33.527272
0
LINE
8
Layer 1
10
67.014079
20
33.527272
11
67.162878
21
33.336420
0
LINE
8
Layer 1
10
67.162878
20
33.336420
11
67.032461
21
33.049586
0
LINE
8
Layer 1
10
67.032461
20
33.049586
11
66.856801
21
33.019452
0
LINE
8
Layer 1
10
66.856801
20
33.019452
11
66.604444
21
33.144454
0
LINE
8
Layer 1
10
66.604444
20
33.144454
11
66.604444
21
33.144454
0
LINE
8
Layer 1
10
13.920434
20
35.625955
11
13.060710
21
36.923411
0
LINE
8
Layer 1
10
13.060710
20
36.923411
11
12.875643
21
37.501941
0
LINE
8
Layer 1
10
12.875643
20
37.501941
11
13.150722
21
37.535658
0
LINE
8
Layer 1
10
13.150722
20
37.535658
11
13.671435
21
37.198674
0
LINE
8
Layer 1
10
13.671435
20
37.198674
11
14.223274
21
36.665099
0
LINE
8
Layer 1
10
14.223274
20
36.665099
11
14.591727
21
36.109047
0
LINE
8
Layer 1
10
14.591727
20
36.109047
11
14.562283
21
35.704628
0
LINE
8
Layer 1
10
14.562283
20
35.704628
11
13.920434
21
35.625955
0
LINE
8
Layer 1
10
13.920434
20
35.625955
11
13.920434
21
35.625955
0
LINE
8
Layer 1
10
21.448889
20
37.535556
11
21.345643
21
38.095830
0
LINE
8
Layer 1
10
21.345643
20
38.095830
11
21.692574
21
37.527257
0
LINE
8
Layer 1
10
21.692574
20
37.527257
11
21.917661
21
36.962834
0
LINE
8
Layer 1
10
21.917661
20
36.962834
11
21.448889
21
37.535556
0
LINE
8
Layer 1
10
21.448889
20
37.535556
11
21.448889
21
37.535556
0
LINE
8
Layer 1
10
76.790815
20
38.100000
11
77.062682
21
39.685798
0
LINE
8
Layer 1
10
77.062682
20
39.685798
11
77.530402
21
41.045014
0
LINE
8
Layer 1
10
77.530402
20
41.045014
11
77.713837
21
41.355818
0
LINE
8
Layer 1
10
77.713837
20
41.355818
11
77.797589
21
41.269372
0
LINE
8
Layer 1
10
77.797589
20
41.269372
11
77.467855
21
39.450591
0
LINE
8
Layer 1
10
77.467855
20
39.450591
11
77.414511
21
39.302725
0
LINE
8
Layer 1
10
77.414511
20
39.302725
11
77.234532
21
38.703237
0
LINE
8
Layer 1
10
77.234532
20
38.703237
11
77.001955
21
38.139779
0
LINE
8
Layer 1
10
77.001955
20
38.139779
11
76.889078
21
38.023951
0
LINE
8
Layer 1
10
76.889078
20
38.023951
11
76.790815
21
38.100000
0
LINE
8
Layer 1
10
76.790815
20
38.100000
11
76.790815
21
38.100000
0
LINE
8
Layer 1
10
14.675556
20
38.523333
11
14.797154
21
38.849980
0
LINE
8
Layer 1
10
14.797154
20
38.849980
11
14.899308
21
38.890470
0
LINE
8
Layer 1
10
14.899308
20
38.890470
11
15.014685
21
38.498638
0
LINE
8
Layer 1
10
15.014685
20
38.498638
11
14.960497
21
38.119154
0
LINE
8
Layer 1
10
14.960497
20
38.119154
11
14.675556
21
38.523333
0
LINE
8
Layer 1
10
14.675556
20
38.523333
11
14.675556
21
38.523333
0
LINE
8
Layer 1
10
47.055473
20
42.215881
11
44.539112
21
42.661561
0
LINE
8
Layer 1
10
44.539112
20
42.661561
11
42.834893
21
43.069594
0
LINE
8
Layer 1
10
42.834893
20
43.069594
11
42.163029
21
43.466745
0
LINE
8
Layer 1
10
42.163029
20
43.466745
11
41.545034
21
44.103189
0
LINE
8
Layer 1
10
41.545034
20
44.103189
11
40.931183
21
45.061825
0
LINE
8
Layer 1
10
40.931183
20
45.061825
11
40.271754
21
46.425556
0
LINE
8
Layer 1
10
40.271754
20
46.425556
11
40.962602
21
45.664821
0
LINE
8
Layer 1
10
40.962602
20
45.664821
11
41.953978
21
44.932213
0
LINE
8
Layer 1
10
41.953978
20
44.932213
11
44.048862
21
43.792101
0
LINE
8
Layer 1
10
44.048862
20
43.792101
11
44.757646
21
43.504959
0
LINE
8
Layer 1
10
44.757646
20
43.504959
11
44.977506
21
43.486669
0
LINE
8
Layer 1
10
44.977506
20
43.486669
11
43.161009
21
44.497368
0
LINE
8
Layer 1
10
43.161009
20
44.497368
11
42.072113
21
45.444364
0
LINE
8
Layer 1
10
42.072113
20
45.444364
11
41.931132
21
45.709500
0
LINE
8
Layer 1
10
41.931132
20
45.709500
11
43.507837
21
45.034059
0
LINE
8
Layer 1
10
43.507837
20
45.034059
11
44.732982
21
44.513417
0
LINE
8
Layer 1
10
44.732982
20
44.513417
11
45.920962
21
44.150782
0
LINE
8
Layer 1
10
45.920962
20
44.150782
11
46.825507
21
44.156121
0
LINE
8
Layer 1
10
46.825507
20
44.156121
11
47.094531
21
44.362396
0
LINE
8
Layer 1
10
47.094531
20
44.362396
11
47.200346
21
44.739402
0
LINE
8
Layer 1
10
47.200346
20
44.739402
11
47.875002
21
44.650418
0
LINE
8
Layer 1
10
47.875002
20
44.650418
11
48.170818
21
44.478744
0
LINE
8
Layer 1
10
48.170818
20
44.478744
11
48.203933
21
43.989789
0
LINE
8
Layer 1
10
48.203933
20
43.989789
11
48.230234
21
43.723737
0
LINE
8
Layer 1
10
48.230234
20
43.723737
11
48.455699
21
43.477457
0
LINE
8
Layer 1
10
48.455699
20
43.477457
11
49.024828
21
43.276563
0
LINE
8
Layer 1
10
49.024828
20
43.276563
11
50.082123
21
43.146670
0
LINE
8
Layer 1
10
50.082123
20
43.146670
11
50.444387
21
42.467194
0
LINE
8
Layer 1
10
50.444387
20
42.467194
11
50.403218
21
42.056996
0
LINE
8
Layer 1
10
50.403218
20
42.056996
11
50.054532
21
41.861885
0
LINE
8
Layer 1
10
50.054532
20
41.861885
11
49.494248
21
41.827667
0
LINE
8
Layer 1
10
49.494248
20
41.827667
11
47.055473
21
42.215881
0
LINE
8
Layer 1
10
47.055473
20
42.215881
11
47.055473
21
42.215881
0
LINE
8
Layer 1
10
49.030740
20
42.811133
11
48.070356
21
42.848603
0
LINE
8
Layer 1
10
48.070356
20
42.848603
11
48.277245
21
42.728730
0
LINE
8
Layer 1
10
48.277245
20
42.728730
11
48.860882
21
42.650058
0
LINE
8
Layer 1
10
48.860882
20
42.650058
11
49.046941
21
42.688218
0
LINE
8
Layer 1
10
49.046941
20
42.688218
11
49.030740
21
42.811133
0
LINE
8
Layer 1
10
49.030740
20
42.811133
11
49.030740
21
42.811133
0
LINE
8
Layer 1
10
14.159079
20
42.756667
11
14.458267
21
44.133079
0
LINE
8
Layer 1
10
14.458267
20
44.133079
11
14.520841
21
44.094483
0
LINE
8
Layer 1
10
14.520841
20
44.094483
11
14.531920
21
43.775460
0
LINE
8
Layer 1
10
14.531920
20
43.775460
11
14.419152
21
42.908444
0
LINE
8
Layer 1
10
14.419152
20
42.908444
11
14.305084
21
42.666611
0
LINE
8
Layer 1
10
14.305084
20
42.666611
11
14.159079
21
42.756667
0
LINE
8
Layer 1
10
14.159079
20
42.756667
11
14.159079
21
42.756667
0
LINE
8
Layer 1
10
18.344444
20
45.968909
11
18.779318
21
46.552535
0
LINE
8
Layer 1
10
18.779318
20
46.552535
11
18.882971
21
46.299684
0
LINE
8
Layer 1
10
18.882971
20
46.299684
11
18.717361
21
45.881446
0
LINE
8
Layer 1
10
18.717361
20
45.881446
11
18.552944
21
45.820022
0
LINE
8
Layer 1
10
18.552944
20
45.820022
11
18.344444
21
45.968909
0
LINE
8
Layer 1
10
18.344444
20
45.968909
11
18.344444
21
45.968909
0
LINE
8
Layer 1
10
62.729768
20
49.841618
11
63.345434
21
49.963263
0
LINE
8
Layer 1
10
63.345434
20
49.963263
11
63.327450
21
49.804588
0
LINE
8
Layer 1
10
63.327450
20
49.804588
11
63.010625
21
49.664428
0
LINE
8
Layer 1
10
63.010625
20
49.664428
11
62.729768
21
49.841618
0
LINE
8
Layer 1
10
62.729768
20
49.841618
11
62.729768
21
49.841618
0
LINE
8
Layer 1
10
62.371111
20
50.490165
11
63.279898
21
51.145343
0
LINE
8
Layer 1
10
63.279898
20
51.145343
11
63.827912
21
51.380120
0
LINE
8
Layer 1
10
63.827912
20
51.380120
11
64.065713
21
51.311100
0
LINE
8
Layer 1
10
64.065713
20
51.311100
11
64.043861
21
51.054885
0
LINE
8
Layer 1
10
64.043861
20
51.054885
11
63.812915
21
50.728081
0
LINE
8
Layer 1
10
63.812915
20
50.728081
11
63.423435
21
50.447291
0
LINE
8
Layer 1
10
63.423435
20
50.447291
11
62.925981
21
50.329117
0
LINE
8
Layer 1
10
62.925981
20
50.329117
11
62.371111
21
50.490165
0
LINE
8
Layer 1
10
62.371111
20
50.490165
11
62.371111
21
50.490165
0
LINE
8
Layer 1
10
50.235556
20
50.795253
11
47.903332
21
51.620256
0
LINE
8
Layer 1
10
47.903332
20
51.620256
11
45.733100
21
52.748094
0
LINE
8
Layer 1
10
45.733100
20
52.748094
11
43.701813
21
54.122906
0
LINE
8
Layer 1
10
43.701813
20
54.122906
11
41.786425
21
55.688829
0
LINE
8
Layer 1
10
41.786425
20
55.688829
11
38.211168
21
59.170566
0
LINE
8
Layer 1
10
38.211168
20
59.170566
11
34.822963
21
62.746413
0
LINE
8
Layer 1
10
34.822963
20
62.746413
11
33.755468
21
64.359397
0
LINE
8
Layer 1
10
33.755468
20
64.359397
11
33.026905
21
66.094596
0
LINE
8
Layer 1
10
33.026905
20
66.094596
11
32.588461
21
67.922825
0
LINE
8
Layer 1
10
32.588461
20
67.922825
11
32.391321
21
69.814899
0
LINE
8
Layer 1
10
32.391321
20
69.814899
11
32.386674
21
71.741631
0
LINE
8
Layer 1
10
32.386674
20
71.741631
11
32.525704
21
73.673838
0
LINE
8
Layer 1
10
32.525704
20
73.673838
11
33.039547
21
77.437934
0
LINE
8
Layer 1
10
33.039547
20
77.437934
11
33.699692
21
80.570586
0
LINE
8
Layer 1
10
33.699692
20
80.570586
11
34.478726
21
83.233415
0
LINE
8
Layer 1
10
34.478726
20
83.233415
11
35.502684
21
85.603997
0
LINE
8
Layer 1
10
35.502684
20
85.603997
11
36.897601
21
87.859904
0
LINE
8
Layer 1
10
36.897601
20
87.859904
11
37.979333
21
88.094286
0
LINE
8
Layer 1
10
37.979333
20
88.094286
11
39.130538
21
88.126479
0
LINE
8
Layer 1
10
39.130538
20
88.126479
11
41.531350
21
87.853519
0
LINE
8
Layer 1
10
41.531350
20
87.853519
11
43.880002
21
87.579462
0
LINE
8
Layer 1
10
43.880002
20
87.579462
11
44.966006
21
87.610283
0
LINE
8
Layer 1
10
44.966006
20
87.610283
11
45.956457
21
87.842745
0
LINE
8
Layer 1
10
45.956457
20
87.842745
11
46.660386
21
89.149771
0
LINE
8
Layer 1
10
46.660386
20
89.149771
11
46.981508
21
89.498403
0
LINE
8
Layer 1
10
46.981508
20
89.498403
11
47.069883
21
89.158211
0
LINE
8
Layer 1
10
47.069883
20
89.158211
11
47.075572
21
88.398766
0
LINE
8
Layer 1
10
47.075572
20
88.398766
11
47.148635
21
87.489640
0
LINE
8
Layer 1
10
47.148635
20
87.489640
11
47.439133
21
86.700401
0
LINE
8
Layer 1
10
47.439133
20
86.700401
11
47.712814
21
86.434981
0
LINE
8
Layer 1
10
47.712814
20
86.434981
11
48.097126
21
86.300622
0
LINE
8
Layer 1
10
48.097126
20
86.300622
11
48.610828
21
86.331020
0
LINE
8
Layer 1
10
48.610828
20
86.331020
11
49.272675
21
86.559873
0
LINE
8
Layer 1
10
49.272675
20
86.559873
11
50.798955
21
85.872421
0
LINE
8
Layer 1
10
50.798955
20
85.872421
11
52.275602
21
85.395927
0
LINE
8
Layer 1
10
52.275602
20
85.395927
11
55.148725
21
84.790546
0
LINE
8
Layer 1
10
55.148725
20
84.790546
11
58.029505
21
84.173193
0
LINE
8
Layer 1
10
58.029505
20
84.173193
11
59.515723
21
83.681735
0
LINE
8
Layer 1
10
59.515723
20
83.681735
11
61.055402
21
82.973333
0
LINE
8
Layer 1
10
61.055402
20
82.973333
11
62.144115
21
82.359439
0
LINE
8
Layer 1
10
62.144115
20
82.359439
11
63.141427
21
82.181972
0
LINE
8
Layer 1
10
63.141427
20
82.181972
11
64.058672
21
82.347731
0
LINE
8
Layer 1
10
64.058672
20
82.347731
11
64.907183
21
82.763513
0
LINE
8
Layer 1
10
64.907183
20
82.763513
11
66.443335
21
83.972335
0
LINE
8
Layer 1
10
66.443335
20
83.972335
11
67.840547
21
85.062814
0
LINE
8
Layer 1
10
67.840547
20
85.062814
11
67.020835
21
83.730432
0
LINE
8
Layer 1
10
67.020835
20
83.730432
11
66.784837
21
82.608936
0
LINE
8
Layer 1
10
66.784837
20
82.608936
11
67.030511
21
81.682372
0
LINE
8
Layer 1
10
67.030511
20
81.682372
11
67.655810
21
80.934786
0
LINE
8
Layer 1
10
67.655810
20
80.934786
11
68.558691
21
80.350222
0
LINE
8
Layer 1
10
68.558691
20
80.350222
11
69.637108
21
79.912728
0
LINE
8
Layer 1
10
69.637108
20
79.912728
11
71.912376
21
79.415126
0
LINE
8
Layer 1
10
71.912376
20
79.415126
11
72.658501
21
80.531971
0
LINE
8
Layer 1
10
72.658501
20
80.531971
11
73.227950
21
81.149976
0
LINE
8
Layer 1
10
73.227950
20
81.149976
11
73.623603
21
81.333904
0
LINE
8
Layer 1
10
73.623603
20
81.333904
11
73.848339
21
81.148523
0
LINE
8
Layer 1
10
73.848339
20
81.148523
11
73.905036
21
80.658595
0
LINE
8
Layer 1
10
73.905036
20
80.658595
11
73.796576
21
79.928887
0
LINE
8
Layer 1
10
73.796576
20
79.928887
11
73.095697
21
78.009191
0
LINE
8
Layer 1
10
73.095697
20
78.009191
11
74.530748
21
77.356339
0
LINE
8
Layer 1
10
74.530748
20
77.356339
11
75.872522
21
76.520257
0
LINE
8
Layer 1
10
75.872522
20
76.520257
11
77.067030
21
75.512761
0
LINE
8
Layer 1
10
77.067030
20
75.512761
11
78.060283
21
74.345665
0
LINE
8
Layer 1
10
78.060283
20
74.345665
11
78.798291
21
73.030784
0
LINE
8
Layer 1
10
78.798291
20
73.030784
11
79.227065
21
71.579934
0
LINE
8
Layer 1
10
79.227065
20
71.579934
11
79.292616
21
70.004929
0
LINE
8
Layer 1
10
79.292616
20
70.004929
11
78.940954
21
68.317584
0
LINE
8
Layer 1
10
78.940954
20
68.317584
11
78.230052
21
66.026842
0
LINE
8
Layer 1
10
78.230052
20
66.026842
11
77.340411
21
63.760838
0
LINE
8
Layer 1
10
77.340411
20
63.760838
11
76.259216
21
61.571981
0
LINE
8
Layer 1
10
76.259216
20
61.571981
11
74.973647
21
59.512679
0
LINE
8
Layer 1
10
74.973647
20
59.512679
11
73.470888
21
57.635340
0
LINE
8
Layer 1
10
73.470888
20
57.635340
11
71.738122
21
55.992373
0
LINE
8
Layer 1
10
71.738122
20
55.992373
11
69.762532
21
54.636188
0
LINE
8
Layer 1
10
69.762532
20
54.636188
11
67.531299
21
53.619191
0
LINE
8
Layer 1
10
67.531299
20
53.619191
11
65.480263
21
52.738863
0
LINE
8
Layer 1
10
65.480263
20
52.738863
11
63.384516
21
52.002260
0
LINE
8
Layer 1
10
63.384516
20
52.002260
11
61.250567
21
51.412854
0
LINE
8
Layer 1
10
61.250567
20
51.412854
11
59.084923
21
50.974116
0
LINE
8
Layer 1
10
59.084923
20
50.974116
11
56.894092
21
50.689515
0
LINE
8
Layer 1
10
56.894092
20
50.689515
11
54.684582
21
50.562524
0
LINE
8
Layer 1
10
54.684582
20
50.562524
11
52.462901
21
50.596613
0
LINE
8
Layer 1
10
52.462901
20
50.596613
11
50.235556
21
50.795253
0
LINE
8
Layer 1
10
50.235556
20
50.795253
11
50.235556
21
50.795253
0
LINE
8
Layer 1
10
60.204133
20
52.255431
11
60.789079
21
52.444704
0
LINE
8
Layer 1
10
60.789079
20
52.444704
11
61.177542
21
52.405434
0
LINE
8
Layer 1
10
61.177542
20
52.405434
11
61.601357
21
52.067664
0
LINE
8
Layer 1
10
61.601357
20
52.067664
11
61.754875
21
51.982363
0
LINE
8
Layer 1
10
61.754875
20
51.982363
11
61.948245
21
52.094920
0
LINE
8
Layer 1
10
61.948245
20
52.094920
11
62.690872
21
53.340000
0
LINE
8
Layer 1
10
62.690872
20
53.340000
11
62.607031
21
52.870401
0
LINE
8
Layer 1
10
62.607031
20
52.870401
11
62.787212
21
52.757589
0
LINE
8
Layer 1
10
62.787212
20
52.757589
11
63.638250
21
53.170510
0
LINE
8
Layer 1
10
63.638250
20
53.170510
11
64.641210
21
53.715135
0
LINE
8
Layer 1
10
64.641210
20
53.715135
11
65.011293
21
53.766954
0
LINE
8
Layer 1
10
65.011293
20
53.766954
11
65.193314
21
53.527839
0
LINE
8
Layer 1
10
65.193314
20
53.527839
11
66.203729
21
54.469104
0
LINE
8
Layer 1
10
66.203729
20
54.469104
11
67.789450
21
55.515231
0
LINE
8
Layer 1
10
67.789450
20
55.515231
11
68.488083
21
55.853746
0
LINE
8
Layer 1
10
68.488083
20
55.853746
11
68.958581
21
55.949829
0
LINE
8
Layer 1
10
68.958581
20
55.949829
11
69.076957
21
55.713933
0
LINE
8
Layer 1
10
69.076957
20
55.713933
11
68.719226
21
55.056507
0
LINE
8
Layer 1
10
68.719226
20
55.056507
11
70.816591
21
57.139539
0
LINE
8
Layer 1
10
70.816591
20
57.139539
11
73.099772
21
59.587409
0
LINE
8
Layer 1
10
73.099772
20
59.587409
11
75.193043
21
62.427527
0
LINE
8
Layer 1
10
75.193043
20
62.427527
11
76.051047
21
64.003244
0
LINE
8
Layer 1
10
76.051047
20
64.003244
11
76.720677
21
65.687301
0
LINE
8
Layer 1
10
76.720677
20
65.687301
11
76.673959
21
66.155784
0
LINE
8
Layer 1
10
76.673959
20
66.155784
11
76.466673
21
66.614300
0
LINE
8
Layer 1
10
76.466673
20
66.614300
11
75.785450
21
67.477415
0
LINE
8
Layer 1
10
75.785450
20
67.477415
11
75.107112
21
68.228609
0
LINE
8
Layer 1
10
75.107112
20
68.228609
11
74.861764
21
68.819844
0
LINE
8
Layer 1
10
74.861764
20
68.819844
11
74.747346
21
68.047225
0
LINE
8
Layer 1
10
74.747346
20
68.047225
11
74.403765
21
67.437983
0
LINE
8
Layer 1
10
74.403765
20
67.437983
11
73.869286
21
66.981280
0
LINE
8
Layer 1
10
73.869286
20
66.981280
11
73.182173
21
66.666277
0
LINE
8
Layer 1
10
73.182173
20
66.666277
11
71.503100
21
66.418012
0
LINE
8
Layer 1
10
71.503100
20
66.418012
11
69.672659
21
66.606477
0
LINE
8
Layer 1
10
69.672659
20
66.606477
11
67.996962
21
67.144961
0
LINE
8
Layer 1
10
67.996962
20
67.144961
11
66.782122
21
67.946752
0
LINE
8
Layer 1
10
66.782122
20
67.946752
11
66.443184
21
68.419290
0
LINE
8
Layer 1
10
66.443184
20
68.419290
11
66.334252
21
68.925138
0
LINE
8
Layer 1
10
66.334252
20
68.925138
11
66.493590
21
69.453457
0
LINE
8
Layer 1
10
66.493590
20
69.453457
11
66.959463
21
69.993408
0
LINE
8
Layer 1
10
66.959463
20
69.993408
11
66.312708
21
69.783944
0
LINE
8
Layer 1
10
66.312708
20
69.783944
11
66.237068
21
69.790449
0
LINE
8
Layer 1
10
66.237068
20
69.790449
11
67.026792
21
70.034569
0
LINE
8
Layer 1
10
67.026792
20
70.034569
11
67.505988
21
70.063782
0
LINE
8
Layer 1
10
67.505988
20
70.063782
11
67.783960
21
69.892161
0
LINE
8
Layer 1
10
67.783960
20
69.892161
11
67.667624
21
69.415507
0
LINE
8
Layer 1
10
67.667624
20
69.415507
11
66.963894
21
68.529618
0
LINE
8
Layer 1
10
66.963894
20
68.529618
11
67.756935
21
69.159309
0
LINE
8
Layer 1
10
67.756935
20
69.159309
11
68.126415
21
69.721308
0
LINE
8
Layer 1
10
68.126415
20
69.721308
11
68.245578
21
70.619840
0
LINE
8
Layer 1
10
68.245578
20
70.619840
11
68.320700
21
70.945176
0
LINE
8
Layer 1
10
68.320700
20
70.945176
11
68.623142
21
71.180428
0
LINE
8
Layer 1
10
68.623142
20
71.180428
11
69.315624
21
71.319998
0
LINE
8
Layer 1
10
69.315624
20
71.319998
11
70.560867
21
71.358289
0
LINE
8
Layer 1
10
70.560867
20
71.358289
11
71.940243
21
71.581762
0
LINE
8
Layer 1
10
71.940243
20
71.581762
11
73.189372
21
71.517981
0
LINE
8
Layer 1
10
73.189372
20
71.517981
11
74.299431
21
71.204260
0
LINE
8
Layer 1
10
74.299431
20
71.204260
11
75.261596
21
70.677913
0
LINE
8
Layer 1
10
75.261596
20
70.677913
11
76.067045
21
69.976254
0
LINE
8
Layer 1
10
76.067045
20
69.976254
11
76.706955
21
69.136596
0
LINE
8
Layer 1
10
76.706955
20
69.136596
11
77.172502
21
68.196254
0
LINE
8
Layer 1
10
77.172502
20
68.196254
11
77.454864
21
67.192542
0
LINE
8
Layer 1
10
77.454864
20
67.192542
11
77.989953
21
68.235438
0
LINE
8
Layer 1
10
77.989953
20
68.235438
11
78.315784
21
69.199156
0
LINE
8
Layer 1
10
78.315784
20
69.199156
11
78.451363
21
70.090479
0
LINE
8
Layer 1
10
78.451363
20
70.090479
11
78.415692
21
70.916187
0
LINE
8
Layer 1
10
78.415692
20
70.916187
11
77.906623
21
72.397892
0
LINE
8
Layer 1
10
77.906623
20
72.397892
11
76.940608
21
73.698529
0
LINE
8
Layer 1
10
76.940608
20
73.698529
11
75.669682
21
74.872356
0
LINE
8
Layer 1
10
75.669682
20
74.872356
11
74.245877
21
75.973631
0
LINE
8
Layer 1
10
74.245877
20
75.973631
11
72.821228
21
77.056611
0
LINE
8
Layer 1
10
72.821228
20
77.056611
11
71.547767
21
78.175556
0
LINE
8
Layer 1
10
71.547767
20
78.175556
11
68.324337
21
79.439318
0
LINE
8
Layer 1
10
68.324337
20
79.439318
11
65.050733
21
80.486648
0
LINE
8
Layer 1
10
65.050733
20
80.486648
11
58.420000
21
82.424880
0
LINE
8
Layer 1
10
58.420000
20
82.424880
11
55.062451
21
83.244217
0
LINE
8
Layer 1
10
55.062451
20
83.244217
11
51.617471
21
84.198432
0
LINE
8
Layer 1
10
51.617471
20
84.198432
11
48.205033
21
85.124825
0
LINE
8
Layer 1
10
48.205033
20
85.124825
11
44.945111
21
85.860692
0
LINE
8
Layer 1
10
44.945111
20
85.860692
11
43.180428
21
86.147335
0
LINE
8
Layer 1
10
43.180428
20
86.147335
11
41.123423
21
86.679047
0
LINE
8
Layer 1
10
41.123423
20
86.679047
11
40.091381
21
86.839043
0
LINE
8
Layer 1
10
40.091381
20
86.839043
11
39.113556
21
86.822994
0
LINE
8
Layer 1
10
39.113556
20
86.822994
11
38.232380
21
86.551796
0
LINE
8
Layer 1
10
38.232380
20
86.551796
11
37.490287
21
85.946344
0
LINE
8
Layer 1
10
37.490287
20
85.946344
11
36.768730
21
84.803751
0
LINE
8
Layer 1
10
36.768730
20
84.803751
11
35.854568
21
83.580713
0
LINE
8
Layer 1
10
35.854568
20
83.580713
11
35.580464
21
83.045615
0
LINE
8
Layer 1
10
35.580464
20
83.045615
11
35.564454
21
82.618311
0
LINE
8
Layer 1
10
35.564454
20
82.618311
11
35.908620
21
82.341435
0
LINE
8
Layer 1
10
35.908620
20
82.341435
11
36.715042
21
82.257623
0
LINE
8
Layer 1
10
36.715042
20
82.257623
11
38.114410
21
81.927356
0
LINE
8
Layer 1
10
38.114410
20
81.927356
11
39.473859
21
81.438477
0
LINE
8
Layer 1
10
39.473859
20
81.438477
11
40.752268
21
80.799880
0
LINE
8
Layer 1
10
40.752268
20
80.799880
11
41.908514
21
80.020458
0
LINE
8
Layer 1
10
41.908514
20
80.020458
11
42.901475
21
79.109104
0
LINE
8
Layer 1
10
42.901475
20
79.109104
11
43.690028
21
78.074713
0
LINE
8
Layer 1
10
43.690028
20
78.074713
11
44.233052
21
76.926178
0
LINE
8
Layer 1
10
44.233052
20
76.926178
11
44.489424
21
75.672391
0
LINE
8
Layer 1
10
44.489424
20
75.672391
11
43.963906
21
75.250552
0
LINE
8
Layer 1
10
43.963906
20
75.250552
11
43.386509
21
75.013275
0
LINE
8
Layer 1
10
43.386509
20
75.013275
11
42.110482
21
75.005304
0
LINE
8
Layer 1
10
42.110482
20
75.005304
11
40.730153
21
75.474271
0
LINE
8
Layer 1
10
40.730153
20
75.474271
11
39.314334
21
76.245967
0
LINE
8
Layer 1
10
39.314334
20
76.245967
11
36.651469
21
78.000710
0
LINE
8
Layer 1
10
36.651469
20
78.000710
11
35.542045
21
78.635340
0
LINE
8
Layer 1
10
35.542045
20
78.635340
11
34.672374
21
78.875865
0
LINE
8
Layer 1
10
34.672374
20
78.875865
11
34.120499
21
75.523255
0
LINE
8
Layer 1
10
34.120499
20
75.523255
11
34.067926
21
72.014327
0
LINE
8
Layer 1
10
34.067926
20
72.014327
11
34.502826
21
68.517058
0
LINE
8
Layer 1
10
34.502826
20
68.517058
11
35.413371
21
65.199429
0
LINE
8
Layer 1
10
35.413371
20
65.199429
11
35.720038
21
64.588076
0
LINE
8
Layer 1
10
35.720038
20
64.588076
11
35.731815
21
64.277284
0
LINE
8
Layer 1
10
35.731815
20
64.277284
11
35.567792
21
64.168723
0
LINE
8
Layer 1
10
35.567792
20
64.168723
11
35.347064
21
64.164060
0
LINE
8
Layer 1
10
35.347064
20
64.164060
11
35.188722
21
64.164966
0
LINE
8
Layer 1
10
35.188722
20
64.164966
11
35.211859
21
64.073108
0
LINE
8
Layer 1
10
35.211859
20
64.073108
11
36.278939
21
63.217778
0
LINE
8
Layer 1
10
36.278939
20
63.217778
11
38.633003
21
60.562172
0
LINE
8
Layer 1
10
38.633003
20
60.562172
11
41.168893
21
58.077776
0
LINE
8
Layer 1
10
41.168893
20
58.077776
11
43.874409
21
55.759964
0
LINE
8
Layer 1
10
43.874409
20
55.759964
11
46.737355
21
53.604109
0
LINE
8
Layer 1
10
46.737355
20
53.604109
11
48.226118
21
52.874378
0
LINE
8
Layer 1
10
48.226118
20
52.874378
11
49.793293
21
52.344566
0
LINE
8
Layer 1
10
49.793293
20
52.344566
11
51.414937
21
51.990161
0
LINE
8
Layer 1
10
51.414937
20
51.990161
11
53.067106
21
51.786649
0
LINE
8
Layer 1
10
53.067106
20
51.786649
11
56.367248
21
51.734253
0
LINE
8
Layer 1
10
56.367248
20
51.734253
11
59.502175
21
51.991274
0
LINE
8
Layer 1
10
59.502175
20
51.991274
11
60.204133
21
52.255428
0
LINE
8
Layer 1
10
60.204133
20
52.255428
11
60.204133
21
52.255431
0
LINE
8
Layer 1
10
60.204133
20
52.255431
11
60.204133
21
52.255431
0
LINE
8
Layer 1
10
50.605078
20
54.251504
11
49.503170
21
54.746213
0
LINE
8
Layer 1
10
49.503170
20
54.746213
11
48.784428
21
55.304771
0
LINE
8
Layer 1
10
48.784428
20
55.304771
11
48.418695
21
55.844458
0
LINE
8
Layer 1
10
48.418695
20
55.844458
11
48.375813
21
56.282552
0
LINE
8
Layer 1
10
48.375813
20
56.282552
11
48.625627
21
56.536330
0
LINE
8
Layer 1
10
48.625627
20
56.536330
11
49.137978
21
56.523070
0
LINE
8
Layer 1
10
49.137978
20
56.523070
11
49.882710
21
56.160051
0
LINE
8
Layer 1
10
49.882710
20
56.160051
11
50.829667
21
55.364549
0
LINE
8
Layer 1
10
50.829667
20
55.364549
11
52.316903
21
55.190690
0
LINE
8
Layer 1
10
52.316903
20
55.190690
11
52.490614
21
55.285841
0
LINE
8
Layer 1
10
52.490614
20
55.285841
11
52.363402
21
55.476858
0
LINE
8
Layer 1
10
52.363402
20
55.476858
11
50.030571
21
56.816756
0
LINE
8
Layer 1
10
50.030571
20
56.816756
11
47.623932
21
58.159214
0
LINE
8
Layer 1
10
47.623932
20
58.159214
11
47.455204
21
58.351670
0
LINE
8
Layer 1
10
47.455204
20
58.351670
11
47.578172
21
58.448580
0
LINE
8
Layer 1
10
47.578172
20
58.448580
11
48.936244
21
58.279199
0
LINE
8
Layer 1
10
48.936244
20
58.279199
11
49.996274
21
57.667278
0
LINE
8
Layer 1
10
49.996274
20
57.667278
11
51.356552
21
57.217627
0
LINE
8
Layer 1
10
51.356552
20
57.217627
11
54.068495
21
56.525623
0
LINE
8
Layer 1
10
54.068495
20
56.525623
11
54.965479
21
56.143516
0
LINE
8
Layer 1
10
54.965479
20
56.143516
11
55.199764
21
55.912864
0
LINE
8
Layer 1
10
55.199764
20
55.912864
11
55.253353
21
55.644168
0
LINE
8
Layer 1
10
55.253353
20
55.644168
11
55.097830
21
55.328692
0
LINE
8
Layer 1
10
55.097830
20
55.328692
11
54.704777
21
54.957702
0
LINE
8
Layer 1
10
54.704777
20
54.957702
11
53.092409
21
54.014240
0
LINE
8
Layer 1
10
53.092409
20
54.014240
11
51.835621
21
53.977873
0
LINE
8
Layer 1
10
51.835621
20
53.977873
11
50.605078
21
54.251504
0
LINE
8
Layer 1
10
50.605078
20
54.251504
11
50.605078
21
54.251504
0
LINE
8
Layer 1
10
52.211111
20
54.294859
11
51.436932
21
54.615524
0
LINE
8
Layer 1
10
51.436932
20
54.615524
11
51.281393
21
54.570270
0
LINE
8
Layer 1
10
51.281393
20
54.570270
11
51.259951
21
54.454850
0
LINE
8
Layer 1
10
51.259951
20
54.454850
11
51.558550
21
54.214180
0
LINE
8
Layer 1
10
51.558550
20
54.214180
11
52.211111
21
54.294859
0
LINE
8
Layer 1
10
52.211111
20
54.294859
11
52.211111
21
54.294859
0
LINE
8
Layer 1
10
54.222667
20
54.962778
11
54.405421
21
55.248124
0
LINE
8
Layer 1
10
54.405421
20
55.248124
11
54.314119
21
55.253276
0
LINE
8
Layer 1
10
54.314119
20
55.253276
11
53.753029
21
54.820331
0
LINE
8
Layer 1
10
53.753029
20
54.820331
11
53.426759
21
54.458610
0
LINE
8
Layer 1
10
53.426759
20
54.458610
11
54.222667
21
54.962778
0
LINE
8
Layer 1
10
54.222667
20
54.962778
11
54.222667
21
54.962778
0
LINE
8
Layer 1
10
50.212038
20
54.821667
11
49.033761
21
55.849038
0
LINE
8
Layer 1
10
49.033761
20
55.849038
11
48.545092
21
56.106927
0
LINE
8
Layer 1
10
48.545092
20
56.106927
11
48.889896
21
55.722185
0
LINE
8
Layer 1
10
48.889896
20
55.722185
11
50.212038
21
54.821667
0
LINE
8
Layer 1
10
50.212038
20
54.821667
11
50.212038
21
54.821667
0
LINE
8
Layer 1
10
51.617970
20
61.243441
11
50.157828
21
62.571089
0
LINE
8
Layer 1
10
50.157828
20
62.571089
11
49.948211
21
62.900785
0
LINE
8
Layer 1
10
49.948211
20
62.900785
11
50.024473
21
63.013542
0
LINE
8
Layer 1
10
50.024473
20
63.013542
11
50.851360
21
62.605678
0
LINE
8
Layer 1
10
50.851360
20
62.605678
11
52.271944
21
61.382374
0
LINE
8
Layer 1
10
52.271944
20
61.382374
11
53.301133
21
61.287721
0
LINE
8
Layer 1
10
53.301133
20
61.287721
11
53.820482
21
61.091935
0
LINE
8
Layer 1
10
53.820482
20
61.091935
11
53.926207
21
60.856623
0
LINE
8
Layer 1
10
53.926207
20
60.856623
11
53.714521
21
60.643393
0
LINE
8
Layer 1
10
53.714521
20
60.643393
11
53.281640
21
60.513852
0
LINE
8
Layer 1
10
53.281640
20
60.513852
11
52.723778
21
60.529608
0
LINE
8
Layer 1
10
52.723778
20
60.529608
11
52.137150
21
60.752269
0
LINE
8
Layer 1
10
52.137150
20
60.752269
11
51.617970
21
61.243441
0
LINE
8
Layer 1
10
51.617970
20
61.243441
11
51.617970
21
61.243441
0
LINE
8
Layer 1
10
54.751111
20
60.976657
11
55.850884
21
61.397215
0
LINE
8
Layer 1
10
55.850884
20
61.397215
11
56.049321
21
61.334470
0
LINE
8
Layer 1
10
56.049321
20
61.334470
11
56.054262
21
61.179246
0
LINE
8
Layer 1
10
56.054262
20
61.179246
11
55.606065
21
60.859982
0
LINE
8
Layer 1
10
55.606065
20
60.859982
11
55.214131
21
60.830250
0
LINE
8
Layer 1
10
55.214131
20
60.830250
11
54.751111
21
60.976657
0
LINE
8
Layer 1
10
54.751111
20
60.976657
11
54.751111
21
60.976657
0
LINE
8
Layer 1
10
76.764444
20
63.782222
11
76.867691
21
64.342497
0
LINE
8
Layer 1
10
76.867691
20
64.342497
11
76.520760
21
63.773924
0
LINE
8
Layer 1
10
76.520760
20
63.773924
11
76.295671
21
63.209500
0
LINE
8
Layer 1
10
76.295671
20
63.209500
11
76.764444
21
63.782222
0
LINE
8
Layer 1
10
76.764444
20
63.782222
11
76.764444
21
63.782222
0
LINE
8
Layer 1
10
34.113447
20
67.087073
11
33.840762
21
68.888638
0
LINE
8
Layer 1
10
33.840762
20
68.888638
11
33.392011
21
70.850998
0
LINE
8
Layer 1
10
33.392011
20
70.850998
11
33.204989
21
71.448815
0
LINE
8
Layer 1
10
33.204989
20
71.448815
11
33.098005
21
71.554439
0
LINE
8
Layer 1
10
33.098005
20
71.554439
11
33.289559
21
69.579244
0
LINE
8
Layer 1
10
33.289559
20
69.579244
11
33.771605
21
66.248900
0
LINE
8
Layer 1
10
33.771605
20
66.248900
11
34.054250
21
65.514709
0
LINE
8
Layer 1
10
34.054250
20
65.514709
11
34.113447
21
67.087073
0
LINE
8
Layer 1
10
34.113447
20
67.087073
11
34.113447
21
67.087073
0
LINE
8
Layer 1
10
34.113447
20
67.087073
11
34.113447
21
67.087073
0
LINE
8
Layer 1
10
74.092300
20
68.620823
11
73.835118
21
69.902599
0
LINE
8
Layer 1
10
73.835118
20
69.902599
11
73.620411
21
70.212024
0
LINE
8
Layer 1
10
73.620411
20
70.212024
11
73.366843
21
70.338371
0
LINE
8
Layer 1
10
73.366843
20
70.338371
11
72.798767
21
70.155516
0
LINE
8
Layer 1
10
72.798767
20
70.155516
11
72.242182
21
69.581413
0
LINE
8
Layer 1
10
72.242182
20
69.581413
11
71.808382
21
68.843437
0
LINE
8
Layer 1
10
71.808382
20
68.843437
11
71.608659
21
68.168966
0
LINE
8
Layer 1
10
71.608659
20
68.168966
11
71.754305
21
67.785378
0
LINE
8
Layer 1
10
71.754305
20
67.785378
11
72.356613
21
67.920049
0
LINE
8
Layer 1
10
72.356613
20
67.920049
11
72.576141
21
68.376612
0
LINE
8
Layer 1
10
72.576141
20
68.376612
11
72.743088
21
68.349374
0
LINE
8
Layer 1
10
72.743088
20
68.349374
11
73.022934
21
67.600259
0
LINE
8
Layer 1
10
73.022934
20
67.600259
11
73.187680
21
67.256764
0
LINE
8
Layer 1
10
73.187680
20
67.256764
11
73.403541
21
67.186232
0
LINE
8
Layer 1
10
73.403541
20
67.186232
11
73.696440
21
67.577855
0
LINE
8
Layer 1
10
73.696440
20
67.577855
11
74.092300
21
68.620823
0
LINE
8
Layer 1
10
74.092300
20
68.620823
11
74.092300
21
68.620823
0
LINE
8
Layer 1
10
74.092300
20
68.620823
11
74.092300
21
68.620823
0
LINE
8
Layer 1
10
71.287251
20
68.160333
11
70.720957
21
69.724024
0
LINE
8
Layer 1
10
70.720957
20
69.724024
11
70.466732
21
70.080476
0
LINE
8
Layer 1
10
70.466732
20
70.080476
11
70.238301
21
70.206225
0
LINE
8
Layer 1
10
70.238301
20
70.206225
11
70.040550
21
70.140942
0
LINE
8
Layer 1
10
70.040550
20
70.140942
11
69.878363
21
69.924296
0
LINE
8
Layer 1
10
69.878363
20
69.924296
11
69.680222
21
69.195599
0
LINE
8
Layer 1
10
69.680222
20
69.195599
11
69.682960
21
68.337493
0
LINE
8
Layer 1
10
69.682960
20
68.337493
11
69.925657
21
67.667339
0
LINE
8
Layer 1
10
69.925657
20
67.667339
11
70.149203
21
67.501920
0
LINE
8
Layer 1
10
70.149203
20
67.501920
11
70.447394
21
67.502499
0
LINE
8
Layer 1
10
70.447394
20
67.502499
11
70.825115
21
67.708747
0
LINE
8
Layer 1
10
70.825115
20
67.708747
11
71.287251
21
68.160333
0
LINE
8
Layer 1
10
71.287251
20
68.160333
11
71.287251
21
68.160333
0
LINE
8
Layer 1
10
69.144444
20
68.556917
11
68.983104
21
69.244358
0
LINE
8
Layer 1
10
68.983104
20
69.244358
11
68.777942
21
69.495651
0
LINE
8
Layer 1
10
68.777942
20
69.495651
11
68.573918
21
69.430664
0
LINE
8
Layer 1
10
68.573918
20
69.430664
11
68.415991
21
69.169266
0
LINE
8
Layer 1
10
68.415991
20
69.169266
11
68.349121
21
68.831323
0
LINE
8
Layer 1
10
68.349121
20
68.831323
11
68.418267
21
68.536705
0
LINE
8
Layer 1
10
68.418267
20
68.536705
11
68.668388
21
68.405281
0
LINE
8
Layer 1
10
68.668388
20
68.405281
11
69.144444
21
68.556917
0
LINE
8
Layer 1
10
69.144444
20
68.556917
11
69.144444
21
68.556917
0
LINE
8
Layer 1
10
43.844670
20
75.847222
11
43.042419
21
76.347509
0
LINE
8
Layer 1
10
43.042419
20
76.347509
11
42.351300
21
76.493360
0
LINE
8
Layer 1
10
42.351300
20
76.493360
11
41.830355
21
76.390524
0
LINE
8
Layer 1
10
41.830355
20
76.390524
11
41.538624
21
76.144748
0
LINE
8
Layer 1
10
41.538624
20
76.144748
11
41.535149
21
75.861782
0
LINE
8
Layer 1
10
41.535149
20
75.861782
11
41.878971
21
75.647374
0
LINE
8
Layer 1
10
41.878971
20
75.647374
11
42.629131
21
75.607271
0
LINE
8
Layer 1
10
42.629131
20
75.607271
11
43.844670
21
75.847222
0
LINE
8
Layer 1
10
43.844670
20
75.847222
11
43.844670
21
75.847222
0
LINE
8
Layer 1
10
42.329015
20
77.117222
11
42.190553
21
77.452976
0
LINE
8
Layer 1
10
42.190553
20
77.452976
11
42.072994
21
77.458864
0
LINE
8
Layer 1
10
42.072994
20
77.458864
11
41.937898
21
76.948913
0
LINE
8
Layer 1
10
41.937898
20
76.948913
11
41.998361
21
76.523117
0
LINE
8
Layer 1
10
41.998361
20
76.523117
11
42.329015
21
77.117222
0
LINE
8
Layer 1
10
42.329015
20
77.117222
11
42.329015
21
77.117222
0
LINE
8
Layer 1
10
41.360446
20
77.639909
11
41.589188
21
78.598200
0
LINE
8
Layer 1
10
41.589188
20
78.598200
11
41.464902
21
79.158961
0
LINE
8
Layer 1
10
41.464902
20
79.158961
11
41.100965
21
79.413626
0
LINE
8
Layer 1
10
41.100965
20
79.413626
11
40.610755
21
79.453626
0
LINE
8
Layer 1
10
40.610755
20
79.453626
11
39.705029
21
79.255361
0
LINE
8
Layer 1
10
39.705029
20
79.255361
11
39.516268
21
79.199961
0
LINE
8
Layer 1
10
39.516268
20
79.199961
11
39.654745
21
79.295625
0
LINE
8
Layer 1
10
39.654745
20
79.295625
11
39.419212
21
79.904450
0
LINE
8
Layer 1
10
39.419212
20
79.904450
11
39.256100
21
79.737095
0
LINE
8
Layer 1
10
39.256100
20
79.737095
11
39.258724
21
78.160040
0
LINE
8
Layer 1
10
39.258724
20
78.160040
11
39.480251
21
77.293437
0
LINE
8
Layer 1
10
39.480251
20
77.293437
11
39.885784
21
76.736848
0
LINE
8
Layer 1
10
39.885784
20
76.736848
11
40.166269
21
76.659668
0
LINE
8
Layer 1
10
40.166269
20
76.659668
11
40.503216
21
76.761823
0
LINE
8
Layer 1
10
40.503216
20
76.761823
11
41.360446
21
77.639909
0
LINE
8
Layer 1
10
41.360446
20
77.639909
11
41.360446
21
77.639909
0
LINE
8
Layer 1
10
38.382222
20
78.192212
11
37.610241
21
79.221576
0
LINE
8
Layer 1
10
37.610241
20
79.221576
11
37.167263
21
79.492700
0
LINE
8
Layer 1
10
37.167263
20
79.492700
11
36.999069
21
79.237652
0
LINE
8
Layer 1
10
36.999069
20
79.237652
11
37.051441
21
78.688501
0
LINE
8
Layer 1
10
37.051441
20
78.688501
11
37.270161
21
78.077313
0
LINE
8
Layer 1
10
37.270161
20
78.077313
11
37.601010
21
77.636157
0
LINE
8
Layer 1
10
37.601010
20
77.636157
11
37.989770
21
77.597101
0
LINE
8
Layer 1
10
37.989770
20
77.597101
11
38.382222
21
78.192212
0
LINE
8
Layer 1
10
38.382222
20
78.192212
11
38.382222
21
78.192212
0
LINE
8
Layer 1
10
36.624974
20
80.371645
11
36.262191
21
80.354036
0
LINE
8
Layer 1
10
36.262191
20
80.354036
11
36.084719
21
80.140285
0
LINE
8
Layer 1
10
36.084719
20
80.140285
11
36.122392
21
79.526705
0
LINE
8
Layer 1
10
36.122392
20
79.526705
11
36.255877
21
79.328048
0
LINE
8
Layer 1
10
36.255877
20
79.328048
11
36.411356
21
79.335595
0
LINE
8
Layer 1
10
36.411356
20
79.335595
11
36.547998
21
79.649932
0
LINE
8
Layer 1
10
36.547998
20
79.649932
11
36.624974
21
80.371645
0
LINE
8
Layer 1
10
36.624974
20
80.371645
11
36.624974
21
80.371645
0
LINE
8
Layer 1
10
41.918122
20
79.573529
11
40.458750
21
80.723393
0
LINE
8
Layer 1
10
40.458750
20
80.723393
11
40.233207
21
80.850322
0
LINE
8
Layer 1
10
40.233207
20
80.850322
11
40.269467
21
80.764203
0
LINE
8
Layer 1
10
40.269467
20
80.764203
11
40.904511
21
80.209676
0
LINE
8
Layer 1
10
40.904511
20
80.209676
11
41.918122
21
79.573529
0
LINE
8
Layer 1
10
41.918122
20
79.573529
11
41.918122
21
79.573529
0
LINE
8
Layer 1
10
39.079026
20
80.136952
11
38.698597
21
80.774465
0
LINE
8
Layer 1
10
38.698597
20
80.774465
11
38.426074
21
81.030318
0
LINE
8
Layer 1
10
38.426074
20
81.030318
11
38.261850
21
81.004268
0
LINE
8
Layer 1
10
38.261850
20
81.004268
11
38.206320
21
80.796071
0
LINE
8
Layer 1
10
38.206320
20
80.796071
11
38.422919
21
80.232266
0
LINE
8
Layer 1
10
38.422919
20
80.232266
11
38.695837
21
80.076169
0
LINE
8
Layer 1
10
38.695837
20
80.076169
11
39.079026
21
80.136952
0
LINE
8
Layer 1
10
39.079026
20
80.136952
11
39.079026
21
80.136952
0
LINE
8
Layer 1
10
35.483453
20
80.886173
11
35.080883
21
80.915051
0
LINE
8
Layer 1
10
35.080883
20
80.915051
11
34.767675
21
80.798433
0
LINE
8
Layer 1
10
34.767675
20
80.798433
11
34.460663
21
80.403197
0
LINE
8
Layer 1
10
34.460663
20
80.403197
11
34.492515
21
80.261826
0
LINE
8
Layer 1
10
34.492515
20
80.261826
11
34.665045
21
80.249449
0
LINE
8
Layer 1
10
34.665045
20
80.249449
11
35.483453
21
80.886173
0
LINE
8
Layer 1
10
35.483453
20
80.886173
11
35.483453
21
80.886173
0
LINE
8
Layer 1
10
43.462222
20
51.599632
11
43.809914
21
52.071698
0
LINE
8
Layer 1
10
43.809914
20
52.071698
11
44.088997
21
52.190367
0
LINE
8
Layer 1
10
44.088997
20
52.190367
11
44.284106
21
52.064900
0
LINE
8
Layer 1
10
44.284106
20
52.064900
11
44.379874
21
51.804557
0
LINE
8
Layer 1
10
44.379874
20
51.804557
11
44.360936
21
51.518598
0
LINE
8
Layer 1
10
44.360936
20
51.518598
11
44.211926
21
51.316283
0
LINE
8
Layer 1
10
44.211926
20
51.316283
11
43.917476
21
51.306875
0
LINE
8
Layer 1
10
43.917476
20
51.306875
11
43.462222
21
51.599632
0
LINE
8
Layer 1
10
43.462222
20
51.599632
11
43.462222
21
51.599632
0
LINE
8
Layer 1
10
41.486667
20
52.775556
11
41.345445
21
53.229515
0
LINE
8
Layer 1
10
41.345445
20
53.229515
11
41.443943
21
53.418589
0
LINE
8
Layer 1
10
41.443943
20
53.418589
11
41.961358
21
53.272448
0
LINE
8
Layer 1
10
41.961358
20
53.272448
11
42.241427
21
52.877861
0
LINE
8
Layer 1
10
42.241427
20
52.877861
11
42.043244
21
52.756377
0
LINE
8
Layer 1
10
42.043244
20
52.756377
11
41.486667
21
52.775556
0
LINE
8
Layer 1
10
41.486667
20
52.775556
11
41.486667
21
52.775556
0
LINE
8
Layer 1
10
42.830482
20
53.859323
11
41.955715
21
54.776674
0
LINE
8
Layer 1
10
41.955715
20
54.776674
11
42.752716
21
54.333417
0
LINE
8
Layer 1
10
42.752716
20
54.333417
11
43.588599
21
53.653112
0
LINE
8
Layer 1
10
43.588599
20
53.653112
11
43.612292
21
53.577665
0
LINE
8
Layer 1
10
43.612292
20
53.577665
11
43.510846
21
53.575181
0
LINE
8
Layer 1
10
43.510846
20
53.575181
11
42.830482
21
53.859323
0
LINE
8
Layer 1
10
42.830482
20
53.859323
11
42.830482
21
53.859323
0
LINE
8
Layer 1
10
75.635556
20
59.233356
11
76.070428
21
59.816978
0
LINE
8
Layer 1
10
76.070428
20
59.816978
11
76.174081
21
59.564126
0
LINE
8
Layer 1
10
76.174081
20
59.564126
11
76.008472
21
59.145890
0
LINE
8
Layer 1
10
76.008472
20
59.145890
11
75.844055
21
59.084467
0
LINE
8
Layer 1
10
75.844055
20
59.084467
11
75.635556
21
59.233356
0
LINE
8
Layer 1
10
75.635556
20
59.233356
11
75.635556
21
59.233356
0
LINE
8
Layer 1
10
77.423828
20
61.665556
11
77.631600
21
63.035512
0
LINE
8
Layer 1
10
77.631600
20
63.035512
11
77.874284
21
63.680540
0
LINE
8
Layer 1
10
77.874284
20
63.680540
11
78.249411
21
63.988355
0
LINE
8
Layer 1
10
78.249411
20
63.988355
11
78.854512
21
64.346667
0
LINE
8
Layer 1
10
78.854512
20
64.346667
11
78.192285
21
62.746306
0
LINE
8
Layer 1
10
78.192285
20
62.746306
11
77.777125
21
61.955495
0
LINE
8
Layer 1
10
77.777125
20
61.955495
11
77.423828
21
61.665556
0
LINE
8
Layer 1
10
77.423828
20
61.665556
11
77.423828
21
61.665556
0
LINE
8
Layer 1
10
10.096914
20
100.175548
11
8.221750
21
101.196881
0
LINE
8
Layer 1
10
8.221750
20
101.196881
11
7.734272
21
101.668218
0
LINE
8
Layer 1
10
7.734272
20
101.668218
11
7.508959
21
102.111876
0
LINE
8
Layer 1
10
7.508959
20
102.111876
11
7.517381
21
102.526762
0
LINE
8
Layer 1
10
7.517381
20
102.526762
11
7.731111
21
102.911781
0
LINE
8
Layer 1
10
7.731111
20
102.911781
11
8.660778
21
103.587840
0
LINE
8
Layer 1
10
8.660778
20
103.587840
11
10.070531
21
104.131300
0
LINE
8
Layer 1
10
10.070531
20
104.131300
11
11.732940
21
104.533406
0
LINE
8
Layer 1
10
11.732940
20
104.533406
11
14.906011
21
104.878539
0
LINE
8
Layer 1
10
14.906011
20
104.878539
11
16.396265
21
105.728230
0
LINE
8
Layer 1
10
16.396265
20
105.728230
11
16.655482
21
105.998471
0
LINE
8
Layer 1
10
16.655482
20
105.998471
11
16.649316
21
106.185267
0
LINE
8
Layer 1
10
16.649316
20
106.185267
11
16.016507
21
106.367405
0
LINE
8
Layer 1
10
16.016507
20
106.367405
11
14.849176
21
106.392399
0
LINE
8
Layer 1
10
14.849176
20
106.392399
11
12.316310
21
106.441981
0
LINE
8
Layer 1
10
12.316310
20
106.441981
11
11.653455
21
106.702080
0
LINE
8
Layer 1
10
11.653455
20
106.702080
11
11.626634
21
106.942474
0
LINE
8
Layer 1
10
11.626634
20
106.942474
11
11.861439
21
107.276058
0
LINE
8
Layer 1
10
11.861439
20
107.276058
11
13.467676
21
107.343183
0
LINE
8
Layer 1
10
13.467676
20
107.343183
11
14.617850
21
107.679226
0
LINE
8
Layer 1
10
14.617850
20
107.679226
11
14.826518
21
107.905590
0
LINE
8
Layer 1
10
14.826518
20
107.905590
11
14.686696
21
108.148182
0
LINE
8
Layer 1
10
14.686696
20
108.148182
11
14.120225
21
108.390000
0
LINE
8
Layer 1
10
14.120225
20
108.390000
11
13.048948
21
108.614044
0
LINE
8
Layer 1
10
13.048948
20
108.614044
11
11.552091
21
108.913878
0
LINE
8
Layer 1
10
11.552091
20
108.913878
11
9.953065
21
109.551397
0
LINE
8
Layer 1
10
9.953065
20
109.551397
11
8.422800
21
110.455802
0
LINE
8
Layer 1
10
8.422800
20
110.455802
11
7.132224
21
111.556293
0
LINE
8
Layer 1
10
7.132224
20
111.556293
11
6.252264
21
112.782073
0
LINE
8
Layer 1
10
6.252264
20
112.782073
11
6.019681
21
113.419822
0
LINE
8
Layer 1
10
6.019681
20
113.419822
11
5.953850
21
114.062343
0
LINE
8
Layer 1
10
5.953850
20
114.062343
11
6.076136
21
114.700787
0
LINE
8
Layer 1
10
6.076136
20
114.700787
11
6.407908
21
115.326304
0
LINE
8
Layer 1
10
6.407908
20
115.326304
11
6.970529
21
115.930043
0
LINE
8
Layer 1
10
6.970529
20
115.930043
11
7.785367
21
116.503156
0
LINE
8
Layer 1
10
7.785367
20
116.503156
11
9.022131
21
117.576212
0
LINE
8
Layer 1
10
9.022131
20
117.576212
11
10.587520
21
118.391611
0
LINE
8
Layer 1
10
10.587520
20
118.391611
11
12.346329
21
118.928130
0
LINE
8
Layer 1
10
12.346329
20
118.928130
11
14.163352
21
119.164547
0
LINE
8
Layer 1
10
14.163352
20
119.164547
11
15.903383
21
119.079640
0
LINE
8
Layer 1
10
15.903383
20
119.079640
11
17.431217
21
118.652187
0
LINE
8
Layer 1
10
17.431217
20
118.652187
11
18.611647
21
117.860965
0
LINE
8
Layer 1
10
18.611647
20
117.860965
11
19.029335
21
117.322309
0
LINE
8
Layer 1
10
19.029335
20
117.322309
11
19.309469
21
116.684753
0
LINE
8
Layer 1
10
19.309469
20
116.684753
11
18.324919
21
116.173608
0
LINE
8
Layer 1
10
18.324919
20
116.173608
11
17.019364
21
115.836795
0
LINE
8
Layer 1
10
17.019364
20
115.836795
11
14.042262
21
115.392072
0
LINE
8
Layer 1
10
14.042262
20
115.392072
11
12.669228
21
115.137114
0
LINE
8
Layer 1
10
12.669228
20
115.137114
11
11.572213
21
114.762393
0
LINE
8
Layer 1
10
11.572213
20
114.762393
11
10.900474
21
114.194386
0
LINE
8
Layer 1
10
10.900474
20
114.194386
11
10.770725
21
113.814924
0
LINE
8
Layer 1
10
10.770725
20
113.814924
11
10.803266
21
113.359570
0
LINE
8
Layer 1
10
10.803266
20
113.359570
11
11.755329
21
113.959131
0
LINE
8
Layer 1
10
11.755329
20
113.959131
11
12.972538
21
114.228887
0
LINE
8
Layer 1
10
12.972538
20
114.228887
11
14.242462
21
114.242803
0
LINE
8
Layer 1
10
14.242462
20
114.242803
11
15.352668
21
114.074846
0
LINE
8
Layer 1
10
15.352668
20
114.074846
11
16.090725
21
113.798984
0
LINE
8
Layer 1
10
16.090725
20
113.798984
11
16.253812
21
113.643703
0
LINE
8
Layer 1
10
16.253812
20
113.643703
11
16.244200
21
113.489183
0
LINE
8
Layer 1
10
16.244200
20
113.489183
11
15.600662
21
113.219409
0
LINE
8
Layer 1
10
15.600662
20
113.219409
11
13.947678
21
113.063629
0
LINE
8
Layer 1
10
13.947678
20
113.063629
11
13.603007
21
112.739085
0
LINE
8
Layer 1
10
13.603007
20
112.739085
11
13.488269
21
112.422017
0
LINE
8
Layer 1
10
13.488269
20
112.422017
11
13.573011
21
112.108214
0
LINE
8
Layer 1
10
13.573011
20
112.108214
11
13.826778
21
111.793464
0
LINE
8
Layer 1
10
13.826778
20
111.793464
11
14.719573
21
111.144280
0
LINE
8
Layer 1
10
14.719573
20
111.144280
11
15.923019
21
110.440771
0
LINE
8
Layer 1
10
15.923019
20
110.440771
11
17.193486
21
109.649246
0
LINE
8
Layer 1
10
17.193486
20
109.649246
11
18.287338
21
108.736013
0
LINE
8
Layer 1
10
18.287338
20
108.736013
11
18.960944
21
107.667381
0
LINE
8
Layer 1
10
18.960944
20
107.667381
11
19.064020
21
107.064262
0
LINE
8
Layer 1
10
19.064020
20
107.064262
11
18.970671
21
106.409658
0
LINE
8
Layer 1
10
18.970671
20
106.409658
11
19.292763
21
105.397405
0
LINE
8
Layer 1
10
19.292763
20
105.397405
11
19.409336
21
104.487829
0
LINE
8
Layer 1
10
19.409336
20
104.487829
11
19.339383
21
103.676719
0
LINE
8
Layer 1
10
19.339383
20
103.676719
11
19.101894
21
102.959860
0
LINE
8
Layer 1
10
19.101894
20
102.959860
11
18.715860
21
102.333040
0
LINE
8
Layer 1
10
18.715860
20
102.333040
11
18.200272
21
101.792045
0
LINE
8
Layer 1
10
18.200272
20
101.792045
11
16.856397
21
100.950676
0
LINE
8
Layer 1
10
16.856397
20
100.950676
11
15.222197
21
100.402048
0
LINE
8
Layer 1
10
15.222197
20
100.402048
11
13.449598
21
100.112455
0
LINE
8
Layer 1
10
13.449598
20
100.112455
11
11.690528
21
100.048191
0
LINE
8
Layer 1
10
11.690528
20
100.048191
11
10.096914
21
100.175548
0
LINE
8
Layer 1
10
10.096914
20
100.175548
11
10.096914
21
100.175548
0
LINE
8
Layer 1
10
16.509404
20
101.576767
11
17.454462
21
102.272314
0
LINE
8
Layer 1
10
17.454462
20
102.272314
11
18.121187
21
102.999671
0
LINE
8
Layer 1
10
18.121187
20
102.999671
11
18.534039
21
103.752170
0
LINE
8
Layer 1
10
18.534039
20
103.752170
11
18.717482
21
104.523143
0
LINE
8
Layer 1
10
18.717482
20
104.523143
11
18.695975
21
105.305922
0
LINE
8
Layer 1
10
18.695975
20
105.305922
11
18.493982
21
106.093840
0
LINE
8
Layer 1
10
18.493982
20
106.093840
11
17.646381
21
107.658419
0
LINE
8
Layer 1
10
17.646381
20
107.658419
11
16.370374
21
109.163534
0
LINE
8
Layer 1
10
16.370374
20
109.163534
11
14.861654
21
110.555843
0
LINE
8
Layer 1
10
14.861654
20
110.555843
11
11.928851
21
112.788664
0
LINE
8
Layer 1
10
11.928851
20
112.788664
11
10.127359
21
112.762023
0
LINE
8
Layer 1
10
10.127359
20
112.762023
11
9.651034
21
112.913905
0
LINE
8
Layer 1
10
9.651034
20
112.913905
11
9.420398
21
113.152192
0
LINE
8
Layer 1
10
9.420398
20
113.152192
11
9.407507
21
113.459084
0
LINE
8
Layer 1
10
9.407507
20
113.459084
11
9.584418
21
113.816785
0
LINE
8
Layer 1
10
9.584418
20
113.816785
11
10.395869
21
114.613415
0
LINE
8
Layer 1
10
10.395869
20
114.613415
11
11.631201
21
115.399696
0
LINE
8
Layer 1
10
11.631201
20
115.399696
11
13.066865
21
116.033241
0
LINE
8
Layer 1
10
13.066865
20
116.033241
11
14.479309
21
116.371663
0
LINE
8
Layer 1
10
14.479309
20
116.371663
11
15.644985
21
116.272576
0
LINE
8
Layer 1
10
15.644985
20
116.272576
11
17.573612
21
116.505209
0
LINE
8
Layer 1
10
17.573612
20
116.505209
11
18.031487
21
116.721016
0
LINE
8
Layer 1
10
18.031487
20
116.721016
11
18.200311
21
116.981323
0
LINE
8
Layer 1
10
18.200311
20
116.981323
11
18.116512
21
117.269760
0
LINE
8
Layer 1
10
18.116512
20
117.269760
11
17.816520
21
117.569956
0
LINE
8
Layer 1
10
17.816520
20
117.569956
11
16.713679
21
118.140146
0
LINE
8
Layer 1
10
16.713679
20
118.140146
11
15.183226
21
118.560932
0
LINE
8
Layer 1
10
15.183226
20
118.560932
11
13.516599
21
118.701351
0
LINE
8
Layer 1
10
13.516599
20
118.701351
11
12.005237
21
118.430443
0
LINE
8
Layer 1
10
12.005237
20
118.430443
11
11.398855
21
118.099816
0
LINE
8
Layer 1
10
11.398855
20
118.099816
11
10.940578
21
117.617246
0
LINE
8
Layer 1
10
10.940578
20
117.617246
11
9.251850
21
116.990578
0
LINE
8
Layer 1
10
9.251850
20
116.990578
11
8.051320
21
116.075799
0
LINE
8
Layer 1
10
8.051320
20
116.075799
11
7.338067
21
114.971299
0
LINE
8
Layer 1
10
7.338067
20
114.971299
11
7.111172
21
113.775467
0
LINE
8
Layer 1
10
7.111172
20
113.775467
11
7.369713
21
112.586695
0
LINE
8
Layer 1
10
7.369713
20
112.586695
11
8.112772
21
111.503374
0
LINE
8
Layer 1
10
8.112772
20
111.503374
11
9.339427
21
110.623893
0
LINE
8
Layer 1
10
9.339427
20
110.623893
11
11.048759
21
110.046643
0
LINE
8
Layer 1
10
11.048759
20
110.046643
11
12.453633
21
109.814168
0
LINE
8
Layer 1
10
12.453633
20
109.814168
11
13.936309
21
109.240554
0
LINE
8
Layer 1
10
13.936309
20
109.240554
11
15.315494
21
108.423622
0
LINE
8
Layer 1
10
15.315494
20
108.423622
11
16.409896
21
107.461188
0
LINE
8
Layer 1
10
16.409896
20
107.461188
11
17.038221
21
106.451070
0
LINE
8
Layer 1
10
17.038221
20
106.451070
11
17.120951
21
105.958697
0
LINE
8
Layer 1
10
17.120951
20
105.958697
11
17.019178
21
105.491085
0
LINE
8
Layer 1
10
17.019178
20
105.491085
11
16.710239
21
105.060462
0
LINE
8
Layer 1
10
16.710239
20
105.060462
11
16.171473
21
104.679053
0
LINE
8
Layer 1
10
16.171473
20
104.679053
11
15.380218
21
104.359087
0
LINE
8
Layer 1
10
15.380218
20
104.359087
11
14.313813
21
104.112790
0
LINE
8
Layer 1
10
14.313813
20
104.112790
11
12.322550
21
103.805601
0
LINE
8
Layer 1
10
12.322550
20
103.805601
11
12.436910
21
103.530011
0
LINE
8
Layer 1
10
12.436910
20
103.530011
11
13.205158
21
102.945838
0
LINE
8
Layer 1
10
13.205158
20
102.945838
11
11.117918
21
102.677948
0
LINE
8
Layer 1
10
11.117918
20
102.677948
11
9.314814
21
102.175277
0
LINE
8
Layer 1
10
9.314814
20
102.175277
11
8.862131
21
101.860925
0
LINE
8
Layer 1
10
8.862131
20
101.860925
11
8.891265
21
101.517909
0
LINE
8
Layer 1
10
8.891265
20
101.517909
11
9.539143
21
101.156240
0
LINE
8
Layer 1
10
9.539143
20
101.156240
11
10.942692
21
100.785927
0
LINE
8
Layer 1
10
10.942692
20
100.785927
11
13.759247
21
100.984683
0
LINE
8
Layer 1
10
13.759247
20
100.984683
11
15.152942
21
101.198749
0
LINE
8
Layer 1
10
15.152942
20
101.198749
11
16.509404
21
101.576767
0
LINE
8
Layer 1
10
16.509404
20
101.576767
11
16.509404
21
101.576767
0
LINE
8
Layer 1
10
12.135556
20
101.553747
11
13.015830
21
102.307879
0
LINE
8
Layer 1
10
13.015830
20
102.307879
11
14.233344
21
103.053822
0
LINE
8
Layer 1
10
14.233344
20
103.053822
11
15.573626
21
103.695898
0
LINE
8
Layer 1
10
15.573626
20
103.695898
11
16.822207
21
104.138430
0
LINE
8
Layer 1
10
16.822207
20
104.138430
11
17.764614
21
104.285741
0
LINE
8
Layer 1
10
17.764614
20
104.285741
11
18.053981
21
104.218788
0
LINE
8
Layer 1
10
18.053981
20
104.218788
11
18.186378
21
104.042151
0
LINE
8
Layer 1
10
18.186378
20
104.042151
11
17.873027
21
103.311984
0
LINE
8
Layer 1
10
17.873027
20
103.311984
11
16.610090
21
101.999562
0
LINE
8
Layer 1
10
16.610090
20
101.999562
11
14.376106
21
101.396677
0
LINE
8
Layer 1
10
14.376106
20
101.396677
11
13.217533
21
101.317380
0
LINE
8
Layer 1
10
13.217533
20
101.317380
11
12.135556
21
101.553747
0
LINE
8
Layer 1
10
12.135556
20
101.553747
11
12.135556
21
101.553747
0
LINE
8
Layer 1
10
16.923254
20
102.898347
11
16.787394
21
103.223200
0
LINE
8
Layer 1
10
16.787394
20
103.223200
11
16.375036
21
103.224045
0
LINE
8
Layer 1
10
16.375036
20
103.224045
11
15.313708
21
102.694181
0
LINE
8
Layer 1
10
15.313708
20
102.694181
11
14.961176
21
102.383703
0
LINE
8
Layer 1
10
14.961176
20
102.383703
11
14.925023
21
102.189683
0
LINE
8
Layer 1
10
14.925023
20
102.189683
11
15.353469
21
102.222238
0
LINE
8
Layer 1
10
15.353469
20
102.222238
11
16.394734
21
102.591483
0
LINE
8
Layer 1
10
16.394734
20
102.591483
11
16.923254
21
102.898346
0
LINE
8
Layer 1
10
16.923254
20
102.898346
11
16.923254
21
102.898347
0
LINE
8
Layer 1
10
16.923254
20
102.898347
11
16.923254
21
102.898347
0
LINE
8
Layer 1
10
12.275928
20
110.230022
11
11.032741
21
110.899807
0
LINE
8
Layer 1
10
11.032741
20
110.899807
11
10.845920
21
111.077099
0
LINE
8
Layer 1
10
10.845920
20
111.077099
11
10.887085
21
111.166933
0
LINE
8
Layer 1
10
10.887085
20
111.166933
11
12.403696
21
110.915793
0
LINE
8
Layer 1
10
12.403696
20
110.915793
11
13.856423
21
110.321768
0
LINE
8
Layer 1
10
13.856423
20
110.321768
11
13.861654
21
110.218729
0
LINE
8
Layer 1
10
13.861654
20
110.218729
11
13.630912
21
110.160287
0
LINE
8
Layer 1
10
13.630912
20
110.160287
11
12.275928
21
110.230022
0
LINE
8
Layer 1
10
12.275928
20
110.230022
11
12.275928
21
110.230022
0
LINE
8
Layer 1
10
9.093908
20
111.352669
11
8.595615
21
112.123871
0
LINE
8
Layer 1
10
8.595615
20
112.123871
11
8.579758
21
112.292780
0
LINE
8
Layer 1
10
8.579758
20
112.292780
11
8.682525
21
112.344727
0
LINE
8
Layer 1
10
8.682525
20
112.344727
11
9.726288
21
111.795406
0
LINE
8
Layer 1
10
9.726288
20
111.795406
11
10.240307
21
111.355232
0
LINE
8
Layer 1
10
10.240307
20
111.355232
11
10.453861
21
111.024716
0
LINE
8
Layer 1
10
10.453861
20
111.024716
11
10.145533
21
110.968862
0
LINE
8
Layer 1
10
10.145533
20
110.968862
11
9.093907
21
111.352670
0
LINE
8
Layer 1
10
9.093907
20
111.352670
11
9.093908
21
111.352669
0
LINE
8
Layer 1
10
9.093908
20
111.352669
11
9.093908
21
111.352669
0
LINE
8
Layer 1
10
7.776424
20
114.275222
11
7.967700
21
114.783206
0
LINE
8
Layer 1
10
7.967700
20
114.783206
11
8.321096
21
115.248729
0
LINE
8
Layer 1
10
8.321096
20
115.248729
11
9.379003
21
116.043101
0
LINE
8
Layer 1
10
9.379003
20
116.043101
11
10.679649
21
116.639752
0
LINE
8
Layer 1
10
10.679649
20
116.639752
11
11.952540
21
117.020097
0
LINE
8
Layer 1
10
11.952540
20
117.020097
11
12.927181
21
117.165550
0
LINE
8
Layer 1
10
12.927181
20
117.165550
11
13.333078
21
117.057526
0
LINE
8
Layer 1
10
13.333078
20
117.057526
11
12.899734
21
116.677439
0
LINE
8
Layer 1
10
12.899734
20
116.677439
11
11.356656
21
116.006702
0
LINE
8
Layer 1
10
11.356656
20
116.006702
11
10.477745
21
115.578581
0
LINE
8
Layer 1
10
10.477745
20
115.578581
11
9.544205
21
114.844966
0
LINE
8
Layer 1
10
9.544205
20
114.844966
11
8.621832
21
114.259349
0
LINE
8
Layer 1
10
8.621832
20
114.259349
11
8.185395
21
114.163756
0
LINE
8
Layer 1
10
8.185395
20
114.163756
11
7.776424
21
114.275222
0
LINE
8
Layer 1
10
7.776424
20
114.275222
11
7.776424
21
114.275222
 0 
ENDSEC
 0 
EOF
