  0
SECTION
  2
HEADER
  9
$ACADVER
  1
AC1009
  9
$DWGCODEPAGE
  3
ansi_1252
  9
$INSBASE
 10
0.0
 20
0.0
 30
0.0
  9
$EXTMIN
 10
282.9741072593324
 20
118.0756724231377
 30
0.0
  9
$EXTMAX
 10
306.9679792224069
 20
142.0749550564026
 30
0.0
  9
$LIMMIN
 10
0.0
 20
0.0
  9
$LIMMAX
 10
12.0
 20
9.0
  9
$ORTHOMODE
 70
     0
  9
$REGENMODE
 70
     1
  9
$FILLMODE
 70
     1
  9
$QTEXTMODE
 70
     0
  9
$MIRRTEXT
 70
     0
  9
$DRAGMODE
 70
     2
  9
$LTSCALE
 40
1.0
  9
$OSMODE
 70
    37
  9
$ATTMODE
 70
     1
  9
$TEXTSIZE
 40
0.2
  9
$TRACEWID
 40
0.05
  9
$TEXTSTYLE
  7
STANDARD
  9
$CLAYER
  8
CUSTOM
  9
$CELTYPE
  6
CONTINUOUS
  9
$CECOLOR
 62
   256
  9
$DIMSCALE
 40
1.0
  9
$DIMASZ
 40
0.18
  9
$DIMEXO
 40
0.0625
  9
$DIMDLI
 40
0.38
  9
$DIMRND
 40
0.0
  9
$DIMDLE
 40
0.0
  9
$DIMEXE
 40
0.18
  9
$DIMTP
 40
0.0
  9
$DIMTM
 40
0.0
  9
$DIMTXT
 40
0.18
  9
$DIMCEN
 40
0.09
  9
$DIMTSZ
 40
0.0
  9
$DIMTOL
 70
     0
  9
$DIMLIM
 70
     0
  9
$DIMTIH
 70
     1
  9
$DIMTOH
 70
     1
  9
$DIMSE1
 70
     0
  9
$DIMSE2
 70
     0
  9
$DIMTAD
 70
     0
  9
$DIMZIN
 70
     0
  9
$DIMBLK
  1

  9
$DIMASO
 70
     1
  9
$DIMSHO
 70
     1
  9
$DIMPOST
  1

  9
$DIMAPOST
  1

  9
$DIMALT
 70
     0
  9
$DIMALTD
 70
     2
  9
$DIMALTF
 40
25.4
  9
$DIMLFAC
 40
1.0
  9
$DIMTOFL
 70
     0
  9
$DIMTVP
 40
0.0
  9
$DIMTIX
 70
     0
  9
$DIMSOXD
 70
     0
  9
$DIMSAH
 70
     0
  9
$DIMBLK1
  1

  9
$DIMBLK2
  1

  9
$DIMSTYLE
  2
STANDARD
  9
$DIMCLRD
 70
     0
  9
$DIMCLRE
 70
     0
  9
$DIMCLRT
 70
     0
  9
$DIMTFAC
 40
1.0
  9
$DIMGAP
 40
0.09
  9
$LUNITS
 70
     2
  9
$LUPREC
 70
     4
  9
$SKETCHINC
 40
0.1
  9
$FILLETRAD
 40
0.0
  9
$AUNITS
 70
     0
  9
$AUPREC
 70
     0
  9
$MENU
  1
.
  9
$ELEVATION
 40
0.0
  9
$PELEVATION
 40
0.0
  9
$THICKNESS
 40
0.0
  9
$LIMCHECK
 70
     0
  9
$CHAMFERA
 40
0.0
  9
$CHAMFERB
 40
0.0
  9
$SKPOLY
 70
     0
  9
$TDCREATE
 40
2453353.508792488
  9
$TDUPDATE
 40
4910513.853779259
  9
$TDINDWG
 40
4895786.051922963
  9
$TDUSRTIMER
 40
4895786.051922963
  9
$USRTIMER
 70
     1
  9
$ANGBASE
 50
0.0
  9
$ANGDIR
 70
     0
  9
$PDMODE
 70
     0
  9
$PDSIZE
 40
0.0
  9
$PLINEWID
 40
0.0
  9
$COORDS
 70
     1
  9
$SPLFRAME
 70
     0
  9
$SPLINETYPE
 70
     6
  9
$SPLINESEGS
 70
     8
  9
$ATTDIA
 70
     0
  9
$ATTREQ
 70
     1
  9
$HANDLING
 70
     1
  9
$HANDSEED
  5
B4F
  9
$SURFTAB1
 70
     6
  9
$SURFTAB2
 70
     6
  9
$SURFTYPE
 70
     6
  9
$SURFU
 70
     6
  9
$SURFV
 70
     6
  9
$UCSNAME
  2

  9
$UCSORG
 10
0.0
 20
0.0
 30
0.0
  9
$UCSXDIR
 10
1.0
 20
0.0
 30
0.0
  9
$UCSYDIR
 10
0.0
 20
1.0
 30
0.0
  9
$PUCSNAME
  2

  9
$PUCSORG
 10
0.0
 20
0.0
 30
0.0
  9
$PUCSXDIR
 10
1.0
 20
0.0
 30
0.0
  9
$PUCSYDIR
 10
0.0
 20
1.0
 30
0.0
  9
$USERI1
 70
     0
  9
$USERI2
 70
     0
  9
$USERI3
 70
     0
  9
$USERI4
 70
     0
  9
$USERI5
 70
     0
  9
$USERR1
 40
0.0
  9
$USERR2
 40
0.0
  9
$USERR3
 40
0.0
  9
$USERR4
 40
0.0
  9
$USERR5
 40
0.0
  9
$WORLDVIEW
 70
     1
  9
$SHADEDGE
 70
     3
  9
$SHADEDIF
 70
    70
  9
$TILEMODE
 70
     1
  9
$MAXACTVP
 70
    64
  9
$PLIMCHECK
 70
     0
  9
$PEXTMIN
 10
0.0
 20
0.0
 30
0.0
  9
$PEXTMAX
 10
0.0
 20
0.0
 30
0.0
  9
$PLIMMIN
 10
0.0
 20
0.0
  9
$PLIMMAX
 10
0.0
 20
0.0
  9
$UNITMODE
 70
     0
  9
$VISRETAIN
 70
     1
  9
$PLINEGEN
 70
     0
  9
$PSLTSCALE
 70
     1
  0
ENDSEC
  0
SECTION
  2
TABLES
  0
TABLE
  2
VPORT
 70
     1
  0
VPORT
  2
*ACTIVE
 70
     0
 10
0.0
 20
0.0
 11
1.0
 21
1.0
 12
297.2749747478262
 22
130.5353858243584
 13
0.0
 23
0.0
 14
1.0
 24
1.0
 15
0.0
 25
0.0
 16
0.0
 26
0.0
 36
1.0
 17
0.0
 27
0.0
 37
0.0
 40
25.39144522097872
 41
1.819301848049281
 42
50.0
 43
0.0
 44
0.0
 50
0.0
 51
0.0
 71
    16
 72
  1000
 73
     1
 74
     1
 75
     0
 76
     0
 77
     0
 78
     0
  0
ENDTAB
  0
TABLE
  2
LTYPE
 70
     1
  0
LTYPE
  2
CONTINUOUS
 70
     0
  3
Solid line
 72
    65
 73
     0
 40
0.0
  0
ENDTAB
  0
TABLE
  2
LAYER
 70
     5
  0
LAYER
  2
0
 70
     0
 62
     7
  6
CONTINUOUS
  0
LAYER
  2
LAYER_1
 70
     0
 62
     7
  6
CONTINUOUS
  0
LAYER
  2
DEFPOINTS
 70
     0
 62
     7
  6
CONTINUOUS
  0
LAYER
  2
CUSTOM
 70
     0
 62
   212
  6
CONTINUOUS
  0
LAYER
  2
DEFAULT
 70
     0
 62
    14
  6
CONTINUOUS
  0
ENDTAB
  0
TABLE
  2
STYLE
 70
     1
  0
STYLE
  2
STANDARD
 70
     0
 40
0.0
 41
1.0
 50
0.0
 71
     0
 42
0.2
  3
txt
  4

  0
ENDTAB
  0
TABLE
  2
VIEW
 70
     0
  0
ENDTAB
  0
TABLE
  2
UCS
 70
     0
  0
ENDTAB
  0
TABLE
  2
APPID
 70
     3
  0
APPID
  2
ACAD
 70
     0
  0
APPID
  2
ACAD_EXEMPT_FROM_CAD_STAND
 70
     0
  0
APPID
  2
ACAECLAYERSTANDARD
 70
     0
  0
ENDTAB
  0
TABLE
  2
DIMSTYLE
 70
     1
  0
DIMSTYLE
  2
STANDARD
 70
     0
  3

  4

  5

  6

  7

 40
1.0
 41
0.18
 42
0.0625
 43
0.38
 44
0.18
 45
0.0
 46
0.0
 47
0.0
 48
0.0
140
0.18
141
0.09
142
0.0
143
25.4
144
1.0
145
0.0
146
1.0
147
0.09
 71
     0
 72
     0
 73
     1
 74
     1
 75
     0
 76
     0
 77
     0
 78
     0
170
     0
171
     2
172
     0
173
     0
174
     0
175
     0
176
     0
177
     0
178
     0
  0
ENDTAB
  0
ENDSEC
  0
SECTION
  2
BLOCKS
  0
BLOCK
  8
0
  2
$MODEL_SPACE
 70
     0
 10
0.0
 20
0.0
 30
0.0
  3
$MODEL_SPACE
  1

  0
ENDBLK
  5
21
  8
0
  0
BLOCK
 67
     1
  8
0
  2
$PAPER_SPACE
 70
     0
 10
0.0
 20
0.0
 30
0.0
  3
$PAPER_SPACE
  1

  0
ENDBLK
  5
76
 67
     1
  8
0
  0
BLOCK
  8
0
  2
*D0
 70
     1
 10
0.0
 20
0.0
 30
0.0
  3
*D0
  1

  0
LINE
  5
A17
  8
0
  6
CONTINUOUS
 62
     0
 10
296.0188946299513
 20
139.1805248526652
 30
0.0
 11
309.8418658061053
 21
139.1805248526652
 31
0.0
  0
LINE
  5
A18
  8
0
  6
CONTINUOUS
 62
     0
 10
295.9797066075007
 20
121.5677471549306
 30
0.0
 11
309.8418658061052
 21
121.5677471549306
 31
0.0
  0
LINE
  5
A19
  8
0
  6
CONTINUOUS
 62
     0
 10
309.6618658061053
 20
139.0005248526652
 30
0.0
 11
309.6618658061053
 21
130.5541360037979
 31
0.0
  0
LINE
  5
A1A
  8
0
  6
CONTINUOUS
 62
     0
 10
309.6618658061052
 20
121.7477471549306
 30
0.0
 11
309.6618658061053
 21
130.1941360037979
 31
0.0
  0
SOLID
  5
A1B
  8
0
  6
CONTINUOUS
 62
     0
 10
309.6318658061053
 20
139.0005248526652
 30
0.0
 11
309.6918658061052
 21
139.0005248526652
 31
0.0
 12
309.6618658061053
 22
139.1805248526652
 32
0.0
 13
309.6618658061053
 23
139.1805248526652
 33
0.0
  0
SOLID
  5
A1C
  8
0
  6
CONTINUOUS
 62
     0
 10
309.6318658061051
 20
121.7477471549306
 30
0.0
 11
309.6918658061052
 21
121.7477471549306
 31
0.0
 12
309.6618658061052
 22
121.5677471549306
 32
0.0
 13
309.6618658061052
 23
121.5677471549306
 33
0.0
  0
INSERT
  5
A1D
  8
CUSTOM
  6
CONTINUOUS
  2
*U3
 10
0.0
 20
0.0
 30
0.0
  0
POINT
  5
A1E
  8
DEFPOINTS
  6
CONTINUOUS
 62
     0
 10
295.9563946299513
 20
139.1805248526652
 30
0.0
  0
POINT
  5
A1F
  8
DEFPOINTS
  6
CONTINUOUS
 62
     0
 10
295.9172066075007
 20
121.5677471549306
 30
0.0
  0
POINT
  5
A20
  8
DEFPOINTS
  6
CONTINUOUS
 62
     0
 10
309.6618658061052
 20
121.5677471549306
 30
0.0
  0
ENDBLK
  5
B30
  8
0
  0
BLOCK
  8
0
  2
*D1
 70
     1
 10
0.0
 20
0.0
 30
0.0
  3
*D1
  1

  0
LINE
  5
A2B
  8
0
  6
CONTINUOUS
 62
     0
 10
253.94757374285
 20
150.8707323395977
 30
0.0
 11
253.7675737428501
 21
150.8707323395977
 31
0.0
  0
LINE
  5
A2C
  8
0
  6
CONTINUOUS
 62
     0
 10
253.7675737428501
 20
150.8707323395977
 30
0.0
 11
242.7782608354649
 21
147.8708531732624
 31
0.0
  0
INSERT
  5
A2D
  8
CUSTOM
  6
CONTINUOUS
  2
*U4
 10
0.0
 20
0.0
 30
0.0
  0
SOLID
  5
A2E
  8
0
  6
CONTINUOUS
 62
     0
 10
242.7703604651714
 20
147.89979421936
 30
0.0
 11
242.7861612057585
 21
147.8419121271647
 31
0.0
 12
242.6046145588792
 22
147.823450951501
 32
0.0
 13
242.6046145588792
 23
147.823450951501
 33
0.0
  0
LINE
  5
A2F
  8
0
  6
CONTINUOUS
 62
     0
 10
230.9381961198313
 20
144.6633028340749
 30
0.0
 11
231.1181961198313
 21
144.6633028340749
 31
0.0
  0
LINE
  5
A30
  8
0
  6
CONTINUOUS
 62
     0
 10
231.0281961198313
 20
144.5733028340749
 30
0.0
 11
231.0281961198313
 21
144.7533028340749
 31
0.0
  0
POINT
  5
A31
  8
DEFPOINTS
  6
CONTINUOUS
 62
     0
 10
242.6046145588792
 20
147.823450951501
 30
0.0
  0
POINT
  5
A32
  8
DEFPOINTS
  6
CONTINUOUS
 62
     0
 10
219.4517776807835
 20
141.5031547166488
 30
0.0
  0
ENDBLK
  5
B32
  8
0
  0
BLOCK
  8
0
  2
*D2
 70
     1
 10
0.0
 20
0.0
 30
0.0
  3
*D2
  1

  0
LINE
  5
A37
  8
0
  6
CONTINUOUS
 62
     0
 10
314.849346968476
 20
133.1794873996474
 30
0.0
 11
306.32848812769
 21
131.8956969593566
 31
0.0
  0
INSERT
  5
A38
  8
CUSTOM
  6
CONTINUOUS
  2
*U5
 10
0.0
 20
0.0
 30
0.0
  0
SOLID
  5
A39
  8
0
  6
CONTINUOUS
 62
     0
 10
306.3240186379833
 20
131.9253621521212
 30
0.0
 11
306.3329576173966
 21
131.8660317665919
 31
0.0
 12
306.1504969711023
 22
131.8688800211167
 32
0.0
 13
306.1504969711023
 23
131.8688800211167
 33
0.0
  0
LINE
  5
A3A
  8
0
  6
CONTINUOUS
 62
     0
 10
294.194419865253
 20
130.0810841384615
 30
0.0
 11
294.3744198652529
 21
130.0810841384615
 31
0.0
  0
LINE
  5
A3B
  8
0
  6
CONTINUOUS
 62
     0
 10
294.2844198652529
 20
129.9910841384615
 30
0.0
 11
294.2844198652529
 21
130.1710841384615
 31
0.0
  0
POINT
  5
A3C
  8
DEFPOINTS
  6
CONTINUOUS
 62
     0
 10
306.1504969711023
 20
131.8688800211167
 30
0.0
  0
POINT
  5
A3D
  8
DEFPOINTS
  6
CONTINUOUS
 62
     0
 10
282.4183427594037
 20
128.2932882558063
 30
0.0
  0
ENDBLK
  5
B34
  8
0
  0
BLOCK
  8
0
  2
*U3
 70
     1
 10
0.0
 20
0.0
 30
0.0
  3
*U3
  1

  0
TEXT
  5
AC4
  8
0
  6
CONTINUOUS
 62
     0
 10
309.1818658061052
 20
130.284136003798
 30
0.0
 40
0.18
  1
17.6128
  0
ENDBLK
  5
B36
  8
0
  0
BLOCK
  8
0
  2
*U4
 70
     1
 10
0.0
 20
0.0
 30
0.0
  3
*U4
  1

  0
TEXT
  5
AC8
  8
0
  6
CONTINUOUS
 62
     0
 10
254.0375737428501
 20
150.7807323395977
 30
0.0
 40
0.18
  1
\U+220524.0000
  0
ENDBLK
  5
B38
  8
0
  0
BLOCK
  8
0
  2
*U5
 70
     1
 10
0.0
 20
0.0
 30
0.0
  3
*U5
  1

  0
TEXT
  5
ACC
  8
0
  6
CONTINUOUS
 62
     0
 10
314.9393469684762
 20
133.0894873996474
 30
0.0
 40
0.18
  1
\U+220524.0000
  0
ENDBLK
  5
B3A
  8
0
  0
ENDSEC
  0
SECTION
  2
ENTITIES
  0
LINE
  5
3B
  8
LAYER_1
 10
295.8674521899407
 20
118.3468003200201
 30
0.0
 11
295.6786421571409
 21
118.4624447776743
 31
0.0
  0
LINE
  5
3C
  8
LAYER_1
 10
295.6786421571409
 20
118.4624447776743
 30
0.0
 11
295.5063957569245
 21
118.6181911320393
 31
0.0
  0
LINE
  5
3D
  8
LAYER_1
 10
295.5063957569245
 20
118.6181911320393
 30
0.0
 11
295.3529937823812
 21
118.8115941380794
 31
0.0
  0
LINE
  5
3E
  8
LAYER_1
 10
295.3529937823812
 20
118.8115941380794
 30
0.0
 11
295.220717026601
 21
119.0402081444522
 31
0.0
  0
LINE
  5
3F
  8
LAYER_1
 10
295.220717026601
 20
119.0402081444522
 30
0.0
 11
295.1204350623864
 21
119.2629233133296
 31
0.0
  0
LINE
  5
40
  8
LAYER_1
 10
295.1204350623864
 20
119.2629233133296
 30
0.0
 11
295.0604554048251
 21
119.4309031047921
 31
0.0
  0
LINE
  5
41
  8
LAYER_1
 10
295.0604554048251
 20
119.4309031047921
 30
0.0
 11
294.9986408739036
 21
119.6745732506394
 31
0.0
  0
LINE
  5
42
  8
LAYER_1
 10
294.9986408739036
 20
119.6745732506394
 30
0.0
 11
294.9771316969203
 21
119.8566091634078
 31
0.0
  0
LINE
  5
43
  8
LAYER_1
 10
294.9771316969203
 20
119.8566091634078
 30
0.0
 11
294.9682967979546
 21
120.133246490253
 31
0.0
  0
LINE
  5
44
  8
LAYER_1
 10
294.9682967979546
 20
120.133246490253
 30
0.0
 11
294.9811548274057
 21
120.4487568443512
 31
0.0
  0
LINE
  5
45
  8
LAYER_1
 10
294.9811548274057
 20
120.4487568443512
 30
0.0
 11
295.0323973023541
 21
120.6779208861109
 31
0.0
  0
LINE
  5
46
  8
LAYER_1
 10
295.0323973023541
 20
120.6779208861109
 30
0.0
 11
295.1211436582988
 21
120.9248229850419
 31
0.0
  0
LINE
  5
47
  8
LAYER_1
 10
295.1211436582988
 20
120.9248229850419
 30
0.0
 11
295.2186288220783
 21
121.1244277289505
 31
0.0
  0
LINE
  5
48
  8
LAYER_1
 10
295.2186288220783
 20
121.1244277289505
 30
0.0
 11
295.3367794705183
 21
121.2973388441387
 31
0.0
  0
LINE
  5
49
  8
LAYER_1
 10
295.3367794705183
 20
121.2973388441387
 30
0.0
 11
295.4875222804441
 21
121.464160158484
 31
0.0
  0
LINE
  5
4A
  8
LAYER_1
 10
295.4875222804441
 20
121.464160158484
 30
0.0
 11
295.7008821752348
 21
121.6770578813419
 31
0.0
  0
LINE
  5
4B
  8
LAYER_1
 10
295.7008821752348
 20
121.6770578813419
 30
0.0
 11
295.6651530344566
 21
121.7938314605768
 31
0.0
  0
LINE
  5
4C
  8
LAYER_1
 10
295.6651530344566
 20
121.7938314605768
 30
0.0
 11
295.5492072000726
 21
122.2220011495304
 31
0.0
  0
LINE
  5
4D
  8
LAYER_1
 10
295.5492072000726
 20
122.2220011495304
 30
0.0
 11
295.5281634454604
 21
122.371910831065
 31
0.0
  0
LINE
  5
4E
  8
LAYER_1
 10
295.5281634454604
 20
122.371910831065
 30
0.0
 11
295.5224107761875
 21
122.5269471674508
 31
0.0
  0
LINE
  5
4F
  8
LAYER_1
 10
295.5224107761875
 20
122.5269471674508
 30
0.0
 11
295.5319100853973
 21
122.7140889119401
 31
0.0
  0
LINE
  5
50
  8
LAYER_1
 10
295.5319100853973
 20
122.7140889119401
 30
0.0
 11
295.5616372887878
 21
122.9116341974051
 31
0.0
  0
LINE
  5
51
  8
LAYER_1
 10
295.5616372887878
 20
122.9116341974051
 30
0.0
 11
295.612019006603
 21
123.1207701454653
 31
0.0
  0
LINE
  5
52
  8
LAYER_1
 10
295.612019006603
 20
123.1207701454653
 30
0.0
 11
295.6834814527857
 21
123.3426840808921
 31
0.0
  0
LINE
  5
53
  8
LAYER_1
 10
295.6834814527857
 20
123.3426840808921
 30
0.0
 11
295.8913548080733
 21
123.8295953145123
 31
0.0
  0
LINE
  5
54
  8
LAYER_1
 10
295.8913548080733
 20
123.8295953145123
 30
0.0
 11
296.1886690976943
 21
124.3818662932879
 31
0.0
  0
LINE
  5
55
  8
LAYER_1
 10
296.1886690976943
 20
124.3818662932879
 30
0.0
 11
296.3009229401642
 21
124.5956630675225
 31
0.0
  0
LINE
  5
56
  8
LAYER_1
 10
296.3009229401642
 20
124.5956630675225
 30
0.0
 11
296.3678034849163
 21
124.7928844263302
 31
0.0
  0
LINE
  5
57
  8
LAYER_1
 10
296.3678034849163
 20
124.7928844263302
 30
0.0
 11
296.4000535375967
 21
125.0194577658649
 31
0.0
  0
LINE
  5
58
  8
LAYER_1
 10
296.4000535375967
 20
125.0194577658649
 30
0.0
 11
296.4084163101583
 21
125.3213101775533
 31
0.0
  0
LINE
  5
B3B
  8
LAYER_1
 10
296.4084163101583
 20
125.3213101775533
 30
0.0
 11
296.3950218565369
 21
125.6460074938953
 31
0.0
  0
LINE
  5
B3C
  8
LAYER_1
 10
296.3950218565369
 20
125.6460074938953
 30
0.0
 11
296.3473633979516
 21
125.9108405432942
 31
0.0
  0
LINE
  5
5B
  8
LAYER_1
 10
296.3473633979516
 20
125.9108405432942
 30
0.0
 11
296.3026690358809
 21
126.1357827714257
 31
0.0
  0
LINE
  5
5C
  8
LAYER_1
 10
296.3026690358809
 20
126.1357827714257
 30
0.0
 11
296.3220518156712
 21
126.2961371323168
 31
0.0
  0
LINE
  5
5D
  8
LAYER_1
 10
296.3220518156712
 20
126.2961371323168
 30
0.0
 11
296.3842977409212
 21
126.4976172785068
 31
0.0
  0
LINE
  5
B3D
  8
LAYER_1
 10
296.3842977409212
 20
126.4976172785068
 30
0.0
 11
296.462614450794
 21
126.6876381001915
 31
0.0
  0
LINE
  5
5F
  8
LAYER_1
 10
296.462614450794
 20
126.6876381001915
 30
0.0
 11
296.539552669395
 21
126.8289598146206
 31
0.0
  0
LINE
  5
60
  8
LAYER_1
 10
296.539552669395
 20
126.8289598146206
 30
0.0
 11
296.597663120829
 21
126.8843425374692
 31
0.0
  0
LINE
  5
61
  8
LAYER_1
 10
296.597663120829
 20
126.8843425374692
 30
0.0
 11
296.6390342127663
 21
126.8689156446864
 31
0.0
  0
LINE
  5
62
  8
LAYER_1
 10
296.6390342127663
 20
126.8689156446864
 30
0.0
 11
296.6571806064591
 21
126.8269263596964
 31
0.0
  0
LINE
  5
63
  8
LAYER_1
 10
296.6571806064591
 20
126.8269263596964
 30
0.0
 11
296.6513414957966
 21
126.7648115693844
 31
0.0
  0
LINE
  5
64
  8
LAYER_1
 10
296.6513414957966
 20
126.7648115693844
 30
0.0
 11
296.6207558715291
 21
126.6890082622107
 31
0.0
  0
LINE
  5
65
  8
LAYER_1
 10
296.6207558715291
 20
126.6890082622107
 30
0.0
 11
296.5783995915527
 21
126.5462885538702
 31
0.0
  0
LINE
  5
66
  8
LAYER_1
 10
296.5783995915527
 20
126.5462885538702
 30
0.0
 11
296.5664467080537
 21
126.3545860358109
 31
0.0
  0
LINE
  5
67
  8
LAYER_1
 10
296.5664467080537
 20
126.3545860358109
 30
0.0
 11
296.5844148354283
 21
126.1460082492378
 31
0.0
  0
LINE
  5
68
  8
LAYER_1
 10
296.5844148354283
 20
126.1460082492378
 30
0.0
 11
296.631821384919
 21
125.9526626337781
 31
0.0
  0
LINE
  5
69
  8
LAYER_1
 10
296.631821384919
 20
125.9526626337781
 30
0.0
 11
296.769394935767
 21
125.5656571259462
 31
0.0
  0
LINE
  5
6A
  8
LAYER_1
 10
296.769394935767
 20
125.5656571259462
 30
0.0
 11
296.8172799093895
 21
125.3992657838618
 31
0.0
  0
LINE
  5
B3E
  8
LAYER_1
 10
296.8172799093895
 20
125.3992657838618
 30
0.0
 11
296.8437600248348
 21
125.2293694517373
 31
0.0
  0
LINE
  5
B3F
  8
LAYER_1
 10
296.8437600248348
 20
125.2293694517373
 30
0.0
 11
296.8489515869095
 21
125.0567370617756
 31
0.0
  0
LINE
  5
6D
  8
LAYER_1
 10
296.8489515869095
 20
125.0567370617756
 30
0.0
 11
296.8329710019942
 21
124.8821377493329
 31
0.0
  0
LINE
  5
6E
  8
LAYER_1
 10
296.8329710019942
 20
124.8821377493329
 30
0.0
 11
296.7959346764713
 21
124.7063403450353
 31
0.0
  0
LINE
  5
6F
  8
LAYER_1
 10
296.7959346764713
 20
124.7063403450353
 30
0.0
 11
296.7379588135667
 21
124.530114085816
 31
0.0
  0
LINE
  5
70
  8
LAYER_1
 10
296.7379588135667
 20
124.530114085816
 30
0.0
 11
296.6591599212414
 21
124.3542277007246
 31
0.0
  0
LINE
  5
71
  8
LAYER_1
 10
296.6591599212414
 20
124.3542277007246
 30
0.0
 11
296.5596543042996
 21
124.1794504266938
 31
0.0
  0
LINE
  5
72
  8
LAYER_1
 10
296.5596543042996
 20
124.1794504266938
 30
0.0
 11
296.06441138045
 21
123.2796912654858
 31
0.0
  0
LINE
  5
B40
  8
LAYER_1
 10
296.06441138045
 20
123.2796912654858
 30
0.0
 11
296.0228853847302
 21
123.1762887773339
 31
0.0
  0
LINE
  5
B41
  8
LAYER_1
 10
296.0228853847302
 20
123.1762887773339
 30
0.0
 11
295.9415083856344
 21
122.943705171159
 31
0.0
  0
LINE
  5
B42
  8
LAYER_1
 10
295.9415083856344
 20
122.943705171159
 30
0.0
 11
295.9024912216831
 21
122.6949417890461
 31
0.0
  0
LINE
  5
B43
  8
LAYER_1
 10
295.9024912216831
 20
122.6949417890461
 30
0.0
 11
295.9061765095649
 21
122.4349318846681
 31
0.0
  0
LINE
  5
77
  8
LAYER_1
 10
295.9061765095649
 20
122.4349318846681
 30
0.0
 11
295.9529070691177
 21
122.1686087117006
 31
0.0
  0
LINE
  5
78
  8
LAYER_1
 10
295.9529070691177
 20
122.1686087117006
 30
0.0
 11
296.0416600275192
 21
121.7949282809112
 31
0.0
  0
LINE
  5
79
  8
LAYER_1
 10
296.0416600275192
 20
121.7949282809112
 30
0.0
 11
296.0878861594225
 21
121.5260956667174
 31
0.0
  0
LINE
  5
7A
  8
LAYER_1
 10
296.0878861594225
 20
121.5260956667174
 30
0.0
 11
296.0946761253482
 21
121.335315968878
 31
0.0
  0
LINE
  5
7B
  8
LAYER_1
 10
296.0946761253482
 20
121.335315968878
 30
0.0
 11
296.0651208905461
 21
121.1957944903058
 31
0.0
  0
LINE
  5
7C
  8
LAYER_1
 10
296.0651208905461
 20
121.1957944903058
 30
0.0
 11
296.0260181993947
 21
121.1347312173212
 31
0.0
  0
LINE
  5
7D
  8
LAYER_1
 10
296.0260181993947
 20
121.1347312173212
 30
0.0
 11
295.979171639765
 21
121.1225037732227
 31
0.0
  0
LINE
  5
7E
  8
LAYER_1
 10
295.979171639765
 20
121.1225037732227
 30
0.0
 11
295.9320878995935
 21
121.1573077575265
 31
0.0
  0
LINE
  5
7F
  8
LAYER_1
 10
295.9320878995935
 20
121.1573077575265
 30
0.0
 11
295.8922736668195
 21
121.2373390744786
 31
0.0
  0
LINE
  5
80
  8
LAYER_1
 10
295.8922736668195
 20
121.2373390744786
 30
0.0
 11
295.8469872167941
 21
121.3492856487956
 31
0.0
  0
LINE
  5
81
  8
LAYER_1
 10
295.8469872167941
 20
121.3492856487956
 30
0.0
 11
295.8245832546361
 21
121.3764212357747
 31
0.0
  0
LINE
  5
82
  8
LAYER_1
 10
295.8245832546361
 20
121.3764212357747
 30
0.0
 11
295.7997186078493
 21
121.3841304667524
 31
0.0
  0
LINE
  5
83
  8
LAYER_1
 10
295.7997186078493
 20
121.3841304667524
 30
0.0
 11
295.7347461729311
 21
121.3406659899015
 31
0.0
  0
LINE
  5
84
  8
LAYER_1
 10
295.7347461729311
 20
121.3406659899015
 30
0.0
 11
295.6363485497083
 21
121.2176848829509
 31
0.0
  0
LINE
  5
85
  8
LAYER_1
 10
295.6363485497083
 20
121.2176848829509
 30
0.0
 11
295.501540412233
 21
121.0097680530282
 31
0.0
  0
LINE
  5
86
  8
LAYER_1
 10
295.501540412233
 20
121.0097680530282
 30
0.0
 11
295.4178493030377
 21
120.8076839344631
 31
0.0
  0
LINE
  5
87
  8
LAYER_1
 10
295.4178493030377
 20
120.8076839344631
 30
0.0
 11
295.375782109064
 21
120.5789078123976
 31
0.0
  0
LINE
  5
88
  8
LAYER_1
 10
295.375782109064
 20
120.5789078123976
 30
0.0
 11
295.3658458188332
 21
120.2909153782783
 31
0.0
  0
LINE
  5
89
  8
LAYER_1
 10
295.3658458188332
 20
120.2909153782783
 30
0.0
 11
295.3841927240391
 21
119.9420725749922
 31
0.0
  0
LINE
  5
8A
  8
LAYER_1
 10
295.3841927240391
 20
119.9420725749922
 30
0.0
 11
295.4152737356735
 21
119.8076793764918
 31
0.0
  0
LINE
  5
8B
  8
LAYER_1
 10
295.4152737356735
 20
119.8076793764918
 30
0.0
 11
295.4711967425891
 21
119.6363704234759
 31
0.0
  0
LINE
  5
8C
  8
LAYER_1
 10
295.4711967425891
 20
119.6363704234759
 30
0.0
 11
295.6354613827534
 21
119.2494003657539
 31
0.0
  0
LINE
  5
8D
  8
LAYER_1
 10
295.6354613827534
 20
119.2494003657539
 30
0.0
 11
295.8295642491465
 21
118.92834455793
 31
0.0
  0
LINE
  5
8E
  8
LAYER_1
 10
295.8295642491465
 20
118.92834455793
 30
0.0
 11
295.929628637035
 21
118.803803950832
 31
0.0
  0
LINE
  5
8F
  8
LAYER_1
 10
295.929628637035
 20
118.803803950832
 30
0.0
 11
296.0273411284591
 21
118.7092653108774
 31
0.0
  0
LINE
  5
90
  8
LAYER_1
 10
296.0273411284591
 20
118.7092653108774
 30
0.0
 11
296.1194311713598
 21
118.6492363888338
 31
0.0
  0
LINE
  5
91
  8
LAYER_1
 10
296.1194311713598
 20
118.6492363888338
 30
0.0
 11
296.2026282136831
 21
118.6282250370461
 31
0.0
  0
LINE
  5
B44
  8
LAYER_1
 10
296.2026282136831
 20
118.6282250370461
 30
0.0
 11
296.2642082050454
 21
118.6382151626893
 31
0.0
  0
LINE
  5
B45
  8
LAYER_1
 10
296.2642082050454
 20
118.6382151626893
 30
0.0
 11
296.329425946604
 21
118.6906993057023
 31
0.0
  0
LINE
  5
94
  8
LAYER_1
 10
296.329425946604
 20
118.6906993057023
 30
0.0
 11
296.5935923510814
 21
119.0582311230011
 31
0.0
  0
LINE
  5
95
  8
LAYER_1
 10
296.5935923510814
 20
119.0582311230011
 30
0.0
 11
296.8446998082896
 21
119.3882116231949
 31
0.0
  0
LINE
  5
96
  8
LAYER_1
 10
296.8446998082896
 20
119.3882116231949
 30
0.0
 11
296.9393336251876
 21
119.4829780986757
 31
0.0
  0
LINE
  5
B46
  8
LAYER_1
 10
296.9393336251876
 20
119.4829780986757
 30
0.0
 11
297.0009005132147
 21
119.5169043626134
 31
0.0
  0
LINE
  5
B47
  8
LAYER_1
 10
297.0009005132147
 20
119.5169043626134
 30
0.0
 11
297.0485211854357
 21
119.4927707600916
 31
0.0
  0
LINE
  5
99
  8
LAYER_1
 10
297.0485211854357
 20
119.4927707600916
 30
0.0
 11
297.0778353797988
 21
119.4124447704417
 31
0.0
  0
LINE
  5
9A
  8
LAYER_1
 10
297.0778353797988
 20
119.4124447704417
 30
0.0
 11
297.091053903357
 21
119.2640387221174
 31
0.0
  0
LINE
  5
9B
  8
LAYER_1
 10
297.091053903357
 20
119.2640387221174
 30
0.0
 11
297.0903870552849
 21
119.0356647404206
 31
0.0
  0
LINE
  5
9C
  8
LAYER_1
 10
297.0903870552849
 20
119.0356647404206
 30
0.0
 11
297.0768074281608
 21
118.7635428841391
 31
0.0
  0
LINE
  5
9D
  8
LAYER_1
 10
297.0768074281608
 20
118.7635428841391
 30
0.0
 11
297.0570739055826
 21
118.621058223237
 31
0.0
  0
LINE
  5
9E
  8
LAYER_1
 10
297.0570739055826
 20
118.621058223237
 30
0.0
 11
297.0483901520747
 21
118.5823622433852
 31
0.0
  0
LINE
  5
9F
  8
LAYER_1
 10
297.0483901520747
 20
118.5823622433852
 30
0.0
 11
297.0763318481636
 21
118.5708909328822
 31
0.0
  0
LINE
  5
A0
  8
LAYER_1
 10
297.0763318481636
 20
118.5708909328822
 30
0.0
 11
297.1895313655104
 21
118.6535760309101
 31
0.0
  0
LINE
  5
A1
  8
LAYER_1
 10
297.1895313655104
 20
118.6535760309101
 30
0.0
 11
297.3866801988757
 21
118.856821775456
 31
0.0
  0
LINE
  5
A2
  8
LAYER_1
 10
297.3866801988757
 20
118.856821775456
 30
0.0
 11
297.6067880070237
 21
119.1134137406392
 31
0.0
  0
LINE
  5
A3
  8
LAYER_1
 10
297.6067880070237
 20
119.1134137406392
 30
0.0
 11
297.7888646518683
 21
119.3561373989999
 31
0.0
  0
LINE
  5
A4
  8
LAYER_1
 10
297.7888646518683
 20
119.3561373989999
 30
0.0
 11
297.940663042172
 21
119.5969833188266
 31
0.0
  0
LINE
  5
A5
  8
LAYER_1
 10
297.940663042172
 20
119.5969833188266
 30
0.0
 11
298.0647986647671
 21
119.8253142321939
 31
0.0
  0
LINE
  5
A6
  8
LAYER_1
 10
298.0647986647671
 20
119.8253142321939
 30
0.0
 11
298.162012315233
 21
120.0437851390928
 31
0.0
  0
LINE
  5
A7
  8
LAYER_1
 10
298.162012315233
 20
120.0437851390928
 30
0.0
 11
298.2330447891532
 21
120.2550509379374
 31
0.0
  0
LINE
  5
A8
  8
LAYER_1
 10
298.2330447891532
 20
120.2550509379374
 30
0.0
 11
298.2786367805357
 21
120.4617665271418
 31
0.0
  0
LINE
  5
A9
  8
LAYER_1
 10
298.2786367805357
 20
120.4617665271418
 30
0.0
 11
298.2995291865361
 21
120.666586906696
 31
0.0
  0
LINE
  5
AA
  8
LAYER_1
 10
298.2995291865361
 20
120.666586906696
 30
0.0
 11
298.2964625995837
 21
120.8721669750155
 31
0.0
  0
LINE
  5
AB
  8
LAYER_1
 10
298.2964625995837
 20
120.8721669750155
 30
0.0
 11
298.2701779168408
 21
121.0811617320898
 31
0.0
  0
LINE
  5
AC
  8
LAYER_1
 10
298.2701779168408
 20
121.0811617320898
 30
0.0
 11
298.2414122342224
 21
121.230674656797
 31
0.0
  0
LINE
  5
AD
  8
LAYER_1
 10
298.2414122342224
 20
121.230674656797
 30
0.0
 11
298.2139346400132
 21
121.3121568888858
 31
0.0
  0
LINE
  5
AE
  8
LAYER_1
 10
298.2139346400132
 20
121.3121568888858
 30
0.0
 11
298.1735401021311
 21
121.3507365639335
 31
0.0
  0
LINE
  5
AF
  8
LAYER_1
 10
298.1735401021311
 20
121.3507365639335
 30
0.0
 11
298.1060233853313
 21
121.3715419190885
 31
0.0
  0
LINE
  5
B0
  8
LAYER_1
 10
298.1060233853313
 20
121.3715419190885
 30
0.0
 11
298.0286508266906
 21
121.4016082855736
 31
0.0
  0
LINE
  5
B1
  8
LAYER_1
 10
298.0286508266906
 20
121.4016082855736
 30
0.0
 11
297.9917535590521
 21
121.4386277494395
 31
0.0
  0
LINE
  5
B2
  8
LAYER_1
 10
297.9917535590521
 20
121.4386277494395
 30
0.0
 11
298.0401725190139
 21
121.5417006226638
 31
0.0
  0
LINE
  5
B3
  8
LAYER_1
 10
298.0401725190139
 20
121.5417006226638
 30
0.0
 11
298.1679219198094
 21
121.7305758674146
 31
0.0
  0
LINE
  5
B4
  8
LAYER_1
 10
298.1679219198094
 20
121.7305758674146
 30
0.0
 11
298.3878265754596
 21
122.072809510498
 31
0.0
  0
LINE
  5
B5
  8
LAYER_1
 10
298.3878265754596
 20
122.072809510498
 30
0.0
 11
298.5573729774062
 21
122.4266123835887
 31
0.0
  0
LINE
  5
B6
  8
LAYER_1
 10
298.5573729774062
 20
122.4266123835887
 30
0.0
 11
298.6138636939766
 21
122.6020879943295
 31
0.0
  0
LINE
  5
B7
  8
LAYER_1
 10
298.6138636939766
 20
122.6020879943295
 30
0.0
 11
298.6560363240961
 21
122.801100040827
 31
0.0
  0
LINE
  5
B8
  8
LAYER_1
 10
298.6560363240961
 20
122.801100040827
 30
0.0
 11
298.6837206259721
 21
123.0167592155836
 31
0.0
  0
LINE
  5
B9
  8
LAYER_1
 10
298.6837206259721
 20
123.0167592155836
 30
0.0
 11
298.6967461546566
 21
123.2421762111025
 31
0.0
  0
LINE
  5
BA
  8
LAYER_1
 10
298.6967461546566
 20
123.2421762111025
 30
0.0
 11
298.6949425667834
 21
123.4704618214625
 31
0.0
  0
LINE
  5
BB
  8
LAYER_1
 10
298.6949425667834
 20
123.4704618214625
 30
0.0
 11
298.6781393158301
 21
123.694726536015
 31
0.0
  0
LINE
  5
BC
  8
LAYER_1
 10
298.6781393158301
 20
123.694726536015
 30
0.0
 11
298.646166160002
 21
123.9080811488396
 31
0.0
  0
LINE
  5
BD
  8
LAYER_1
 10
298.646166160002
 20
123.9080811488396
 30
0.0
 11
298.5988525527806
 21
124.1036362508624
 31
0.0
  0
LINE
  5
BE
  8
LAYER_1
 10
298.5988525527806
 20
124.1036362508624
 30
0.0
 11
298.5124716029416
 21
124.4319238812941
 31
0.0
  0
LINE
  5
BF
  8
LAYER_1
 10
298.5124716029416
 20
124.4319238812941
 30
0.0
 11
298.4700271547806
 21
124.7258847326382
 31
0.0
  0
LINE
  5
C0
  8
LAYER_1
 10
298.4700271547806
 20
124.7258847326382
 30
0.0
 11
298.4663663467746
 21
125.0551733970018
 31
0.0
  0
LINE
  5
C1
  8
LAYER_1
 10
298.4663663467746
 20
125.0551733970018
 30
0.0
 11
298.496336520553
 21
125.4894439586091
 31
0.0
  0
LINE
  5
C2
  8
LAYER_1
 10
298.496336520553
 20
125.4894439586091
 30
0.0
 11
298.5302226618733
 21
125.8046425751999
 31
0.0
  0
LINE
  5
C3
  8
LAYER_1
 10
298.5302226618733
 20
125.8046425751999
 30
0.0
 11
298.5733605710846
 21
126.0556428694637
 31
0.0
  0
LINE
  5
C4
  8
LAYER_1
 10
298.5733605710846
 20
126.0556428694637
 30
0.0
 11
298.6329666312046
 21
126.275517052239
 31
0.0
  0
LINE
  5
C5
  8
LAYER_1
 10
298.6329666312046
 20
126.275517052239
 30
0.0
 11
298.7162571236745
 21
126.4973370296367
 31
0.0
  0
LINE
  5
C6
  8
LAYER_1
 10
298.7162571236745
 20
126.4973370296367
 30
0.0
 11
298.7961612671633
 21
126.699140797755
 31
0.0
  0
LINE
  5
C7
  8
LAYER_1
 10
298.7961612671633
 20
126.699140797755
 30
0.0
 11
298.838992009798
 21
126.8571958786785
 31
0.0
  0
LINE
  5
C8
  8
LAYER_1
 10
298.838992009798
 20
126.8571958786785
 30
0.0
 11
298.8562537759372
 21
127.0359910012295
 31
0.0
  0
LINE
  5
C9
  8
LAYER_1
 10
298.8562537759372
 20
127.0359910012295
 30
0.0
 11
298.8594511930969
 21
127.3000150973832
 31
0.0
  0
LINE
  5
CA
  8
LAYER_1
 10
298.8594511930969
 20
127.3000150973832
 30
0.0
 11
298.8489822370169
 21
127.6856808144942
 31
0.0
  0
LINE
  5
CB
  8
LAYER_1
 10
298.8489822370169
 20
127.6856808144942
 30
0.0
 11
298.8275170425499
 21
127.7762536129676
 31
0.0
  0
LINE
  5
CC
  8
LAYER_1
 10
298.8275170425499
 20
127.7762536129676
 30
0.0
 11
298.7877834613164
 21
127.8564837146395
 31
0.0
  0
LINE
  5
CD
  8
LAYER_1
 10
298.7877834613164
 20
127.8564837146395
 30
0.0
 11
298.7055283355494
 21
127.9790365761247
 31
0.0
  0
LINE
  5
CE
  8
LAYER_1
 10
298.7055283355494
 20
127.9790365761247
 30
0.0
 11
298.6165250932715
 21
128.0542661806448
 31
0.0
  0
LINE
  5
CF
  8
LAYER_1
 10
298.6165250932715
 20
128.0542661806448
 30
0.0
 11
298.5033064795906
 21
128.0919231370479
 31
0.0
  0
LINE
  5
D0
  8
LAYER_1
 10
298.5033064795906
 20
128.0919231370479
 30
0.0
 11
298.3484052396157
 21
128.1017583589124
 31
0.0
  0
LINE
  5
D1
  8
LAYER_1
 10
298.3484052396157
 20
128.1017583589124
 30
0.0
 11
298.0744804049185
 21
128.0801062641472
 31
0.0
  0
LINE
  5
D2
  8
LAYER_1
 10
298.0744804049185
 20
128.0801062641472
 30
0.0
 11
298.0072679089848
 21
128.053919399331
 31
0.0
  0
LINE
  5
D3
  8
LAYER_1
 10
298.0072679089848
 20
128.053919399331
 30
0.0
 11
297.9851053935699
 21
128.0171543839685
 31
0.0
  0
LINE
  5
D4
  8
LAYER_1
 10
297.9851053935699
 20
128.0171543839685
 30
0.0
 11
298.0024582736043
 21
127.9785963446622
 31
0.0
  0
LINE
  5
D5
  8
LAYER_1
 10
298.0024582736043
 20
127.9785963446622
 30
0.0
 11
298.0441790925701
 21
127.944093229207
 31
0.0
  0
LINE
  5
D6
  8
LAYER_1
 10
298.0441790925701
 20
127.944093229207
 30
0.0
 11
298.0855716170981
 21
127.9044290245519
 31
0.0
  0
LINE
  5
D7
  8
LAYER_1
 10
298.0855716170981
 20
127.9044290245519
 30
0.0
 11
298.0943463829242
 21
127.8499167085795
 31
0.0
  0
LINE
  5
D8
  8
LAYER_1
 10
298.0943463829242
 20
127.8499167085795
 30
0.0
 11
298.0704219258983
 21
127.8013028237968
 31
0.0
  0
LINE
  5
D9
  8
LAYER_1
 10
298.0704219258983
 20
127.8013028237968
 30
0.0
 11
297.9994389196113
 21
127.7963927295079
 31
0.0
  0
LINE
  5
DA
  8
LAYER_1
 10
297.9994389196113
 20
127.7963927295079
 30
0.0
 11
297.8561035576261
 21
127.8419063040249
 31
0.0
  0
LINE
  5
DB
  8
LAYER_1
 10
297.8561035576261
 20
127.8419063040249
 30
0.0
 11
297.7467914648956
 21
127.895528812058
 31
0.0
  0
LINE
  5
DC
  8
LAYER_1
 10
297.7467914648956
 20
127.895528812058
 30
0.0
 11
297.6109556805127
 21
127.9371598376186
 31
0.0
  0
LINE
  5
DD
  8
LAYER_1
 10
297.6109556805127
 20
127.9371598376186
 30
0.0
 11
297.4598464850564
 21
127.9641103526721
 31
0.0
  0
LINE
  5
DE
  8
LAYER_1
 10
297.4598464850564
 20
127.9641103526721
 30
0.0
 11
297.3047144638422
 21
127.9736913291855
 31
0.0
  0
LINE
  5
DF
  8
LAYER_1
 10
297.3047144638422
 20
127.9736913291855
 30
0.0
 11
297.1024111437333
 21
127.9582484889315
 31
0.0
  0
LINE
  5
E0
  8
LAYER_1
 10
297.1024111437333
 20
127.9582484889315
 30
0.0
 11
296.9299629115104
 21
127.8926959520557
 31
0.0
  0
LINE
  5
E1
  8
LAYER_1
 10
296.9299629115104
 20
127.8926959520557
 30
0.0
 11
296.51748817506
 21
127.6519151426049
 31
0.0
  0
LINE
  5
E2
  8
LAYER_1
 10
296.51748817506
 20
127.6519151426049
 30
0.0
 11
295.9268719592205
 21
127.2601045703241
 31
0.0
  0
LINE
  5
E3
  8
LAYER_1
 10
295.9268719592205
 20
127.2601045703241
 30
0.0
 11
294.9354344436456
 21
126.5865965487901
 31
0.0
  0
LINE
  5
E4
  8
LAYER_1
 10
294.9354344436456
 20
126.5865965487901
 30
0.0
 11
294.2665486493122
 21
126.1537919356054
 31
0.0
  0
LINE
  5
E5
  8
LAYER_1
 10
294.2665486493122
 20
126.1537919356054
 30
0.0
 11
293.9486575510932
 21
125.9310610224088
 31
0.0
  0
LINE
  5
E6
  8
LAYER_1
 10
293.9486575510932
 20
125.9310610224088
 30
0.0
 11
293.5678712522466
 21
125.5929685414115
 31
0.0
  0
LINE
  5
E7
  8
LAYER_1
 10
293.5678712522466
 20
125.5929685414115
 30
0.0
 11
293.1620349299587
 21
125.2089294663483
 31
0.0
  0
LINE
  5
E8
  8
LAYER_1
 10
293.1620349299587
 20
125.2089294663483
 30
0.0
 11
293.0046561436989
 21
124.8784528677557
 31
0.0
  0
LINE
  5
E9
  8
LAYER_1
 10
293.0046561436989
 20
124.8784528677557
 30
0.0
 11
292.793149609146
 21
124.4237534941477
 31
0.0
  0
LINE
  5
EA
  8
LAYER_1
 10
292.793149609146
 20
124.4237534941477
 30
0.0
 11
292.7442395280213
 21
124.3383068426442
 31
0.0
  0
LINE
  5
EB
  8
LAYER_1
 10
292.7442395280213
 20
124.3383068426442
 30
0.0
 11
292.7031922611625
 21
124.3112928424352
 31
0.0
  0
LINE
  5
EC
  8
LAYER_1
 10
292.7031922611625
 20
124.3112928424352
 30
0.0
 11
292.6732688124593
 21
124.3485213502212
 31
0.0
  0
LINE
  5
ED
  8
LAYER_1
 10
292.6732688124593
 20
124.3485213502212
 30
0.0
 11
292.6589462566529
 21
124.4259411418174
 31
0.0
  0
LINE
  5
EE
  8
LAYER_1
 10
292.6589462566529
 20
124.4259411418174
 30
0.0
 11
292.6611987099704
 21
124.5289859799969
 31
0.0
  0
LINE
  5
EF
  8
LAYER_1
 10
292.6611987099704
 20
124.5289859799969
 30
0.0
 11
292.6810004917872
 21
124.6430896275335
 31
0.0
  0
LINE
  5
F0
  8
LAYER_1
 10
292.6810004917872
 20
124.6430896275335
 30
0.0
 11
292.6960282914892
 21
124.7273394060968
 31
0.0
  0
LINE
  5
F1
  8
LAYER_1
 10
292.6960282914892
 20
124.7273394060968
 30
0.0
 11
292.6929043139585
 21
124.7846704629729
 31
0.0
  0
LINE
  5
F2
  8
LAYER_1
 10
292.6929043139585
 20
124.7846704629729
 30
0.0
 11
292.6732098982349
 21
124.8154075374285
 31
0.0
  0
LINE
  5
F3
  8
LAYER_1
 10
292.6732098982349
 20
124.8154075374285
 30
0.0
 11
292.6385262817852
 21
124.819875571883
 31
0.0
  0
LINE
  5
F4
  8
LAYER_1
 10
292.6385262817852
 20
124.819875571883
 30
0.0
 11
292.5904348036508
 21
124.7983995087572
 31
0.0
  0
LINE
  5
F5
  8
LAYER_1
 10
292.5904348036508
 20
124.7983995087572
 30
0.0
 11
292.5305167012961
 21
124.7513042904706
 31
0.0
  0
LINE
  5
F6
  8
LAYER_1
 10
292.5305167012961
 20
124.7513042904706
 30
0.0
 11
292.3815261832349
 21
124.58155595494
 31
0.0
  0
LINE
  5
F7
  8
LAYER_1
 10
292.3815261832349
 20
124.58155595494
 30
0.0
 11
292.2673308123462
 21
124.4423568793816
 31
0.0
  0
LINE
  5
F8
  8
LAYER_1
 10
292.2673308123462
 20
124.4423568793816
 30
0.0
 11
292.1663736708088
 21
124.3473533249361
 31
0.0
  0
LINE
  5
F9
  8
LAYER_1
 10
292.1663736708088
 20
124.3473533249361
 30
0.0
 11
292.0740306014722
 21
124.2929718391723
 31
0.0
  0
LINE
  5
FA
  8
LAYER_1
 10
292.0740306014722
 20
124.2929718391723
 30
0.0
 11
291.9856774471861
 21
124.275638766505
 31
0.0
  0
LINE
  5
FB
  8
LAYER_1
 10
291.9856774471861
 20
124.275638766505
 30
0.0
 11
291.94457218029
 21
124.2851591019976
 31
0.0
  0
LINE
  5
FC
  8
LAYER_1
 10
291.94457218029
 20
124.2851591019976
 30
0.0
 11
291.8999306378678
 21
124.318346093997
 31
0.0
  0
LINE
  5
FD
  8
LAYER_1
 10
291.8999306378678
 20
124.318346093997
 30
0.0
 11
291.7714269318453
 21
124.4834750464621
 31
0.0
  0
LINE
  5
FE
  8
LAYER_1
 10
291.7714269318453
 20
124.4834750464621
 30
0.0
 11
291.5661229477714
 21
124.7909641273475
 31
0.0
  0
LINE
  5
FF
  8
LAYER_1
 10
291.5661229477714
 20
124.7909641273475
 30
0.0
 11
291.4009979567802
 21
125.0639388178132
 31
0.0
  0
LINE
  5
100
  8
LAYER_1
 10
291.4009979567802
 20
125.0639388178132
 30
0.0
 11
291.272123192723
 21
125.3137385823933
 31
0.0
  0
LINE
  5
101
  8
LAYER_1
 10
291.272123192723
 20
125.3137385823933
 30
0.0
 11
291.1755701941788
 21
125.551703291923
 31
0.0
  0
LINE
  5
102
  8
LAYER_1
 10
291.1755701941788
 20
125.551703291923
 30
0.0
 11
291.1074102965748
 21
125.7891726140883
 31
0.0
  0
LINE
  5
103
  8
LAYER_1
 10
291.1074102965748
 20
125.7891726140883
 30
0.0
 11
291.0637149369101
 21
126.0374863181479
 31
0.0
  0
LINE
  5
104
  8
LAYER_1
 10
291.0637149369101
 20
126.0374863181479
 30
0.0
 11
291.0405553490364
 21
126.3079839702119
 31
0.0
  0
LINE
  5
105
  8
LAYER_1
 10
291.0405553490364
 20
126.3079839702119
 30
0.0
 11
291.03400317311
 21
126.6120053395401
 31
0.0
  0
LINE
  5
106
  8
LAYER_1
 10
291.03400317311
 20
126.6120053395401
 30
0.0
 11
291.04524167085
 21
127.0356705281651
 31
0.0
  0
LINE
  5
107
  8
LAYER_1
 10
291.04524167085
 20
127.0356705281651
 30
0.0
 11
291.0853201034475
 21
127.2856815713418
 31
0.0
  0
LINE
  5
108
  8
LAYER_1
 10
291.0853201034475
 20
127.2856815713418
 30
0.0
 11
291.1828913023102
 21
127.5586326961187
 31
0.0
  0
LINE
  5
109
  8
LAYER_1
 10
291.1828913023102
 20
127.5586326961187
 30
0.0
 11
291.23048739308
 21
127.6326042787984
 31
0.0
  0
LINE
  5
10A
  8
LAYER_1
 10
291.23048739308
 20
127.6326042787984
 30
0.0
 11
291.2739732009442
 21
127.6583535531334
 31
0.0
  0
LINE
  5
10B
  8
LAYER_1
 10
291.2739732009442
 20
127.6583535531334
 30
0.0
 11
291.3253702749416
 21
127.6304098255193
 31
0.0
  0
LINE
  5
10C
  8
LAYER_1
 10
291.3253702749416
 20
127.6304098255193
 30
0.0
 11
291.4298717165299
 21
127.536496387376
 31
0.0
  0
LINE
  5
10D
  8
LAYER_1
 10
291.4298717165299
 20
127.536496387376
 30
0.0
 11
291.86066126009
 21
127.0902684729156
 31
0.0
  0
LINE
  5
10E
  8
LAYER_1
 10
291.86066126009
 20
127.0902684729156
 30
0.0
 11
292.0204153053512
 21
126.9308495276998
 31
0.0
  0
LINE
  5
10F
  8
LAYER_1
 10
292.0204153053512
 20
126.9308495276998
 30
0.0
 11
292.1580414726974
 21
126.8220205316095
 31
0.0
  0
LINE
  5
110
  8
LAYER_1
 10
292.1580414726974
 20
126.8220205316095
 30
0.0
 11
292.2959250342591
 21
126.7490067113803
 31
0.0
  0
LINE
  5
111
  8
LAYER_1
 10
292.2959250342591
 20
126.7490067113803
 30
0.0
 11
292.4564513637382
 21
126.6970329890165
 31
0.0
  0
LINE
  5
112
  8
LAYER_1
 10
292.4564513637382
 20
126.6970329890165
 30
0.0
 11
292.6225766776278
 21
126.6364218319155
 31
0.0
  0
LINE
  5
113
  8
LAYER_1
 10
292.6225766776278
 20
126.6364218319155
 30
0.0
 11
292.7592828688883
 21
126.5512196744435
 31
0.0
  0
LINE
  5
114
  8
LAYER_1
 10
292.7592828688883
 20
126.5512196744435
 30
0.0
 11
292.8798697220784
 21
126.4525436307229
 31
0.0
  0
LINE
  5
115
  8
LAYER_1
 10
292.8798697220784
 20
126.4525436307229
 30
0.0
 11
292.9265065267565
 21
126.5237204444936
 31
0.0
  0
LINE
  5
116
  8
LAYER_1
 10
292.9265065267565
 20
126.5237204444936
 30
0.0
 11
292.999726749923
 21
126.6845637934462
 31
0.0
  0
LINE
  5
117
  8
LAYER_1
 10
292.999726749923
 20
126.6845637934462
 30
0.0
 11
293.0429056959374
 21
126.8813614777196
 31
0.0
  0
LINE
  5
118
  8
LAYER_1
 10
293.0429056959374
 20
126.8813614777196
 30
0.0
 11
293.0520144444706
 21
127.0833844473832
 31
0.0
  0
LINE
  5
119
  8
LAYER_1
 10
293.0520144444706
 20
127.0833844473832
 30
0.0
 11
293.0230242783416
 21
127.2599035509278
 31
0.0
  0
LINE
  5
11A
  8
LAYER_1
 10
293.0230242783416
 20
127.2599035509278
 30
0.0
 11
292.9129475196124
 21
127.5293517171897
 31
0.0
  0
LINE
  5
11B
  8
LAYER_1
 10
292.9129475196124
 20
127.5293517171897
 30
0.0
 11
292.7726619844958
 21
127.8715371115553
 31
0.0
  0
LINE
  5
11C
  8
LAYER_1
 10
292.7726619844958
 20
127.8715371115553
 30
0.0
 11
292.7483156813088
 21
127.9739205867785
 31
0.0
  0
LINE
  5
11D
  8
LAYER_1
 10
292.7483156813088
 20
127.9739205867785
 30
0.0
 11
292.7503597001632
 21
128.0435942752197
 31
0.0
  0
LINE
  5
11E
  8
LAYER_1
 10
292.7503597001632
 20
128.0435942752197
 30
0.0
 11
292.7836808743851
 21
128.102332061565
 31
0.0
  0
LINE
  5
11F
  8
LAYER_1
 10
292.7836808743851
 20
128.102332061565
 30
0.0
 11
292.8455597030725
 21
128.1533789006584
 31
0.0
  0
LINE
  5
120
  8
LAYER_1
 10
292.8455597030725
 20
128.1533789006584
 30
0.0
 11
292.9241484341407
 21
128.1893918454747
 31
0.0
  0
LINE
  5
121
  8
LAYER_1
 10
292.9241484341407
 20
128.1893918454747
 30
0.0
 11
293.007599620237
 21
128.203027948992
 31
0.0
  0
LINE
  5
122
  8
LAYER_1
 10
293.007599620237
 20
128.203027948992
 30
0.0
 11
293.1277040878211
 21
128.2241941029828
 31
0.0
  0
LINE
  5
123
  8
LAYER_1
 10
293.1277040878211
 20
128.2241941029828
 30
0.0
 11
293.158581946958
 21
128.2500908660315
 31
0.0
  0
LINE
  5
124
  8
LAYER_1
 10
293.158581946958
 20
128.2500908660315
 30
0.0
 11
293.1690367839387
 21
128.2856984200397
 31
0.0
  0
LINE
  5
125
  8
LAYER_1
 10
293.1690367839387
 20
128.2856984200397
 30
0.0
 11
293.1083771749663
 21
128.3839856298794
 31
0.0
  0
LINE
  5
126
  8
LAYER_1
 10
293.1083771749663
 20
128.3839856298794
 30
0.0
 11
292.9535269262671
 21
128.5418668122651
 31
0.0
  0
LINE
  5
127
  8
LAYER_1
 10
292.9535269262671
 20
128.5418668122651
 30
0.0
 11
292.7451793114748
 21
128.7215236061341
 31
0.0
  0
LINE
  5
128
  8
LAYER_1
 10
292.7451793114748
 20
128.7215236061341
 30
0.0
 11
292.5240276042187
 21
128.8851377520012
 31
0.0
  0
LINE
  5
129
  8
LAYER_1
 10
292.5240276042187
 20
128.8851377520012
 30
0.0
 11
292.1610040455685
 21
129.1577063406251
 31
0.0
  0
LINE
  5
12A
  8
LAYER_1
 10
292.1610040455685
 20
129.1577063406251
 30
0.0
 11
292.0586703427068
 21
129.260361532314
 31
0.0
  0
LINE
  5
12B
  8
LAYER_1
 10
292.0586703427068
 20
129.260361532314
 30
0.0
 11
292.0223538880584
 21
129.3288931989907
 31
0.0
  0
LINE
  5
12C
  8
LAYER_1
 10
292.0223538880584
 20
129.3288931989907
 30
0.0
 11
292.045505654561
 21
129.3791141216048
 31
0.0
  0
LINE
  5
12D
  8
LAYER_1
 10
292.045505654561
 20
129.3791141216048
 30
0.0
 11
292.1011685247032
 21
129.4362124672948
 31
0.0
  0
LINE
  5
12E
  8
LAYER_1
 10
292.1011685247032
 20
129.4362124672948
 30
0.0
 11
292.1514014333157
 21
129.4695986503183
 31
0.0
  0
LINE
  5
12F
  8
LAYER_1
 10
292.1514014333157
 20
129.4695986503183
 30
0.0
 11
292.2097888831798
 21
129.485734951622
 31
0.0
  0
LINE
  5
130
  8
LAYER_1
 10
292.2097888831798
 20
129.485734951622
 30
0.0
 11
292.4537709696848
 21
129.478611917177
 31
0.0
  0
LINE
  5
131
  8
LAYER_1
 10
292.4537709696848
 20
129.478611917177
 30
0.0
 11
292.6271597979726
 21
129.4703123250421
 31
0.0
  0
LINE
  5
132
  8
LAYER_1
 10
292.6271597979726
 20
129.4703123250421
 30
0.0
 11
292.7274855415484
 21
129.4816157300056
 31
0.0
  0
LINE
  5
133
  8
LAYER_1
 10
292.7274855415484
 20
129.4816157300056
 30
0.0
 11
292.7776825937448
 21
129.5201095731226
 31
0.0
  0
LINE
  5
134
  8
LAYER_1
 10
292.7776825937448
 20
129.5201095731226
 30
0.0
 11
292.8006852463129
 21
129.5933810922953
 31
0.0
  0
LINE
  5
135
  8
LAYER_1
 10
292.8006852463129
 20
129.5933810922953
 30
0.0
 11
292.8379342725014
 21
129.6390335215449
 31
0.0
  0
LINE
  5
136
  8
LAYER_1
 10
292.8379342725014
 20
129.6390335215449
 30
0.0
 11
292.9171376414489
 21
129.6599316158153
 31
0.0
  0
LINE
  5
137
  8
LAYER_1
 10
292.9171376414489
 20
129.6599316158153
 30
0.0
 11
293.0210638567396
 21
129.6546096298367
 31
0.0
  0
LINE
  5
138
  8
LAYER_1
 10
293.0210638567396
 20
129.6546096298367
 30
0.0
 11
293.1324811172256
 21
129.6216021230685
 31
0.0
  0
LINE
  5
139
  8
LAYER_1
 10
293.1324811172256
 20
129.6216021230685
 30
0.0
 11
293.5591650503866
 21
129.4234622102435
 31
0.0
  0
LINE
  5
13A
  8
LAYER_1
 10
293.5591650503866
 20
129.4234622102435
 30
0.0
 11
293.9029703827679
 21
129.229307844691
 31
0.0
  0
LINE
  5
13B
  8
LAYER_1
 10
293.9029703827679
 20
129.229307844691
 30
0.0
 11
294.1993224405844
 21
129.0166254634811
 31
0.0
  0
LINE
  5
13C
  8
LAYER_1
 10
294.1993224405844
 20
129.0166254634811
 30
0.0
 11
294.4836463469035
 21
128.7629014021064
 31
0.0
  0
LINE
  5
13D
  8
LAYER_1
 10
294.4836463469035
 20
128.7629014021064
 30
0.0
 11
294.8501669726449
 21
128.386705435516
 31
0.0
  0
LINE
  5
13E
  8
LAYER_1
 10
294.8501669726449
 20
128.386705435516
 30
0.0
 11
295.1318263308064
 21
128.0558194846411
 31
0.0
  0
LINE
  5
13F
  8
LAYER_1
 10
295.1318263308064
 20
128.0558194846411
 30
0.0
 11
295.3125844143637
 21
127.7909101514798
 31
0.0
  0
LINE
  5
140
  8
LAYER_1
 10
295.3125844143637
 20
127.7909101514798
 30
0.0
 11
295.3601131600819
 21
127.6896548836508
 31
0.0
  0
LINE
  5
141
  8
LAYER_1
 10
295.3601131600819
 20
127.6896548836508
 30
0.0
 11
295.3764016226058
 21
127.6126436317275
 31
0.0
  0
LINE
  5
142
  8
LAYER_1
 10
295.3764016226058
 20
127.6126436317275
 30
0.0
 11
295.3452979594676
 21
127.5257580510839
 31
0.0
  0
LINE
  5
143
  8
LAYER_1
 10
295.3452979594676
 20
127.5257580510839
 30
0.0
 11
295.2356003848762
 21
127.3926017465652
 31
0.0
  0
LINE
  5
144
  8
LAYER_1
 10
295.2356003848762
 20
127.3926017465652
 30
0.0
 11
294.6821033807762
 21
126.8843425374692
 31
0.0
  0
LINE
  5
145
  8
LAYER_1
 10
294.6821033807762
 20
126.8843425374692
 30
0.0
 11
294.4462143818912
 21
126.6587145680818
 31
0.0
  0
LINE
  5
146
  8
LAYER_1
 10
294.4462143818912
 20
126.6587145680818
 30
0.0
 11
294.5159159022233
 21
126.6939316629893
 31
0.0
  0
LINE
  5
147
  8
LAYER_1
 10
294.5159159022233
 20
126.6939316629893
 30
0.0
 11
294.683294159141
 21
126.8113530955392
 31
0.0
  0
LINE
  5
148
  8
LAYER_1
 10
294.683294159141
 20
126.8113530955392
 30
0.0
 11
295.2039444516736
 21
127.2142601619647
 31
0.0
  0
LINE
  5
149
  8
LAYER_1
 10
295.2039444516736
 20
127.2142601619647
 30
0.0
 11
295.9334417078389
 21
127.7723996069368
 31
0.0
  0
LINE
  5
14A
  8
LAYER_1
 10
295.9334417078389
 20
127.7723996069368
 30
0.0
 11
296.2261457562561
 21
127.9684228738902
 31
0.0
  0
LINE
  5
14B
  8
LAYER_1
 10
296.2261457562561
 20
127.9684228738902
 30
0.0
 11
296.5007202726416
 21
128.1302010290602
 31
0.0
  0
LINE
  5
14C
  8
LAYER_1
 10
296.5007202726416
 20
128.1302010290602
 30
0.0
 11
296.737281604717
 21
128.2516015080036
 31
0.0
  0
LINE
  5
14D
  8
LAYER_1
 10
296.737281604717
 20
128.2516015080036
 30
0.0
 11
296.9446817162616
 21
128.3205523798578
 31
0.0
  0
LINE
  5
14E
  8
LAYER_1
 10
296.9446817162616
 20
128.3205523798578
 30
0.0
 11
297.2116127215024
 21
128.3567067188133
 31
0.0
  0
LINE
  5
14F
  8
LAYER_1
 10
297.2116127215024
 20
128.3567067188133
 30
0.0
 11
297.626766937819
 21
128.3797174974821
 31
0.0
  0
LINE
  5
150
  8
LAYER_1
 10
297.626766937819
 20
128.3797174974821
 30
0.0
 11
298.1213784637069
 21
128.3971075544245
 31
0.0
  0
LINE
  5
151
  8
LAYER_1
 10
298.1213784637069
 20
128.3971075544245
 30
0.0
 11
298.4454186832959
 21
128.394361338963
 31
0.0
  0
LINE
  5
152
  8
LAYER_1
 10
298.4454186832959
 20
128.394361338963
 30
0.0
 11
298.6528437825981
 21
128.3685830138203
 31
0.0
  0
LINE
  5
153
  8
LAYER_1
 10
298.6528437825981
 20
128.3685830138203
 30
0.0
 11
298.7976102523524
 21
128.3168766401435
 31
0.0
  0
LINE
  5
154
  8
LAYER_1
 10
298.7976102523524
 20
128.3168766401435
 30
0.0
 11
298.9006620992926
 21
128.2535108367518
 31
0.0
  0
LINE
  5
155
  8
LAYER_1
 10
298.9006620992926
 20
128.2535108367518
 30
0.0
 11
298.9851206170479
 21
128.1737303115577
 31
0.0
  0
LINE
  5
156
  8
LAYER_1
 10
298.9851206170479
 20
128.1737303115577
 30
0.0
 11
299.0552357558654
 21
128.0725598598967
 31
0.0
  0
LINE
  5
157
  8
LAYER_1
 10
299.0552357558654
 20
128.0725598598967
 30
0.0
 11
299.1152577707233
 21
127.9450242771039
 31
0.0
  0
LINE
  5
158
  8
LAYER_1
 10
299.1152577707233
 20
127.9450242771039
 30
0.0
 11
299.1413941521429
 21
127.8553254406742
 31
0.0
  0
LINE
  5
159
  8
LAYER_1
 10
299.1413941521429
 20
127.8553254406742
 30
0.0
 11
299.1582870949246
 21
127.7238844542681
 31
0.0
  0
LINE
  5
15A
  8
LAYER_1
 10
299.1582870949246
 20
127.7238844542681
 30
0.0
 11
299.1750587556648
 21
127.2027678251786
 31
0.0
  0
LINE
  5
15B
  8
LAYER_1
 10
299.1750587556648
 20
127.2027678251786
 30
0.0
 11
299.178082274285
 21
126.8361211433117
 31
0.0
  0
LINE
  5
15C
  8
LAYER_1
 10
299.178082274285
 20
126.8361211433117
 30
0.0
 11
299.1674677594431
 21
126.6047314643653
 31
0.0
  0
LINE
  5
15D
  8
LAYER_1
 10
299.1674677594431
 20
126.6047314643653
 30
0.0
 11
299.1334819718211
 21
126.4171678737149
 31
0.0
  0
LINE
  5
15E
  8
LAYER_1
 10
299.1334819718211
 20
126.4171678737149
 30
0.0
 11
299.0663912658107
 21
126.1819992535845
 31
0.0
  0
LINE
  5
15F
  8
LAYER_1
 10
299.0663912658107
 20
126.1819992535845
 30
0.0
 11
298.9190368363905
 21
125.6504417034598
 31
0.0
  0
LINE
  5
160
  8
LAYER_1
 10
298.9190368363905
 20
125.6504417034598
 30
0.0
 11
298.9058960186639
 21
125.5070884640552
 31
0.0
  0
LINE
  5
161
  8
LAYER_1
 10
298.9058960186639
 20
125.5070884640552
 30
0.0
 11
298.9133859465196
 21
125.3363205061398
 31
0.0
  0
LINE
  5
162
  8
LAYER_1
 10
298.9133859465196
 20
125.3363205061398
 30
0.0
 11
298.9714267166454
 21
124.6913113264191
 31
0.0
  0
LINE
  5
163
  8
LAYER_1
 10
298.9714267166454
 20
124.6913113264191
 30
0.0
 11
299.0573471197715
 21
123.8886332586725
 31
0.0
  0
LINE
  5
164
  8
LAYER_1
 10
299.0573471197715
 20
123.8886332586725
 30
0.0
 11
299.1309119911519
 21
123.2325522678353
 31
0.0
  0
LINE
  5
165
  8
LAYER_1
 10
299.1309119911519
 20
123.2325522678353
 30
0.0
 11
299.147500509915
 21
123.0345426773378
 31
0.0
  0
LINE
  5
166
  8
LAYER_1
 10
299.147500509915
 20
123.0345426773378
 30
0.0
 11
299.1454619761789
 21
122.8414293667595
 31
0.0
  0
LINE
  5
167
  8
LAYER_1
 10
299.1454619761789
 20
122.8414293667595
 30
0.0
 11
299.1246420956201
 21
122.6526380239899
 31
0.0
  0
LINE
  5
168
  8
LAYER_1
 10
299.1246420956201
 20
122.6526380239899
 30
0.0
 11
299.0848864723399
 21
122.4675944384958
 31
0.0
  0
LINE
  5
169
  8
LAYER_1
 10
299.0848864723399
 20
122.4675944384958
 30
0.0
 11
299.0260409135948
 21
122.2857242981655
 31
0.0
  0
LINE
  5
16A
  8
LAYER_1
 10
299.0260409135948
 20
122.2857242981655
 30
0.0
 11
298.9479510234859
 21
122.1064532908889
 31
0.0
  0
LINE
  5
16B
  8
LAYER_1
 10
298.9479510234859
 20
122.1064532908889
 30
0.0
 11
298.8504625076907
 21
121.9292072061316
 31
0.0
  0
LINE
  5
16C
  8
LAYER_1
 10
298.8504625076907
 20
121.9292072061316
 30
0.0
 11
298.7334209703107
 21
121.7534117317828
 31
0.0
  0
LINE
  5
16D
  8
LAYER_1
 10
298.7334209703107
 20
121.7534117317828
 30
0.0
 11
298.5765105521344
 21
121.530578023423
 31
0.0
  0
LINE
  5
16E
  8
LAYER_1
 10
298.5765105521344
 20
121.530578023423
 30
0.0
 11
298.5796837941458
 21
121.431509387502
 31
0.0
  0
LINE
  5
16F
  8
LAYER_1
 10
298.5796837941458
 20
121.431509387502
 30
0.0
 11
298.6177573147471
 21
121.2439072994533
 31
0.0
  0
LINE
  5
170
  8
LAYER_1
 10
298.6177573147471
 20
121.2439072994533
 30
0.0
 11
298.6673198201165
 21
120.9652301183804
 31
0.0
  0
LINE
  5
171
  8
LAYER_1
 10
298.6673198201165
 20
120.9652301183804
 30
0.0
 11
298.6649272931529
 21
120.5775861022481
 31
0.0
  0
LINE
  5
172
  8
LAYER_1
 10
298.6649272931529
 20
120.5775861022481
 30
0.0
 11
298.6468825772864
 21
120.2882164973486
 31
0.0
  0
LINE
  5
173
  8
LAYER_1
 10
298.6468825772864
 20
120.2882164973486
 30
0.0
 11
298.6113653245624
 21
120.0640242066614
 31
0.0
  0
LINE
  5
174
  8
LAYER_1
 10
298.6113653245624
 20
120.0640242066614
 30
0.0
 11
298.547982659513
 21
119.8600116630128
 31
0.0
  0
LINE
  5
175
  8
LAYER_1
 10
298.547982659513
 20
119.8600116630128
 30
0.0
 11
298.4463417066692
 21
119.6311812992302
 31
0.0
  0
LINE
  5
176
  8
LAYER_1
 10
298.4463417066692
 20
119.6311812992302
 30
0.0
 11
298.2914371146764
 21
119.3402916057678
 31
0.0
  0
LINE
  5
177
  8
LAYER_1
 10
298.2914371146764
 20
119.3402916057678
 30
0.0
 11
298.1265694163239
 21
119.0904132211715
 31
0.0
  0
LINE
  5
178
  8
LAYER_1
 10
298.1265694163239
 20
119.0904132211715
 30
0.0
 11
297.9425852711042
 21
118.8691849254233
 31
0.0
  0
LINE
  5
179
  8
LAYER_1
 10
297.9425852711042
 20
118.8691849254233
 30
0.0
 11
297.7317847189748
 21
118.6501586943523
 31
0.0
  0
LINE
  5
17A
  8
LAYER_1
 62
     7
 10
297.7317847189748
 20
118.6501586943523
 30
0.0
 11
297.3853604334992
 21
118.3233433306961
 31
0.0
  0
LINE
  5
181
  8
LAYER_1
 62
     7
 10
296.8232380080106
 20
118.2187624143261
 30
0.0
 11
296.7219252452772
 21
118.3527567134251
 31
0.0
  0
LINE
  5
182
  8
LAYER_1
 10
296.7219252452772
 20
118.3527567134251
 30
0.0
 11
296.6794392480019
 21
118.4638739370682
 31
0.0
  0
LINE
  5
183
  8
LAYER_1
 10
296.6794392480019
 20
118.4638739370682
 30
0.0
 11
296.6535028352189
 21
118.5869120467203
 31
0.0
  0
LINE
  5
184
  8
LAYER_1
 10
296.6535028352189
 20
118.5869120467203
 30
0.0
 11
296.6263767964076
 21
118.6136534162779
 31
0.0
  0
LINE
  5
185
  8
LAYER_1
 10
296.6263767964076
 20
118.6136534162779
 30
0.0
 11
296.5927671456378
 21
118.6069803646145
 31
0.0
  0
LINE
  5
186
  8
LAYER_1
 10
296.5927671456378
 20
118.6069803646145
 30
0.0
 11
296.4362181357527
 21
118.4490558091706
 31
0.0
  0
LINE
  5
187
  8
LAYER_1
 10
296.4362181357527
 20
118.4490558091706
 30
0.0
 11
296.2720951944563
 21
118.2875923372191
 31
0.0
  0
LINE
  5
188
  8
LAYER_1
 10
296.2720951944563
 20
118.2875923372191
 30
0.0
 11
296.2168125242129
 21
118.2621448459186
 31
0.0
  0
LINE
  5
189
  8
LAYER_1
 10
296.2168125242129
 20
118.2621448459186
 30
0.0
 11
296.1552977448035
 21
118.2570958968972
 31
0.0
  0
LINE
  5
18A
  8
LAYER_1
 10
296.1552977448035
 20
118.2570958968972
 30
0.0
 11
296.027339807968
 21
118.2840829794004
 31
0.0
  0
LINE
  5
18B
  8
LAYER_1
 10
296.027339807968
 20
118.2840829794004
 30
0.0
 11
295.8674521899407
 21
118.3468003200201
 31
0.0
  0
LINE
  5
18C
  8
LAYER_1
 10
295.8674521899407
 20
118.3468003200201
 30
0.0
 11
295.8674521899407
 21
118.3468003200201
 31
0.0
  0
LINE
  5
18D
  8
LAYER_1
 10
293.2407045157193
 20
120.2209252798224
 30
0.0
 11
292.9204519728714
 21
120.3052877064465
 31
0.0
  0
LINE
  5
18E
  8
LAYER_1
 10
292.9204519728714
 20
120.3052877064465
 30
0.0
 11
292.5320699037145
 21
120.4302840861726
 31
0.0
  0
LINE
  5
18F
  8
LAYER_1
 10
292.5320699037145
 20
120.4302840861726
 30
0.0
 11
292.1253332095579
 21
120.5787928280841
 31
0.0
  0
LINE
  5
190
  8
LAYER_1
 10
292.1253332095579
 20
120.5787928280841
 30
0.0
 11
291.7500165885549
 21
120.7336923412632
 31
0.0
  0
LINE
  5
191
  8
LAYER_1
 10
291.7500165885549
 20
120.7336923412632
 30
0.0
 11
291.4600402687187
 21
120.8394317941704
 31
0.0
  0
LINE
  5
192
  8
LAYER_1
 10
291.4600402687187
 20
120.8394317941704
 30
0.0
 11
291.0763403567523
 21
120.9604934147473
 31
0.0
  0
LINE
  5
193
  8
LAYER_1
 10
291.0763403567523
 20
120.9604934147473
 30
0.0
 11
290.6261800193957
 21
121.0424252233145
 31
0.0
  0
LINE
  5
194
  8
LAYER_1
 10
290.6261800193957
 20
121.0424252233145
 30
0.0
 11
290.0297912253364
 21
121.1064414194275
 31
0.0
  0
LINE
  5
195
  8
LAYER_1
 10
290.0297912253364
 20
121.1064414194275
 30
0.0
 11
289.8000153898313
 21
121.130261252918
 31
0.0
  0
LINE
  5
196
  8
LAYER_1
 10
289.8000153898313
 20
121.130261252918
 30
0.0
 11
289.5789320433909
 21
121.1688533202669
 31
0.0
  0
LINE
  5
197
  8
LAYER_1
 10
289.5789320433909
 20
121.1688533202669
 30
0.0
 11
289.3676603531233
 21
121.2217937437899
 31
0.0
  0
LINE
  5
198
  8
LAYER_1
 10
289.3676603531233
 20
121.2217937437899
 30
0.0
 11
289.1673192829881
 21
121.2886586457996
 31
0.0
  0
LINE
  5
199
  8
LAYER_1
 10
289.1673192829881
 20
121.2886586457996
 30
0.0
 11
288.9790278985141
 21
121.3690239454578
 31
0.0
  0
LINE
  5
19A
  8
LAYER_1
 10
288.9790278985141
 20
121.3690239454578
 30
0.0
 11
288.8039051636614
 21
121.462465866655
 31
0.0
  0
LINE
  5
19B
  8
LAYER_1
 10
288.8039051636614
 20
121.462465866655
 30
0.0
 11
288.6430702455379
 21
121.568560328551
 31
0.0
  0
LINE
  5
19C
  8
LAYER_1
 10
288.6430702455379
 20
121.568560328551
 30
0.0
 11
288.4976421080988
 21
121.6868835550381
 31
0.0
  0
LINE
  5
19D
  8
LAYER_1
 10
288.4976421080988
 20
121.6868835550381
 30
0.0
 11
288.3805086442143
 21
121.8013198647889
 31
0.0
  0
LINE
  5
19E
  8
LAYER_1
 10
288.3805086442143
 20
121.8013198647889
 30
0.0
 11
288.2998721359723
 21
121.9005206514105
 31
0.0
  0
LINE
  5
19F
  8
LAYER_1
 10
288.2998721359723
 20
121.9005206514105
 30
0.0
 11
288.253285103658
 21
121.9880785652438
 31
0.0
  0
LINE
  5
1A0
  8
LAYER_1
 10
288.253285103658
 20
121.9880785652438
 30
0.0
 11
288.2382999659808
 21
122.0675865613629
 31
0.0
  0
LINE
  5
1A1
  8
LAYER_1
 10
288.2382999659808
 20
122.0675865613629
 30
0.0
 11
288.2500313116813
 21
122.1121345520592
 31
0.0
  0
LINE
  5
1A2
  8
LAYER_1
 10
288.2500313116813
 20
122.1121345520592
 30
0.0
 11
288.3171344099935
 21
122.0861378379816
 31
0.0
  0
LINE
  5
1A3
  8
LAYER_1
 10
288.3171344099935
 20
122.0861378379816
 30
0.0
 11
288.3913140208311
 21
122.0320805836034
 31
0.0
  0
LINE
  5
1A4
  8
LAYER_1
 10
288.3913140208311
 20
122.0320805836034
 30
0.0
 11
288.4589567937534
 21
121.959607149017
 31
0.0
  0
LINE
  5
1A5
  8
LAYER_1
 10
288.4589567937534
 20
121.959607149017
 30
0.0
 11
288.5566715198546
 21
121.8643497555264
 31
0.0
  0
LINE
  5
1A6
  8
LAYER_1
 10
288.5566715198546
 20
121.8643497555264
 30
0.0
 11
288.7119917618569
 21
121.7498593056347
 31
0.0
  0
LINE
  5
1A7
  8
LAYER_1
 10
288.7119917618569
 20
121.7498593056347
 30
0.0
 11
288.8898832620989
 21
121.6397506519627
 31
0.0
  0
LINE
  5
1A8
  8
LAYER_1
 10
288.8898832620989
 20
121.6397506519627
 30
0.0
 11
289.0553116613447
 21
121.5576382408258
 31
0.0
  0
LINE
  5
1A9
  8
LAYER_1
 10
289.0553116613447
 20
121.5576382408258
 30
0.0
 11
289.2668199226949
 21
121.4920907827621
 31
0.0
  0
LINE
  5
1AA
  8
LAYER_1
 10
289.2668199226949
 20
121.4920907827621
 30
0.0
 11
289.5451851631077
 21
121.4442726463132
 31
0.0
  0
LINE
  5
1AB
  8
LAYER_1
 10
289.5451851631077
 20
121.4442726463132
 30
0.0
 11
289.9082849039435
 21
121.4119501697667
 31
0.0
  0
LINE
  5
1AC
  8
LAYER_1
 10
289.9082849039435
 20
121.4119501697667
 30
0.0
 11
290.3739970728675
 21
121.3928897929888
 31
0.0
  0
LINE
  5
1AD
  8
LAYER_1
 10
290.3739970728675
 20
121.3928897929888
 30
0.0
 11
290.9944788389487
 21
121.364186782915
 31
0.0
  0
LINE
  5
1AE
  8
LAYER_1
 10
290.9944788389487
 20
121.364186782915
 30
0.0
 11
291.4824008578206
 21
121.3103597003164
 31
0.0
  0
LINE
  5
1AF
  8
LAYER_1
 10
291.4824008578206
 20
121.3103597003164
 30
0.0
 11
291.864044053904
 21
121.2272705319715
 31
0.0
  0
LINE
  5
1B0
  8
LAYER_1
 10
291.864044053904
 20
121.2272705319715
 30
0.0
 11
292.1656892500436
 21
121.1107810615038
 31
0.0
  0
LINE
  5
1B1
  8
LAYER_1
 10
292.1656892500436
 20
121.1107810615038
 30
0.0
 11
292.7533642240245
 21
120.8158068855015
 31
0.0
  0
LINE
  5
1B2
  8
LAYER_1
 10
292.7533642240245
 20
120.8158068855015
 30
0.0
 11
293.0999670678733
 21
120.6517368654307
 31
0.0
  0
LINE
  5
1B3
  8
LAYER_1
 10
293.0999670678733
 20
120.6517368654307
 30
0.0
 11
293.3697063516641
 21
120.5412714759724
 31
0.0
  0
LINE
  5
1B4
  8
LAYER_1
 10
293.3697063516641
 20
120.5412714759724
 30
0.0
 11
293.7252058528378
 21
120.4456196619076
 31
0.0
  0
LINE
  5
1B5
  8
LAYER_1
 10
293.7252058528378
 20
120.4456196619076
 30
0.0
 11
294.0783385258379
 21
120.3906279060408
 31
0.0
  0
LINE
  5
1B6
  8
LAYER_1
 10
294.0783385258379
 20
120.3906279060408
 30
0.0
 11
294.379287112064
 21
120.3812026459171
 31
0.0
  0
LINE
  5
1B7
  8
LAYER_1
 10
294.379287112064
 20
120.3812026459171
 30
0.0
 11
294.4946246062959
 21
120.3951106690517
 31
0.0
  0
LINE
  5
1B8
  8
LAYER_1
 10
294.4946246062959
 20
120.3951106690517
 30
0.0
 11
294.5782345560674
 21
120.4222501159285
 31
0.0
  0
LINE
  5
1B9
  8
LAYER_1
 10
294.5782345560674
 20
120.4222501159285
 30
0.0
 11
294.6549548936149
 21
120.4479948193325
 31
0.0
  0
LINE
  5
1BA
  8
LAYER_1
 10
294.6549548936149
 20
120.4479948193325
 30
0.0
 11
294.7276174631772
 21
120.4500835317363
 31
0.0
  0
LINE
  5
1BB
  8
LAYER_1
 10
294.7276174631772
 20
120.4500835317363
 30
0.0
 11
294.7817948822556
 21
120.430505623971
 31
0.0
  0
LINE
  5
1BC
  8
LAYER_1
 10
294.7817948822556
 20
120.430505623971
 30
0.0
 11
294.8030600730904
 21
120.3912501621411
 31
0.0
  0
LINE
  5
1BD
  8
LAYER_1
 10
294.8030600730904
 20
120.3912501621411
 30
0.0
 11
294.7799025167403
 21
120.3561203212311
 31
0.0
  0
LINE
  5
1BE
  8
LAYER_1
 10
294.7799025167403
 20
120.3561203212311
 30
0.0
 11
294.7242256290767
 21
120.3305091905939
 31
0.0
  0
LINE
  5
1BF
  8
LAYER_1
 10
294.7242256290767
 20
120.3305091905939
 30
0.0
 11
294.6129664212346
 21
120.2862816729619
 31
0.0
  0
LINE
  5
1C0
  8
LAYER_1
 10
294.6129664212346
 20
120.2862816729619
 30
0.0
 11
294.4180649623736
 21
120.2185668824784
 31
0.0
  0
LINE
  5
1C1
  8
LAYER_1
 10
294.4180649623736
 20
120.2185668824784
 30
0.0
 11
294.1834731937597
 21
120.1891027615732
 31
0.0
  0
LINE
  5
1C2
  8
LAYER_1
 10
294.1834731937597
 20
120.1891027615732
 30
0.0
 11
293.846436394717
 21
120.1797999008288
 31
0.0
  0
LINE
  5
1C3
  8
LAYER_1
 10
293.846436394717
 20
120.1797999008288
 30
0.0
 11
293.5008738948086
 21
120.1904700794575
 31
0.0
  0
LINE
  5
1C4
  8
LAYER_1
 10
293.5008738948086
 20
120.1904700794575
 30
0.0
 11
293.2407045157193
 21
120.2209252798224
 31
0.0
  0
LINE
  5
1C5
  8
LAYER_1
 10
293.2407045157193
 20
120.2209252798224
 30
0.0
 11
293.2407045157193
 21
120.2209252798224
 31
0.0
  0
LINE
  5
1C6
  8
LAYER_1
 10
293.6993777553322
 20
120.6933506230283
 30
0.0
 11
293.498708187608
 21
120.7469184830397
 31
0.0
  0
LINE
  5
1C7
  8
LAYER_1
 10
293.498708187608
 20
120.7469184830397
 30
0.0
 11
293.226370989679
 21
120.8368368257427
 31
0.0
  0
LINE
  5
1C8
  8
LAYER_1
 10
293.226370989679
 20
120.8368368257427
 30
0.0
 11
292.9827008438315
 21
120.9284731275412
 31
0.0
  0
LINE
  5
1C9
  8
LAYER_1
 10
292.9827008438315
 20
120.9284731275412
 30
0.0
 11
292.7317816074127
 21
121.0487858264364
 31
0.0
  0
LINE
  5
1CA
  8
LAYER_1
 10
292.7317816074127
 20
121.0487858264364
 30
0.0
 11
292.4523599740139
 21
121.215743049803
 31
0.0
  0
LINE
  5
1CB
  8
LAYER_1
 10
292.4523599740139
 20
121.215743049803
 30
0.0
 11
292.1839231008851
 21
121.387062363597
 31
0.0
  0
LINE
  5
1CC
  8
LAYER_1
 10
292.1839231008851
 20
121.387062363597
 30
0.0
 11
291.9575888718406
 21
121.510253327077
 31
0.0
  0
LINE
  5
1CD
  8
LAYER_1
 10
291.9575888718406
 20
121.510253327077
 30
0.0
 11
291.7747287693891
 21
121.5846535615258
 31
0.0
  0
LINE
  5
1CE
  8
LAYER_1
 10
291.7747287693891
 20
121.5846535615258
 30
0.0
 11
291.6367142760446
 21
121.6096007898013
 31
0.0
  0
LINE
  5
1CF
  8
LAYER_1
 10
291.6367142760446
 20
121.6096007898013
 30
0.0
 11
291.5271130973114
 21
121.6484023073762
 31
0.0
  0
LINE
  5
1D0
  8
LAYER_1
 10
291.5271130973114
 20
121.6484023073762
 30
0.0
 11
291.3479835857488
 21
121.7416909500128
 31
0.0
  0
LINE
  5
1D1
  8
LAYER_1
 10
291.3479835857488
 20
121.7416909500128
 30
0.0
 11
291.0593705207491
 21
121.9053542587845
 31
0.0
  0
LINE
  5
1D2
  8
LAYER_1
 10
291.0593705207491
 20
121.9053542587845
 30
0.0
 11
290.8688165253355
 21
121.9896056625679
 31
0.0
  0
LINE
  5
1D3
  8
LAYER_1
 10
290.8688165253355
 20
121.9896056625679
 30
0.0
 11
290.681532370946
 21
122.0242802387312
 31
0.0
  0
LINE
  5
1D4
  8
LAYER_1
 10
290.681532370946
 20
122.0242802387312
 30
0.0
 11
290.4027286258674
 21
122.0392133693681
 31
0.0
  0
LINE
  5
1D5
  8
LAYER_1
 10
290.4027286258674
 20
122.0392133693681
 30
0.0
 11
290.0821493122269
 21
122.0608533765603
 31
0.0
  0
LINE
  5
1D6
  8
LAYER_1
 10
290.0821493122269
 20
122.0608533765603
 30
0.0
 11
289.9153238332545
 21
122.0874339509159
 31
0.0
  0
LINE
  5
1D7
  8
LAYER_1
 10
289.9153238332545
 20
122.0874339509159
 30
0.0
 11
289.8329675375446
 21
122.1204083438268
 31
0.0
  0
LINE
  5
1D8
  8
LAYER_1
 10
289.8329675375446
 20
122.1204083438268
 30
0.0
 11
289.7492469712362
 21
122.1353754009312
 31
0.0
  0
LINE
  5
1D9
  8
LAYER_1
 10
289.7492469712362
 20
122.1353754009312
 30
0.0
 11
289.670094390412
 21
122.1319162217791
 31
0.0
  0
LINE
  5
1DA
  8
LAYER_1
 10
289.670094390412
 20
122.1319162217791
 30
0.0
 11
289.601442355883
 21
122.1096112964634
 31
0.0
  0
LINE
  5
1DB
  8
LAYER_1
 10
289.601442355883
 20
122.1096112964634
 30
0.0
 11
289.5081618393444
 21
122.0798141070376
 31
0.0
  0
LINE
  5
1DC
  8
LAYER_1
 10
289.5081618393444
 20
122.0798141070376
 30
0.0
 11
289.3948969068946
 21
122.0697977747221
 31
0.0
  0
LINE
  5
1DD
  8
LAYER_1
 10
289.3948969068946
 20
122.0697977747221
 30
0.0
 11
289.2820581883833
 21
122.0795831226479
 31
0.0
  0
LINE
  5
1DE
  8
LAYER_1
 10
289.2820581883833
 20
122.0795831226479
 30
0.0
 11
289.1900566183941
 21
122.1091910755222
 31
0.0
  0
LINE
  5
1DF
  8
LAYER_1
 10
289.1900566183941
 20
122.1091910755222
 30
0.0
 11
289.0680175295748
 21
122.2067689784162
 31
0.0
  0
LINE
  5
1E0
  8
LAYER_1
 10
289.0680175295748
 20
122.2067689784162
 30
0.0
 11
288.8833091457009
 21
122.3839127758913
 31
0.0
  0
LINE
  5
1E1
  8
LAYER_1
 10
288.8833091457009
 20
122.3839127758913
 30
0.0
 11
288.6688048928934
 21
122.5869019388327
 31
0.0
  0
LINE
  5
1E2
  8
LAYER_1
 10
288.6688048928934
 20
122.5869019388327
 30
0.0
 11
288.4751292562015
 21
122.7466184008811
 31
0.0
  0
LINE
  5
1E3
  8
LAYER_1
 10
288.4751292562015
 20
122.7466184008811
 30
0.0
 11
288.3533288715672
 21
122.8415408974806
 31
0.0
  0
LINE
  5
1E4
  8
LAYER_1
 10
288.3533288715672
 20
122.8415408974806
 30
0.0
 11
288.2650121831546
 21
122.9284424255946
 31
0.0
  0
LINE
  5
1E5
  8
LAYER_1
 10
288.2650121831546
 20
122.9284424255946
 30
0.0
 11
288.2038599293769
 21
123.0146411476438
 31
0.0
  0
LINE
  5
1E6
  8
LAYER_1
 10
288.2038599293769
 20
123.0146411476438
 30
0.0
 11
288.1635528486423
 21
123.1074554291995
 31
0.0
  0
LINE
  5
1E7
  8
LAYER_1
 10
288.1635528486423
 20
123.1074554291995
 30
0.0
 11
288.1325268913344
 21
123.175692524754
 31
0.0
  0
LINE
  5
1E8
  8
LAYER_1
 10
288.1325268913344
 20
123.175692524754
 30
0.0
 11
288.1031848650802
 21
123.185101431102
 31
0.0
  0
LINE
  5
1E9
  8
LAYER_1
 10
288.1031848650802
 20
123.185101431102
 30
0.0
 11
288.0759494286497
 21
123.1359787508896
 31
0.0
  0
LINE
  5
1EA
  8
LAYER_1
 10
288.0759494286497
 20
123.1359787508896
 30
0.0
 11
288.0512430376594
 21
123.0286209851869
 31
0.0
  0
LINE
  5
1EB
  8
LAYER_1
 10
288.0512430376594
 20
123.0286209851869
 30
0.0
 11
288.0152800683577
 21
122.8856910140108
 31
0.0
  0
LINE
  5
1EC
  8
LAYER_1
 10
288.0152800683577
 20
122.8856910140108
 30
0.0
 11
287.9909944061902
 21
122.8582115914297
 31
0.0
  0
LINE
  5
1ED
  8
LAYER_1
 10
287.9909944061902
 20
122.8582115914297
 30
0.0
 11
287.9557108804163
 21
122.8471481095653
 31
0.0
  0
LINE
  5
1EE
  8
LAYER_1
 10
287.9557108804163
 20
122.8471481095653
 30
0.0
 11
287.8928493015234
 21
122.8550729869188
 31
0.0
  0
LINE
  5
1EF
  8
LAYER_1
 10
287.8928493015234
 20
122.8550729869188
 30
0.0
 11
287.8345967449178
 21
122.8874250221531
 31
0.0
  0
LINE
  5
1F0
  8
LAYER_1
 10
287.8345967449178
 20
122.8874250221531
 30
0.0
 11
287.8058391883975
 21
122.924107963907
 31
0.0
  0
LINE
  5
1F1
  8
LAYER_1
 10
287.8058391883975
 20
122.924107963907
 30
0.0
 11
287.7891841371905
 21
122.9831035507716
 31
0.0
  0
LINE
  5
1F2
  8
LAYER_1
 10
287.7891841371905
 20
122.9831035507716
 30
0.0
 11
287.7796268279449
 21
123.2510958246592
 31
0.0
  0
LINE
  5
1F3
  8
LAYER_1
 10
287.7796268279449
 20
123.2510958246592
 30
0.0
 11
287.7901351956087
 21
123.519591104131
 31
0.0
  0
LINE
  5
1F4
  8
LAYER_1
 10
287.7901351956087
 20
123.519591104131
 30
0.0
 11
287.8270352058075
 21
123.7551111780816
 31
0.0
  0
LINE
  5
1F5
  8
LAYER_1
 10
287.8270352058075
 20
123.7551111780816
 30
0.0
 11
287.8983888638251
 21
123.9929061537
 31
0.0
  0
LINE
  5
1F6
  8
LAYER_1
 10
287.8983888638251
 20
123.9929061537
 30
0.0
 11
288.0122583781083
 21
124.2682260365983
 31
0.0
  0
LINE
  5
1F7
  8
LAYER_1
 10
288.0122583781083
 20
124.2682260365983
 30
0.0
 11
288.1038922420771
 21
124.4475424484578
 31
0.0
  0
LINE
  5
1F8
  8
LAYER_1
 10
288.1038922420771
 20
124.4475424484578
 30
0.0
 11
288.2187621808334
 21
124.631357062918
 31
0.0
  0
LINE
  5
1F9
  8
LAYER_1
 10
288.2187621808334
 20
124.631357062918
 30
0.0
 11
288.355494985072
 21
124.8181210453384
 31
0.0
  0
LINE
  5
1FA
  8
LAYER_1
 10
288.355494985072
 20
124.8181210453384
 30
0.0
 11
288.5127174454849
 21
125.006285662653
 31
0.0
  0
LINE
  5
1FB
  8
LAYER_1
 10
288.5127174454849
 20
125.006285662653
 30
0.0
 11
288.8831380912984
 21
125.3806220728564
 31
0.0
  0
LINE
  5
1FC
  8
LAYER_1
 10
288.8831380912984
 20
125.3806220728564
 30
0.0
 11
289.3190381390894
 21
125.741976225857
 31
0.0
  0
LINE
  5
1FD
  8
LAYER_1
 10
289.3190381390894
 20
125.741976225857
 30
0.0
 11
289.6092777445593
 21
125.9705746910636
 31
0.0
  0
LINE
  5
1FE
  8
LAYER_1
 10
289.6092777445593
 20
125.9705746910636
 30
0.0
 11
289.7742867354736
 21
126.1182906303533
 31
0.0
  0
LINE
  5
1FF
  8
LAYER_1
 10
289.7742867354736
 20
126.1182906303533
 30
0.0
 11
289.8418801423396
 21
126.2147059930803
 31
0.0
  0
LINE
  5
200
  8
LAYER_1
 10
289.8418801423396
 20
126.2147059930803
 30
0.0
 11
289.9101379594496
 21
126.3431685607197
 31
0.0
  0
LINE
  5
201
  8
LAYER_1
 10
289.9101379594496
 20
126.3431685607197
 30
0.0
 11
290.0426830796799
 21
126.6836729697443
 31
0.0
  0
LINE
  5
202
  8
LAYER_1
 10
290.0426830796799
 20
126.6836729697443
 30
0.0
 11
290.1271492156549
 21
126.9273431155915
 31
0.0
  0
LINE
  5
203
  8
LAYER_1
 10
290.1271492156549
 20
126.9273431155915
 30
0.0
 11
290.2447603926351
 21
127.2283474671785
 31
0.0
  0
LINE
  5
204
  8
LAYER_1
 10
290.2447603926351
 20
127.2283474671785
 30
0.0
 11
290.3398046791566
 21
127.4485802141122
 31
0.0
  0
LINE
  5
205
  8
LAYER_1
 10
290.3398046791566
 20
127.4485802141122
 30
0.0
 11
290.4366065395116
 21
127.6359009359518
 31
0.0
  0
LINE
  5
206
  8
LAYER_1
 10
290.4366065395116
 20
127.6359009359518
 30
0.0
 11
290.5618242538836
 21
127.8074558050665
 31
0.0
  0
LINE
  5
207
  8
LAYER_1
 10
290.5618242538836
 20
127.8074558050665
 30
0.0
 11
290.6963194349387
 21
127.9351603091618
 31
0.0
  0
LINE
  5
208
  8
LAYER_1
 10
290.6963194349387
 20
127.9351603091618
 30
0.0
 11
290.8135808848966
 21
127.9988585716157
 31
0.0
  0
LINE
  5
209
  8
LAYER_1
 10
290.8135808848966
 20
127.9988585716157
 30
0.0
 11
290.8574641606195
 21
128.0004067967997
 31
0.0
  0
LINE
  5
20A
  8
LAYER_1
 10
290.8574641606195
 20
128.0004067967997
 30
0.0
 11
290.8870973044035
 21
127.9783950205377
 31
0.0
  0
LINE
  5
20B
  8
LAYER_1
 10
290.8870973044035
 20
127.9783950205377
 30
0.0
 11
290.8705839520644
 21
127.8990374588432
 31
0.0
  0
LINE
  5
20C
  8
LAYER_1
 10
290.8705839520644
 20
127.8990374588432
 30
0.0
 11
290.8100840209544
 21
127.7418916884983
 31
0.0
  0
LINE
  5
20D
  8
LAYER_1
 10
290.8100840209544
 20
127.7418916884983
 30
0.0
 11
290.7182605141307
 21
127.5293517171897
 31
0.0
  0
LINE
  5
20E
  8
LAYER_1
 10
290.7182605141307
 20
127.5293517171897
 30
0.0
 11
290.7183967278793
 21
126.7696742275662
 31
0.0
  0
LINE
  5
20F
  8
LAYER_1
 10
290.7183967278793
 20
126.7696742275662
 30
0.0
 11
290.7289950920999
 21
126.085907614363
 31
0.0
  0
LINE
  5
210
  8
LAYER_1
 10
290.7289950920999
 20
126.085907614363
 30
0.0
 11
290.7487587828239
 21
125.9003545224044
 31
0.0
  0
LINE
  5
211
  8
LAYER_1
 10
290.7487587828239
 20
125.9003545224044
 30
0.0
 11
290.7840810091496
 21
125.7249342707185
 31
0.0
  0
LINE
  5
212
  8
LAYER_1
 10
290.7840810091496
 20
125.7249342707185
 30
0.0
 11
290.8922034408536
 21
125.3353775738219
 31
0.0
  0
LINE
  5
213
  8
LAYER_1
 10
290.8922034408536
 20
125.3353775738219
 30
0.0
 11
290.9624888214633
 21
125.1602927269101
 31
0.0
  0
LINE
  5
214
  8
LAYER_1
 10
290.9624888214633
 20
125.1602927269101
 30
0.0
 11
291.0539520373348
 21
124.9797242862079
 31
0.0
  0
LINE
  5
215
  8
LAYER_1
 10
291.0539520373348
 20
124.9797242862079
 30
0.0
 11
291.3314984716071
 21
124.5462992452955
 31
0.0
  0
LINE
  5
216
  8
LAYER_1
 10
291.3314984716071
 20
124.5462992452955
 30
0.0
 11
291.7870143151029
 21
123.923427288504
 31
0.0
  0
LINE
  5
217
  8
LAYER_1
 10
291.7870143151029
 20
123.923427288504
 30
0.0
 11
292.2473097274078
 21
123.3154088265709
 31
0.0
  0
LINE
  5
218
  8
LAYER_1
 10
292.2473097274078
 20
123.3154088265709
 30
0.0
 11
292.5593350004105
 21
122.9270024806923
 31
0.0
  0
LINE
  5
219
  8
LAYER_1
 10
292.5593350004105
 20
122.9270024806923
 30
0.0
 11
292.7984551397708
 21
122.6699462104761
 31
0.0
  0
LINE
  5
21A
  8
LAYER_1
 10
292.7984551397708
 20
122.6699462104761
 30
0.0
 11
293.040034947995
 21
122.4559778739568
 31
0.0
  0
LINE
  5
21B
  8
LAYER_1
 10
293.040034947995
 20
122.4559778739568
 30
0.0
 11
293.1781003310419
 21
122.3542487529277
 31
0.0
  0
LINE
  5
21C
  8
LAYER_1
 10
293.1781003310419
 20
122.3542487529277
 30
0.0
 11
293.3297017649984
 21
122.2655461763465
 31
0.0
  0
LINE
  5
21D
  8
LAYER_1
 10
293.3297017649984
 20
122.2655461763465
 30
0.0
 11
293.4921504249873
 21
122.1906838715417
 31
0.0
  0
LINE
  5
21E
  8
LAYER_1
 10
293.4921504249873
 20
122.1906838715417
 30
0.0
 11
293.6627573845494
 21
122.1304760737241
 31
0.0
  0
LINE
  5
21F
  8
LAYER_1
 10
293.6627573845494
 20
122.1304760737241
 30
0.0
 11
293.838833920377
 21
122.085736510222
 31
0.0
  0
LINE
  5
220
  8
LAYER_1
 10
293.838833920377
 20
122.085736510222
 30
0.0
 11
294.017691004439
 21
122.0572793146709
 31
0.0
  0
LINE
  5
221
  8
LAYER_1
 10
294.017691004439
 20
122.0572793146709
 30
0.0
 11
294.1966400150078
 21
122.045918315974
 31
0.0
  0
LINE
  5
222
  8
LAYER_1
 10
294.1966400150078
 20
122.045918315974
 30
0.0
 11
294.3729920256221
 21
122.0524675461895
 31
0.0
  0
LINE
  5
223
  8
LAYER_1
 10
294.3729920256221
 20
122.0524675461895
 30
0.0
 11
294.5334930626176
 21
122.0750604401712
 31
0.0
  0
LINE
  5
224
  8
LAYER_1
 10
294.5334930626176
 20
122.0750604401712
 30
0.0
 11
294.6823846454106
 21
122.1184715894915
 31
0.0
  0
LINE
  5
225
  8
LAYER_1
 10
294.6823846454106
 20
122.1184715894915
 30
0.0
 11
294.8499317220525
 21
122.194084644351
 31
0.0
  0
LINE
  5
226
  8
LAYER_1
 10
294.8499317220525
 20
122.194084644351
 30
0.0
 11
295.0663995453258
 21
122.3132834581016
 31
0.0
  0
LINE
  5
227
  8
LAYER_1
 10
295.0663995453258
 20
122.3132834581016
 30
0.0
 11
295.2262801545911
 21
122.4002934696494
 31
0.0
  0
LINE
  5
228
  8
LAYER_1
 10
295.2262801545911
 20
122.4002934696494
 30
0.0
 11
295.3217745254735
 21
122.4361981341856
 31
0.0
  0
LINE
  5
229
  8
LAYER_1
 10
295.3217745254735
 20
122.4361981341856
 30
0.0
 11
295.365766183053
 21
122.4231044478369
 31
0.0
  0
LINE
  5
22A
  8
LAYER_1
 10
295.365766183053
 20
122.4231044478369
 30
0.0
 11
295.3711388555817
 21
122.3631194067331
 31
0.0
  0
LINE
  5
22B
  8
LAYER_1
 10
295.3711388555817
 20
122.3631194067331
 30
0.0
 11
295.3442183055206
 21
122.2988057953638
 31
0.0
  0
LINE
  5
22C
  8
LAYER_1
 10
295.3442183055206
 20
122.2988057953638
 30
0.0
 11
295.2809516405468
 21
122.2240696482602
 31
0.0
  0
LINE
  5
22D
  8
LAYER_1
 10
295.2809516405468
 20
122.2240696482602
 30
0.0
 11
295.069528906398
 21
122.0591217046707
 31
0.0
  0
LINE
  5
22E
  8
LAYER_1
 10
295.069528906398
 20
122.0591217046707
 30
0.0
 11
294.7851682294784
 21
121.8998591868778
 31
0.0
  0
LINE
  5
22F
  8
LAYER_1
 10
294.7851682294784
 20
121.8998591868778
 30
0.0
 11
294.4761673892817
 21
121.7778656042181
 31
0.0
  0
LINE
  5
230
  8
LAYER_1
 10
294.4761673892817
 20
121.7778656042181
 30
0.0
 11
294.2524464123899
 21
121.7371390135769
 31
0.0
  0
LINE
  5
231
  8
LAYER_1
 10
294.2524464123899
 20
121.7371390135769
 30
0.0
 11
293.9742570004632
 21
121.7224285380769
 31
0.0
  0
LINE
  5
232
  8
LAYER_1
 10
293.9742570004632
 20
121.7224285380769
 30
0.0
 11
293.702142965552
 21
121.7340716140165
 31
0.0
  0
LINE
  5
233
  8
LAYER_1
 10
293.702142965552
 20
121.7340716140165
 30
0.0
 11
293.4966482212826
 21
121.7724056776936
 31
0.0
  0
LINE
  5
234
  8
LAYER_1
 10
293.4966482212826
 20
121.7724056776936
 30
0.0
 11
293.2811531937447
 21
121.8688911280328
 31
0.0
  0
LINE
  5
235
  8
LAYER_1
 10
293.2811531937447
 20
121.8688911280328
 30
0.0
 11
293.0453962439822
 21
122.0097524989022
 31
0.0
  0
LINE
  5
236
  8
LAYER_1
 10
293.0453962439822
 20
122.0097524989022
 30
0.0
 11
292.8296171076744
 21
122.1683064207838
 31
0.0
  0
LINE
  5
237
  8
LAYER_1
 10
292.8296171076744
 20
122.1683064207838
 30
0.0
 11
292.6740559268113
 21
122.3178696257337
 31
0.0
  0
LINE
  5
238
  8
LAYER_1
 10
292.6740559268113
 20
122.3178696257337
 30
0.0
 11
292.3996842581962
 21
122.6481564798939
 31
0.0
  0
LINE
  5
239
  8
LAYER_1
 10
292.3996842581962
 20
122.6481564798939
 30
0.0
 11
292.2580980392148
 21
122.8513329494386
 31
0.0
  0
LINE
  5
23A
  8
LAYER_1
 10
292.2580980392148
 20
122.8513329494386
 30
0.0
 11
292.1110961809542
 21
123.109227934741
 31
0.0
  0
LINE
  5
23B
  8
LAYER_1
 10
292.1110961809542
 20
123.109227934741
 30
0.0
 11
291.9891264687123
 21
123.3284990593272
 31
0.0
  0
LINE
  5
23C
  8
LAYER_1
 10
291.9891264687123
 20
123.3284990593272
 30
0.0
 11
291.9290255291085
 21
123.4025625685116
 31
0.0
  0
LINE
  5
23D
  8
LAYER_1
 10
291.9290255291085
 20
123.4025625685116
 30
0.0
 11
291.8571869460781
 21
123.4609240148549
 31
0.0
  0
LINE
  5
23E
  8
LAYER_1
 10
291.8571869460781
 20
123.4609240148549
 30
0.0
 11
291.7643652494561
 21
123.5095928523881
 31
0.0
  0
LINE
  5
23F
  8
LAYER_1
 10
291.7643652494561
 20
123.5095928523881
 30
0.0
 11
291.6413152738082
 21
123.5545788398692
 31
0.0
  0
LINE
  5
240
  8
LAYER_1
 10
291.6413152738082
 20
123.5545788398692
 30
0.0
 11
291.2675489095132
 21
123.6575396744912
 31
0.0
  0
LINE
  5
241
  8
LAYER_1
 10
291.2675489095132
 20
123.6575396744912
 30
0.0
 11
291.0831536852134
 21
123.7012124842283
 31
0.0
  0
LINE
  5
242
  8
LAYER_1
 10
291.0831536852134
 20
123.7012124842283
 30
0.0
 11
290.9665506525002
 21
123.7074714095252
 31
0.0
  0
LINE
  5
243
  8
LAYER_1
 10
290.9665506525002
 20
123.7074714095252
 30
0.0
 11
290.8749414715605
 21
123.6698748909901
 31
0.0
  0
LINE
  5
244
  8
LAYER_1
 10
290.8749414715605
 20
123.6698748909901
 30
0.0
 11
290.7655279041589
 21
123.5819815723827
 31
0.0
  0
LINE
  5
245
  8
LAYER_1
 10
290.7655279041589
 20
123.5819815723827
 30
0.0
 11
290.6697185453315
 21
123.4987412585788
 31
0.0
  0
LINE
  5
246
  8
LAYER_1
 10
290.6697185453315
 20
123.4987412585788
 30
0.0
 11
290.2638541879988
 21
123.5120702970957
 31
0.0
  0
LINE
  5
247
  8
LAYER_1
 10
290.2638541879988
 20
123.5120702970957
 30
0.0
 11
289.7234408142004
 21
123.5449382380981
 31
0.0
  0
LINE
  5
248
  8
LAYER_1
 10
289.7234408142004
 20
123.5449382380981
 30
0.0
 11
289.5975056667851
 21
123.5503688090866
 31
0.0
  0
LINE
  5
249
  8
LAYER_1
 10
289.5975056667851
 20
123.5503688090866
 30
0.0
 11
289.4723066424422
 21
123.5237467916209
 31
0.0
  0
LINE
  5
24A
  8
LAYER_1
 10
289.4723066424422
 20
123.5237467916209
 30
0.0
 11
289.3286487758669
 21
123.4585142199291
 31
0.0
  0
LINE
  5
24B
  8
LAYER_1
 10
289.3286487758669
 20
123.4585142199291
 30
0.0
 11
289.1473372033285
 21
123.3481132298133
 31
0.0
  0
LINE
  5
24C
  8
LAYER_1
 10
289.1473372033285
 20
123.3481132298133
 30
0.0
 11
288.9975440297517
 21
123.2394638205311
 31
0.0
  0
LINE
  5
24D
  8
LAYER_1
 10
288.9975440297517
 20
123.2394638205311
 30
0.0
 11
288.9349204440094
 21
123.1591817118202
 31
0.0
  0
LINE
  5
24E
  8
LAYER_1
 10
288.9349204440094
 20
123.1591817118202
 30
0.0
 11
288.9350573687922
 21
123.1253738857887
 31
0.0
  0
LINE
  5
24F
  8
LAYER_1
 10
288.9350573687922
 20
123.1253738857887
 30
0.0
 11
288.955498877825
 21
123.093492351738
 31
0.0
  0
LINE
  5
250
  8
LAYER_1
 10
288.955498877825
 20
123.093492351738
 30
0.0
 11
289.0553116613447
 21
123.0286209851869
 31
0.0
  0
LINE
  5
251
  8
LAYER_1
 10
289.0553116613447
 20
123.0286209851869
 30
0.0
 11
289.1908015786043
 21
122.9900140877046
 31
0.0
  0
LINE
  5
252
  8
LAYER_1
 10
289.1908015786043
 20
122.9900140877046
 30
0.0
 11
289.4072446172716
 21
122.9722010672625
 31
0.0
  0
LINE
  5
253
  8
LAYER_1
 10
289.4072446172716
 20
122.9722010672625
 30
0.0
 11
289.7141741146014
 21
122.9749066522241
 31
0.0
  0
LINE
  5
254
  8
LAYER_1
 10
289.7141741146014
 20
122.9749066522241
 30
0.0
 11
290.1211231031186
 21
122.99785577411
 31
0.0
  0
LINE
  5
255
  8
LAYER_1
 10
290.1211231031186
 20
122.99785577411
 30
0.0
 11
290.3556404163408
 21
123.0086950771932
 31
0.0
  0
LINE
  5
256
  8
LAYER_1
 10
290.3556404163408
 20
123.0086950771932
 30
0.0
 11
290.5342299485654
 21
122.9988709271401
 31
0.0
  0
LINE
  5
257
  8
LAYER_1
 10
290.5342299485654
 20
122.9988709271401
 30
0.0
 11
290.69131964882
 21
122.9637764347643
 31
0.0
  0
LINE
  5
258
  8
LAYER_1
 10
290.69131964882
 20
122.9637764347643
 30
0.0
 11
290.8613373645609
 21
122.8988047108797
 31
0.0
  0
LINE
  5
259
  8
LAYER_1
 10
290.8613373645609
 20
122.8988047108797
 30
0.0
 11
290.9943448598774
 21
122.8448723952879
 31
0.0
  0
LINE
  5
25A
  8
LAYER_1
 10
290.9943448598774
 20
122.8448723952879
 30
0.0
 11
291.0821775374646
 21
122.8329362718705
 31
0.0
  0
LINE
  5
25B
  8
LAYER_1
 10
291.0821775374646
 20
122.8329362718705
 30
0.0
 11
291.1641983268239
 21
122.8684636822181
 31
0.0
  0
LINE
  5
25C
  8
LAYER_1
 10
291.1641983268239
 20
122.8684636822181
 30
0.0
 11
291.2797699543075
 21
122.9569217647686
 31
0.0
  0
LINE
  5
25D
  8
LAYER_1
 10
291.2797699543075
 20
122.9569217647686
 30
0.0
 11
291.4057027654716
 21
123.0515061140355
 31
0.0
  0
LINE
  5
25E
  8
LAYER_1
 10
291.4057027654716
 20
123.0515061140355
 30
0.0
 11
291.5021691194759
 21
123.1059710954761
 31
0.0
  0
LINE
  5
25F
  8
LAYER_1
 10
291.5021691194759
 20
123.1059710954761
 30
0.0
 11
291.5829448887551
 21
123.1261154939802
 31
0.0
  0
LINE
  5
260
  8
LAYER_1
 10
291.5829448887551
 20
123.1261154939802
 30
0.0
 11
291.6618060473212
 21
123.1177382975917
 31
0.0
  0
LINE
  5
261
  8
LAYER_1
 10
291.6618060473212
 20
123.1177382975917
 30
0.0
 11
291.7550061154705
 21
123.0753766340742
 31
0.0
  0
LINE
  5
262
  8
LAYER_1
 10
291.7550061154705
 20
123.0753766340742
 30
0.0
 11
291.8450716421577
 21
122.9924922434463
 31
0.0
  0
LINE
  5
263
  8
LAYER_1
 10
291.8450716421577
 20
122.9924922434463
 30
0.0
 11
291.9375294926559
 21
122.8626437694685
 31
0.0
  0
LINE
  5
264
  8
LAYER_1
 10
291.9375294926559
 20
122.8626437694685
 30
0.0
 11
292.0379060243568
 21
122.6793898559013
 31
0.0
  0
LINE
  5
265
  8
LAYER_1
 10
292.0379060243568
 20
122.6793898559013
 30
0.0
 11
292.163238215162
 21
122.4558077337402
 31
0.0
  0
LINE
  5
266
  8
LAYER_1
 10
292.163238215162
 20
122.4558077337402
 30
0.0
 11
292.2986076629883
 21
122.2753575277915
 31
0.0
  0
LINE
  5
267
  8
LAYER_1
 10
292.2986076629883
 20
122.2753575277915
 30
0.0
 11
292.4606687080101
 21
122.1191904446043
 31
0.0
  0
LINE
  5
268
  8
LAYER_1
 10
292.4606687080101
 20
122.1191904446043
 30
0.0
 11
292.6660758935553
 21
121.9684577923023
 31
0.0
  0
LINE
  5
269
  8
LAYER_1
 10
292.6660758935553
 20
121.9684577923023
 30
0.0
 11
292.9961197773283
 21
121.7735567397451
 31
0.0
  0
LINE
  5
26A
  8
LAYER_1
 10
292.9961197773283
 20
121.7735567397451
 30
0.0
 11
293.4413740834446
 21
121.5773001521486
 31
0.0
  0
LINE
  5
26B
  8
LAYER_1
 10
293.4413740834446
 20
121.5773001521486
 30
0.0
 11
293.5663383650767
 21
121.5218532331109
 31
0.0
  0
LINE
  5
26C
  8
LAYER_1
 10
293.5663383650767
 20
121.5218532331109
 30
0.0
 11
293.6628133530611
 21
121.4648825687657
 31
0.0
  0
LINE
  5
26D
  8
LAYER_1
 10
293.6628133530611
 20
121.4648825687657
 30
0.0
 11
293.8563810142007
 21
121.2859300030288
 31
0.0
  0
LINE
  5
26E
  8
LAYER_1
 10
293.8563810142007
 20
121.2859300030288
 30
0.0
 11
294.0073026999012
 21
121.138293191637
 31
0.0
  0
LINE
  5
26F
  8
LAYER_1
 10
294.0073026999012
 20
121.138293191637
 30
0.0
 11
294.1379466174825
 21
121.0438343906136
 31
0.0
  0
LINE
  5
270
  8
LAYER_1
 10
294.1379466174825
 20
121.0438343906136
 30
0.0
 11
294.2640821748389
 21
120.9936721790711
 31
0.0
  0
LINE
  5
271
  8
LAYER_1
 10
294.2640821748389
 20
120.9936721790711
 30
0.0
 11
294.4014787798622
 21
120.9789251361215
 31
0.0
  0
LINE
  5
272
  8
LAYER_1
 10
294.4014787798622
 20
120.9789251361215
 30
0.0
 11
294.5011400116197
 21
120.9705536280025
 31
0.0
  0
LINE
  5
273
  8
LAYER_1
 10
294.5011400116197
 20
120.9705536280025
 30
0.0
 11
294.5568457469409
 21
120.94318553299
 31
0.0
  0
LINE
  5
274
  8
LAYER_1
 10
294.5568457469409
 20
120.94318553299
 30
0.0
 11
294.5716885762923
 21
120.8934405966778
 31
0.0
  0
LINE
  5
275
  8
LAYER_1
 10
294.5716885762923
 20
120.8934405966778
 30
0.0
 11
294.548760785419
 21
120.8179385646584
 31
0.0
  0
LINE
  5
276
  8
LAYER_1
 10
294.548760785419
 20
120.8179385646584
 30
0.0
 11
294.4922944471482
 21
120.7470663780578
 31
0.0
  0
LINE
  5
277
  8
LAYER_1
 10
294.4922944471482
 20
120.7470663780578
 30
0.0
 11
294.3946063340238
 21
120.6994288441785
 31
0.0
  0
LINE
  5
278
  8
LAYER_1
 10
294.3946063340238
 20
120.6994288441785
 30
0.0
 11
294.2496727713402
 21
120.6731920038493
 31
0.0
  0
LINE
  5
279
  8
LAYER_1
 10
294.2496727713402
 20
120.6731920038493
 30
0.0
 11
294.0514701859688
 21
120.6665216947449
 31
0.0
  0
LINE
  5
27A
  8
LAYER_1
 10
294.0514701859688
 20
120.6665216947449
 30
0.0
 11
293.6993777553322
 21
120.6933506230283
 31
0.0
  0
LINE
  5
27B
  8
LAYER_1
 10
293.6993777553322
 20
120.6933506230283
 30
0.0
 11
293.6993777553322
 21
120.6933506230283
 31
0.0
  0
LINE
  5
27C
  8
LAYER_1
 10
297.3687632659316
 20
120.7894547561292
 30
0.0
 11
297.1537601721646
 21
120.8798743776201
 31
0.0
  0
LINE
  5
27D
  8
LAYER_1
 10
297.1537601721646
 20
120.8798743776201
 30
0.0
 11
296.6240292677216
 21
121.111343082888
 31
0.0
  0
LINE
  5
27E
  8
LAYER_1
 10
296.6240292677216
 20
121.111343082888
 30
0.0
 11
296.4857019195311
 21
121.1920135175982
 31
0.0
  0
LINE
  5
27F
  8
LAYER_1
 10
296.4857019195311
 20
121.1920135175982
 30
0.0
 11
296.41617988443
 21
121.2572660998108
 31
0.0
  0
LINE
  5
280
  8
LAYER_1
 10
296.41617988443
 20
121.2572660998108
 30
0.0
 11
296.383860759899
 21
121.3344533833741
 31
0.0
  0
LINE
  5
281
  8
LAYER_1
 10
296.383860759899
 20
121.3344533833741
 30
0.0
 11
296.4243658127413
 21
121.4338713400145
 31
0.0
  0
LINE
  5
282
  8
LAYER_1
 10
296.4243658127413
 20
121.4338713400145
 30
0.0
 11
296.4905941364
 21
121.5210836914501
 31
0.0
  0
LINE
  5
283
  8
LAYER_1
 10
296.4905941364
 20
121.5210836914501
 30
0.0
 11
296.5954126990359
 21
121.5464303175357
 31
0.0
  0
LINE
  5
284
  8
LAYER_1
 10
296.5954126990359
 20
121.5464303175357
 30
0.0
 11
296.7271953879426
 21
121.5390235806273
 31
0.0
  0
LINE
  5
285
  8
LAYER_1
 10
296.7271953879426
 20
121.5390235806273
 30
0.0
 11
296.8820835245831
 21
121.5092840865112
 31
0.0
  0
LINE
  5
286
  8
LAYER_1
 10
296.8820835245831
 20
121.5092840865112
 30
0.0
 11
297.0965739630207
 21
121.4624479892349
 31
0.0
  0
LINE
  5
287
  8
LAYER_1
 10
297.0965739630207
 20
121.4624479892349
 30
0.0
 11
297.2865035692322
 21
121.4438909227699
 31
0.0
  0
LINE
  5
288
  8
LAYER_1
 10
297.2865035692322
 20
121.4438909227699
 30
0.0
 11
297.4589146245484
 21
121.4534378712394
 31
0.0
  0
LINE
  5
289
  8
LAYER_1
 10
297.4589146245484
 20
121.4534378712394
 30
0.0
 11
297.6208495118697
 21
121.4909137171915
 31
0.0
  0
LINE
  5
28A
  8
LAYER_1
 10
297.6208495118697
 20
121.4909137171915
 30
0.0
 11
297.7501830958423
 21
121.5275818288134
 31
0.0
  0
LINE
  5
28B
  8
LAYER_1
 10
297.7501830958423
 20
121.5275818288134
 30
0.0
 11
297.8333926320443
 21
121.5343839838882
 31
0.0
  0
LINE
  5
28C
  8
LAYER_1
 10
297.8333926320443
 20
121.5343839838882
 30
0.0
 11
297.8859759134746
 21
121.5092249691347
 31
0.0
  0
LINE
  5
28D
  8
LAYER_1
 10
297.8859759134746
 20
121.5092249691347
 30
0.0
 11
297.9234310378727
 21
121.4500097744199
 31
0.0
  0
LINE
  5
28E
  8
LAYER_1
 10
297.9234310378727
 20
121.4500097744199
 30
0.0
 11
297.9356258759953
 21
121.3778469600026
 31
0.0
  0
LINE
  5
28F
  8
LAYER_1
 10
297.9356258759953
 20
121.3778469600026
 30
0.0
 11
297.9200292493012
 21
121.2769711810395
 31
0.0
  0
LINE
  5
290
  8
LAYER_1
 10
297.9200292493012
 20
121.2769711810395
 30
0.0
 11
297.8769085064754
 21
121.14842684452
 31
0.0
  0
LINE
  5
291
  8
LAYER_1
 10
297.8769085064754
 20
121.14842684452
 30
0.0
 11
297.8065309962088
 21
120.9932586621623
 31
0.0
  0
LINE
  5
292
  8
LAYER_1
 10
297.8065309962088
 20
120.9932586621623
 30
0.0
 11
297.7159777003731
 21
120.8476351935978
 31
0.0
  0
LINE
  5
293
  8
LAYER_1
 10
297.7159777003731
 20
120.8476351935978
 30
0.0
 11
297.6182722177107
 21
120.7676594388532
 31
0.0
  0
LINE
  5
294
  8
LAYER_1
 10
297.6182722177107
 20
120.7676594388532
 30
0.0
 11
297.5641872330172
 21
120.7511022055744
 31
0.0
  0
LINE
  5
295
  8
LAYER_1
 10
297.5641872330172
 20
120.7511022055744
 30
0.0
 11
297.5052541155451
 21
120.7495323446496
 31
0.0
  0
LINE
  5
296
  8
LAYER_1
 10
297.5052541155451
 20
120.7495323446496
 30
0.0
 11
297.3687632659316
 21
120.7894547561292
 31
0.0
  0
LINE
  5
297
  8
LAYER_1
 10
297.3687632659316
 20
120.7894547561292
 30
0.0
 11
297.3687632659316
 21
120.7894547561292
 31
0.0
  0
LINE
  5
29F
  8
LAYER_1
 10
286.3509731411262
 20
122.893268195864
 30
0.0
 11
286.2955423727109
 21
123.2574584593069
 31
0.0
  0
LINE
  5
2A0
  8
LAYER_1
 10
286.2955423727109
 20
123.2574584593069
 30
0.0
 11
286.2895339344433
 21
123.7530324201507
 31
0.0
  0
LINE
  5
2A1
  8
LAYER_1
 10
286.2895339344433
 20
123.7530324201507
 30
0.0
 11
286.3288449584832
 21
124.2486083109433
 31
0.0
  0
LINE
  5
2A2
  8
LAYER_1
 10
286.3288449584832
 20
124.2486083109433
 30
0.0
 11
286.3864393009954
 21
124.5025948453452
 31
0.0
  0
LINE
  5
2A3
  8
LAYER_1
 10
286.3864393009954
 20
124.5025948453452
 30
0.0
 11
286.4662094654104
 21
124.7496639356293
 31
0.0
  0
LINE
  5
2A4
  8
LAYER_1
 10
286.4662094654104
 20
124.7496639356293
 30
0.0
 11
286.5649668717069
 21
124.9906441392568
 31
0.0
  0
LINE
  5
2A5
  8
LAYER_1
 10
286.5649668717069
 20
124.9906441392568
 30
0.0
 11
286.6795226351259
 21
125.2263638105362
 31
0.0
  0
LINE
  5
2A6
  8
LAYER_1
 10
286.6795226351259
 20
125.2263638105362
 30
0.0
 11
286.9432747100848
 21
125.6853355827439
 31
0.0
  0
LINE
  5
2A7
  8
LAYER_1
 10
286.9432747100848
 20
125.6853355827439
 30
0.0
 11
287.2319563390529
 21
126.1332066961811
 31
0.0
  0
LINE
  5
2A8
  8
LAYER_1
 10
287.2319563390529
 20
126.1332066961811
 30
0.0
 11
287.7498931236731
 21
126.9178005349004
 31
0.0
  0
LINE
  5
2A9
  8
LAYER_1
 10
287.7498931236731
 20
126.9178005349004
 30
0.0
 11
288.0696714070174
 21
127.4454662926304
 31
0.0
  0
LINE
  5
2AA
  8
LAYER_1
 10
288.0696714070174
 20
127.4454662926304
 30
0.0
 11
288.2626107174816
 21
127.8452078368387
 31
0.0
  0
LINE
  5
2AB
  8
LAYER_1
 10
288.2626107174816
 20
127.8452078368387
 30
0.0
 11
288.4000307866188
 21
128.2460286286907
 31
0.0
  0
LINE
  5
2AC
  8
LAYER_1
 10
288.4000307866188
 20
128.2460286286907
 30
0.0
 11
288.4418787790468
 21
128.5122623129838
 31
0.0
  0
LINE
  5
2AD
  8
LAYER_1
 10
288.4418787790468
 20
128.5122623129838
 30
0.0
 11
288.4555543957254
 21
128.8783097965584
 31
0.0
  0
LINE
  5
2AE
  8
LAYER_1
 10
288.4555543957254
 20
128.8783097965584
 30
0.0
 11
288.441146211141
 21
129.2543046421758
 31
0.0
  0
LINE
  5
2AF
  8
LAYER_1
 10
288.441146211141
 20
129.2543046421758
 30
0.0
 11
288.3987430029368
 21
129.5503805141728
 31
0.0
  0
LINE
  5
2B0
  8
LAYER_1
 10
288.3987430029368
 20
129.5503805141728
 30
0.0
 11
288.3017585084875
 21
129.9002811325139
 31
0.0
  0
LINE
  5
2B1
  8
LAYER_1
 10
288.3017585084875
 20
129.9002811325139
 30
0.0
 11
288.1985586649534
 21
130.1785201136487
 31
0.0
  0
LINE
  5
2B2
  8
LAYER_1
 10
288.1985586649534
 20
130.1785201136487
 30
0.0
 11
288.0733815810798
 21
130.421038587988
 31
0.0
  0
LINE
  5
2B3
  8
LAYER_1
 10
288.0733815810798
 20
130.421038587988
 30
0.0
 11
287.9104653656182
 21
130.6637775843629
 31
0.0
  0
LINE
  5
2B4
  8
LAYER_1
 10
287.9104653656182
 20
130.6637775843629
 30
0.0
 11
287.6983802527512
 21
130.9258512133869
 31
0.0
  0
LINE
  5
2B5
  8
LAYER_1
 10
287.6983802527512
 20
130.9258512133869
 30
0.0
 11
287.5005301369646
 21
131.1157917898349
 31
0.0
  0
LINE
  5
2B6
  8
LAYER_1
 10
287.5005301369646
 20
131.1157917898349
 30
0.0
 11
287.3196631636666
 21
131.2313821073482
 31
0.0
  0
LINE
  5
2B7
  8
LAYER_1
 10
287.3196631636666
 20
131.2313821073482
 30
0.0
 11
287.2364571826351
 21
131.2606030547142
 31
0.0
  0
LINE
  5
2B8
  8
LAYER_1
 10
287.2364571826351
 20
131.2606030547142
 30
0.0
 11
287.1585276814244
 21
131.2704049595684
 31
0.0
  0
LINE
  5
2B9
  8
LAYER_1
 10
287.1585276814244
 20
131.2704049595684
 30
0.0
 11
287.0669903148908
 21
131.2515507825758
 31
0.0
  0
LINE
  5
2BA
  8
LAYER_1
 10
287.0669903148908
 20
131.2515507825758
 30
0.0
 11
286.9621906454365
 21
131.2062202484592
 31
0.0
  0
LINE
  5
2BB
  8
LAYER_1
 10
286.9621906454365
 20
131.2062202484592
 30
0.0
 11
286.8917176534953
 21
131.1726640267949
 31
0.0
  0
LINE
  5
2BC
  8
LAYER_1
 10
286.8917176534953
 20
131.1726640267949
 30
0.0
 11
286.8129953496595
 21
131.1533257374005
 31
0.0
  0
LINE
  5
2BD
  8
LAYER_1
 10
286.8129953496595
 20
131.1533257374005
 30
0.0
 11
286.5326090466266
 21
131.1428084310261
 31
0.0
  0
LINE
  5
2BE
  8
LAYER_1
 10
286.5326090466266
 20
131.1428084310261
 30
0.0
 11
286.2507914326696
 21
131.1552352693013
 31
0.0
  0
LINE
  5
2BF
  8
LAYER_1
 10
286.2507914326696
 20
131.1552352693013
 30
0.0
 11
286.0795018807181
 21
131.2060892150983
 31
0.0
  0
LINE
  5
2C0
  8
LAYER_1
 10
286.0795018807181
 20
131.2060892150983
 30
0.0
 11
285.9285077711502
 21
131.3009323806469
 31
0.0
  0
LINE
  5
2C1
  8
LAYER_1
 10
285.9285077711502
 20
131.3009323806469
 30
0.0
 11
285.7747186895228
 21
131.4421938603603
 31
0.0
  0
LINE
  5
2C2
  8
LAYER_1
 10
285.7747186895228
 20
131.4421938603603
 30
0.0
 11
285.6367448266777
 21
131.6101500861333
 31
0.0
  0
LINE
  5
2C3
  8
LAYER_1
 10
285.6367448266777
 20
131.6101500861333
 30
0.0
 11
285.5331962718794
 21
131.7850775914362
 31
0.0
  0
LINE
  5
2C4
  8
LAYER_1
 10
285.5331962718794
 20
131.7850775914362
 30
0.0
 11
285.4845434833946
 21
131.897940992975
 31
0.0
  0
LINE
  5
2C5
  8
LAYER_1
 10
285.4845434833946
 20
131.897940992975
 30
0.0
 11
285.4579867794573
 21
131.999649087721
 31
0.0
  0
LINE
  5
2C6
  8
LAYER_1
 10
285.4579867794573
 20
131.999649087721
 30
0.0
 11
285.4427960514518
 21
132.3454202252441
 31
0.0
  0
LINE
  5
2C7
  8
LAYER_1
 10
285.4427960514518
 20
132.3454202252441
 30
0.0
 11
285.4399115907163
 21
132.7180922070356
 31
0.0
  0
LINE
  5
2C8
  8
LAYER_1
 10
285.4399115907163
 20
132.7180922070356
 30
0.0
 11
285.307427213082
 21
132.8976849062921
 31
0.0
  0
LINE
  5
2C9
  8
LAYER_1
 10
285.307427213082
 20
132.8976849062921
 30
0.0
 11
285.2150828232532
 21
133.0458770350357
 31
0.0
  0
LINE
  5
2CA
  8
LAYER_1
 10
285.2150828232532
 20
133.0458770350357
 30
0.0
 11
285.1617452365983
 21
133.1972888261376
 31
0.0
  0
LINE
  5
2CB
  8
LAYER_1
 10
285.1617452365983
 20
133.1972888261376
 30
0.0
 11
285.1426445340499
 21
133.3734943638021
 31
0.0
  0
LINE
  5
2CC
  8
LAYER_1
 10
285.1426445340499
 20
133.3734943638021
 30
0.0
 11
285.1530102886611
 21
133.5960675290835
 31
0.0
  0
LINE
  5
2CD
  8
LAYER_1
 10
285.1530102886611
 20
133.5960675290835
 30
0.0
 11
285.1798566880613
 21
133.7774050035656
 31
0.0
  0
LINE
  5
2CE
  8
LAYER_1
 10
285.1798566880613
 20
133.7774050035656
 30
0.0
 11
285.2294495647294
 21
133.9311982498194
 31
0.0
  0
LINE
  5
2CF
  8
LAYER_1
 10
285.2294495647294
 20
133.9311982498194
 30
0.0
 11
285.3119363859185
 21
134.0807531255169
 31
0.0
  0
LINE
  5
2D0
  8
LAYER_1
 10
285.3119363859185
 20
134.0807531255169
 30
0.0
 11
285.4374645173068
 21
134.2493749804485
 31
0.0
  0
LINE
  5
2D1
  8
LAYER_1
 10
285.4374645173068
 20
134.2493749804485
 30
0.0
 11
285.5334869831039
 21
134.3721257124665
 31
0.0
  0
LINE
  5
2D2
  8
LAYER_1
 10
285.5334869831039
 20
134.3721257124665
 30
0.0
 11
285.5877770502451
 21
134.4605876549144
 31
0.0
  0
LINE
  5
2D3
  8
LAYER_1
 10
285.5877770502451
 20
134.4605876549144
 30
0.0
 11
285.615613411764
 21
134.5473614001081
 31
0.0
  0
LINE
  5
2D4
  8
LAYER_1
 10
285.615613411764
 20
134.5473614001081
 30
0.0
 11
285.632274760697
 21
134.6650475403622
 31
0.0
  0
LINE
  5
2D5
  8
LAYER_1
 10
285.632274760697
 20
134.6650475403622
 30
0.0
 11
285.659529699768
 21
134.8607385514057
 31
0.0
  0
LINE
  5
2D6
  8
LAYER_1
 10
285.659529699768
 20
134.8607385514057
 30
0.0
 11
285.6960701300454
 21
135.0206520713771
 31
0.0
  0
LINE
  5
2D7
  8
LAYER_1
 10
285.6960701300454
 20
135.0206520713771
 30
0.0
 11
285.7485769245621
 21
135.1678278281758
 31
0.0
  0
LINE
  5
2D8
  8
LAYER_1
 10
285.7485769245621
 20
135.1678278281758
 30
0.0
 11
285.8237309563536
 21
135.3253059560062
 31
0.0
  0
LINE
  5
2D9
  8
LAYER_1
 10
285.8237309563536
 20
135.3253059560062
 30
0.0
 11
285.9031961888713
 21
135.4550115122019
 31
0.0
  0
LINE
  5
2DA
  8
LAYER_1
 10
285.9031961888713
 20
135.4550115122019
 30
0.0
 11
286.0062648974698
 21
135.5899903993528
 31
0.0
  0
LINE
  5
2DB
  8
LAYER_1
 10
286.0062648974698
 20
135.5899903993528
 30
0.0
 11
286.2493100446571
 21
135.8447755262219
 31
0.0
  0
LINE
  5
2DC
  8
LAYER_1
 10
286.2493100446571
 20
135.8447755262219
 30
0.0
 11
286.4850598840823
 21
136.0276765639015
 31
0.0
  0
LINE
  5
2DD
  8
LAYER_1
 10
286.4850598840823
 20
136.0276765639015
 30
0.0
 11
286.579009584948
 21
136.0728003903519
 31
0.0
  0
LINE
  5
2DE
  8
LAYER_1
 10
286.579009584948
 20
136.0728003903519
 30
0.0
 11
286.6457081050626
 21
136.0767089428287
 31
0.0
  0
LINE
  5
2DF
  8
LAYER_1
 10
286.6457081050626
 20
136.0767089428287
 30
0.0
 11
286.6669498317823
 21
136.0595480419029
 31
0.0
  0
LINE
  5
2E0
  8
LAYER_1
 10
286.6669498317823
 20
136.0595480419029
 30
0.0
 11
286.6806843626831
 21
136.0240841167107
 31
0.0
  0
LINE
  5
2E1
  8
LAYER_1
 10
286.6806843626831
 20
136.0240841167107
 30
0.0
 11
286.6902779346508
 21
135.8774767806008
 31
0.0
  0
LINE
  5
2E2
  8
LAYER_1
 10
286.6902779346508
 20
135.8774767806008
 30
0.0
 11
286.7016259315883
 21
135.7196419169841
 31
0.0
  0
LINE
  5
2E3
  8
LAYER_1
 10
286.7016259315883
 20
135.7196419169841
 30
0.0
 11
286.7362500243558
 21
135.566892569839
 31
0.0
  0
LINE
  5
2E4
  8
LAYER_1
 10
286.7362500243558
 20
135.566892569839
 30
0.0
 11
286.7950201119499
 21
135.4164039036863
 31
0.0
  0
LINE
  5
2E5
  8
LAYER_1
 10
286.7950201119499
 20
135.4164039036863
 30
0.0
 11
286.8788063980893
 21
135.2653509814718
 31
0.0
  0
LINE
  5
2E6
  8
LAYER_1
 10
286.8788063980893
 20
135.2653509814718
 30
0.0
 11
286.9398851106627
 21
135.1796665399704
 31
0.0
  0
LINE
  5
2E7
  8
LAYER_1
 10
286.9398851106627
 20
135.1796665399704
 30
0.0
 11
287.0162929996705
 21
135.1110740291212
 31
0.0
  0
LINE
  5
2E8
  8
LAYER_1
 10
287.0162929996705
 20
135.1110740291212
 30
0.0
 11
287.354476594562
 21
134.9256161141086
 31
0.0
  0
LINE
  5
2E9
  8
LAYER_1
 10
287.354476594562
 20
134.9256161141086
 30
0.0
 11
287.8599741486072
 21
134.6547404968226
 31
0.0
  0
LINE
  5
2EA
  8
LAYER_1
 10
287.8599741486072
 20
134.6547404968226
 30
0.0
 11
288.2268216467173
 21
134.4154044063583
 31
0.0
  0
LINE
  5
2EB
  8
LAYER_1
 10
288.2268216467173
 20
134.4154044063583
 30
0.0
 11
288.3680376202704
 21
134.3002102362153
 31
0.0
  0
LINE
  5
2EC
  8
LAYER_1
 10
288.3680376202704
 20
134.3002102362153
 30
0.0
 11
288.4863343353568
 21
134.1840767904994
 31
0.0
  0
LINE
  5
2ED
  8
LAYER_1
 10
288.4863343353568
 20
134.1840767904994
 30
0.0
 11
288.5856261342978
 21
134.0640627257758
 31
0.0
  0
LINE
  5
2EE
  8
LAYER_1
 10
288.5856261342978
 20
134.0640627257758
 30
0.0
 11
288.6698274609904
 21
133.9372266986078
 31
0.0
  0
LINE
  5
2EF
  8
LAYER_1
 10
288.6698274609904
 20
133.9372266986078
 30
0.0
 11
288.7760181155952
 21
133.7409732598748
 31
0.0
  0
LINE
  5
2F0
  8
LAYER_1
 10
288.7760181155952
 20
133.7409732598748
 30
0.0
 11
288.8493615507522
 21
133.5576800362995
 31
0.0
  0
LINE
  5
2F1
  8
LAYER_1
 10
288.8493615507522
 20
133.5576800362995
 30
0.0
 11
288.8975667942851
 21
133.3633996146221
 31
0.0
  0
LINE
  5
2F2
  8
LAYER_1
 10
288.8975667942851
 20
133.3633996146221
 30
0.0
 11
288.9283431787495
 21
133.1341841752808
 31
0.0
  0
LINE
  5
2F3
  8
LAYER_1
 10
288.9283431787495
 20
133.1341841752808
 30
0.0
 11
288.9433653917564
 21
132.8150953915146
 31
0.0
  0
LINE
  5
2F4
  8
LAYER_1
 10
288.9433653917564
 20
132.8150953915146
 30
0.0
 11
288.9158495033007
 21
132.5528669602875
 31
0.0
  0
LINE
  5
2F5
  8
LAYER_1
 10
288.9158495033007
 20
132.5528669602875
 30
0.0
 11
288.8403047076825
 21
132.3211852496248
 31
0.0
  0
LINE
  5
2F6
  8
LAYER_1
 10
288.8403047076825
 20
132.3211852496248
 30
0.0
 11
288.7112405039207
 21
132.0937368307073
 31
0.0
  0
LINE
  5
2F7
  8
LAYER_1
 10
288.7112405039207
 20
132.0937368307073
 30
0.0
 11
288.6109719477731
 21
131.9148109795242
 31
0.0
  0
LINE
  5
2F8
  8
LAYER_1
 10
288.6109719477731
 20
131.9148109795242
 30
0.0
 11
288.6341296056967
 21
131.8798622490658
 31
0.0
  0
LINE
  5
2F9
  8
LAYER_1
 10
288.6341296056967
 20
131.8798622490658
 30
0.0
 11
288.6898063917847
 21
131.8380147645188
 31
0.0
  0
LINE
  5
2FA
  8
LAYER_1
 10
288.6898063917847
 20
131.8380147645188
 30
0.0
 11
288.8166419110712
 21
131.742968141744
 31
0.0
  0
LINE
  5
2FB
  8
LAYER_1
 10
288.8166419110712
 20
131.742968141744
 30
0.0
 11
288.9565770081297
 21
131.6030544772753
 31
0.0
  0
LINE
  5
2FC
  8
LAYER_1
 10
288.9565770081297
 20
131.6030544772753
 30
0.0
 11
289.1052304961941
 21
131.4246696211934
 31
0.0
  0
LINE
  5
2FD
  8
LAYER_1
 10
289.1052304961941
 20
131.4246696211934
 30
0.0
 11
289.2582207822012
 21
131.2142094235778
 31
0.0
  0
LINE
  5
2FE
  8
LAYER_1
 10
289.2582207822012
 20
131.2142094235778
 30
0.0
 11
289.5596861883823
 21
130.7226473182552
 31
0.0
  0
LINE
  5
2FF
  8
LAYER_1
 10
289.5596861883823
 20
130.7226473182552
 30
0.0
 11
289.8259215994728
 21
130.1795356729845
 31
0.0
  0
LINE
  5
300
  8
LAYER_1
 10
289.8259215994728
 20
130.1795356729845
 30
0.0
 11
289.9521639134649
 21
129.8928648474379
 31
0.0
  0
LINE
  5
301
  8
LAYER_1
 10
289.9521639134649
 20
129.8928648474379
 30
0.0
 11
290.0880168642357
 21
129.5862142784868
 31
0.0
  0
LINE
  5
302
  8
LAYER_1
 10
290.0880168642357
 20
129.5862142784868
 30
0.0
 11
290.1349928320072
 21
129.500168327116
 31
0.0
  0
LINE
  5
303
  8
LAYER_1
 10
290.1349928320072
 20
129.500168327116
 30
0.0
 11
290.1730265347183
 21
129.4643792563515
 31
0.0
  0
LINE
  5
304
  8
LAYER_1
 10
290.1730265347183
 20
129.4643792563515
 30
0.0
 11
290.2286780283192
 21
129.4985702279939
 31
0.0
  0
LINE
  5
305
  8
LAYER_1
 10
290.2286780283192
 20
129.4985702279939
 30
0.0
 11
290.3180116981352
 21
129.5807741593311
 31
0.0
  0
LINE
  5
306
  8
LAYER_1
 10
290.3180116981352
 20
129.5807741593311
 30
0.0
 11
290.5173128306365
 21
129.7495043961194
 31
0.0
  0
LINE
  5
307
  8
LAYER_1
 10
290.5173128306365
 20
129.7495043961194
 30
0.0
 11
290.899912570254
 21
129.9970579035342
 31
0.0
  0
LINE
  5
308
  8
LAYER_1
 10
290.899912570254
 20
129.9970579035342
 30
0.0
 11
291.338436738856
 21
130.2982567736374
 31
0.0
  0
LINE
  5
309
  8
LAYER_1
 10
291.338436738856
 20
130.2982567736374
 30
0.0
 11
291.5059205334963
 21
130.4353459073565
 31
0.0
  0
LINE
  5
30A
  8
LAYER_1
 10
291.5059205334963
 20
130.4353459073565
 30
0.0
 11
291.6129599592352
 21
130.5435578277353
 31
0.0
  0
LINE
  5
30B
  8
LAYER_1
 10
291.6129599592352
 20
130.5435578277353
 30
0.0
 11
291.7054466573873
 21
130.683173873795
 31
0.0
  0
LINE
  5
30C
  8
LAYER_1
 10
291.7054466573873
 20
130.683173873795
 30
0.0
 11
291.7751404579254
 21
130.8497107746442
 31
0.0
  0
LINE
  5
30D
  8
LAYER_1
 10
291.7751404579254
 20
130.8497107746442
 30
0.0
 11
291.8302733032019
 21
131.0685849392504
 31
0.0
  0
LINE
  5
30E
  8
LAYER_1
 10
291.8302733032019
 20
131.0685849392504
 30
0.0
 11
291.8790769324166
 21
131.3652124718542
 31
0.0
  0
LINE
  5
30F
  8
LAYER_1
 10
291.8790769324166
 20
131.3652124718542
 30
0.0
 11
291.9283709717612
 21
131.6099943697443
 31
0.0
  0
LINE
  5
310
  8
LAYER_1
 10
291.9283709717612
 20
131.6099943697443
 30
0.0
 11
292.0068762071528
 21
131.8455749831391
 31
0.0
  0
LINE
  5
311
  8
LAYER_1
 10
292.0068762071528
 20
131.8455749831391
 30
0.0
 11
292.1163860688372
 21
132.0764026407013
 31
0.0
  0
LINE
  5
312
  8
LAYER_1
 10
292.1163860688372
 20
132.0764026407013
 30
0.0
 11
292.2586937839134
 21
132.3069260773988
 31
0.0
  0
LINE
  5
313
  8
LAYER_1
 10
292.2586937839134
 20
132.3069260773988
 30
0.0
 11
292.662595789697
 21
132.8767536981645
 31
0.0
  0
LINE
  5
314
  8
LAYER_1
 10
292.662595789697
 20
132.8767536981645
 30
0.0
 11
292.7498891989791
 21
132.9694598010153
 31
0.0
  0
LINE
  5
315
  8
LAYER_1
 10
292.7498891989791
 20
132.9694598010153
 30
0.0
 11
292.8116639120105
 21
132.9976303483927
 31
0.0
  0
LINE
  5
316
  8
LAYER_1
 10
292.8116639120105
 20
132.9976303483927
 30
0.0
 11
292.8762962696465
 21
132.9959824769092
 31
0.0
  0
LINE
  5
317
  8
LAYER_1
 10
292.8762962696465
 20
132.9959824769092
 30
0.0
 11
292.9324996270093
 21
132.9730591553904
 31
0.0
  0
LINE
  5
318
  8
LAYER_1
 10
292.9324996270093
 20
132.9730591553904
 30
0.0
 11
292.9569761509483
 21
132.9465136248408
 31
0.0
  0
LINE
  5
319
  8
LAYER_1
 10
292.9569761509483
 20
132.9465136248408
 30
0.0
 11
292.9566592330509
 21
132.9071064080946
 31
0.0
  0
LINE
  5
31A
  8
LAYER_1
 10
292.9566592330509
 20
132.9071064080946
 30
0.0
 11
292.8600570716022
 21
132.7118706617983
 31
0.0
  0
LINE
  5
31B
  8
LAYER_1
 10
292.8600570716022
 20
132.7118706617983
 30
0.0
 11
292.5992821964955
 21
132.2090971795931
 31
0.0
  0
LINE
  5
31C
  8
LAYER_1
 10
292.5992821964955
 20
132.2090971795931
 30
0.0
 11
292.392533493434
 21
131.7518278253148
 31
0.0
  0
LINE
  5
31D
  8
LAYER_1
 10
292.392533493434
 20
131.7518278253148
 30
0.0
 11
292.2497315083317
 21
131.3640461733656
 31
0.0
  0
LINE
  5
31E
  8
LAYER_1
 10
292.2497315083317
 20
131.3640461733656
 30
0.0
 11
292.1807970918298
 21
131.0697353918436
 31
0.0
  0
LINE
  5
31F
  8
LAYER_1
 10
292.1807970918298
 20
131.0697353918436
 30
0.0
 11
292.1513787818108
 21
130.921986745002
 31
0.0
  0
LINE
  5
320
  8
LAYER_1
 10
292.1513787818108
 20
130.921986745002
 30
0.0
 11
292.1071668053463
 21
130.7881685696464
 31
0.0
  0
LINE
  5
321
  8
LAYER_1
 10
292.1071668053463
 20
130.7881685696464
 30
0.0
 11
292.004532843094
 21
130.6284340270254
 31
0.0
  0
LINE
  5
322
  8
LAYER_1
 10
292.004532843094
 20
130.6284340270254
 30
0.0
 11
291.8347605355679
 21
130.4410553051479
 31
0.0
  0
LINE
  5
323
  8
LAYER_1
 10
291.8347605355679
 20
130.4410553051479
 30
0.0
 11
291.6223192963721
 21
130.2502442202483
 31
0.0
  0
LINE
  5
324
  8
LAYER_1
 10
291.6223192963721
 20
130.2502442202483
 30
0.0
 11
291.3916782343795
 21
130.0802122838312
 31
0.0
  0
LINE
  5
325
  8
LAYER_1
 10
291.3916782343795
 20
130.0802122838312
 30
0.0
 11
291.1162403198801
 21
129.889608516055
 31
0.0
  0
LINE
  5
326
  8
LAYER_1
 10
291.1162403198801
 20
129.889608516055
 30
0.0
 11
290.9018260636281
 21
129.7111740907637
 31
0.0
  0
LINE
  5
327
  8
LAYER_1
 10
290.9018260636281
 20
129.7111740907637
 30
0.0
 11
290.7107057806286
 21
129.5095498078763
 31
0.0
  0
LINE
  5
328
  8
LAYER_1
 10
290.7107057806286
 20
129.5095498078763
 30
0.0
 11
290.5051497858805
 21
129.2493761625858
 31
0.0
  0
LINE
  5
329
  8
LAYER_1
 10
290.5051497858805
 20
129.2493761625858
 30
0.0
 11
290.2353437664944
 21
128.8761683660818
 31
0.0
  0
LINE
  5
32A
  8
LAYER_1
 10
290.2353437664944
 20
128.8761683660818
 30
0.0
 11
290.0512359014026
 21
128.574367250399
 31
0.0
  0
LINE
  5
32B
  8
LAYER_1
 10
290.0512359014026
 20
128.574367250399
 30
0.0
 11
289.9033175206505
 21
128.2507105827253
 31
0.0
  0
LINE
  5
32C
  8
LAYER_1
 10
289.9033175206505
 20
128.2507105827253
 30
0.0
 11
289.7420801574271
 21
127.8119359270951
 31
0.0
  0
LINE
  5
32D
  8
LAYER_1
 10
289.7420801574271
 20
127.8119359270951
 30
0.0
 11
289.5407263720916
 21
127.2815950572774
 31
0.0
  0
LINE
  5
32E
  8
LAYER_1
 10
289.5407263720916
 20
127.2815950572774
 30
0.0
 11
289.4385555975319
 21
127.148291975079
 31
0.0
  0
LINE
  5
32F
  8
LAYER_1
 10
289.4385555975319
 20
127.148291975079
 30
0.0
 11
289.2422642708587
 21
126.9460358879248
 31
0.0
  0
LINE
  5
330
  8
LAYER_1
 10
289.2422642708587
 20
126.9460358879248
 30
0.0
 11
288.6683061535133
 21
126.4329046756325
 31
0.0
  0
LINE
  5
331
  8
LAYER_1
 10
288.6683061535133
 20
126.4329046756325
 30
0.0
 11
288.345307293626
 21
126.1646639462401
 31
0.0
  0
LINE
  5
332
  8
LAYER_1
 10
288.345307293626
 20
126.1646639462401
 30
0.0
 11
288.0531564294581
 21
125.8684034086233
 31
0.0
  0
LINE
  5
333
  8
LAYER_1
 10
288.0531564294581
 20
125.8684034086233
 30
0.0
 11
287.7912338443156
 21
125.5471387600322
 31
0.0
  0
LINE
  5
334
  8
LAYER_1
 10
287.7912338443156
 20
125.5471387600322
 30
0.0
 11
287.5589198215048
 21
125.2038857992918
 31
0.0
  0
LINE
  5
335
  8
LAYER_1
 10
287.5589198215048
 20
125.2038857992918
 30
0.0
 11
287.3985633275142
 21
124.9241260185595
 31
0.0
  0
LINE
  5
336
  8
LAYER_1
 10
287.3985633275142
 20
124.9241260185595
 30
0.0
 11
287.2553936363891
 21
124.6343398494637
 31
0.0
  0
LINE
  5
337
  8
LAYER_1
 10
287.2553936363891
 20
124.6343398494637
 30
0.0
 11
287.1291207479455
 21
124.3359388971324
 31
0.0
  0
LINE
  5
338
  8
LAYER_1
 10
287.1291207479455
 20
124.3359388971324
 30
0.0
 11
287.0194545604122
 21
124.0303348682724
 31
0.0
  0
LINE
  5
339
  8
LAYER_1
 10
287.0194545604122
 20
124.0303348682724
 30
0.0
 11
286.9452390931599
 21
123.6785586444979
 31
0.0
  0
LINE
  5
33A
  8
LAYER_1
 10
286.9452390931599
 20
123.6785586444979
 30
0.0
 11
286.9101622750529
 21
123.318247577996
 31
0.0
  0
LINE
  5
33B
  8
LAYER_1
 10
286.9101622750529
 20
123.318247577996
 30
0.0
 11
286.9119383357632
 21
122.9551161453704
 31
0.0
  0
LINE
  5
33C
  8
LAYER_1
 10
286.9119383357632
 20
122.9551161453704
 30
0.0
 11
286.9532649632924
 21
122.6021709717986
 31
0.0
  0
LINE
  5
33D
  8
LAYER_1
 10
286.9532649632924
 20
122.6021709717986
 30
0.0
 11
287.0359579320781
 21
122.2804864702226
 31
0.0
  0
LINE
  5
33E
  8
LAYER_1
 10
287.0359579320781
 20
122.2804864702226
 30
0.0
 11
287.1174842473031
 21
121.963820636635
 31
0.0
  0
LINE
  5
33F
  8
LAYER_1
 10
287.1174842473031
 20
121.963820636635
 30
0.0
 11
287.0653498308653
 21
121.9368426593364
 31
0.0
  0
LINE
  5
340
  8
LAYER_1
 10
287.0653498308653
 20
121.9368426593364
 30
0.0
 11
286.9967567276169
 21
121.9736193753442
 31
0.0
  0
LINE
  5
341
  8
LAYER_1
 10
286.9967567276169
 20
121.9736193753442
 30
0.0
 11
286.9467052103548
 21
122.0354898462037
 31
0.0
  0
LINE
  5
342
  8
LAYER_1
 10
286.9467052103548
 20
122.0354898462037
 30
0.0
 11
286.9001766847319
 21
122.1027579802271
 31
0.0
  0
LINE
  5
343
  8
LAYER_1
 10
286.9001766847319
 20
122.1027579802271
 30
0.0
 11
286.8421525803292
 21
122.1557272675992
 31
0.0
  0
LINE
  5
344
  8
LAYER_1
 10
286.8421525803292
 20
122.1557272675992
 30
0.0
 11
286.8426843337158
 21
122.0803388019274
 31
0.0
  0
LINE
  5
345
  8
LAYER_1
 10
286.8426843337158
 20
122.0803388019274
 30
0.0
 11
286.8838777584032
 21
121.9233790217502
 31
0.0
  0
LINE
  5
346
  8
LAYER_1
 10
286.8838777584032
 20
121.9233790217502
 30
0.0
 11
286.949458027632
 21
121.7371569981809
 31
0.0
  0
LINE
  5
347
  8
LAYER_1
 10
286.949458027632
 20
121.7371569981809
 30
0.0
 11
287.0231501719678
 21
121.5739821396415
 31
0.0
  0
LINE
  5
348
  8
LAYER_1
 10
287.0231501719678
 20
121.5739821396415
 30
0.0
 11
287.2313233529368
 21
121.1665345406759
 31
0.0
  0
LINE
  5
349
  8
LAYER_1
 10
287.2313233529368
 20
121.1665345406759
 30
0.0
 11
287.2751456233827
 21
121.0566628238652
 31
0.0
  0
LINE
  5
34A
  8
LAYER_1
 10
287.2751456233827
 20
121.0566628238652
 30
0.0
 11
287.2841833691824
 21
120.9974502473977
 31
0.0
  0
LINE
  5
34B
  8
LAYER_1
 10
287.2841833691824
 20
120.9974502473977
 30
0.0
 11
287.2586252658504
 21
120.9616068491809
 31
0.0
  0
LINE
  5
34C
  8
LAYER_1
 10
287.2586252658504
 20
120.9616068491809
 30
0.0
 11
287.207461947006
 21
120.9616838025378
 31
0.0
  0
LINE
  5
34D
  8
LAYER_1
 10
287.207461947006
 20
120.9616838025378
 30
0.0
 11
287.1096057982243
 21
121.007833829365
 31
0.0
  0
LINE
  5
350
  8
LAYER_1
 10
287.7973439604072
 20
126.2536668837894
 30
0.0
 11
288.0046115149483
 21
126.5005230702561
 31
0.0
  0
LINE
  5
351
  8
LAYER_1
 10
288.0046115149483
 20
126.5005230702561
 30
0.0
 11
288.1986255021247
 21
126.7557245581688
 31
0.0
  0
LINE
  5
352
  8
LAYER_1
 10
288.1986255021247
 20
126.7557245581688
 30
0.0
 11
288.3776548595047
 21
127.0163008517099
 31
0.0
  0
LINE
  5
353
  8
LAYER_1
 10
288.3776548595047
 20
127.0163008517099
 30
0.0
 11
288.5399682199303
 21
127.2792813534835
 31
0.0
  0
LINE
  5
354
  8
LAYER_1
 10
288.5399682199303
 20
127.2792813534835
 30
0.0
 11
288.683834622543
 21
127.5416954660933
 31
0.0
  0
LINE
  5
355
  8
LAYER_1
 10
288.683834622543
 20
127.5416954660933
 30
0.0
 11
288.8075228017618
 21
127.800572490568
 31
0.0
  0
LINE
  5
356
  8
LAYER_1
 10
288.8075228017618
 20
127.800572490568
 30
0.0
 11
288.9093016951526
 21
128.0529419310899
 31
0.0
  0
LINE
  5
357
  8
LAYER_1
 10
288.9093016951526
 20
128.0529419310899
 30
0.0
 11
288.9874400371331
 21
128.295833088685
 31
0.0
  0
LINE
  5
358
  8
LAYER_1
 10
288.9874400371331
 20
128.295833088685
 30
0.0
 11
289.0295819912252
 21
128.5619968885185
 31
0.0
  0
LINE
  5
359
  8
LAYER_1
 10
289.0295819912252
 20
128.5619968885185
 30
0.0
 11
289.0433836640274
 21
128.911707254546
 31
0.0
  0
LINE
  5
35A
  8
LAYER_1
 10
289.0433836640274
 20
128.911707254546
 30
0.0
 11
289.0289046807975
 21
129.281450894661
 31
0.0
  0
LINE
  5
35B
  8
LAYER_1
 10
289.0289046807975
 20
129.281450894661
 30
0.0
 11
288.9862047683723
 21
129.6077146183362
 31
0.0
  0
LINE
  5
35C
  8
LAYER_1
 10
288.9862047683723
 20
129.6077146183362
 30
0.0
 11
288.9114985862613
 21
129.9192836108292
 31
0.0
  0
LINE
  5
35D
  8
LAYER_1
 10
288.9114985862613
 20
129.9192836108292
 30
0.0
 11
288.81737549474
 21
130.2090532229972
 31
0.0
  0
LINE
  5
35E
  8
LAYER_1
 10
288.81737549474
 20
130.2090532229972
 30
0.0
 11
288.7054824511067
 21
130.4743071027943
 31
0.0
  0
LINE
  5
35F
  8
LAYER_1
 10
288.7054824511067
 20
130.4743071027943
 30
0.0
 11
288.5774666158095
 21
130.7123291013281
 31
0.0
  0
LINE
  5
360
  8
LAYER_1
 10
288.5774666158095
 20
130.7123291013281
 30
0.0
 11
288.4349750477225
 21
130.9204029681316
 31
0.0
  0
LINE
  5
361
  8
LAYER_1
 10
288.4349750477225
 20
130.9204029681316
 30
0.0
 11
288.2796548057201
 21
131.0958125543107
 31
0.0
  0
LINE
  5
362
  8
LAYER_1
 10
288.2796548057201
 20
131.0958125543107
 30
0.0
 11
288.1131530502558
 21
131.2358415078217
 31
0.0
  0
LINE
  5
363
  8
LAYER_1
 10
288.1131530502558
 20
131.2358415078217
 30
0.0
 11
287.9371168401968
 21
131.3377737813488
 31
0.0
  0
LINE
  5
364
  8
LAYER_1
 10
287.9371168401968
 20
131.3377737813488
 30
0.0
 11
287.7150519624639
 21
131.4488872272734
 31
0.0
  0
LINE
  5
365
  8
LAYER_1
 10
287.7150519624639
 20
131.4488872272734
 30
0.0
 11
287.6877687851943
 21
131.4832971973087
 31
0.0
  0
LINE
  5
366
  8
LAYER_1
 10
287.6877687851943
 20
131.4832971973087
 30
0.0
 11
287.6882608205445
 21
131.5246828146519
 31
0.0
  0
LINE
  5
367
  8
LAYER_1
 10
287.6882608205445
 20
131.5246828146519
 30
0.0
 11
287.6892136057576
 21
131.5569010739669
 31
0.0
  0
LINE
  5
368
  8
LAYER_1
 10
287.6892136057576
 20
131.5569010739669
 30
0.0
 11
287.675921439418
 21
131.5753706832819
 31
0.0
  0
LINE
  5
369
  8
LAYER_1
 10
287.675921439418
 20
131.5753706832819
 30
0.0
 11
287.5807593244488
 21
131.5857427356204
 31
0.0
  0
LINE
  5
36A
  8
LAYER_1
 10
287.5807593244488
 20
131.5857427356204
 30
0.0
 11
287.4972390665032
 21
131.5773218614442
 31
0.0
  0
LINE
  5
36B
  8
LAYER_1
 10
287.4972390665032
 20
131.5773218614442
 30
0.0
 11
287.4599889229762
 21
131.5570756835388
 31
0.0
  0
LINE
  5
36C
  8
LAYER_1
 10
287.4599889229762
 20
131.5570756835388
 30
0.0
 11
287.4528221091694
 21
131.5035531265345
 31
0.0
  0
LINE
  5
36D
  8
LAYER_1
 10
287.4528221091694
 20
131.5035531265345
 30
0.0
 11
287.5350070457473
 21
131.4233201807284
 31
0.0
  0
LINE
  5
36E
  8
LAYER_1
 10
287.5350070457473
 20
131.4233201807284
 30
0.0
 11
287.7366261482461
 21
131.2653237093
 31
0.0
  0
LINE
  5
36F
  8
LAYER_1
 10
287.7366261482461
 20
131.2653237093
 30
0.0
 11
287.9335622809457
 21
131.1074697493484
 31
0.0
  0
LINE
  5
370
  8
LAYER_1
 10
287.9335622809457
 20
131.1074697493484
 30
0.0
 11
288.1105652937412
 21
130.9416593218316
 31
0.0
  0
LINE
  5
371
  8
LAYER_1
 10
288.1105652937412
 20
130.9416593218316
 30
0.0
 11
288.2681609452916
 21
130.7671247134585
 31
0.0
  0
LINE
  5
372
  8
LAYER_1
 10
288.2681609452916
 20
130.7671247134585
 30
0.0
 11
288.4068749942624
 21
130.5830980077905
 31
0.0
  0
LINE
  5
373
  8
LAYER_1
 10
288.4068749942624
 20
130.5830980077905
 30
0.0
 11
288.5272331993165
 21
130.3888116946919
 31
0.0
  0
LINE
  5
374
  8
LAYER_1
 10
288.5272331993165
 20
130.3888116946919
 30
0.0
 11
288.6297612175423
 21
130.1834977561445
 31
0.0
  0
LINE
  5
375
  8
LAYER_1
 10
288.6297612175423
 20
130.1834977561445
 30
0.0
 11
288.7149850107563
 21
129.9663885804365
 31
0.0
  0
LINE
  5
376
  8
LAYER_1
 10
288.7149850107563
 20
129.9663885804365
 30
0.0
 11
288.7834302360425
 21
129.7367164542798
 31
0.0
  0
LINE
  5
377
  8
LAYER_1
 10
288.7834302360425
 20
129.7367164542798
 30
0.0
 11
288.8177902305648
 21
129.5829282868384
 31
0.0
  0
LINE
  5
378
  8
LAYER_1
 10
288.8177902305648
 20
129.5829282868384
 30
0.0
 11
288.8381227482814
 21
129.4257629122778
 31
0.0
  0
LINE
  5
379
  8
LAYER_1
 10
288.8381227482814
 20
129.4257629122778
 30
0.0
 11
288.8519305156582
 21
128.919704860493
 31
0.0
  0
LINE
  5
37A
  8
LAYER_1
 10
288.8519305156582
 20
128.919704860493
 30
0.0
 11
288.8439878624631
 21
128.4178315470051
 31
0.0
  0
LINE
  5
37B
  8
LAYER_1
 10
288.8439878624631
 20
128.4178315470051
 30
0.0
 11
288.8242699826255
 21
128.2908209102652
 31
0.0
  0
LINE
  5
37C
  8
LAYER_1
 10
288.8242699826255
 20
128.2908209102652
 30
0.0
 11
288.78785926522
 21
128.1743608969103
 31
0.0
  0
LINE
  5
37D
  8
LAYER_1
 10
288.78785926522
 20
128.1743608969103
 30
0.0
 11
288.6602298259713
 21
127.8771330486763
 31
0.0
  0
LINE
  5
37E
  8
LAYER_1
 10
288.6602298259713
 20
127.8771330486763
 30
0.0
 11
288.4685064847821
 21
127.5323040308603
 31
0.0
  0
LINE
  5
37F
  8
LAYER_1
 10
288.4685064847821
 20
127.5323040308603
 30
0.0
 11
288.1950087782099
 21
127.1107477683123
 31
0.0
  0
LINE
  5
380
  8
LAYER_1
 10
288.1950087782099
 20
127.1107477683123
 30
0.0
 11
287.8220563443963
 21
126.5833382874585
 31
0.0
  0
LINE
  5
381
  8
LAYER_1
 10
287.8220563443963
 20
126.5833382874585
 30
0.0
 11
287.5711825125625
 21
126.2014494800056
 31
0.0
  0
LINE
  5
382
  8
LAYER_1
 10
287.5711825125625
 20
126.2014494800056
 30
0.0
 11
287.3259194479823
 21
125.7642230495589
 31
0.0
  0
LINE
  5
383
  8
LAYER_1
 10
287.3259194479823
 20
125.7642230495589
 30
0.0
 11
287.1138072142563
 21
125.32446513584
 31
0.0
  0
LINE
  5
384
  8
LAYER_1
 10
287.1138072142563
 20
125.32446513584
 30
0.0
 11
286.9623858749877
 21
124.9349814722664
 31
0.0
  0
LINE
  5
385
  8
LAYER_1
 10
286.9623858749877
 20
124.9349814722664
 30
0.0
 11
286.8725592556381
 21
124.6692307830367
 31
0.0
  0
LINE
  5
386
  8
LAYER_1
 10
286.8725592556381
 20
124.6692307830367
 30
0.0
 11
286.8348871643727
 21
124.4951515409872
 31
0.0
  0
LINE
  5
387
  8
LAYER_1
 10
286.8348871643727
 20
124.4951515409872
 30
0.0
 11
286.8391873948638
 21
124.4414015547619
 31
0.0
  0
LINE
  5
388
  8
LAYER_1
 10
286.8391873948638
 20
124.4414015547619
 30
0.0
 11
286.8600747220536
 21
124.4319445012725
 31
0.0
  0
LINE
  5
389
  8
LAYER_1
 10
286.8600747220536
 20
124.4319445012725
 30
0.0
 11
286.9335272501011
 21
124.6813402971107
 31
0.0
  0
LINE
  5
38A
  8
LAYER_1
 10
286.9335272501011
 20
124.6813402971107
 30
0.0
 11
287.0206566137402
 21
124.9239249991633
 31
0.0
  0
LINE
  5
38B
  8
LAYER_1
 10
287.0206566137402
 20
124.9239249991633
 30
0.0
 11
287.2335670336287
 21
125.3898945623021
 31
0.0
  0
LINE
  5
38C
  8
LAYER_1
 10
287.2335670336287
 20
125.3898945623021
 30
0.0
 11
287.4940486581067
 21
125.8323197667373
 31
0.0
  0
LINE
  5
38D
  8
LAYER_1
 10
287.4940486581067
 20
125.8323197667373
 30
0.0
 11
287.7973439604072
 21
126.2536668837894
 31
0.0
  0
LINE
  5
38E
  8
LAYER_1
 10
287.7973439604072
 20
126.2536668837894
 30
0.0
 11
287.7973439604072
 21
126.2536668837894
 31
0.0
  0
LINE
  5
38F
  8
LAYER_1
 10
288.1754523030348
 20
131.8379655000383
 30
0.0
 11
288.3306753365662
 21
131.9646864413159
 31
0.0
  0
LINE
  5
390
  8
LAYER_1
 10
288.3306753365662
 20
131.9646864413159
 30
0.0
 11
288.4568131285984
 21
132.1079739608879
 31
0.0
  0
LINE
  5
391
  8
LAYER_1
 10
288.4568131285984
 20
132.1079739608879
 30
0.0
 11
288.5224832907707
 21
132.2252039222093
 31
0.0
  0
LINE
  5
392
  8
LAYER_1
 10
288.5224832907707
 20
132.2252039222093
 30
0.0
 11
288.522836065084
 21
132.2607273710831
 31
0.0
  0
LINE
  5
393
  8
LAYER_1
 10
288.522836065084
 20
132.2607273710831
 30
0.0
 11
288.4963036378707
 21
132.2737525950396
 31
0.0
  0
LINE
  5
394
  8
LAYER_1
 10
288.4963036378707
 20
132.2737525950396
 30
0.0
 11
288.4760575615404
 21
132.2661252345195
 31
0.0
  0
LINE
  5
395
  8
LAYER_1
 10
288.4760575615404
 20
132.2661252345195
 30
0.0
 11
288.4676365857879
 21
132.2477870648706
 31
0.0
  0
LINE
  5
396
  8
LAYER_1
 10
288.4676365857879
 20
132.2477870648706
 30
0.0
 11
288.4212408215487
 21
132.1916765481994
 31
0.0
  0
LINE
  5
397
  8
LAYER_1
 10
288.4212408215487
 20
132.1916765481994
 30
0.0
 11
288.3013426553252
 21
132.1164368876308
 31
0.0
  0
LINE
  5
398
  8
LAYER_1
 10
288.3013426553252
 20
132.1164368876308
 30
0.0
 11
288.1368756752751
 21
132.0377315470303
 31
0.0
  0
LINE
  5
399
  8
LAYER_1
 10
288.1368756752751
 20
132.0377315470303
 30
0.0
 11
287.9567735711304
 21
131.9712243965687
 31
0.0
  0
LINE
  5
39A
  8
LAYER_1
 10
287.9567735711304
 20
131.9712243965687
 30
0.0
 11
287.6594342937519
 21
131.8677433899768
 31
0.0
  0
LINE
  5
39B
  8
LAYER_1
 10
287.6594342937519
 20
131.8677433899768
 30
0.0
 11
287.6221122342405
 21
131.8377172476862
 31
0.0
  0
LINE
  5
39C
  8
LAYER_1
 10
287.6221122342405
 20
131.8377172476862
 30
0.0
 11
287.6395852789777
 21
131.812437154044
 31
0.0
  0
LINE
  5
39D
  8
LAYER_1
 10
287.6395852789777
 20
131.812437154044
 30
0.0
 11
287.7509596742875
 21
131.7859395674837
 31
0.0
  0
LINE
  5
39E
  8
LAYER_1
 10
287.7509596742875
 20
131.7859395674837
 30
0.0
 11
287.8171302010592
 21
131.7732004838193
 31
0.0
  0
LINE
  5
39F
  8
LAYER_1
 10
287.8171302010592
 20
131.7732004838193
 30
0.0
 11
287.8755812376534
 21
131.7444689308195
 31
0.0
  0
LINE
  5
3A0
  8
LAYER_1
 10
287.8755812376534
 20
131.7444689308195
 30
0.0
 11
287.921341337728
 21
131.7205208065272
 31
0.0
  0
LINE
  5
3A1
  8
LAYER_1
 10
287.921341337728
 20
131.7205208065272
 30
0.0
 11
287.9749513518837
 21
131.7244973135142
 31
0.0
  0
LINE
  5
3A2
  8
LAYER_1
 10
287.9749513518837
 20
131.7244973135142
 30
0.0
 11
288.1754523030348
 21
131.8379655000383
 31
0.0
  0
LINE
  5
3A3
  8
LAYER_1
 10
288.1754523030348
 20
131.8379655000383
 30
0.0
 11
288.1754523030348
 21
131.8379655000383
 31
0.0
  0
LINE
  5
3A4
  8
LAYER_1
 10
286.8237814267896
 20
131.9742381638696
 30
0.0
 11
286.9031205016056
 21
132.0570930973851
 31
0.0
  0
LINE
  5
3A5
  8
LAYER_1
 10
286.9031205016056
 20
132.0570930973851
 30
0.0
 11
286.9196145544579
 21
132.1771319467138
 31
0.0
  0
LINE
  5
3A6
  8
LAYER_1
 10
286.9196145544579
 20
132.1771319467138
 30
0.0
 11
286.911962510908
 21
132.2597042951053
 31
0.0
  0
LINE
  5
3A7
  8
LAYER_1
 10
286.911962510908
 20
132.2597042951053
 30
0.0
 11
286.8602388692699
 21
132.3511301309168
 31
0.0
  0
LINE
  5
3A8
  8
LAYER_1
 10
286.8602388692699
 20
132.3511301309168
 30
0.0
 11
286.4519706084345
 21
132.784848422459
 31
0.0
  0
LINE
  5
3A9
  8
LAYER_1
 10
286.4519706084345
 20
132.784848422459
 30
0.0
 11
286.1789980510707
 21
133.0682984683091
 31
0.0
  0
LINE
  5
3AA
  8
LAYER_1
 10
286.1789980510707
 20
133.0682984683091
 30
0.0
 11
286.0071890381805
 21
133.2691694617352
 31
0.0
  0
LINE
  5
3AB
  8
LAYER_1
 10
286.0071890381805
 20
133.2691694617352
 30
0.0
 11
285.8761889942704
 21
133.4669105862078
 31
0.0
  0
LINE
  5
3AC
  8
LAYER_1
 10
285.8761889942704
 20
133.4669105862078
 30
0.0
 11
285.7256437501486
 21
133.7409713299261
 31
0.0
  0
LINE
  5
3AD
  8
LAYER_1
 10
285.7256437501486
 20
133.7409713299261
 30
0.0
 11
285.6916333810751
 21
133.8382398315668
 31
0.0
  0
LINE
  5
3AE
  8
LAYER_1
 10
285.6916333810751
 20
133.8382398315668
 30
0.0
 11
285.6673655963277
 21
133.9641588283606
 31
0.0
  0
LINE
  5
3AF
  8
LAYER_1
 10
285.6673655963277
 20
133.9641588283606
 30
0.0
 11
285.6460849659036
 21
134.0674087489864
 31
0.0
  0
LINE
  5
3B0
  8
LAYER_1
 10
285.6460849659036
 20
134.0674087489864
 30
0.0
 11
285.6183159494376
 21
134.0999283850321
 31
0.0
  0
LINE
  5
3B1
  8
LAYER_1
 10
285.6183159494376
 20
134.0999283850321
 30
0.0
 11
285.5718049977353
 21
134.0468049211085
 31
0.0
  0
LINE
  5
3B2
  8
LAYER_1
 10
285.5718049977353
 20
134.0468049211085
 30
0.0
 11
285.5302412156498
 21
133.9342766196149
 31
0.0
  0
LINE
  5
3B3
  8
LAYER_1
 10
285.5302412156498
 20
133.9342766196149
 30
0.0
 11
285.5000907440325
 21
133.7858715870534
 31
0.0
  0
LINE
  5
3B4
  8
LAYER_1
 10
285.5000907440325
 20
133.7858715870534
 30
0.0
 11
285.4878199268744
 21
133.6251179299285
 31
0.0
  0
LINE
  5
3B5
  8
LAYER_1
 10
285.4878199268744
 20
133.6251179299285
 30
0.0
 11
285.5065112771415
 21
133.4263619571541
 31
0.0
  0
LINE
  5
3B6
  8
LAYER_1
 10
285.5065112771415
 20
133.4263619571541
 30
0.0
 11
285.5766431760391
 21
133.2436825588497
 31
0.0
  0
LINE
  5
3B7
  8
LAYER_1
 10
285.5766431760391
 20
133.2436825588497
 30
0.0
 11
285.7144993120127
 21
133.0474113442738
 31
0.0
  0
LINE
  5
3B8
  8
LAYER_1
 10
285.7144993120127
 20
133.0474113442738
 30
0.0
 11
285.9363633735019
 21
132.8078798211064
 31
0.0
  0
LINE
  5
3B9
  8
LAYER_1
 10
285.9363633735019
 20
132.8078798211064
 30
0.0
 11
286.1533626437083
 21
132.5748936682577
 31
0.0
  0
LINE
  5
3BA
  8
LAYER_1
 10
286.1533626437083
 20
132.5748936682577
 30
0.0
 11
286.1824791706906
 21
132.521464561402
 31
0.0
  0
LINE
  5
3BB
  8
LAYER_1
 10
286.1824791706906
 20
132.521464561402
 30
0.0
 11
286.1744392074488
 21
132.488958841303
 31
0.0
  0
LINE
  5
3BC
  8
LAYER_1
 10
286.1744392074488
 20
132.488958841303
 30
0.0
 11
286.1217733445266
 21
132.4580688945931
 31
0.0
  0
LINE
  5
3BD
  8
LAYER_1
 10
286.1217733445266
 20
132.4580688945931
 30
0.0
 11
286.0404922334095
 21
132.4474001380317
 31
0.0
  0
LINE
  5
3BE
  8
LAYER_1
 10
286.0404922334095
 20
132.4474001380317
 30
0.0
 11
285.9436508598936
 21
132.4570289569581
 31
0.0
  0
LINE
  5
3BF
  8
LAYER_1
 10
285.9436508598936
 20
132.4570289569581
 30
0.0
 11
285.8443045145101
 21
132.4870313304065
 31
0.0
  0
LINE
  5
3C0
  8
LAYER_1
 10
285.8443045145101
 20
132.4870313304065
 30
0.0
 11
285.7633379850342
 21
132.5107291708215
 31
0.0
  0
LINE
  5
3C1
  8
LAYER_1
 10
285.7633379850342
 20
132.5107291708215
 30
0.0
 11
285.740934124452
 21
132.5067607899344
 31
0.0
  0
LINE
  5
3C2
  8
LAYER_1
 10
285.740934124452
 20
132.5067607899344
 30
0.0
 11
285.7304648636425
 21
132.4917066819849
 31
0.0
  0
LINE
  5
3C3
  8
LAYER_1
 10
285.7304648636425
 20
132.4917066819849
 30
0.0
 11
285.7449756402379
 21
132.4267180964426
 31
0.0
  0
LINE
  5
3C4
  8
LAYER_1
 10
285.7449756402379
 20
132.4267180964426
 30
0.0
 11
285.806160906298
 21
132.3125176467407
 31
0.0
  0
LINE
  5
3C5
  8
LAYER_1
 10
285.806160906298
 20
132.3125176467407
 30
0.0
 11
285.9606404016883
 21
132.1002107929233
 31
0.0
  0
LINE
  5
3C6
  8
LAYER_1
 10
285.9606404016883
 20
132.1002107929233
 30
0.0
 11
286.0420427948455
 21
132.0229990294844
 31
0.0
  0
LINE
  5
3C7
  8
LAYER_1
 10
286.0420427948455
 20
132.0229990294844
 30
0.0
 11
286.1284846904358
 21
131.9638043531718
 31
0.0
  0
LINE
  5
3C8
  8
LAYER_1
 10
286.1284846904358
 20
131.9638043531718
 30
0.0
 11
286.2216642401802
 21
131.9216687983836
 31
0.0
  0
LINE
  5
3C9
  8
LAYER_1
 10
286.2216642401802
 20
131.9216687983836
 30
0.0
 11
286.3232795958125
 21
131.8956341963653
 31
0.0
  0
LINE
  5
3CA
  8
LAYER_1
 10
286.3232795958125
 20
131.8956341963653
 30
0.0
 11
286.5586109410929
 21
131.888036191381
 31
0.0
  0
LINE
  5
3CB
  8
LAYER_1
 10
286.5586109410929
 20
131.888036191381
 30
0.0
 11
286.7113052339111
 21
131.9147253507466
 31
0.0
  0
LINE
  5
3CC
  8
LAYER_1
 10
286.7113052339111
 20
131.9147253507466
 30
0.0
 11
286.8237814267896
 21
131.9742381638696
 31
0.0
  0
LINE
  5
3CD
  8
LAYER_1
 10
286.8237814267896
 20
131.9742381638696
 30
0.0
 11
286.8237814267896
 21
131.9742381638696
 31
0.0
  0
LINE
  5
3CE
  8
LAYER_1
 10
286.6297781051203
 20
133.8896278652795
 30
0.0
 11
286.6385754208717
 21
133.9290506231911
 31
0.0
  0
LINE
  5
3CF
  8
LAYER_1
 10
286.6385754208717
 20
133.9290506231911
 30
0.0
 11
286.6254674122746
 21
134.0110159519203
 31
0.0
  0
LINE
  5
3D0
  8
LAYER_1
 10
286.6254674122746
 20
134.0110159519203
 30
0.0
 11
286.5212076205819
 21
134.3554678171247
 31
0.0
  0
LINE
  5
3D1
  8
LAYER_1
 10
286.5212076205819
 20
134.3554678171247
 30
0.0
 11
286.42225488316
 21
134.6885446661099
 31
0.0
  0
LINE
  5
3D2
  8
LAYER_1
 10
286.42225488316
 20
134.6885446661099
 30
0.0
 11
286.3668039010716
 21
134.9650631487438
 31
0.0
  0
LINE
  5
3D3
  8
LAYER_1
 10
286.3668039010716
 20
134.9650631487438
 30
0.0
 11
286.3523370054181
 21
135.2035681423407
 31
0.0
  0
LINE
  5
3D4
  8
LAYER_1
 10
286.3523370054181
 20
135.2035681423407
 30
0.0
 11
286.3763368320203
 21
135.4226042194881
 31
0.0
  0
LINE
  5
3D5
  8
LAYER_1
 10
286.3763368320203
 20
135.4226042194881
 30
0.0
 11
286.3959548624046
 21
135.5536681548581
 31
0.0
  0
LINE
  5
3D6
  8
LAYER_1
 10
286.3959548624046
 20
135.5536681548581
 30
0.0
 11
286.3938684862548
 21
135.6184275843833
 31
0.0
  0
LINE
  5
3D7
  8
LAYER_1
 10
286.3938684862548
 20
135.6184275843833
 30
0.0
 11
286.3611237572419
 21
135.6202423456439
 31
0.0
  0
LINE
  5
3D8
  8
LAYER_1
 10
286.3611237572419
 20
135.6202423456439
 30
0.0
 11
286.3145976706765
 21
135.5776638168352
 31
0.0
  0
LINE
  5
3D9
  8
LAYER_1
 10
286.3145976706765
 20
135.5776638168352
 30
0.0
 11
286.1901963246156
 21
135.37144676386
 31
0.0
  0
LINE
  5
3DA
  8
LAYER_1
 10
286.1901963246156
 20
135.37144676386
 30
0.0
 11
286.0921705720413
 21
135.1582364908851
 31
0.0
  0
LINE
  5
3DB
  8
LAYER_1
 10
286.0921705720413
 20
135.1582364908851
 30
0.0
 11
286.031306083774
 21
134.9755468333798
 31
0.0
  0
LINE
  5
3DC
  8
LAYER_1
 10
286.031306083774
 20
134.9755468333798
 30
0.0
 11
286.0000087147309
 21
134.7933084791477
 31
0.0
  0
LINE
  5
3DD
  8
LAYER_1
 10
286.0000087147309
 20
134.7933084791477
 30
0.0
 11
285.9906846245522
 21
134.5814521159933
 31
0.0
  0
LINE
  5
3DE
  8
LAYER_1
 10
285.9906846245522
 20
134.5814521159933
 30
0.0
 11
286.0017327684017
 21
134.3211589154573
 31
0.0
  0
LINE
  5
3DF
  8
LAYER_1
 10
286.0017327684017
 20
134.3211589154573
 30
0.0
 11
286.0245073822916
 21
134.248510972876
 31
0.0
  0
LINE
  5
3E0
  8
LAYER_1
 10
286.0245073822916
 20
134.248510972876
 30
0.0
 11
286.0657875634877
 21
134.1764156050886
 31
0.0
  0
LINE
  5
3E1
  8
LAYER_1
 10
286.0657875634877
 20
134.1764156050886
 30
0.0
 11
286.123437366633
 21
134.0998503744728
 31
0.0
  0
LINE
  5
3E2
  8
LAYER_1
 10
286.123437366633
 20
134.0998503744728
 30
0.0
 11
286.1950102261975
 21
134.0326143128498
 31
0.0
  0
LINE
  5
3E3
  8
LAYER_1
 10
286.1950102261975
 20
134.0326143128498
 30
0.0
 11
286.4186774692549
 21
133.8952545800044
 31
0.0
  0
LINE
  5
3E4
  8
LAYER_1
 10
286.4186774692549
 20
133.8952545800044
 30
0.0
 11
286.547867424411
 21
133.8527097745094
 31
0.0
  0
LINE
  5
3E5
  8
LAYER_1
 10
286.547867424411
 20
133.8527097745094
 30
0.0
 11
286.5937526664234
 21
133.8612620883517
 31
0.0
  0
LINE
  5
3E6
  8
LAYER_1
 10
286.5937526664234
 20
133.8612620883517
 30
0.0
 11
286.6297781051203
 21
133.8896278652795
 31
0.0
  0
LINE
  5
3E7
  8
LAYER_1
 10
286.6297781051203
 20
133.8896278652795
 30
0.0
 11
286.6297781051203
 21
133.8896278652795
 31
0.0
  0
LINE
  5
3E8
  8
LAYER_1
 10
287.4918130664464
 20
134.0927346535173
 30
0.0
 11
287.5191923348473
 21
134.1459556306388
 31
0.0
  0
LINE
  5
3E9
  8
LAYER_1
 10
287.5191923348473
 20
134.1459556306388
 30
0.0
 11
287.511554613548
 21
134.1934887441347
 31
0.0
  0
LINE
  5
3EA
  8
LAYER_1
 10
287.511554613548
 20
134.1934887441347
 30
0.0
 11
287.4708906954525
 21
134.2317962964118
 31
0.0
  0
LINE
  5
3EB
  8
LAYER_1
 10
287.4708906954525
 20
134.2317962964118
 30
0.0
 11
287.3991911703076
 21
134.2573403867243
 31
0.0
  0
LINE
  5
3EC
  8
LAYER_1
 10
287.3991911703076
 20
134.2573403867243
 30
0.0
 11
287.2753035969121
 21
134.2939960044674
 31
0.0
  0
LINE
  5
3ED
  8
LAYER_1
 10
287.2753035969121
 20
134.2939960044674
 30
0.0
 11
287.1597541130499
 21
134.3506429453082
 31
0.0
  0
LINE
  5
3EE
  8
LAYER_1
 10
287.1597541130499
 20
134.3506429453082
 30
0.0
 11
287.0529567435137
 21
134.4270333631992
 31
0.0
  0
LINE
  5
3EF
  8
LAYER_1
 10
287.0529567435137
 20
134.4270333631992
 30
0.0
 11
286.9553257162394
 21
134.5229194120938
 31
0.0
  0
LINE
  5
3F0
  8
LAYER_1
 10
286.9553257162394
 20
134.5229194120938
 30
0.0
 11
286.8248334519982
 21
134.6531197461974
 31
0.0
  0
LINE
  5
3F1
  8
LAYER_1
 10
286.8248334519982
 20
134.6531197461974
 30
0.0
 11
286.8159114006094
 21
134.6400148864616
 31
0.0
  0
LINE
  5
3F2
  8
LAYER_1
 10
286.8159114006094
 20
134.6400148864616
 30
0.0
 11
286.8209860484224
 21
134.6043493324155
 31
0.0
  0
LINE
  5
3F3
  8
LAYER_1
 10
286.8209860484224
 20
134.6043493324155
 30
0.0
 11
286.8635970816318
 21
134.4872314096965
 31
0.0
  0
LINE
  5
3F4
  8
LAYER_1
 10
286.8635970816318
 20
134.4872314096965
 30
0.0
 11
286.9336097300149
 21
134.3455561083459
 31
0.0
  0
LINE
  5
3F5
  8
LAYER_1
 10
286.9336097300149
 20
134.3455561083459
 30
0.0
 11
287.0119669688102
 21
134.2231136602426
 31
0.0
  0
LINE
  5
3F6
  8
LAYER_1
 10
287.0119669688102
 20
134.2231136602426
 30
0.0
 11
287.1246800375006
 21
134.1260029065163
 31
0.0
  0
LINE
  5
3F7
  8
LAYER_1
 10
287.1246800375006
 20
134.1260029065163
 30
0.0
 11
287.2654230720418
 21
134.0655997775721
 31
0.0
  0
LINE
  5
3F8
  8
LAYER_1
 10
287.2654230720418
 20
134.0655997775721
 30
0.0
 11
287.3993996047695
 21
134.0513588890701
 31
0.0
  0
LINE
  5
3F9
  8
LAYER_1
 10
287.3993996047695
 20
134.0513588890701
 30
0.0
 11
287.4529765050672
 21
134.0645037698481
 31
0.0
  0
LINE
  5
3FA
  8
LAYER_1
 10
287.4529765050672
 20
134.0645037698481
 30
0.0
 11
287.4918130664464
 21
134.0927346535173
 31
0.0
  0
LINE
  5
3FB
  8
LAYER_1
 10
287.4918130664464
 20
134.0927346535173
 30
0.0
 11
287.4918130664464
 21
134.0927346535173
 31
0.0
  0
LINE
  5
3FC
  8
LAYER_1
 10
299.9989673767451
 20
121.4565839923931
 30
0.0
 11
299.9686689085302
 21
121.4811705234087
 31
0.0
  0
LINE
  5
3FD
  8
LAYER_1
 10
299.9686689085302
 20
121.4811705234087
 30
0.0
 11
299.969980257903
 21
121.5193414556311
 31
0.0
  0
LINE
  5
3FE
  8
LAYER_1
 10
299.969980257903
 20
121.5193414556311
 30
0.0
 11
300.0706350069497
 21
121.6448498812274
 31
0.0
  0
LINE
  5
3FF
  8
LAYER_1
 10
300.0706350069497
 20
121.6448498812274
 30
0.0
 11
300.2291524629569
 21
121.7729284906466
 31
0.0
  0
LINE
  5
400
  8
LAYER_1
 10
300.2291524629569
 20
121.7729284906466
 30
0.0
 11
300.4225762921274
 21
121.8630324131559
 31
0.0
  0
LINE
  5
401
  8
LAYER_1
 10
300.4225762921274
 20
121.8630324131559
 30
0.0
 11
300.6998249048375
 21
121.9316588504721
 31
0.0
  0
LINE
  5
402
  8
LAYER_1
 10
300.6998249048375
 20
121.9316588504721
 30
0.0
 11
301.1098165083101
 21
121.9953051058871
 31
0.0
  0
LINE
  5
403
  8
LAYER_1
 10
301.1098165083101
 20
121.9953051058871
 30
0.0
 11
301.4892711425381
 21
122.0603521993481
 31
0.0
  0
LINE
  5
404
  8
LAYER_1
 10
301.4892711425381
 20
122.0603521993481
 30
0.0
 11
301.7687296481166
 21
122.1508946265239
 31
0.0
  0
LINE
  5
405
  8
LAYER_1
 10
301.7687296481166
 20
122.1508946265239
 30
0.0
 11
301.888240199374
 21
122.213505007354
 31
0.0
  0
LINE
  5
406
  8
LAYER_1
 10
301.888240199374
 20
122.213505007354
 30
0.0
 11
302.0034875954713
 21
122.2918233424469
 31
0.0
  0
LINE
  5
407
  8
LAYER_1
 10
302.0034875954713
 20
122.2918233424469
 30
0.0
 11
302.2488407581863
 21
122.5080295053029
 31
0.0
  0
LINE
  5
408
  8
LAYER_1
 10
302.2488407581863
 20
122.5080295053029
 30
0.0
 11
302.4427307207609
 21
122.7111612812975
 31
0.0
  0
LINE
  5
409
  8
LAYER_1
 10
302.4427307207609
 20
122.7111612812975
 30
0.0
 11
302.5852056303423
 21
122.8962334097185
 31
0.0
  0
LINE
  5
40A
  8
LAYER_1
 10
302.5852056303423
 20
122.8962334097185
 30
0.0
 11
302.6862301169351
 21
123.0782690177575
 31
0.0
  0
LINE
  5
40B
  8
LAYER_1
 10
302.6862301169351
 20
123.0782690177575
 30
0.0
 11
302.7557687089653
 21
123.2722911310336
 31
0.0
  0
LINE
  5
40C
  8
LAYER_1
 10
302.7557687089653
 20
123.2722911310336
 30
0.0
 11
302.8441404517035
 21
123.5302948029223
 31
0.0
  0
LINE
  5
40D
  8
LAYER_1
 10
302.8441404517035
 20
123.5302948029223
 30
0.0
 11
302.8899875010463
 21
123.704825856126
 31
0.0
  0
LINE
  5
40E
  8
LAYER_1
 10
302.8899875010463
 20
123.704825856126
 30
0.0
 11
302.932458257456
 21
124.0187574105896
 31
0.0
  0
LINE
  5
40F
  8
LAYER_1
 10
302.932458257456
 20
124.0187574105896
 30
0.0
 11
302.9669589350796
 21
124.4288792348129
 31
0.0
  0
LINE
  5
410
  8
LAYER_1
 10
302.9669589350796
 20
124.4288792348129
 30
0.0
 11
302.9888962559523
 21
124.8919808941439
 31
0.0
  0
LINE
  5
411
  8
LAYER_1
 10
302.9888962559523
 20
124.8919808941439
 30
0.0
 11
303.0278261659046
 21
125.6707244488155
 31
0.0
  0
LINE
  5
412
  8
LAYER_1
 10
303.0278261659046
 20
125.6707244488155
 30
0.0
 11
303.0917756264217
 21
126.2033507842298
 31
0.0
  0
LINE
  5
413
  8
LAYER_1
 10
303.0917756264217
 20
126.2033507842298
 30
0.0
 11
303.1335615557611
 21
126.3796664305487
 31
0.0
  0
LINE
  5
414
  8
LAYER_1
 10
303.1335615557611
 20
126.3796664305487
 30
0.0
 11
303.1821167294737
 21
126.4972084341059
 31
0.0
  0
LINE
  5
415
  8
LAYER_1
 10
303.1821167294737
 20
126.4972084341059
 30
0.0
 11
303.2376127098394
 21
126.55689534892
 31
0.0
  0
LINE
  5
416
  8
LAYER_1
 10
303.2376127098394
 20
126.55689534892
 30
0.0
 11
303.3002209575683
 21
126.5596457290077
 31
0.0
  0
LINE
  5
417
  8
LAYER_1
 10
303.3002209575683
 20
126.5596457290077
 30
0.0
 11
303.3216596406329
 21
126.5452780733475
 31
0.0
  0
LINE
  5
418
  8
LAYER_1
 10
303.3216596406329
 20
126.5452780733475
 30
0.0
 11
303.3321195564279
 21
126.5189193415185
 31
0.0
  0
LINE
  5
419
  8
LAYER_1
 10
303.3321195564279
 20
126.5189193415185
 30
0.0
 11
303.3239440904684
 21
126.4052237257738
 31
0.0
  0
LINE
  5
41A
  8
LAYER_1
 10
303.3239440904684
 20
126.4052237257738
 30
0.0
 11
303.3056216651382
 21
126.1525639803338
 31
0.0
  0
LINE
  5
41B
  8
LAYER_1
 10
303.3056216651382
 20
126.1525639803338
 30
0.0
 11
303.3067337219086
 21
125.8042771038566
 31
0.0
  0
LINE
  5
41C
  8
LAYER_1
 10
303.3067337219086
 20
125.8042771038566
 30
0.0
 11
303.3257161897043
 21
125.4175701286195
 31
0.0
  0
LINE
  5
41D
  8
LAYER_1
 10
303.3257161897043
 20
125.4175701286195
 30
0.0
 11
303.3610052005964
 21
125.04964978217
 31
0.0
  0
LINE
  5
41E
  8
LAYER_1
 10
303.3610052005964
 20
125.04964978217
 30
0.0
 11
303.3987130466993
 21
124.6692470352368
 31
0.0
  0
LINE
  5
41F
  8
LAYER_1
 10
303.3987130466993
 20
124.6692470352368
 30
0.0
 11
303.4148837823525
 21
124.3022757156785
 31
0.0
  0
LINE
  5
420
  8
LAYER_1
 10
303.4148837823525
 20
124.3022757156785
 30
0.0
 11
303.4093274599679
 21
123.9614030927522
 31
0.0
  0
LINE
  5
421
  8
LAYER_1
 10
303.4093274599679
 20
123.9614030927522
 30
0.0
 11
303.38185392881
 21
123.6592966388661
 31
0.0
  0
LINE
  5
422
  8
LAYER_1
 10
303.38185392881
 20
123.6592966388661
 30
0.0
 11
303.3366802284205
 21
123.4219294008316
 31
0.0
  0
LINE
  5
423
  8
LAYER_1
 10
303.3366802284205
 20
123.4219294008316
 30
0.0
 11
303.2685821907498
 21
123.1931642490013
 31
0.0
  0
LINE
  5
424
  8
LAYER_1
 10
303.2685821907498
 20
123.1931642490013
 30
0.0
 11
303.1787540477579
 21
122.9749755209214
 31
0.0
  0
LINE
  5
425
  8
LAYER_1
 10
303.1787540477579
 20
122.9749755209214
 30
0.0
 11
303.0683904376997
 21
122.7693370462587
 31
0.0
  0
LINE
  5
426
  8
LAYER_1
 10
303.0683904376997
 20
122.7693370462587
 30
0.0
 11
302.9386857956899
 21
122.5782231625609
 31
0.0
  0
LINE
  5
427
  8
LAYER_1
 10
302.9386857956899
 20
122.5782231625609
 30
0.0
 11
302.7908345568383
 21
122.4036075979181
 31
0.0
  0
LINE
  5
428
  8
LAYER_1
 10
302.7908345568383
 20
122.4036075979181
 30
0.0
 11
302.6260311562501
 21
122.247464791454
 31
0.0
  0
LINE
  5
429
  8
LAYER_1
 10
302.6260311562501
 20
122.247464791454
 30
0.0
 11
302.4454702321913
 21
122.1117685728344
 31
0.0
  0
LINE
  5
42A
  8
LAYER_1
 10
302.4454702321913
 20
122.1117685728344
 30
0.0
 11
302.2475456610118
 21
121.9969631349953
 31
0.0
  0
LINE
  5
42B
  8
LAYER_1
 10
302.2475456610118
 20
121.9969631349953
 30
0.0
 11
302.0095945626998
 21
121.9150402651391
 31
0.0
  0
LINE
  5
42C
  8
LAYER_1
 10
302.0095945626998
 20
121.9150402651391
 30
0.0
 11
301.635336569361
 21
121.8415604130796
 31
0.0
  0
LINE
  5
42D
  8
LAYER_1
 10
301.635336569361
 20
121.8415604130796
 30
0.0
 11
301.0284914146774
 21
121.7520836223304
 31
0.0
  0
LINE
  5
42E
  8
LAYER_1
 10
301.0284914146774
 20
121.7520836223304
 30
0.0
 11
300.7488388984631
 21
121.7094700497156
 31
0.0
  0
LINE
  5
42F
  8
LAYER_1
 10
300.7488388984631
 20
121.7094700497156
 30
0.0
 11
300.5555302567594
 21
121.6668720182669
 31
0.0
  0
LINE
  5
430
  8
LAYER_1
 10
300.5555302567594
 20
121.6668720182669
 30
0.0
 11
300.3958604182085
 21
121.609338418351
 31
0.0
  0
LINE
  5
431
  8
LAYER_1
 10
300.3958604182085
 20
121.609338418351
 30
0.0
 11
300.2171244130339
 21
121.5219179371816
 31
0.0
  0
LINE
  5
432
  8
LAYER_1
 10
300.2171244130339
 20
121.5219179371816
 30
0.0
 11
300.0451218973914
 21
121.4398615961338
 31
0.0
  0
LINE
  5
433
  8
LAYER_1
 10
300.0451218973914
 20
121.4398615961338
 30
0.0
 11
299.9989673767451
 21
121.4565839923931
 31
0.0
  0
LINE
  5
434
  8
LAYER_1
 10
299.9989673767451
 20
121.4565839923931
 30
0.0
 11
299.9989673767451
 21
121.4565839923931
 31
0.0
  0
LINE
  5
435
  8
LAYER_1
 10
300.4509127135199
 20
122.3016695345452
 30
0.0
 11
300.459004379073
 21
122.3436419578781
 31
0.0
  0
LINE
  5
436
  8
LAYER_1
 10
300.459004379073
 20
122.3436419578781
 30
0.0
 11
300.4950919824341
 21
122.3940937633059
 31
0.0
  0
LINE
  5
437
  8
LAYER_1
 10
300.4950919824341
 20
122.3940937633059
 30
0.0
 11
300.7281815399029
 21
122.6044363356251
 31
0.0
  0
LINE
  5
438
  8
LAYER_1
 10
300.7281815399029
 20
122.6044363356251
 30
0.0
 11
300.9237991113189
 21
122.7810342623393
 31
0.0
  0
LINE
  5
439
  8
LAYER_1
 10
300.9237991113189
 20
122.7810342623393
 30
0.0
 11
301.0829238917195
 21
122.9480284594596
 31
0.0
  0
LINE
  5
43A
  8
LAYER_1
 10
301.0829238917195
 20
122.9480284594596
 30
0.0
 11
301.2285833182755
 21
123.1319302263417
 31
0.0
  0
LINE
  5
43B
  8
LAYER_1
 10
301.2285833182755
 20
123.1319302263417
 30
0.0
 11
301.3838052344682
 21
123.3592512686439
 31
0.0
  0
LINE
  5
43C
  8
LAYER_1
 10
301.3838052344682
 20
123.3592512686439
 30
0.0
 11
301.624097868467
 21
123.7610574516855
 31
0.0
  0
LINE
  5
43D
  8
LAYER_1
 10
301.624097868467
 20
123.7610574516855
 30
0.0
 11
301.8128833198144
 21
124.1550725332931
 31
0.0
  0
LINE
  5
43E
  8
LAYER_1
 10
301.8128833198144
 20
124.1550725332931
 30
0.0
 11
301.9622375824202
 21
124.5701932294473
 31
0.0
  0
LINE
  5
43F
  8
LAYER_1
 10
301.9622375824202
 20
124.5701932294473
 30
0.0
 11
302.0842364470453
 21
125.0353162561284
 31
0.0
  0
LINE
  5
440
  8
LAYER_1
 10
302.0842364470453
 20
125.0353162561284
 30
0.0
 11
302.1706349695761
 21
125.3936546103031
 31
0.0
  0
LINE
  5
441
  8
LAYER_1
 10
302.1706349695761
 20
125.3936546103031
 30
0.0
 11
302.2568498422474
 21
125.7233260139716
 31
0.0
  0
LINE
  5
442
  8
LAYER_1
 10
302.2568498422474
 20
125.7233260139716
 30
0.0
 11
302.3398021873854
 21
126.0098390916036
 31
0.0
  0
LINE
  5
443
  8
LAYER_1
 10
302.3398021873854
 20
126.0098390916036
 30
0.0
 11
302.4359462399524
 21
126.2380516686412
 31
0.0
  0
LINE
  5
444
  8
LAYER_1
 10
302.4359462399524
 20
126.2380516686412
 30
0.0
 11
302.5641824957105
 21
126.4445845221739
 31
0.0
  0
LINE
  5
445
  8
LAYER_1
 10
302.5641824957105
 20
126.4445845221739
 30
0.0
 11
302.7434117551493
 21
126.6660582261392
 31
0.0
  0
LINE
  5
446
  8
LAYER_1
 10
302.7434117551493
 20
126.6660582261392
 30
0.0
 11
303.0127379283346
 21
127.0154129737196
 31
0.0
  0
LINE
  5
447
  8
LAYER_1
 10
303.0127379283346
 20
127.0154129737196
 30
0.0
 11
303.1145001632209
 21
127.1785941000376
 31
0.0
  0
LINE
  5
448
  8
LAYER_1
 10
303.1145001632209
 20
127.1785941000376
 30
0.0
 11
303.1809894362641
 21
127.3143486234241
 31
0.0
  0
LINE
  5
449
  8
LAYER_1
 10
303.1809894362641
 20
127.3143486234241
 30
0.0
 11
303.220425906969
 21
127.5202251928133
 31
0.0
  0
LINE
  5
44A
  8
LAYER_1
 10
303.220425906969
 20
127.5202251928133
 30
0.0
 11
303.235020788699
 21
127.8046675370378
 31
0.0
  0
LINE
  5
44B
  8
LAYER_1
 10
303.235020788699
 20
127.8046675370378
 30
0.0
 11
303.2240937237371
 21
128.066372241126
 31
0.0
  0
LINE
  5
44C
  8
LAYER_1
 10
303.2240937237371
 20
128.066372241126
 30
0.0
 11
303.2088469256431
 21
128.1570408260032
 31
0.0
  0
LINE
  5
44D
  8
LAYER_1
 10
303.2088469256431
 20
128.1570408260032
 30
0.0
 11
303.1869645575215
 21
128.204036194837
 31
0.0
  0
LINE
  5
44E
  8
LAYER_1
 10
303.1869645575215
 20
128.204036194837
 30
0.0
 11
303.1493527009716
 21
128.2241576371093
 31
0.0
  0
LINE
  5
44F
  8
LAYER_1
 10
303.1493527009716
 20
128.2241576371093
 30
0.0
 11
303.1175081406761
 21
128.2096264436886
 31
0.0
  0
LINE
  5
450
  8
LAYER_1
 10
303.1175081406761
 20
128.2096264436886
 30
0.0
 11
303.0472491698907
 21
128.0503462516283
 31
0.0
  0
LINE
  5
451
  8
LAYER_1
 10
303.0472491698907
 20
128.0503462516283
 30
0.0
 11
302.9152442321497
 21
127.7365187112432
 31
0.0
  0
LINE
  5
452
  8
LAYER_1
 10
302.9152442321497
 20
127.7365187112432
 30
0.0
 11
302.7371325146017
 21
127.3859151852609
 31
0.0
  0
LINE
  5
453
  8
LAYER_1
 10
302.7371325146017
 20
127.3859151852609
 30
0.0
 11
302.5794141589434
 21
127.1452035492356
 31
0.0
  0
LINE
  5
454
  8
LAYER_1
 10
302.5794141589434
 20
127.1452035492356
 30
0.0
 11
302.3720246113287
 21
126.9147781336183
 31
0.0
  0
LINE
  5
455
  8
LAYER_1
 10
302.3720246113287
 20
126.9147781336183
 30
0.0
 11
302.1618415137197
 21
126.6882616767824
 31
0.0
  0
LINE
  5
456
  8
LAYER_1
 10
302.1618415137197
 20
126.6882616767824
 30
0.0
 11
302.0049208363432
 21
126.4798597186961
 31
0.0
  0
LINE
  5
457
  8
LAYER_1
 10
302.0049208363432
 20
126.4798597186961
 30
0.0
 11
301.895225699578
 21
126.2803355247527
 31
0.0
  0
LINE
  5
458
  8
LAYER_1
 10
301.895225699578
 20
126.2803355247527
 30
0.0
 11
301.8267193253887
 21
126.0804526650746
 31
0.0
  0
LINE
  5
459
  8
LAYER_1
 10
301.8267193253887
 20
126.0804526650746
 30
0.0
 11
301.7978020910074
 21
125.8542664326238
 31
0.0
  0
LINE
  5
45A
  8
LAYER_1
 10
301.7978020910074
 20
125.8542664326238
 30
0.0
 11
301.7723799937672
 21
125.489906943151
 31
0.0
  0
LINE
  5
45B
  8
LAYER_1
 10
301.7723799937672
 20
125.489906943151
 30
0.0
 11
301.7398447149802
 21
125.0670178986427
 31
0.0
  0
LINE
  5
45C
  8
LAYER_1
 10
301.7398447149802
 20
125.0670178986427
 30
0.0
 11
301.709180572271
 21
124.9633834103388
 31
0.0
  0
LINE
  5
45D
  8
LAYER_1
 10
301.709180572271
 20
124.9633834103388
 30
0.0
 11
301.6555032130647
 21
124.8592312894712
 31
0.0
  0
LINE
  5
45E
  8
LAYER_1
 10
301.6555032130647
 20
124.8592312894712
 30
0.0
 11
301.5638087080752
 21
124.7087192607814
 31
0.0
  0
LINE
  5
45F
  8
LAYER_1
 10
301.5638087080752
 20
124.7087192607814
 30
0.0
 11
301.4554280695479
 21
124.5607403405839
 31
0.0
  0
LINE
  5
460
  8
LAYER_1
 10
301.4554280695479
 20
124.5607403405839
 30
0.0
 11
301.1254690019417
 21
124.1930205056492
 31
0.0
  0
LINE
  5
461
  8
LAYER_1
 10
301.1254690019417
 20
124.1930205056492
 30
0.0
 11
300.9027850169731
 21
123.974214803434
 31
0.0
  0
LINE
  5
462
  8
LAYER_1
 10
300.9027850169731
 20
123.974214803434
 30
0.0
 11
300.735539418637
 21
123.837926395284
 31
0.0
  0
LINE
  5
463
  8
LAYER_1
 10
300.735539418637
 20
123.837926395284
 30
0.0
 11
300.6303436018125
 21
123.7886582578835
 31
0.0
  0
LINE
  5
464
  8
LAYER_1
 10
300.6303436018125
 20
123.7886582578835
 30
0.0
 11
300.6030805366413
 21
123.798063913791
 31
0.0
  0
LINE
  5
465
  8
LAYER_1
 10
300.6030805366413
 20
123.798063913791
 30
0.0
 11
300.5938091645341
 21
123.83091326634
 31
0.0
  0
LINE
  5
466
  8
LAYER_1
 10
300.5938091645341
 20
123.83091326634
 30
0.0
 11
300.6381403915156
 21
123.9137540807575
 31
0.0
  0
LINE
  5
467
  8
LAYER_1
 10
300.6381403915156
 20
123.9137540807575
 30
0.0
 11
300.7447241462021
 21
124.0530830723378
 31
0.0
  0
LINE
  5
468
  8
LAYER_1
 10
300.7447241462021
 20
124.0530830723378
 30
0.0
 11
300.9942888633426
 21
124.3680732544667
 31
0.0
  0
LINE
  5
469
  8
LAYER_1
 10
300.9942888633426
 20
124.3680732544667
 30
0.0
 11
301.0854394275193
 21
124.5083681345966
 31
0.0
  0
LINE
  5
46A
  8
LAYER_1
 10
301.0854394275193
 20
124.5083681345966
 30
0.0
 11
301.1628362628832
 21
124.6557456218255
 31
0.0
  0
LINE
  5
46B
  8
LAYER_1
 10
301.1628362628832
 20
124.6557456218255
 30
0.0
 11
301.3023721652828
 21
125.0273969654696
 31
0.0
  0
LINE
  5
46C
  8
LAYER_1
 10
301.3023721652828
 20
125.0273969654696
 30
0.0
 11
301.4649026957271
 21
125.5943241780279
 31
0.0
  0
LINE
  5
46D
  8
LAYER_1
 10
301.4649026957271
 20
125.5943241780279
 30
0.0
 11
301.5890686896209
 21
126.022131239773
 31
0.0
  0
LINE
  5
46E
  8
LAYER_1
 10
301.5890686896209
 20
126.022131239773
 30
0.0
 11
301.7055282966713
 21
126.3533730122483
 31
0.0
  0
LINE
  5
46F
  8
LAYER_1
 10
301.7055282966713
 20
126.3533730122483
 30
0.0
 11
301.8316629398406
 21
126.6317262666631
 31
0.0
  0
LINE
  5
470
  8
LAYER_1
 10
301.8316629398406
 20
126.6317262666631
 30
0.0
 11
301.9848543468208
 21
126.9008676726534
 31
0.0
  0
LINE
  5
471
  8
LAYER_1
 10
301.9848543468208
 20
126.9008676726534
 30
0.0
 11
302.1758514178326
 21
127.2344770859111
 31
0.0
  0
LINE
  5
472
  8
LAYER_1
 10
302.1758514178326
 20
127.2344770859111
 30
0.0
 11
302.3256024372665
 21
127.5646551519088
 31
0.0
  0
LINE
  5
473
  8
LAYER_1
 10
302.3256024372665
 20
127.5646551519088
 30
0.0
 11
302.4569071083442
 21
127.9493971346131
 31
0.0
  0
LINE
  5
474
  8
LAYER_1
 10
302.4569071083442
 20
127.9493971346131
 30
0.0
 11
302.5925647279897
 21
128.4466980948393
 31
0.0
  0
LINE
  5
475
  8
LAYER_1
 10
302.5925647279897
 20
128.4466980948393
 30
0.0
 11
302.6174203344891
 21
128.5969799517488
 31
0.0
  0
LINE
  5
476
  8
LAYER_1
 10
302.6174203344891
 20
128.5969799517488
 30
0.0
 11
302.6350173022497
 21
128.8095698985724
 31
0.0
  0
LINE
  5
477
  8
LAYER_1
 10
302.6350173022497
 20
128.8095698985724
 30
0.0
 11
302.6485583303994
 21
129.3391606277925
 31
0.0
  0
LINE
  5
478
  8
LAYER_1
 10
302.6485583303994
 20
129.3391606277925
 30
0.0
 11
302.6334341348366
 21
129.8704431094363
 31
0.0
  0
LINE
  5
479
  8
LAYER_1
 10
302.6334341348366
 20
129.8704431094363
 30
0.0
 11
302.5898909363954
 21
130.238390272016
 31
0.0
  0
LINE
  5
47A
  8
LAYER_1
 10
302.5898909363954
 20
130.238390272016
 30
0.0
 11
302.4897214170882
 21
130.6165177109766
 31
0.0
  0
LINE
  5
47B
  8
LAYER_1
 10
302.4897214170882
 20
130.6165177109766
 30
0.0
 11
302.4622716547713
 21
130.6905986912754
 31
0.0
  0
LINE
  5
47C
  8
LAYER_1
 10
302.4622716547713
 20
130.6905986912754
 30
0.0
 11
302.4426356453938
 21
130.7113970376697
 31
0.0
  0
LINE
  5
47D
  8
LAYER_1
 10
302.4426356453938
 20
130.7113970376697
 30
0.0
 11
302.4256672314589
 21
130.6019246576204
 31
0.0
  0
LINE
  5
47E
  8
LAYER_1
 10
302.4256672314589
 20
130.6019246576204
 30
0.0
 11
302.4169719998351
 21
130.338725055878
 31
0.0
  0
LINE
  5
47F
  8
LAYER_1
 10
302.4169719998351
 20
130.338725055878
 30
0.0
 11
302.4108829100253
 21
130.0974452023171
 31
0.0
  0
LINE
  5
480
  8
LAYER_1
 10
302.4108829100253
 20
130.0974452023171
 30
0.0
 11
302.389065144399
 21
129.9451942898245
 31
0.0
  0
LINE
  5
481
  8
LAYER_1
 10
302.389065144399
 20
129.9451942898245
 30
0.0
 11
302.3394122361679
 21
129.8380291126895
 31
0.0
  0
LINE
  5
482
  8
LAYER_1
 10
302.3394122361679
 20
129.8380291126895
 30
0.0
 11
302.2498175153941
 21
129.7320067699299
 31
0.0
  0
LINE
  5
483
  8
LAYER_1
 10
302.2498175153941
 20
129.7320067699299
 30
0.0
 11
302.1792779910091
 21
129.6288529404347
 31
0.0
  0
LINE
  5
484
  8
LAYER_1
 10
302.1792779910091
 20
129.6288529404347
 30
0.0
 11
302.136987938746
 21
129.5026701501229
 31
0.0
  0
LINE
  5
485
  8
LAYER_1
 10
302.136987938746
 20
129.5026701501229
 30
0.0
 11
302.0706247218285
 21
129.1633750063403
 31
0.0
  0
LINE
  5
486
  8
LAYER_1
 10
302.0706247218285
 20
129.1633750063403
 30
0.0
 11
301.9409655859784
 21
128.618700508906
 31
0.0
  0
LINE
  5
487
  8
LAYER_1
 10
301.9409655859784
 20
128.618700508906
 30
0.0
 11
301.8229693334375
 21
128.1600273708695
 31
0.0
  0
LINE
  5
488
  8
LAYER_1
 10
301.8229693334375
 20
128.1600273708695
 30
0.0
 11
301.7275132568028
 21
127.8335669955767
 31
0.0
  0
LINE
  5
489
  8
LAYER_1
 10
301.7275132568028
 20
127.8335669955767
 30
0.0
 11
301.6157251414333
 21
127.554171365696
 31
0.0
  0
LINE
  5
48A
  8
LAYER_1
 10
301.6157251414333
 20
127.554171365696
 30
0.0
 11
301.5050644208488
 21
127.3590816860459
 31
0.0
  0
LINE
  5
48B
  8
LAYER_1
 10
301.5050644208488
 20
127.3590816860459
 30
0.0
 11
301.4556129383191
 21
127.304789485804
 31
0.0
  0
LINE
  5
48C
  8
LAYER_1
 10
301.4556129383191
 20
127.304789485804
 30
0.0
 11
301.4129906301486
 21
127.2855390598649
 31
0.0
  0
LINE
  5
48D
  8
LAYER_1
 10
301.4129906301486
 20
127.2855390598649
 30
0.0
 11
301.3444155904132
 21
127.2554059577848
 31
0.0
  0
LINE
  5
48E
  8
LAYER_1
 10
301.3444155904132
 20
127.2554059577848
 30
0.0
 11
301.2615952943978
 21
127.1656293139485
 31
0.0
  0
LINE
  5
48F
  8
LAYER_1
 10
301.2615952943978
 20
127.1656293139485
 30
0.0
 11
301.1645924146476
 21
127.0162926240338
 31
0.0
  0
LINE
  5
490
  8
LAYER_1
 10
301.1645924146476
 20
127.0162926240338
 30
0.0
 11
301.0534696237092
 21
126.8074792821401
 31
0.0
  0
LINE
  5
491
  8
LAYER_1
 10
301.0534696237092
 20
126.8074792821401
 30
0.0
 11
300.8804798885031
 21
126.4325837962624
 31
0.0
  0
LINE
  5
492
  8
LAYER_1
 10
300.8804798885031
 20
126.4325837962624
 30
0.0
 11
300.7568883082989
 21
126.122888174525
 31
0.0
  0
LINE
  5
493
  8
LAYER_1
 10
300.7568883082989
 20
126.122888174525
 30
0.0
 11
300.5698753624935
 21
125.7305219801641
 31
0.0
  0
LINE
  5
494
  8
LAYER_1
 10
300.5698753624935
 20
125.7305219801641
 30
0.0
 11
300.4994996805966
 21
125.6300700788865
 31
0.0
  0
LINE
  5
495
  8
LAYER_1
 10
300.4994996805966
 20
125.6300700788865
 30
0.0
 11
300.4400532983388
 21
125.5943534319875
 31
0.0
  0
LINE
  5
496
  8
LAYER_1
 10
300.4400532983388
 20
125.5943534319875
 30
0.0
 11
300.4054018815623
 21
125.6103662165733
 31
0.0
  0
LINE
  5
497
  8
LAYER_1
 10
300.4054018815623
 20
125.6103662165733
 30
0.0
 11
300.3994794783768
 21
125.6633566156102
 31
0.0
  0
LINE
  5
498
  8
LAYER_1
 10
300.3994794783768
 20
125.6633566156102
 30
0.0
 11
300.4772932842426
 21
125.9096619540793
 31
0.0
  0
LINE
  5
499
  8
LAYER_1
 10
300.4772932842426
 20
125.9096619540793
 30
0.0
 11
300.6918181570279
 21
126.4830035035958
 31
0.0
  0
LINE
  5
49A
  8
LAYER_1
 10
300.6918181570279
 20
126.4830035035958
 30
0.0
 11
300.7932881570471
 21
126.7553407015247
 31
0.0
  0
LINE
  5
49B
  8
LAYER_1
 10
300.7932881570471
 20
126.7553407015247
 30
0.0
 11
300.9734493785688
 21
127.2835588308955
 31
0.0
  0
LINE
  5
49C
  8
LAYER_1
 10
300.9734493785688
 20
127.2835588308955
 30
0.0
 11
301.1821083245646
 21
128.0596925870067
 31
0.0
  0
LINE
  5
49D
  8
LAYER_1
 10
301.1821083245646
 20
128.0596925870067
 30
0.0
 11
301.2668403871569
 21
128.4036975167162
 31
0.0
  0
LINE
  5
49E
  8
LAYER_1
 10
301.2668403871569
 20
128.4036975167162
 30
0.0
 11
301.4424686669988
 21
129.1347078526824
 31
0.0
  0
LINE
  5
49F
  8
LAYER_1
 10
301.4424686669988
 20
129.1347078526824
 30
0.0
 11
301.5412543114915
 21
129.7367164542798
 31
0.0
  0
LINE
  5
4A0
  8
LAYER_1
 10
301.5412543114915
 20
129.7367164542798
 30
0.0
 11
301.59055800058
 21
130.3349661252162
 31
0.0
  0
LINE
  5
4A1
  8
LAYER_1
 10
301.59055800058
 20
130.3349661252162
 30
0.0
 11
301.5918123656748
 21
130.9841079346178
 31
0.0
  0
LINE
  5
4A2
  8
LAYER_1
 10
301.5918123656748
 20
130.9841079346178
 30
0.0
 11
301.5484529186662
 21
131.5823668489925
 31
0.0
  0
LINE
  5
4A3
  8
LAYER_1
 10
301.5484529186662
 20
131.5823668489925
 30
0.0
 11
301.511116536903
 21
131.8306106685931
 31
0.0
  0
LINE
  5
4A4
  8
LAYER_1
 10
301.511116536903
 20
131.8306106685931
 30
0.0
 11
301.4639147651327
 21
132.0279682411505
 31
0.0
  0
LINE
  5
4A5
  8
LAYER_1
 10
301.4639147651327
 20
132.0279682411505
 30
0.0
 11
301.2261897755491
 21
132.6899218628103
 31
0.0
  0
LINE
  5
4A6
  8
LAYER_1
 10
301.2261897755491
 20
132.6899218628103
 30
0.0
 11
301.1122943593226
 21
132.9642543229944
 31
0.0
  0
LINE
  5
4A7
  8
LAYER_1
 10
301.1122943593226
 20
132.9642543229944
 30
0.0
 11
301.0507319406519
 21
133.0764306627865
 31
0.0
  0
LINE
  5
4A8
  8
LAYER_1
 10
301.0507319406519
 20
133.0764306627865
 30
0.0
 11
301.0241218076083
 21
133.0561549261919
 31
0.0
  0
LINE
  5
4A9
  8
LAYER_1
 10
301.0241218076083
 20
133.0561549261919
 30
0.0
 11
301.0022366969277
 21
132.9901115728825
 31
0.0
  0
LINE
  5
4AA
  8
LAYER_1
 10
301.0022366969277
 20
132.9901115728825
 30
0.0
 11
300.9657713314997
 21
132.689425154954
 31
0.0
  0
LINE
  5
4AB
  8
LAYER_1
 10
300.9657713314997
 20
132.689425154954
 30
0.0
 11
300.9302287862888
 21
132.4281435159416
 31
0.0
  0
LINE
  5
4AC
  8
LAYER_1
 10
300.9302287862888
 20
132.4281435159416
 30
0.0
 11
300.8710312658431
 21
132.2164183892996
 31
0.0
  0
LINE
  5
4AD
  8
LAYER_1
 10
300.8710312658431
 20
132.2164183892996
 30
0.0
 11
300.7508247141276
 21
131.8007458293861
 31
0.0
  0
LINE
  5
4AE
  8
LAYER_1
 10
300.7508247141276
 20
131.8007458293861
 30
0.0
 11
300.6544284477341
 21
131.3961852032065
 31
0.0
  0
LINE
  5
4AF
  8
LAYER_1
 10
300.6544284477341
 20
131.3961852032065
 30
0.0
 11
300.5474858241611
 21
131.0209785892795
 31
0.0
  0
LINE
  5
4B0
  8
LAYER_1
 10
300.5474858241611
 20
131.0209785892795
 30
0.0
 11
300.4466673342029
 21
130.7286846041773
 31
0.0
  0
LINE
  5
4B1
  8
LAYER_1
 10
300.4466673342029
 20
130.7286846041773
 30
0.0
 11
300.3686430623493
 21
130.5728619660493
 31
0.0
  0
LINE
  5
4B2
  8
LAYER_1
 10
300.3686430623493
 20
130.5728619660493
 30
0.0
 11
300.3092893176316
 21
130.524536354661
 31
0.0
  0
LINE
  5
4B3
  8
LAYER_1
 10
300.3092893176316
 20
130.524536354661
 30
0.0
 11
300.2311933329469
 21
130.4821206525786
 31
0.0
  0
LINE
  5
4B4
  8
LAYER_1
 10
300.2311933329469
 20
130.4821206525786
 30
0.0
 11
300.1635075932715
 21
130.4457147092552
 31
0.0
  0
LINE
  5
4B5
  8
LAYER_1
 10
300.1635075932715
 20
130.4457147092552
 30
0.0
 11
300.1165414783966
 21
130.3912087925864
 31
0.0
  0
LINE
  5
4B6
  8
LAYER_1
 10
300.1165414783966
 20
130.3912087925864
 30
0.0
 11
300.0783402764524
 21
130.297847421355
 31
0.0
  0
LINE
  5
4B7
  8
LAYER_1
 10
300.0783402764524
 20
130.297847421355
 30
0.0
 11
300.0369494787203
 21
130.1448751143437
 31
0.0
  0
LINE
  5
4B8
  8
LAYER_1
 10
300.0369494787203
 20
130.1448751143437
 30
0.0
 11
299.9570276609643
 21
129.884103895981
 31
0.0
  0
LINE
  5
4B9
  8
LAYER_1
 10
299.9570276609643
 20
129.884103895981
 30
0.0
 11
299.8586111445586
 21
129.6474753204276
 31
0.0
  0
LINE
  5
4BA
  8
LAYER_1
 10
299.8586111445586
 20
129.6474753204276
 30
0.0
 11
299.7610338511226
 21
129.4753142442601
 31
0.0
  0
LINE
  5
4BB
  8
LAYER_1
 10
299.7610338511226
 20
129.4753142442601
 30
0.0
 11
299.7186016936878
 21
129.4260106567485
 31
0.0
  0
LINE
  5
4BC
  8
LAYER_1
 10
299.7186016936878
 20
129.4260106567485
 30
0.0
 11
299.6836294991162
 21
129.4079458287856
 31
0.0
  0
LINE
  5
4BD
  8
LAYER_1
 10
299.6836294991162
 20
129.4079458287856
 30
0.0
 11
299.655689631399
 21
129.4269560268967
 31
0.0
  0
LINE
  5
4BE
  8
LAYER_1
 10
299.655689631399
 20
129.4269560268967
 30
0.0
 11
299.6503461112574
 21
129.4834765053068
 31
0.0
  0
LINE
  5
4BF
  8
LAYER_1
 10
299.6503461112574
 20
129.4834765053068
 30
0.0
 11
299.7062673913766
 21
129.6941206575088
 31
0.0
  0
LINE
  5
4C0
  8
LAYER_1
 10
299.7062673913766
 20
129.6941206575088
 30
0.0
 11
299.8306403976631
 21
130.0554288980445
 31
0.0
  0
LINE
  5
4C1
  8
LAYER_1
 10
299.8306403976631
 20
130.0554288980445
 30
0.0
 11
299.9520180219503
 21
130.4577297574179
 31
0.0
  0
LINE
  5
4C2
  8
LAYER_1
 10
299.9520180219503
 20
130.4577297574179
 30
0.0
 11
300.1532074569159
 21
131.2704049595684
 31
0.0
  0
LINE
  5
4C3
  8
LAYER_1
 10
300.1532074569159
 20
131.2704049595684
 30
0.0
 11
300.2012138141551
 21
131.5526461464822
 31
0.0
  0
LINE
  5
4C4
  8
LAYER_1
 10
300.2012138141551
 20
131.5526461464822
 30
0.0
 11
300.2410083411387
 21
131.8852168410196
 31
0.0
  0
LINE
  5
4C5
  8
LAYER_1
 10
300.2410083411387
 20
131.8852168410196
 30
0.0
 11
300.2928501159538
 21
132.6273009180507
 31
0.0
  0
LINE
  5
4C6
  8
LAYER_1
 10
300.2928501159538
 20
132.6273009180507
 30
0.0
 11
300.3025087982973
 21
133.3485652160993
 31
0.0
  0
LINE
  5
4C7
  8
LAYER_1
 10
300.3025087982973
 20
133.3485652160993
 30
0.0
 11
300.2895745866596
 21
133.6551112630906
 31
0.0
  0
LINE
  5
4C8
  8
LAYER_1
 10
300.2895745866596
 20
133.6551112630906
 30
0.0
 11
300.2637605066774
 21
133.9009177606021
 31
0.0
  0
LINE
  5
4C9
  8
LAYER_1
 10
300.2637605066774
 20
133.9009177606021
 30
0.0
 11
300.2024781337234
 21
134.2388221223865
 31
0.0
  0
LINE
  5
4CA
  8
LAYER_1
 10
300.2024781337234
 20
134.2388221223865
 30
0.0
 11
300.124529129872
 21
134.573050338152
 31
0.0
  0
LINE
  5
4CB
  8
LAYER_1
 10
300.124529129872
 20
134.573050338152
 30
0.0
 11
300.0311397235952
 21
134.8988780965671
 31
0.0
  0
LINE
  5
4CC
  8
LAYER_1
 10
300.0311397235952
 20
134.8988780965671
 30
0.0
 11
299.9235362449475
 21
135.211581086302
 31
0.0
  0
LINE
  5
4CD
  8
LAYER_1
 10
299.9235362449475
 20
135.211581086302
 30
0.0
 11
299.7359421814226
 21
135.6108869699791
 31
0.0
  0
LINE
  5
4CE
  8
LAYER_1
 10
299.7359421814226
 20
135.6108869699791
 30
0.0
 11
299.5326830288107
 21
135.9678961989384
 31
0.0
  0
LINE
  5
4CF
  8
LAYER_1
 10
299.5326830288107
 20
135.9678961989384
 30
0.0
 11
299.4398060747095
 21
136.071995804885
 31
0.0
  0
LINE
  5
4D0
  8
LAYER_1
 10
299.4398060747095
 20
136.071995804885
 30
0.0
 11
299.3968904143297
 21
136.0823923371003
 31
0.0
  0
LINE
  5
4D1
  8
LAYER_1
 10
299.3968904143297
 20
136.0823923371003
 30
0.0
 11
299.3362539647442
 21
136.0760722629014
 31
0.0
  0
LINE
  5
4D2
  8
LAYER_1
 10
299.3362539647442
 20
136.0760722629014
 30
0.0
 11
299.2289310396939
 21
136.0422483878216
 31
0.0
  0
LINE
  5
4D3
  8
LAYER_1
 10
299.2289310396939
 20
136.0422483878216
 30
0.0
 11
299.0869102775213
 21
135.9798859546148
 31
0.0
  0
LINE
  5
4D4
  8
LAYER_1
 10
299.0869102775213
 20
135.9798859546148
 30
0.0
 11
298.9584919971269
 21
135.9122096615302
 31
0.0
  0
LINE
  5
4D5
  8
LAYER_1
 10
298.9584919971269
 20
135.9122096615302
 30
0.0
 11
298.8919765174127
 21
135.8624446131204
 31
0.0
  0
LINE
  5
4D6
  8
LAYER_1
 10
298.8919765174127
 20
135.8624446131204
 30
0.0
 11
298.9521392153747
 21
135.6278003295867
 31
0.0
  0
LINE
  5
4D7
  8
LAYER_1
 10
298.9521392153747
 20
135.6278003295867
 30
0.0
 11
299.0083338371802
 21
135.410412733381
 31
0.0
  0
LINE
  5
4D8
  8
LAYER_1
 10
299.0083338371802
 20
135.410412733381
 30
0.0
 11
298.9966781657845
 21
135.1826063597622
 31
0.0
  0
LINE
  5
4D9
  8
LAYER_1
 10
298.9966781657845
 20
135.1826063597622
 30
0.0
 11
298.9538219275114
 21
134.9721776507839
 31
0.0
  0
LINE
  5
4DA
  8
LAYER_1
 10
298.9538219275114
 20
134.9721776507839
 30
0.0
 11
298.8715951415199
 21
134.7535760152534
 31
0.0
  0
LINE
  5
4DB
  8
LAYER_1
 10
298.8715951415199
 20
134.7535760152534
 30
0.0
 11
298.7451566837896
 21
134.5162233026222
 31
0.0
  0
LINE
  5
4DC
  8
LAYER_1
 10
298.7451566837896
 20
134.5162233026222
 30
0.0
 11
298.5696654303052
 21
134.2495412607676
 31
0.0
  0
LINE
  5
4DD
  8
LAYER_1
 10
298.5696654303052
 20
134.2495412607676
 30
0.0
 11
298.4242511072372
 21
134.0384232553648
 31
0.0
  0
LINE
  5
4DE
  8
LAYER_1
 10
298.4242511072372
 20
134.0384232553648
 30
0.0
 11
298.3431890960887
 21
133.8977403539639
 31
0.0
  0
LINE
  5
4DF
  8
LAYER_1
 10
298.3431890960887
 20
133.8977403539639
 30
0.0
 11
298.3080597630602
 21
133.787753896519
 31
0.0
  0
LINE
  5
4E0
  8
LAYER_1
 10
298.3080597630602
 20
133.787753896519
 30
0.0
 11
298.3004431696219
 21
133.6687257308666
 31
0.0
  0
LINE
  5
4E1
  8
LAYER_1
 10
298.3004431696219
 20
133.6687257308666
 30
0.0
 11
298.3271738736721
 21
133.4834773676543
 31
0.0
  0
LINE
  5
4E2
  8
LAYER_1
 10
298.3271738736721
 20
133.4834773676543
 30
0.0
 11
298.428976637482
 21
133.2157956123587
 31
0.0
  0
LINE
  5
4E3
  8
LAYER_1
 10
298.428976637482
 20
133.2157956123587
 30
0.0
 11
298.5226447689866
 21
132.9711459667446
 31
0.0
  0
LINE
  5
4E4
  8
LAYER_1
 10
298.5226447689866
 20
132.9711459667446
 30
0.0
 11
298.5599928320171
 21
132.7868613589813
 31
0.0
  0
LINE
  5
4E5
  8
LAYER_1
 10
298.5599928320171
 20
132.7868613589813
 30
0.0
 11
298.5424121164546
 21
132.6396071853186
 31
0.0
  0
LINE
  5
4E6
  8
LAYER_1
 10
298.5424121164546
 20
132.6396071853186
 30
0.0
 11
298.4712938106028
 21
132.5060487404307
 31
0.0
  0
LINE
  5
4E7
  8
LAYER_1
 10
298.4712938106028
 20
132.5060487404307
 30
0.0
 11
298.3974490966581
 21
132.4163616868464
 31
0.0
  0
LINE
  5
4E8
  8
LAYER_1
 10
298.3974490966581
 20
132.4163616868464
 30
0.0
 11
298.3422919746591
 21
132.3696786649764
 31
0.0
  0
LINE
  5
4E9
  8
LAYER_1
 10
298.3422919746591
 20
132.3696786649764
 30
0.0
 11
298.3103356804891
 21
132.3214242585387
 31
0.0
  0
LINE
  5
4EA
  8
LAYER_1
 10
298.3103356804891
 20
132.3214242585387
 30
0.0
 11
298.3004431696219
 21
132.2013624529782
 31
0.0
  0
LINE
  5
4EB
  8
LAYER_1
 10
298.3004431696219
 20
132.2013624529782
 30
0.0
 11
298.2816783797271
 21
132.0122337754867
 31
0.0
  0
LINE
  5
4EC
  8
LAYER_1
 10
298.2816783797271
 20
132.0122337754867
 30
0.0
 11
298.2527147250002
 21
131.9697828264459
 31
0.0
  0
LINE
  5
4ED
  8
LAYER_1
 10
298.2527147250002
 20
131.9697828264459
 30
0.0
 11
298.2058011250453
 21
131.9630487274573
 31
0.0
  0
LINE
  5
4EE
  8
LAYER_1
 10
298.2058011250453
 20
131.9630487274573
 30
0.0
 11
298.1372659032013
 21
131.9927622180538
 31
0.0
  0
LINE
  5
4EF
  8
LAYER_1
 10
298.1372659032013
 20
131.9927622180538
 30
0.0
 11
298.0434371796485
 21
132.0596542409224
 31
0.0
  0
LINE
  5
4F0
  8
LAYER_1
 10
298.0434371796485
 20
132.0596542409224
 30
0.0
 11
297.7652123176123
 21
132.3078970447602
 31
0.0
  0
LINE
  5
4F1
  8
LAYER_1
 10
297.7652123176123
 20
132.3078970447602
 30
0.0
 11
297.5584678807534
 21
132.4779035871147
 31
0.0
  0
LINE
  5
4F2
  8
LAYER_1
 10
297.5584678807534
 20
132.4779035871147
 30
0.0
 11
297.3495396561212
 21
132.6042283810226
 31
0.0
  0
LINE
  5
4F3
  8
LAYER_1
 10
297.3495396561212
 20
132.6042283810226
 30
0.0
 11
296.7696130199741
 21
132.8208063129491
 31
0.0
  0
LINE
  5
4F4
  8
LAYER_1
 10
296.7696130199741
 20
132.8208063129491
 30
0.0
 11
296.0421255514681
 21
133.0464245310168
 31
0.0
  0
LINE
  5
4F5
  8
LAYER_1
 10
296.0421255514681
 20
133.0464245310168
 30
0.0
 11
295.6461286156704
 21
133.1907231405687
 31
0.0
  0
LINE
  5
4F6
  8
LAYER_1
 10
295.6461286156704
 20
133.1907231405687
 30
0.0
 11
295.4560482703037
 21
133.2606068886924
 31
0.0
  0
LINE
  5
4F7
  8
LAYER_1
 10
295.4560482703037
 20
133.2606068886924
 30
0.0
 11
295.3829371400276
 21
133.2718268995559
 31
0.0
  0
LINE
  5
4F8
  8
LAYER_1
 10
295.3829371400276
 20
133.2718268995559
 30
0.0
 11
295.4434455019663
 21
133.2157251184422
 31
0.0
  0
LINE
  5
4F9
  8
LAYER_1
 10
295.4434455019663
 20
133.2157251184422
 30
0.0
 11
295.5814859988313
 21
133.1397377551062
 31
0.0
  0
LINE
  5
4FA
  8
LAYER_1
 10
295.5814859988313
 20
133.1397377551062
 30
0.0
 11
295.9991435617985
 21
132.9723425349552
 31
0.0
  0
LINE
  5
4FB
  8
LAYER_1
 10
295.9991435617985
 20
132.9723425349552
 30
0.0
 11
296.5340891877029
 21
132.7833718085308
 31
0.0
  0
LINE
  5
4FC
  8
LAYER_1
 10
296.5340891877029
 20
132.7833718085308
 30
0.0
 11
296.9579801803286
 21
132.6086795538204
 31
0.0
  0
LINE
  5
4FD
  8
LAYER_1
 10
296.9579801803286
 20
132.6086795538204
 30
0.0
 11
297.2899125697182
 21
132.439579884215
 31
0.0
  0
LINE
  5
4FE
  8
LAYER_1
 10
297.2899125697182
 20
132.439579884215
 30
0.0
 11
297.5489825890674
 21
132.2673868115293
 31
0.0
  0
LINE
  5
4FF
  8
LAYER_1
 10
297.5489825890674
 20
132.2673868115293
 30
0.0
 11
297.7093729079492
 21
132.1296739996426
 31
0.0
  0
LINE
  5
500
  8
LAYER_1
 10
297.7093729079492
 20
132.1296739996426
 30
0.0
 11
297.8640633772081
 21
131.9693555967434
 31
0.0
  0
LINE
  5
501
  8
LAYER_1
 10
297.8640633772081
 20
131.9693555967434
 30
0.0
 11
298.0111133826119
 21
131.7894278990187
 31
0.0
  0
LINE
  5
502
  8
LAYER_1
 10
298.0111133826119
 20
131.7894278990187
 30
0.0
 11
298.1485822083488
 21
131.5928873042305
 31
0.0
  0
LINE
  5
503
  8
LAYER_1
 10
298.1485822083488
 20
131.5928873042305
 30
0.0
 11
298.2745290370352
 21
131.3827302101415
 31
0.0
  0
LINE
  5
504
  8
LAYER_1
 10
298.2745290370352
 20
131.3827302101415
 30
0.0
 11
298.387013254436
 21
131.1619530145141
 31
0.0
  0
LINE
  5
505
  8
LAYER_1
 10
298.387013254436
 20
131.1619530145141
 30
0.0
 11
298.4840939415932
 21
130.9335520135354
 31
0.0
  0
LINE
  5
506
  8
LAYER_1
 10
298.4840939415932
 20
130.9335520135354
 30
0.0
 11
298.5638305858467
 21
130.700523604967
 31
0.0
  0
LINE
  5
507
  8
LAYER_1
 10
298.5638305858467
 20
130.700523604967
 30
0.0
 11
298.6116522774649
 21
130.4490701790573
 31
0.0
  0
LINE
  5
508
  8
LAYER_1
 10
298.6116522774649
 20
130.4490701790573
 30
0.0
 11
298.6355896346747
 21
130.037720704291
 31
0.0
  0
LINE
  5
509
  8
LAYER_1
 10
298.6355896346747
 20
130.037720704291
 30
0.0
 11
298.6395143377746
 21
129.6199602445835
 31
0.0
  0
LINE
  5
50A
  8
LAYER_1
 10
298.6395143377746
 20
129.6199602445835
 30
0.0
 11
298.6226365298563
 21
129.5401907912007
 31
0.0
  0
LINE
  5
50B
  8
LAYER_1
 10
298.6226365298563
 20
129.5401907912007
 30
0.0
 11
298.5879679466908
 21
129.4858795962002
 31
0.0
  0
LINE
  5
50C
  8
LAYER_1
 10
298.5879679466908
 20
129.4858795962002
 30
0.0
 11
298.5321621587664
 21
129.4259005480947
 31
0.0
  0
LINE
  5
50D
  8
LAYER_1
 10
298.5321621587664
 20
129.4259005480947
 30
0.0
 11
298.4953934866582
 21
129.4097006600597
 31
0.0
  0
LINE
  5
50E
  8
LAYER_1
 10
298.4953934866582
 20
129.4097006600597
 30
0.0
 11
298.4791430136525
 21
129.4369706324159
 31
0.0
  0
LINE
  5
50F
  8
LAYER_1
 10
298.4791430136525
 20
129.4369706324159
 30
0.0
 11
298.484891721451
 21
129.5074013686385
 31
0.0
  0
LINE
  5
510
  8
LAYER_1
 10
298.484891721451
 20
129.5074013686385
 30
0.0
 11
298.5037188791614
 21
129.8745528844618
 31
0.0
  0
LINE
  5
511
  8
LAYER_1
 10
298.5037188791614
 20
129.8745528844618
 30
0.0
 11
298.4871597159332
 21
130.1404244494272
 31
0.0
  0
LINE
  5
512
  8
LAYER_1
 10
298.4871597159332
 20
130.1404244494272
 30
0.0
 11
298.4159740650295
 21
130.4032483206252
 31
0.0
  0
LINE
  5
513
  8
LAYER_1
 10
298.4159740650295
 20
130.4032483206252
 30
0.0
 11
298.3022923652292
 21
130.6827454251777
 31
0.0
  0
LINE
  5
514
  8
LAYER_1
 10
298.3022923652292
 20
130.6827454251777
 30
0.0
 11
298.150913383257
 21
130.9623705158041
 31
0.0
  0
LINE
  5
515
  8
LAYER_1
 10
298.150913383257
 20
130.9623705158041
 30
0.0
 11
297.9677315888271
 21
131.2354055425624
 31
0.0
  0
LINE
  5
516
  8
LAYER_1
 10
297.9677315888271
 20
131.2354055425624
 30
0.0
 11
297.7586415532311
 21
131.4951322523583
 31
0.0
  0
LINE
  5
517
  8
LAYER_1
 10
297.7586415532311
 20
131.4951322523583
 30
0.0
 11
297.5295377461882
 21
131.7348325952511
 31
0.0
  0
LINE
  5
518
  8
LAYER_1
 10
297.5295377461882
 20
131.7348325952511
 30
0.0
 11
297.2863146374097
 21
131.9477882165699
 31
0.0
  0
LINE
  5
519
  8
LAYER_1
 10
297.2863146374097
 20
131.9477882165699
 30
0.0
 11
297.0348665950414
 21
132.1272811679502
 31
0.0
  0
LINE
  5
51A
  8
LAYER_1
 10
297.0348665950414
 20
132.1272811679502
 30
0.0
 11
296.7810881903736
 21
132.2665932978739
 31
0.0
  0
LINE
  5
51B
  8
LAYER_1
 10
296.7810881903736
 20
132.2665932978739
 30
0.0
 11
296.5622672517218
 21
132.3489989596413
 31
0.0
  0
LINE
  5
51C
  8
LAYER_1
 10
296.5622672517218
 20
132.3489989596413
 30
0.0
 11
296.3321586524237
 21
132.3810978668637
 31
0.0
  0
LINE
  5
51D
  8
LAYER_1
 10
296.3321586524237
 20
132.3810978668637
 30
0.0
 11
296.1198211225799
 21
132.3833093849524
 31
0.0
  0
LINE
  5
51E
  8
LAYER_1
 10
296.1198211225799
 20
132.3833093849524
 30
0.0
 11
296.0690129876716
 21
132.361820523219
 31
0.0
  0
LINE
  5
51F
  8
LAYER_1
 10
296.0690129876716
 20
132.361820523219
 30
0.0
 11
296.0203059574698
 21
132.3182544701192
 31
0.0
  0
LINE
  5
520
  8
LAYER_1
 10
296.0203059574698
 20
132.3182544701192
 30
0.0
 11
295.9776115301604
 21
132.2704719869328
 31
0.0
  0
LINE
  5
521
  8
LAYER_1
 10
295.9776115301604
 20
132.2704719869328
 30
0.0
 11
295.9559866578298
 21
132.2228838191107
 31
0.0
  0
LINE
  5
522
  8
LAYER_1
 10
295.9559866578298
 20
132.2228838191107
 30
0.0
 11
295.9563880871657
 21
132.0445407108665
 31
0.0
  0
LINE
  5
523
  8
LAYER_1
 10
295.9563880871657
 20
132.0445407108665
 30
0.0
 11
295.9715761741865
 21
131.9284033036774
 31
0.0
  0
LINE
  5
524
  8
LAYER_1
 10
295.9715761741865
 20
131.9284033036774
 30
0.0
 11
296.0028142227
 21
131.812632282018
 31
0.0
  0
LINE
  5
525
  8
LAYER_1
 10
296.0028142227
 20
131.812632282018
 30
0.0
 11
296.0540338429934
 21
131.69089995347
 31
0.0
  0
LINE
  5
526
  8
LAYER_1
 10
296.0540338429934
 20
131.69089995347
 30
0.0
 11
296.1291665437713
 21
131.5568785240402
 31
0.0
  0
LINE
  5
527
  8
LAYER_1
 10
296.1291665437713
 20
131.5568785240402
 30
0.0
 11
296.3668976279284
 21
131.2266579991702
 31
0.0
  0
LINE
  5
528
  8
LAYER_1
 10
296.3668976279284
 20
131.2266579991702
 30
0.0
 11
296.7474597479969
 21
130.7713495743739
 31
0.0
  0
LINE
  5
529
  8
LAYER_1
 10
296.7474597479969
 20
130.7713495743739
 30
0.0
 11
296.9823235378051
 21
130.4937576339437
 31
0.0
  0
LINE
  5
52A
  8
LAYER_1
 10
296.9823235378051
 20
130.4937576339437
 30
0.0
 11
297.1163822457175
 21
130.3147811977884
 31
0.0
  0
LINE
  5
52B
  8
LAYER_1
 10
297.1163822457175
 20
130.3147811977884
 30
0.0
 11
297.1720497883678
 21
130.1996788525739
 31
0.0
  0
LINE
  5
52C
  8
LAYER_1
 10
297.1720497883678
 20
130.1996788525739
 30
0.0
 11
297.171739676081
 21
130.1137091849655
 31
0.0
  0
LINE
  5
52D
  8
LAYER_1
 10
297.171739676081
 20
130.1137091849655
 30
0.0
 11
297.1476856077595
 21
130.0631844477916
 31
0.0
  0
LINE
  5
52E
  8
LAYER_1
 10
297.1476856077595
 20
130.0631844477916
 30
0.0
 11
297.1068785687293
 21
130.038246462955
 31
0.0
  0
LINE
  5
52F
  8
LAYER_1
 10
297.1068785687293
 20
130.038246462955
 30
0.0
 11
297.048744246879
 21
130.0391663374635
 31
0.0
  0
LINE
  5
530
  8
LAYER_1
 10
297.048744246879
 20
130.0391663374635
 30
0.0
 11
296.972708025366
 21
130.0662150767503
 31
0.0
  0
LINE
  5
531
  8
LAYER_1
 10
296.972708025366
 20
130.0662150767503
 30
0.0
 11
296.7646326349204
 21
130.1997839839913
 31
0.0
  0
LINE
  5
532
  8
LAYER_1
 10
296.7646326349204
 20
130.1997839839913
 30
0.0
 11
296.4780568847439
 21
130.4411221423195
 31
0.0
  0
LINE
  5
533
  8
LAYER_1
 10
296.4780568847439
 20
130.4411221423195
 30
0.0
 11
296.1125609601985
 21
130.732461716988
 31
0.0
  0
LINE
  5
534
  8
LAYER_1
 10
296.1125609601985
 20
130.732461716988
 30
0.0
 11
295.5340705106323
 21
131.131513558468
 31
0.0
  0
LINE
  5
535
  8
LAYER_1
 10
295.5340705106323
 20
131.131513558468
 30
0.0
 11
294.9354734489244
 21
131.5542618182949
 31
0.0
  0
LINE
  5
536
  8
LAYER_1
 10
294.9354734489244
 20
131.5542618182949
 30
0.0
 11
294.454914184446
 21
131.9606731637273
 31
0.0
  0
LINE
  5
537
  8
LAYER_1
 10
294.454914184446
 20
131.9606731637273
 30
0.0
 11
294.266695630143
 21
132.1459840979084
 31
0.0
  0
LINE
  5
538
  8
LAYER_1
 10
294.266695630143
 20
132.1459840979084
 30
0.0
 11
294.1063494969299
 21
132.3264573616658
 31
0.0
  0
LINE
  5
539
  8
LAYER_1
 10
294.1063494969299
 20
132.3264573616658
 30
0.0
 11
293.9753682446244
 21
132.499321243898
 31
0.0
  0
LINE
  5
53A
  8
LAYER_1
 10
293.9753682446244
 20
132.499321243898
 30
0.0
 11
293.8752443330552
 21
132.6618038303529
 31
0.0
  0
LINE
  5
53B
  8
LAYER_1
 10
293.8752443330552
 20
132.6618038303529
 30
0.0
 11
293.8074703236195
 21
132.8111334099309
 31
0.0
  0
LINE
  5
53C
  8
LAYER_1
 10
293.8074703236195
 20
132.8111334099309
 30
0.0
 11
293.7735387777152
 21
132.9445380683781
 31
0.0
  0
LINE
  5
53D
  8
LAYER_1
 10
293.7735387777152
 20
132.9445380683781
 30
0.0
 11
293.7749421551688
 21
133.0592461961706
 31
0.0
  0
LINE
  5
53E
  8
LAYER_1
 10
293.7749421551688
 20
133.0592461961706
 30
0.0
 11
293.813172814226
 21
133.1524858790561
 31
0.0
  0
LINE
  5
53F
  8
LAYER_1
 10
293.813172814226
 20
133.1524858790561
 30
0.0
 11
293.8856328407458
 21
133.2177608080441
 31
0.0
  0
LINE
  5
540
  8
LAYER_1
 10
293.8856328407458
 20
133.2177608080441
 30
0.0
 11
294.0046920887316
 21
133.2803040469732
 31
0.0
  0
LINE
  5
541
  8
LAYER_1
 10
294.0046920887316
 20
133.2803040469732
 30
0.0
 11
294.1596922639734
 21
133.3355353196348
 31
0.0
  0
LINE
  5
542
  8
LAYER_1
 10
294.1596922639734
 20
133.3355353196348
 30
0.0
 11
294.3399752754174
 21
133.3788743498186
 31
0.0
  0
LINE
  5
543
  8
LAYER_1
 10
294.3399752754174
 20
133.3788743498186
 30
0.0
 11
294.6740582371467
 21
133.4419332913631
 31
0.0
  0
LINE
  5
544
  8
LAYER_1
 10
294.6740582371467
 20
133.4419332913631
 30
0.0
 11
294.7242088689952
 21
133.4533039398033
 31
0.0
  0
LINE
  5
545
  8
LAYER_1
 10
294.7242088689952
 20
133.4533039398033
 30
0.0
 11
294.724347317423
 21
133.4610527855174
 31
0.0
  0
LINE
  5
546
  8
LAYER_1
 10
294.724347317423
 20
133.4610527855174
 30
0.0
 11
294.5489146734335
 21
133.4718158048376
 31
0.0
  0
LINE
  5
547
  8
LAYER_1
 10
294.5489146734335
 20
133.4718158048376
 30
0.0
 11
294.3268014454073
 21
133.4665100710585
 31
0.0
  0
LINE
  5
548
  8
LAYER_1
 10
294.3268014454073
 20
133.4665100710585
 30
0.0
 11
294.0887961053788
 21
133.4335925608475
 31
0.0
  0
LINE
  5
549
  8
LAYER_1
 10
294.0887961053788
 20
133.4335925608475
 30
0.0
 11
293.8213381225594
 21
133.3704871989568
 31
0.0
  0
LINE
  5
54A
  8
LAYER_1
 10
293.8213381225594
 20
133.3704871989568
 30
0.0
 11
293.5108673724673
 21
133.2746179101432
 31
0.0
  0
LINE
  5
54B
  8
LAYER_1
 10
293.5108673724673
 20
133.2746179101432
 30
0.0
 11
293.1825774057818
 21
133.1817482695325
 31
0.0
  0
LINE
  5
54C
  8
LAYER_1
 10
293.1825774057818
 20
133.1817482695325
 30
0.0
 11
292.8595456351906
 21
133.1164937573704
 31
0.0
  0
LINE
  5
54D
  8
LAYER_1
 10
292.8595456351906
 20
133.1164937573704
 30
0.0
 11
292.5379330879474
 21
133.0842688955989
 31
0.0
  0
LINE
  5
54E
  8
LAYER_1
 10
292.5379330879474
 20
133.0842688955989
 30
0.0
 11
292.206880958328
 21
133.1154545307694
 31
0.0
  0
LINE
  5
54F
  8
LAYER_1
 10
292.206880958328
 20
133.1154545307694
 30
0.0
 11
291.9000804628335
 21
133.1720828831563
 31
0.0
  0
LINE
  5
550
  8
LAYER_1
 10
291.9000804628335
 20
133.1720828831563
 30
0.0
 11
291.6685190184501
 21
133.2603299918383
 31
0.0
  0
LINE
  5
551
  8
LAYER_1
 10
291.6685190184501
 20
133.2603299918383
 30
0.0
 11
291.4999849253975
 21
133.3586474713998
 31
0.0
  0
LINE
  5
552
  8
LAYER_1
 10
291.4999849253975
 20
133.3586474713998
 30
0.0
 11
291.3400099517957
 21
133.4843342648889
 31
0.0
  0
LINE
  5
553
  8
LAYER_1
 10
291.3400099517957
 20
133.4843342648889
 30
0.0
 11
291.1956268308047
 21
133.631094981135
 31
0.0
  0
LINE
  5
554
  8
LAYER_1
 10
291.1956268308047
 20
133.631094981135
 30
0.0
 11
291.0738680924337
 21
133.7926342289682
 31
0.0
  0
LINE
  5
555
  8
LAYER_1
 10
291.0738680924337
 20
133.7926342289682
 30
0.0
 11
290.9806832607213
 21
133.9364429362721
 31
0.0
  0
LINE
  5
556
  8
LAYER_1
 10
290.9806832607213
 20
133.9364429362721
 30
0.0
 11
290.792008629062
 21
133.9365500992153
 31
0.0
  0
LINE
  5
557
  8
LAYER_1
 10
290.792008629062
 20
133.9365500992153
 30
0.0
 11
290.6511235909263
 21
133.9476517737487
 31
0.0
  0
LINE
  5
558
  8
LAYER_1
 10
290.6511235909263
 20
133.9476517737487
 30
0.0
 11
290.5360207378314
 21
133.9804341875492
 31
0.0
  0
LINE
  5
559
  8
LAYER_1
 10
290.5360207378314
 20
133.9804341875492
 30
0.0
 11
290.4479247746067
 21
134.0343746292413
 31
0.0
  0
LINE
  5
55A
  8
LAYER_1
 10
290.4479247746067
 20
134.0343746292413
 30
0.0
 11
290.3880603045098
 21
134.1089504890244
 31
0.0
  0
LINE
  5
55B
  8
LAYER_1
 10
290.3880603045098
 20
134.1089504890244
 30
0.0
 11
290.3328419320335
 21
134.2423275187318
 31
0.0
  0
LINE
  5
55C
  8
LAYER_1
 10
290.3328419320335
 20
134.2423275187318
 30
0.0
 11
290.3003396655263
 21
134.3954248661052
 31
0.0
  0
LINE
  5
55D
  8
LAYER_1
 10
290.3003396655263
 20
134.3954248661052
 30
0.0
 11
290.2901000686155
 21
134.5717363477975
 31
0.0
  0
LINE
  5
55E
  8
LAYER_1
 10
290.2901000686155
 20
134.5717363477975
 30
0.0
 11
290.3016700096561
 21
134.7747552725802
 31
0.0
  0
LINE
  5
55F
  8
LAYER_1
 10
290.3016700096561
 20
134.7747552725802
 30
0.0
 11
290.324458031612
 21
135.0251428589114
 31
0.0
  0
LINE
  5
560
  8
LAYER_1
 10
290.324458031612
 20
135.0251428589114
 30
0.0
 11
290.3252085785137
 21
135.1782727106848
 31
0.0
  0
LINE
  5
561
  8
LAYER_1
 10
290.3252085785137
 20
135.1782727106848
 30
0.0
 11
290.2993408662727
 21
135.2807663961385
 31
0.0
  0
LINE
  5
562
  8
LAYER_1
 10
290.2993408662727
 20
135.2807663961385
 30
0.0
 11
290.2422741107956
 21
135.379244975631
 31
0.0
  0
LINE
  5
563
  8
LAYER_1
 10
290.2422741107956
 20
135.379244975631
 30
0.0
 11
290.1810183508183
 21
135.5027097886782
 31
0.0
  0
LINE
  5
564
  8
LAYER_1
 10
290.1810183508183
 20
135.5027097886782
 30
0.0
 11
290.1425186162788
 21
135.6478301500824
 31
0.0
  0
LINE
  5
565
  8
LAYER_1
 10
290.1425186162788
 20
135.6478301500824
 30
0.0
 11
290.1288832237953
 21
135.8024835440113
 31
0.0
  0
LINE
  5
566
  8
LAYER_1
 10
290.1288832237953
 20
135.8024835440113
 30
0.0
 11
290.1422202868371
 21
135.9545473530532
 31
0.0
  0
LINE
  5
567
  8
LAYER_1
 10
290.1422202868371
 20
135.9545473530532
 30
0.0
 11
290.1773520576952
 21
136.0456071080636
 31
0.0
  0
LINE
  5
568
  8
LAYER_1
 10
290.1773520576952
 20
136.0456071080636
 30
0.0
 11
290.2474145800156
 21
136.1405370197287
 31
0.0
  0
LINE
  5
569
  8
LAYER_1
 10
290.2474145800156
 20
136.1405370197287
 30
0.0
 11
290.3491639147201
 21
136.2371811321679
 31
0.0
  0
LINE
  5
56A
  8
LAYER_1
 10
290.3491639147201
 20
136.2371811321679
 30
0.0
 11
290.4793561227235
 21
136.3333833879251
 31
0.0
  0
LINE
  5
56B
  8
LAYER_1
 10
290.4793561227235
 20
136.3333833879251
 30
0.0
 11
290.812093605462
 21
136.5158384042957
 31
0.0
  0
LINE
  5
56C
  8
LAYER_1
 10
290.812093605462
 20
136.5158384042957
 30
0.0
 11
291.219675718736
 21
136.6706540154935
 31
0.0
  0
LINE
  5
56D
  8
LAYER_1
 10
291.219675718736
 20
136.6706540154935
 30
0.0
 11
291.4057360824807
 21
136.7307959919022
 31
0.0
  0
LINE
  5
56E
  8
LAYER_1
 10
291.4057360824807
 20
136.7307959919022
 30
0.0
 11
291.5005862567909
 21
136.7754382453572
 31
0.0
  0
LINE
  5
56F
  8
LAYER_1
 10
291.5005862567909
 20
136.7754382453572
 30
0.0
 11
291.5309482101599
 21
136.8246000324254
 31
0.0
  0
LINE
  5
570
  8
LAYER_1
 10
291.5309482101599
 20
136.8246000324254
 30
0.0
 11
291.5235442158105
 21
136.8983004065211
 31
0.0
  0
LINE
  5
571
  8
LAYER_1
 10
291.5235442158105
 20
136.8983004065211
 30
0.0
 11
291.4948917907091
 21
136.9912660366867
 31
0.0
  0
LINE
  5
572
  8
LAYER_1
 10
291.4948917907091
 20
136.9912660366867
 30
0.0
 11
291.4453844412421
 21
137.0604669892662
 31
0.0
  0
LINE
  5
573
  8
LAYER_1
 10
291.4453844412421
 20
137.0604669892662
 30
0.0
 11
291.369739999321
 21
137.1109547526861
 31
0.0
  0
LINE
  5
574
  8
LAYER_1
 10
291.369739999321
 20
137.1109547526861
 30
0.0
 11
291.262676398436
 21
137.1477808153745
 31
0.0
  0
LINE
  5
575
  8
LAYER_1
 10
291.262676398436
 20
137.1477808153745
 30
0.0
 11
291.1345983984745
 21
137.1915028895915
 31
0.0
  0
LINE
  5
576
  8
LAYER_1
 10
291.1345983984745
 20
137.1915028895915
 30
0.0
 11
291.0041830274522
 21
137.2567611600748
 31
0.0
  0
LINE
  5
577
  8
LAYER_1
 10
291.0041830274522
 20
137.2567611600748
 30
0.0
 11
290.8746776780437
 21
137.3407168753988
 31
0.0
  0
LINE
  5
578
  8
LAYER_1
 10
290.8746776780437
 20
137.3407168753988
 30
0.0
 11
290.7493299460725
 21
137.4405317920196
 31
0.0
  0
LINE
  5
579
  8
LAYER_1
 10
290.7493299460725
 20
137.4405317920196
 30
0.0
 11
290.5240971082927
 21
137.6763847313375
 31
0.0
  0
LINE
  5
57A
  8
LAYER_1
 10
290.5240971082927
 20
137.6763847313375
 30
0.0
 11
290.4307070925592
 21
137.8067457590665
 31
0.0
  0
LINE
  5
57B
  8
LAYER_1
 10
290.4307070925592
 20
137.8067457590665
 30
0.0
 11
290.3544644681101
 21
137.941611896581
 31
0.0
  0
LINE
  5
57C
  8
LAYER_1
 10
290.3544644681101
 20
137.941611896581
 30
0.0
 11
290.2995799767614
 21
138.0607469204479
 31
0.0
  0
LINE
  5
57D
  8
LAYER_1
 10
290.2995799767614
 20
138.0607469204479
 30
0.0
 11
290.2713236990289
 21
138.165855381698
 31
0.0
  0
LINE
  5
57E
  8
LAYER_1
 10
290.2713236990289
 20
138.165855381698
 30
0.0
 11
290.2593287629628
 21
138.5661755042193
 31
0.0
  0
LINE
  5
57F
  8
LAYER_1
 10
290.2593287629628
 20
138.5661755042193
 30
0.0
 11
290.2640524648368
 21
138.8518918177555
 31
0.0
  0
LINE
  5
580
  8
LAYER_1
 10
290.2640524648368
 20
138.8518918177555
 30
0.0
 11
290.2899709652032
 21
139.0391481402536
 31
0.0
  0
LINE
  5
581
  8
LAYER_1
 10
290.2899709652032
 20
139.0391481402536
 30
0.0
 11
290.3547047975131
 21
139.1945495416781
 31
0.0
  0
LINE
  5
582
  8
LAYER_1
 10
290.3547047975131
 20
139.1945495416781
 30
0.0
 11
290.4758750031012
 21
139.3847007872663
 31
0.0
  0
LINE
  5
583
  8
LAYER_1
 10
290.4758750031012
 20
139.3847007872663
 30
0.0
 11
290.5983265930659
 21
139.5418022703663
 31
0.0
  0
LINE
  5
584
  8
LAYER_1
 10
290.5983265930659
 20
139.5418022703663
 30
0.0
 11
290.7488532487358
 21
139.6958011069473
 31
0.0
  0
LINE
  5
585
  8
LAYER_1
 10
290.7488532487358
 20
139.6958011069473
 30
0.0
 11
290.9209971585168
 21
139.8424184991063
 31
0.0
  0
LINE
  5
586
  8
LAYER_1
 10
290.9209971585168
 20
139.8424184991063
 30
0.0
 11
291.1083005108182
 21
139.977375547364
 31
0.0
  0
LINE
  5
587
  8
LAYER_1
 10
291.1083005108182
 20
139.977375547364
 30
0.0
 11
291.304305798776
 21
140.0963936569686
 31
0.0
  0
LINE
  5
588
  8
LAYER_1
 10
291.304305798776
 20
140.0963936569686
 30
0.0
 11
291.5025551092214
 21
140.1951938268645
 31
0.0
  0
LINE
  5
589
  8
LAYER_1
 10
291.5025551092214
 20
140.1951938268645
 30
0.0
 11
291.6965907321372
 21
140.2694972591481
 31
0.0
  0
LINE
  5
58A
  8
LAYER_1
 10
291.6965907321372
 20
140.2694972591481
 30
0.0
 11
291.879955059087
 21
140.315025359069
 31
0.0
  0
LINE
  5
58B
  8
LAYER_1
 10
291.879955059087
 20
140.315025359069
 30
0.0
 11
291.9792449280801
 21
140.3209037797384
 31
0.0
  0
LINE
  5
58C
  8
LAYER_1
 10
291.9792449280801
 20
140.3209037797384
 30
0.0
 11
292.0411742401609
 21
140.3020485869832
 31
0.0
  0
LINE
  5
58D
  8
LAYER_1
 10
292.0411742401609
 20
140.3020485869832
 30
0.0
 11
292.060066101941
 21
140.2625580777132
 31
0.0
  0
LINE
  5
58E
  8
LAYER_1
 10
292.060066101941
 20
140.2625580777132
 30
0.0
 11
292.0302439247588
 21
140.2065301425322
 31
0.0
  0
LINE
  5
58F
  8
LAYER_1
 10
292.0302439247588
 20
140.2065301425322
 30
0.0
 11
291.7492919435956
 21
140.0004374188857
 31
0.0
  0
LINE
  5
590
  8
LAYER_1
 10
291.7492919435956
 20
140.0004374188857
 30
0.0
 11
291.5693083789333
 21
139.8740068841032
 31
0.0
  0
LINE
  5
591
  8
LAYER_1
 10
291.5693083789333
 20
139.8740068841032
 30
0.0
 11
291.4657267102794
 21
139.7654225851964
 31
0.0
  0
LINE
  5
592
  8
LAYER_1
 10
291.4657267102794
 20
139.7654225851964
 30
0.0
 11
291.4182479400765
 21
139.643742263688
 31
0.0
  0
LINE
  5
593
  8
LAYER_1
 10
291.4182479400765
 20
139.643742263688
 30
0.0
 11
291.4065730707707
 21
139.4780238642517
 31
0.0
  0
LINE
  5
594
  8
LAYER_1
 10
291.4065730707707
 20
139.4780238642517
 30
0.0
 11
291.4198234892704
 21
139.2878865346097
 31
0.0
  0
LINE
  5
595
  8
LAYER_1
 10
291.4198234892704
 20
139.2878865346097
 30
0.0
 11
291.4478258263799
 21
139.2335795042358
 31
0.0
  0
LINE
  5
596
  8
LAYER_1
 10
291.4478258263799
 20
139.2335795042358
 30
0.0
 11
291.4997186940496
 21
139.1750989089525
 31
0.0
  0
LINE
  5
597
  8
LAYER_1
 10
291.4997186940496
 20
139.1750989089525
 30
0.0
 11
291.6039150005858
 21
139.0903795433906
 31
0.0
  0
LINE
  5
598
  8
LAYER_1
 10
291.6039150005858
 20
139.0903795433906
 30
0.0
 11
291.7516350029249
 21
139.0019814924029
 31
0.0
  0
LINE
  5
599
  8
LAYER_1
 10
291.7516350029249
 20
139.0019814924029
 30
0.0
 11
291.9294516414712
 21
138.9170534892266
 31
0.0
  0
LINE
  5
59A
  8
LAYER_1
 10
291.9294516414712
 20
138.9170534892266
 30
0.0
 11
292.1239376534763
 21
138.8427445718249
 31
0.0
  0
LINE
  5
59B
  8
LAYER_1
 10
292.1239376534763
 20
138.8427445718249
 30
0.0
 11
292.374290703883
 21
138.7669790510162
 31
0.0
  0
LINE
  5
59C
  8
LAYER_1
 10
292.374290703883
 20
138.7669790510162
 30
0.0
 11
292.6038836005643
 21
138.7180339260866
 31
0.0
  0
LINE
  5
59D
  8
LAYER_1
 10
292.6038836005643
 20
138.7180339260866
 30
0.0
 11
292.840444627914
 21
138.6914144480275
 31
0.0
  0
LINE
  5
59E
  8
LAYER_1
 10
292.840444627914
 20
138.6914144480275
 30
0.0
 11
293.1117026797754
 21
138.6826257662553
 31
0.0
  0
LINE
  5
59F
  8
LAYER_1
 10
293.1117026797754
 20
138.6826257662553
 30
0.0
 11
293.498708187608
 21
138.6808438141229
 31
0.0
  0
LINE
  5
5A0
  8
LAYER_1
 10
293.498708187608
 20
138.6808438141229
 30
0.0
 11
293.6971993511025
 21
138.7918344543624
 31
0.0
  0
LINE
  5
5A1
  8
LAYER_1
 10
293.6971993511025
 20
138.7918344543624
 30
0.0
 11
293.9322039255888
 21
138.9112263645626
 31
0.0
  0
LINE
  5
5A2
  8
LAYER_1
 10
293.9322039255888
 20
138.9112263645626
 30
0.0
 11
294.1417789877731
 21
138.9872806666471
 31
0.0
  0
LINE
  5
5A3
  8
LAYER_1
 10
294.1417789877731
 20
138.9872806666471
 30
0.0
 11
294.3528968915984
 21
139.0274487910724
 31
0.0
  0
LINE
  5
5A4
  8
LAYER_1
 10
294.3528968915984
 20
139.0274487910724
 30
0.0
 11
294.5925301941687
 21
139.0391822698731
 31
0.0
  0
LINE
  5
5A5
  8
LAYER_1
 10
294.5925301941687
 20
139.0391822698731
 30
0.0
 11
294.8824001636694
 21
139.025185367521
 31
0.0
  0
LINE
  5
5A6
  8
LAYER_1
 10
294.8824001636694
 20
139.025185367521
 30
0.0
 11
295.1162427058705
 21
138.9641857828442
 31
0.0
  0
LINE
  5
5A7
  8
LAYER_1
 10
295.1162427058705
 20
138.9641857828442
 30
0.0
 11
295.3039503316427
 21
138.9099575756393
 31
0.0
  0
LINE
  5
5A8
  8
LAYER_1
 10
295.3039503316427
 20
138.9099575756393
 30
0.0
 11
295.4795978093973
 21
138.8776191516221
 31
0.0
  0
LINE
  5
5A9
  8
LAYER_1
 10
295.4795978093973
 20
138.8776191516221
 30
0.0
 11
295.6194419957096
 21
138.8701654864867
 31
0.0
  0
LINE
  5
5AA
  8
LAYER_1
 10
295.6194419957096
 20
138.8701654864867
 30
0.0
 11
295.6997398487402
 21
138.8905910480481
 31
0.0
  0
LINE
  5
5AB
  8
LAYER_1
 10
295.6997398487402
 20
138.8905910480481
 30
0.0
 11
296.0287187055439
 21
139.0720734718361
 31
0.0
  0
LINE
  5
5AC
  8
LAYER_1
 10
296.0287187055439
 20
139.0720734718361
 30
0.0
 11
296.4227498361997
 21
139.24569876963
 31
0.0
  0
LINE
  5
5AD
  8
LAYER_1
 10
296.4227498361997
 20
139.24569876963
 30
0.0
 11
296.6321548597429
 21
139.2915877699632
 31
0.0
  0
LINE
  5
5AE
  8
LAYER_1
 10
296.6321548597429
 20
139.2915877699632
 30
0.0
 11
296.9100900263186
 21
139.3174363858693
 31
0.0
  0
LINE
  5
5AF
  8
LAYER_1
 10
296.9100900263186
 20
139.3174363858693
 30
0.0
 11
297.1217341966879
 21
139.3223941194202
 31
0.0
  0
LINE
  5
5B0
  8
LAYER_1
 10
297.1217341966879
 20
139.3223941194202
 30
0.0
 11
297.2878412268524
 21
139.3022020816543
 31
0.0
  0
LINE
  5
5B1
  8
LAYER_1
 10
297.2878412268524
 20
139.3022020816543
 30
0.0
 11
297.4785313344415
 21
139.2408309310603
 31
0.0
  0
LINE
  5
5B2
  8
LAYER_1
 10
297.4785313344415
 20
139.2408309310603
 30
0.0
 11
297.7639242292008
 21
139.1222514276978
 31
0.0
  0
LINE
  5
5B3
  8
LAYER_1
 10
297.7639242292008
 20
139.1222514276978
 30
0.0
 11
297.9870830831339
 21
139.0266716311927
 31
0.0
  0
LINE
  5
5B4
  8
LAYER_1
 10
297.9870830831339
 20
139.0266716311927
 30
0.0
 11
298.2260243467195
 21
139.0758552571547
 31
0.0
  0
LINE
  5
5B5
  8
LAYER_1
 10
298.2260243467195
 20
139.0758552571547
 30
0.0
 11
298.5007114095871
 21
139.1557033305544
 31
0.0
  0
LINE
  5
5B6
  8
LAYER_1
 10
298.5007114095871
 20
139.1557033305544
 30
0.0
 11
298.6073342711306
 21
139.2070456549546
 31
0.0
  0
LINE
  5
5B7
  8
LAYER_1
 10
298.6073342711306
 20
139.2070456549546
 30
0.0
 11
298.6938515362949
 21
139.2663102157263
 31
0.0
  0
LINE
  5
5B8
  8
LAYER_1
 10
298.6938515362949
 20
139.2663102157263
 30
0.0
 11
298.7605443681398
 21
139.3337295209018
 31
0.0
  0
LINE
  5
5B9
  8
LAYER_1
 10
298.7605443681398
 20
139.3337295209018
 30
0.0
 11
298.8076939297204
 21
139.4095359769392
 31
0.0
  0
LINE
  5
5BA
  8
LAYER_1
 10
298.8076939297204
 20
139.4095359769392
 30
0.0
 11
298.8355814856686
 21
139.493962193447
 31
0.0
  0
LINE
  5
5BB
  8
LAYER_1
 10
298.8355814856686
 20
139.493962193447
 30
0.0
 11
298.8444880974659
 21
139.5872405768831
 31
0.0
  0
LINE
  5
5BC
  8
LAYER_1
 10
298.8444880974659
 20
139.5872405768831
 30
0.0
 11
298.8262696862145
 21
139.7303514553583
 31
0.0
  0
LINE
  5
5BD
  8
LAYER_1
 10
298.8262696862145
 20
139.7303514553583
 30
0.0
 11
298.7721227400093
 21
139.8683476649788
 31
0.0
  0
LINE
  5
5BE
  8
LAYER_1
 62
     7
 10
298.7721227400093
 20
139.8683476649788
 30
0.0
 11
298.6806132053678
 21
140.0024763589277
 31
0.0
  0
LINE
  5
5BF
  8
LAYER_1
 62
     7
 10
298.6806132053678
 20
140.0024763589277
 30
0.0
 11
298.5503070288144
 21
140.1339848935393
 31
0.0
  0
LINE
  5
5C0
  8
LAYER_1
 62
     7
 10
298.5503070288144
 20
140.1339848935393
 30
0.0
 11
298.3797699537118
 21
140.2641204219954
 31
0.0
  0
LINE
  5
5C1
  8
LAYER_1
 10
298.3797699537118
 20
140.2641204219954
 30
0.0
 11
298.1675681297357
 21
140.394130199056
 31
0.0
  0
LINE
  5
5C2
  8
LAYER_1
 10
298.1675681297357
 20
140.394130199056
 30
0.0
 11
297.9122673002512
 21
140.5252613779033
 31
0.0
  0
LINE
  5
5C3
  8
LAYER_1
 10
297.9122673002512
 20
140.5252613779033
 30
0.0
 11
297.6124334117776
 21
140.6587612132959
 31
0.0
  0
LINE
  5
5C4
  8
LAYER_1
 10
297.6124334117776
 20
140.6587612132959
 30
0.0
 11
297.0785967953586
 21
140.891224146887
 31
0.0
  0
LINE
  5
5C5
  8
LAYER_1
 10
297.0785967953586
 20
140.891224146887
 30
0.0
 11
296.9812822796778
 21
140.9499162239208
 31
0.0
  0
LINE
  5
5C6
  8
LAYER_1
 10
296.9812822796778
 20
140.9499162239208
 30
0.0
 11
296.9275417400445
 21
141.0054241902831
 31
0.0
  0
LINE
  5
5C7
  8
LAYER_1
 10
296.9275417400445
 20
141.0054241902831
 30
0.0
 11
296.8824627087182
 21
141.078256290604
 31
0.0
  0
LINE
  5
5C8
  8
LAYER_1
 10
296.8824627087182
 20
141.078256290604
 30
0.0
 11
296.8714199484086
 21
141.1439030902383
 31
0.0
  0
LINE
  5
5C9
  8
LAYER_1
 10
296.8714199484086
 20
141.1439030902383
 30
0.0
 11
296.8950618203127
 21
141.2090969613795
 31
0.0
  0
LINE
  5
5CA
  8
LAYER_1
 10
296.8950618203127
 20
141.2090969613795
 30
0.0
 11
296.9540363808942
 21
141.2805702762199
 31
0.0
  0
LINE
  5
5CB
  8
LAYER_1
 10
296.9540363808942
 20
141.2805702762199
 30
0.0
 11
297.04098361832
 21
141.36751741207
 31
0.0
  0
LINE
  5
5DB
  8
LAYER_1
 10
301.3656198818284
 20
139.2449450510111
 30
0.0
 11
301.2922345509278
 21
138.9582315862932
 31
0.0
  0
LINE
  5
5DC
  8
LAYER_1
 10
301.2922345509278
 20
138.9582315862932
 30
0.0
 11
301.2034265381984
 21
138.7364215633685
 31
0.0
  0
LINE
  5
5DD
  8
LAYER_1
 10
301.2034265381984
 20
138.7364215633685
 30
0.0
 11
301.0754458482837
 21
138.5653922497657
 31
0.0
  0
LINE
  5
5DE
  8
LAYER_1
 10
301.0754458482837
 20
138.5653922497657
 30
0.0
 11
300.8482857027598
 21
138.3552109805287
 31
0.0
  0
LINE
  5
5DF
  8
LAYER_1
 10
300.8482857027598
 20
138.3552109805287
 30
0.0
 11
300.5713885438705
 21
138.1682356179354
 31
0.0
  0
LINE
  5
5E0
  8
LAYER_1
 10
300.5713885438705
 20
138.1682356179354
 30
0.0
 11
300.2421513786644
 21
138.0029534884872
 31
0.0
  0
LINE
  5
5E1
  8
LAYER_1
 10
300.2421513786644
 20
138.0029534884872
 30
0.0
 11
299.8579712141914
 21
137.8578519186887
 31
0.0
  0
LINE
  5
5E2
  8
LAYER_1
 10
299.8579712141914
 20
137.8578519186887
 30
0.0
 11
299.6745091708914
 21
137.7886252673184
 31
0.0
  0
LINE
  5
5E3
  8
LAYER_1
 10
299.6745091708914
 20
137.7886252673184
 30
0.0
 11
299.6073522371678
 21
137.7450263035147
 31
0.0
  0
LINE
  5
5E4
  8
LAYER_1
 10
299.6073522371678
 20
137.7450263035147
 30
0.0
 11
299.706419857326
 21
137.6766794040348
 31
0.0
  0
LINE
  5
5E5
  8
LAYER_1
 10
299.706419857326
 20
137.6766794040348
 30
0.0
 11
299.9115757432289
 21
137.5732497950251
 31
0.0
  0
LINE
  5
5E6
  8
LAYER_1
 10
299.9115757432289
 20
137.5732497950251
 30
0.0
 11
300.1610667160137
 21
137.4636698457281
 31
0.0
  0
LINE
  5
5E7
  8
LAYER_1
 10
300.1610667160137
 20
137.4636698457281
 30
0.0
 11
300.3931395968098
 21
137.3768720269635
 31
0.0
  0
LINE
  5
5E8
  8
LAYER_1
 10
300.3931395968098
 20
137.3768720269635
 30
0.0
 11
300.7502544650674
 21
137.2808557573178
 31
0.0
  0
LINE
  5
5E9
  8
LAYER_1
 10
300.7502544650674
 20
137.2808557573178
 30
0.0
 11
301.0524824041469
 21
137.2265479143343
 31
0.0
  0
LINE
  5
5EA
  8
LAYER_1
 10
301.0524824041469
 20
137.2265479143343
 30
0.0
 11
301.1307217129178
 21
137.2074393904148
 31
0.0
  0
LINE
  5
5EB
  8
LAYER_1
 10
301.1307217129178
 20
137.2074393904148
 30
0.0
 11
301.1472711248261
 21
137.1894748182084
 31
0.0
  0
LINE
  5
5EC
  8
LAYER_1
 10
301.1472711248261
 20
137.1894748182084
 30
0.0
 11
301.1487070066801
 21
137.1656112053552
 31
0.0
  0
LINE
  5
5ED
  8
LAYER_1
 10
301.1487070066801
 20
137.1656112053552
 30
0.0
 11
301.1060381765848
 21
137.0993103562554
 31
0.0
  0
LINE
  5
5EE
  8
LAYER_1
 10
301.1060381765848
 20
137.0993103562554
 30
0.0
 11
301.0023150122147
 21
137.0067835354838
 31
0.0
  0
LINE
  5
5EF
  8
LAYER_1
 10
301.0023150122147
 20
137.0067835354838
 30
0.0
 11
300.8815079417172
 21
136.8943771254877
 31
0.0
  0
LINE
  5
5F0
  8
LAYER_1
 10
300.8815079417172
 20
136.8943771254877
 30
0.0
 11
300.8582453555285
 21
136.849765243331
 31
0.0
  0
LINE
  5
5F1
  8
LAYER_1
 10
300.8582453555285
 20
136.849765243331
 30
0.0
 11
300.8518128364227
 21
136.8020951034758
 31
0.0
  0
LINE
  5
5F2
  8
LAYER_1
 10
300.8518128364227
 20
136.8020951034758
 30
0.0
 11
300.8468657683784
 21
136.7543866693754
 31
0.0
  0
LINE
  5
5F3
  8
LAYER_1
 10
300.8468657683784
 20
136.7543866693754
 30
0.0
 11
300.8255822938195
 21
136.7187452904764
 31
0.0
  0
LINE
  5
5F4
  8
LAYER_1
 10
300.8255822938195
 20
136.7187452904764
 30
0.0
 11
300.6953525026052
 21
136.6448055011635
 31
0.0
  0
LINE
  5
5F5
  8
LAYER_1
 10
300.6953525026052
 20
136.6448055011635
 30
0.0
 11
300.5635706263076
 21
136.5675214154351
 31
0.0
  0
LINE
  5
5F6
  8
LAYER_1
 10
300.5635706263076
 20
136.5675214154351
 30
0.0
 11
300.492798187584
 21
136.4761028931141
 31
0.0
  0
LINE
  5
5F7
  8
LAYER_1
 10
300.492798187584
 20
136.4761028931141
 30
0.0
 11
300.4146419681837
 21
136.376757665067
 31
0.0
  0
LINE
  5
5F8
  8
LAYER_1
 10
300.4146419681837
 20
136.376757665067
 30
0.0
 11
300.2753495440526
 21
136.2732007810176
 31
0.0
  0
LINE
  5
5F9
  8
LAYER_1
 10
300.2753495440526
 20
136.2732007810176
 30
0.0
 11
300.108419238391
 21
136.1869092182771
 31
0.0
  0
LINE
  5
5FA
  8
LAYER_1
 10
300.108419238391
 20
136.1869092182771
 30
0.0
 11
300.0434809330935
 21
136.1792471186796
 31
0.0
  0
LINE
  5
5FB
  8
LAYER_1
 10
300.0434809330935
 20
136.1792471186796
 30
0.0
 11
299.9611311382622
 21
136.1870837262726
 31
0.0
  0
LINE
  5
5FC
  8
LAYER_1
 10
299.9611311382622
 20
136.1870837262726
 30
0.0
 11
299.8346207645478
 21
136.1926386265892
 31
0.0
  0
LINE
  5
5FD
  8
LAYER_1
 10
299.8346207645478
 20
136.1926386265892
 30
0.0
 11
299.7500597563582
 21
136.162041321052
 31
0.0
  0
LINE
  5
5FE
  8
LAYER_1
 10
299.7500597563582
 20
136.162041321052
 30
0.0
 11
299.6818525242211
 21
136.1173505141499
 31
0.0
  0
LINE
  5
5FF
  8
LAYER_1
 10
299.6818525242211
 20
136.1173505141499
 30
0.0
 11
299.7891791060153
 21
135.9084090846057
 31
0.0
  0
LINE
  5
600
  8
LAYER_1
 10
299.7891791060153
 20
135.9084090846057
 30
0.0
 11
300.0688774331161
 21
135.3697966576986
 31
0.0
  0
LINE
  5
601
  8
LAYER_1
 10
300.0688774331161
 20
135.3697966576986
 30
0.0
 11
300.3159955847291
 21
134.8495495212985
 31
0.0
  0
LINE
  5
602
  8
LAYER_1
 10
300.3159955847291
 20
134.8495495212985
 30
0.0
 11
300.4011274514365
 21
134.632226629163
 31
0.0
  0
LINE
  5
603
  8
LAYER_1
 10
300.4011274514365
 20
134.632226629163
 30
0.0
 11
300.4507679673658
 21
134.4667838060898
 31
0.0
  0
LINE
  5
604
  8
LAYER_1
 10
300.4507679673658
 20
134.4667838060898
 30
0.0
 11
300.5027723657548
 21
134.2457092967827
 31
0.0
  0
LINE
  5
605
  8
LAYER_1
 10
300.5027723657548
 20
134.2457092967827
 30
0.0
 11
300.5608732690216
 21
134.0979160579678
 31
0.0
  0
LINE
  5
606
  8
LAYER_1
 10
300.5608732690216
 20
134.0979160579678
 30
0.0
 11
300.6639797639833
 21
133.9526781728429
 31
0.0
  0
LINE
  5
607
  8
LAYER_1
 10
300.6639797639833
 20
133.9526781728429
 30
0.0
 11
300.8510007343121
 21
133.7392696230307
 31
0.0
  0
LINE
  5
608
  8
LAYER_1
 10
300.8510007343121
 20
133.7392696230307
 30
0.0
 11
301.1510163426952
 21
133.3793981785336
 31
0.0
  0
LINE
  5
609
  8
LAYER_1
 10
301.1510163426952
 20
133.3793981785336
 30
0.0
 11
301.3830852620169
 21
133.0448769152904
 31
0.0
  0
LINE
  5
60A
  8
LAYER_1
 10
301.3830852620169
 20
133.0448769152904
 30
0.0
 11
301.5569729312602
 21
132.7198398263958
 31
0.0
  0
LINE
  5
60B
  8
LAYER_1
 10
301.5569729312602
 20
132.7198398263958
 30
0.0
 11
301.6824450941358
 21
132.3884209049428
 31
0.0
  0
LINE
  5
60C
  8
LAYER_1
 10
301.6824450941358
 20
132.3884209049428
 30
0.0
 11
301.7679364391887
 21
132.1197864660104
 31
0.0
  0
LINE
  5
60D
  8
LAYER_1
 10
301.7679364391887
 20
132.1197864660104
 30
0.0
 11
301.8373756896489
 21
131.9558868908848
 31
0.0
  0
LINE
  5
60E
  8
LAYER_1
 10
301.8373756896489
 20
131.9558868908848
 30
0.0
 11
301.926032861646
 21
131.8326685018172
 31
0.0
  0
LINE
  5
60F
  8
LAYER_1
 10
301.926032861646
 20
131.8326685018172
 30
0.0
 11
302.0691782760447
 21
131.6860775194832
 31
0.0
  0
LINE
  5
610
  8
LAYER_1
 10
302.0691782760447
 20
131.6860775194832
 30
0.0
 11
302.335169091528
 21
131.3889363157891
 31
0.0
  0
LINE
  5
611
  8
LAYER_1
 10
302.335169091528
 20
131.3889363157891
 30
0.0
 11
302.5588808249822
 21
131.0593412974597
 31
0.0
  0
LINE
  5
612
  8
LAYER_1
 10
302.5588808249822
 20
131.0593412974597
 30
0.0
 11
302.7496645858703
 21
130.6813287412363
 31
0.0
  0
LINE
  5
613
  8
LAYER_1
 10
302.7496645858703
 20
130.6813287412363
 30
0.0
 11
302.9168716868098
 21
130.2389346191332
 31
0.0
  0
LINE
  5
614
  8
LAYER_1
 10
302.9168716868098
 20
130.2389346191332
 30
0.0
 11
303.0157901930352
 21
129.9884250397266
 31
0.0
  0
LINE
  5
615
  8
LAYER_1
 10
303.0157901930352
 20
129.9884250397266
 30
0.0
 11
303.2024734223373
 21
129.722382928239
 31
0.0
  0
LINE
  5
616
  8
LAYER_1
 10
303.2024734223373
 20
129.722382928239
 30
0.0
 11
303.3396624055078
 21
129.5301037618159
 31
0.0
  0
LINE
  5
617
  8
LAYER_1
 10
303.3396624055078
 20
129.5301037618159
 30
0.0
 11
303.4494916229191
 21
129.3486076252339
 31
0.0
  0
LINE
  5
618
  8
LAYER_1
 10
303.4494916229191
 20
129.3486076252339
 30
0.0
 11
303.5337964558112
 21
129.1710485840541
 31
0.0
  0
LINE
  5
619
  8
LAYER_1
 10
303.5337964558112
 20
129.1710485840541
 30
0.0
 11
303.5944123869971
 21
128.9905803991097
 31
0.0
  0
LINE
  5
61A
  8
LAYER_1
 10
303.5944123869971
 20
128.9905803991097
 30
0.0
 11
303.6331746961395
 21
128.8003569328083
 31
0.0
  0
LINE
  5
61B
  8
LAYER_1
 10
303.6331746961395
 20
128.8003569328083
 30
0.0
 11
303.6519186629013
 21
128.5935320475606
 31
0.0
  0
LINE
  5
61C
  8
LAYER_1
 10
303.6519186629013
 20
128.5935320475606
 30
0.0
 11
303.6524798716753
 21
128.3632595041981
 31
0.0
  0
LINE
  5
61D
  8
LAYER_1
 10
303.6524798716753
 20
128.3632595041981
 30
0.0
 11
303.636693602124
 21
128.1026931651298
 31
0.0
  0
LINE
  5
61E
  8
LAYER_1
 10
303.636693602124
 20
128.1026931651298
 30
0.0
 11
303.6104713887736
 21
127.8422966615487
 31
0.0
  0
LINE
  5
61F
  8
LAYER_1
 10
303.6104713887736
 20
127.8422966615487
 30
0.0
 11
303.5769246137018
 21
127.6385259709492
 31
0.0
  0
LINE
  5
620
  8
LAYER_1
 10
303.5769246137018
 20
127.6385259709492
 30
0.0
 11
303.527666837078
 21
127.4518359360379
 31
0.0
  0
LINE
  5
621
  8
LAYER_1
 10
303.527666837078
 20
127.4518359360379
 30
0.0
 11
303.4543119238065
 21
127.2426809932193
 31
0.0
  0
LINE
  5
622
  8
LAYER_1
 10
303.4543119238065
 20
127.2426809932193
 30
0.0
 11
303.3514746059019
 21
126.9979453125224
 31
0.0
  0
LINE
  5
623
  8
LAYER_1
 10
303.3514746059019
 20
126.9979453125224
 30
0.0
 11
303.2320957990386
 21
126.7818949676323
 31
0.0
  0
LINE
  5
624
  8
LAYER_1
 10
303.2320957990386
 20
126.7818949676323
 30
0.0
 11
303.0718879110982
 21
126.5561508965924
 31
0.0
  0
LINE
  5
625
  8
LAYER_1
 10
303.0718879110982
 20
126.5561508965924
 30
0.0
 11
302.8465627405092
 21
126.282333935871
 31
0.0
  0
LINE
  5
626
  8
LAYER_1
 10
302.8465627405092
 20
126.282333935871
 30
0.0
 11
302.6090124620731
 21
125.9921693952481
 31
0.0
  0
LINE
  5
627
  8
LAYER_1
 10
302.6090124620731
 20
125.9921693952481
 30
0.0
 11
302.5031942875746
 21
125.8379943238752
 31
0.0
  0
LINE
  5
628
  8
LAYER_1
 10
302.5031942875746
 20
125.8379943238752
 30
0.0
 11
302.4532862198064
 21
125.4124288467875
 31
0.0
  0
LINE
  5
629
  8
LAYER_1
 10
302.4532862198064
 20
125.4124288467875
 30
0.0
 11
302.4511695739334
 21
124.9493149983073
 31
0.0
  0
LINE
  5
62A
  8
LAYER_1
 10
302.4511695739334
 20
124.9493149983073
 30
0.0
 11
302.4715025995333
 21
124.6339772222552
 31
0.0
  0
LINE
  5
62B
  8
LAYER_1
 10
302.4715025995333
 20
124.6339772222552
 30
0.0
 11
302.5203386315701
 21
124.7916461102811
 31
0.0
  0
LINE
  5
62C
  8
LAYER_1
 10
302.5203386315701
 20
124.7916461102811
 30
0.0
 11
302.6006754898793
 21
125.0726264312187
 31
0.0
  0
LINE
  5
62D
  8
LAYER_1
 10
302.6006754898793
 20
125.0726264312187
 30
0.0
 11
302.6301532220025
 21
125.1537303933581
 31
0.0
  0
LINE
  5
62E
  8
LAYER_1
 10
302.6301532220025
 20
125.1537303933581
 30
0.0
 11
302.6673127595154
 21
125.2035858446296
 31
0.0
  0
LINE
  5
62F
  8
LAYER_1
 10
302.6673127595154
 20
125.2035858446296
 30
0.0
 11
302.7086203662999
 21
125.2192424013104
 31
0.0
  0
LINE
  5
630
  8
LAYER_1
 10
302.7086203662999
 20
125.2192424013104
 30
0.0
 11
302.7505421030839
 21
125.1977495781036
 31
0.0
  0
LINE
  5
631
  8
LAYER_1
 10
302.7505421030839
 20
125.1977495781036
 30
0.0
 11
302.7739024056241
 21
125.0234226931597
 31
0.0
  0
LINE
  5
632
  8
LAYER_1
 10
302.7739024056241
 20
125.0234226931597
 30
0.0
 11
302.7759774052349
 21
124.670581645569
 31
0.0
  0
LINE
  5
633
  8
LAYER_1
 10
302.7759774052349
 20
124.670581645569
 30
0.0
 11
302.7596796992723
 21
124.2895146915452
 31
0.0
  0
LINE
  5
634
  8
LAYER_1
 10
302.7596796992723
 20
124.2895146915452
 30
0.0
 11
302.7279217835164
 21
124.0305099857257
 31
0.0
  0
LINE
  5
635
  8
LAYER_1
 10
302.7279217835164
 20
124.0305099857257
 30
0.0
 11
302.6521324938656
 21
123.8086658331809
 31
0.0
  0
LINE
  5
636
  8
LAYER_1
 10
302.6521324938656
 20
123.8086658331809
 30
0.0
 11
302.5434713017387
 21
123.5926812081233
 31
0.0
  0
LINE
  5
637
  8
LAYER_1
 10
302.5434713017387
 20
123.5926812081233
 30
0.0
 11
302.406290952548
 21
123.389969348341
 31
0.0
  0
LINE
  5
638
  8
LAYER_1
 10
302.406290952548
 20
123.389969348341
 30
0.0
 11
302.2449440901298
 21
123.2079432884685
 31
0.0
  0
LINE
  5
639
  8
LAYER_1
 10
302.2449440901298
 20
123.2079432884685
 30
0.0
 11
302.0985639800879
 21
123.0721001905936
 31
0.0
  0
LINE
  5
63A
  8
LAYER_1
 10
302.0985639800879
 20
123.0721001905936
 30
0.0
 11
301.9234342364733
 21
122.9536275454449
 31
0.0
  0
LINE
  5
63B
  8
LAYER_1
 10
301.9234342364733
 20
122.9536275454449
 30
0.0
 11
301.610944048981
 21
122.7896026252285
 31
0.0
  0
LINE
  5
63C
  8
LAYER_1
 10
301.610944048981
 20
122.7896026252285
 30
0.0
 11
301.0524824041469
 21
122.5171029053012
 31
0.0
  0
LINE
  5
63D
  8
LAYER_1
 10
301.0524824041469
 20
122.5171029053012
 30
0.0
 11
300.5688292287059
 21
122.2977365021929
 31
0.0
  0
LINE
  5
63E
  8
LAYER_1
 10
300.5688292287059
 20
122.2977365021929
 30
0.0
 11
300.4761364323435
 21
122.276081766445
 31
0.0
  0
LINE
  5
63F
  8
LAYER_1
 10
300.4761364323435
 20
122.276081766445
 30
0.0
 11
300.4565886927251
 21
122.2835067870785
 31
0.0
  0
LINE
  5
640
  8
LAYER_1
 10
300.4565886927251
 20
122.2835067870785
 30
0.0
 11
300.4509127135199
 21
122.3016695345452
 31
0.0
  0
LINE
  5
641
  8
LAYER_1
 10
300.4509127135199
 20
122.3016695345452
 30
0.0
 11
300.4509127135199
 21
122.3016695345452
 31
0.0
  0
LINE
  5
642
  8
LAYER_1
 10
292.9540337917488
 20
133.5776652648221
 30
0.0
 11
293.2550380417604
 21
133.6629475659548
 31
0.0
  0
LINE
  5
643
  8
LAYER_1
 10
293.2550380417604
 20
133.6629475659548
 30
0.0
 11
293.4810692688555
 21
133.7370292572875
 31
0.0
  0
LINE
  5
644
  8
LAYER_1
 10
293.4810692688555
 20
133.7370292572875
 30
0.0
 11
293.6707106016736
 21
133.779456234333
 31
0.0
  0
LINE
  5
645
  8
LAYER_1
 10
293.6707106016736
 20
133.779456234333
 30
0.0
 11
293.8857136954392
 21
133.8312117709141
 31
0.0
  0
LINE
  5
646
  8
LAYER_1
 10
293.8857136954392
 20
133.8312117709141
 30
0.0
 11
294.2346636616697
 21
133.8565064915362
 31
0.0
  0
LINE
  5
647
  8
LAYER_1
 10
294.2346636616697
 20
133.8565064915362
 30
0.0
 11
295.1183979507182
 21
133.8646318804045
 31
0.0
  0
LINE
  5
648
  8
LAYER_1
 10
295.1183979507182
 20
133.8646318804045
 30
0.0
 11
296.1220556984761
 21
133.8734971506692
 31
0.0
  0
LINE
  5
649
  8
LAYER_1
 10
296.1220556984761
 20
133.8734971506692
 30
0.0
 11
296.3082326717556
 21
133.8927291913075
 31
0.0
  0
LINE
  5
64A
  8
LAYER_1
 10
296.3082326717556
 20
133.8927291913075
 30
0.0
 11
296.4344545689223
 21
133.929211621546
 31
0.0
  0
LINE
  5
64B
  8
LAYER_1
 10
296.4344545689223
 20
133.929211621546
 30
0.0
 11
296.5955173225727
 21
133.9930752501328
 31
0.0
  0
LINE
  5
64C
  8
LAYER_1
 10
296.5955173225727
 20
133.9930752501328
 30
0.0
 11
296.7504644750133
 21
134.0732865601983
 31
0.0
  0
LINE
  5
64D
  8
LAYER_1
 10
296.7504644750133
 20
134.0732865601983
 30
0.0
 11
297.1394266461256
 21
134.3394377645765
 31
0.0
  0
LINE
  5
64E
  8
LAYER_1
 10
297.1394266461256
 20
134.3394377645765
 30
0.0
 11
297.3161975571906
 21
134.466671665911
 31
0.0
  0
LINE
  5
64F
  8
LAYER_1
 10
297.3161975571906
 20
134.466671665911
 30
0.0
 11
297.4577293313016
 21
134.5528634807749
 31
0.0
  0
LINE
  5
650
  8
LAYER_1
 10
297.4577293313016
 20
134.5528634807749
 30
0.0
 11
297.607056269896
 21
134.6208208353405
 31
0.0
  0
LINE
  5
651
  8
LAYER_1
 10
297.607056269896
 20
134.6208208353405
 30
0.0
 11
297.8072129791419
 21
134.6933511526255
 31
0.0
  0
LINE
  5
652
  8
LAYER_1
 10
297.8072129791419
 20
134.6933511526255
 30
0.0
 11
297.986887853583
 21
134.7657746116975
 31
0.0
  0
LINE
  5
653
  8
LAYER_1
 10
297.986887853583
 20
134.7657746116975
 30
0.0
 11
298.1598484364054
 21
134.854788113176
 31
0.0
  0
LINE
  5
654
  8
LAYER_1
 10
298.1598484364054
 20
134.854788113176
 30
0.0
 11
298.3097920444058
 21
134.9510380081944
 31
0.0
  0
LINE
  5
655
  8
LAYER_1
 10
298.3097920444058
 20
134.9510380081944
 30
0.0
 11
298.4204157912359
 21
135.0451706478821
 31
0.0
  0
LINE
  5
656
  8
LAYER_1
 10
298.4204157912359
 20
135.0451706478821
 30
0.0
 11
298.5037177618229
 21
135.1574765989678
 31
0.0
  0
LINE
  5
657
  8
LAYER_1
 10
298.5037177618229
 20
135.1574765989678
 30
0.0
 11
298.5843574189281
 21
135.3071423959291
 31
0.0
  0
LINE
  5
658
  8
LAYER_1
 10
298.5843574189281
 20
135.3071423959291
 30
0.0
 11
298.6494136542522
 21
135.4667413342577
 31
0.0
  0
LINE
  5
659
  8
LAYER_1
 10
298.6494136542522
 20
135.4667413342577
 30
0.0
 11
298.6859657657983
 21
135.6088465062942
 31
0.0
  0
LINE
  5
65A
  8
LAYER_1
 10
298.6859657657983
 20
135.6088465062942
 30
0.0
 11
298.6901116003915
 21
135.7241143192175
 31
0.0
  0
LINE
  5
65B
  8
LAYER_1
 10
298.6901116003915
 20
135.7241143192175
 30
0.0
 11
298.6500885268504
 21
135.8041498007962
 31
0.0
  0
LINE
  5
65C
  8
LAYER_1
 10
298.6500885268504
 20
135.8041498007962
 30
0.0
 11
298.5476132266965
 21
135.8673281960088
 31
0.0
  0
LINE
  5
65D
  8
LAYER_1
 10
298.5476132266965
 20
135.8673281960088
 30
0.0
 11
298.3644025846114
 21
135.9320244451073
 31
0.0
  0
LINE
  5
65E
  8
LAYER_1
 10
298.3644025846114
 20
135.9320244451073
 30
0.0
 11
298.1480444636876
 21
136.0154950322667
 31
0.0
  0
LINE
  5
65F
  8
LAYER_1
 10
298.1480444636876
 20
136.0154950322667
 30
0.0
 11
298.0083104876032
 21
136.1206024777545
 31
0.0
  0
LINE
  5
660
  8
LAYER_1
 10
298.0083104876032
 20
136.1206024777545
 30
0.0
 11
297.9375466828594
 21
136.2072288358108
 31
0.0
  0
LINE
  5
661
  8
LAYER_1
 10
297.9375466828594
 20
136.2072288358108
 30
0.0
 11
297.9058050193042
 21
136.2823929236503
 31
0.0
  0
LINE
  5
662
  8
LAYER_1
 10
297.9058050193042
 20
136.2823929236503
 30
0.0
 11
297.9144214277578
 21
136.3385121758785
 31
0.0
  0
LINE
  5
663
  8
LAYER_1
 10
297.9144214277578
 20
136.3385121758785
 30
0.0
 11
297.9647314327428
 21
136.368003620795
 31
0.0
  0
LINE
  5
664
  8
LAYER_1
 10
297.9647314327428
 20
136.368003620795
 30
0.0
 11
298.050807653836
 21
136.3489656923686
 31
0.0
  0
LINE
  5
665
  8
LAYER_1
 10
298.050807653836
 20
136.3489656923686
 30
0.0
 11
298.1857270173048
 21
136.2894619195314
 31
0.0
  0
LINE
  5
666
  8
LAYER_1
 10
298.1857270173048
 20
136.2894619195314
 30
0.0
 11
298.3571307409615
 21
136.2218543935672
 31
0.0
  0
LINE
  5
667
  8
LAYER_1
 10
298.3571307409615
 20
136.2218543935672
 30
0.0
 11
298.5358469387673
 21
136.1989398076052
 31
0.0
  0
LINE
  5
668
  8
LAYER_1
 10
298.5358469387673
 20
136.1989398076052
 30
0.0
 11
298.7372478554832
 21
136.2206702176585
 31
0.0
  0
LINE
  5
669
  8
LAYER_1
 10
298.7372478554832
 20
136.2206702176585
 30
0.0
 11
298.9767060405983
 21
136.2869976797365
 31
0.0
  0
LINE
  5
66A
  8
LAYER_1
 10
298.9767060405983
 20
136.2869976797365
 30
0.0
 11
299.2287290045347
 21
136.3547827609835
 31
0.0
  0
LINE
  5
66B
  8
LAYER_1
 10
299.2287290045347
 20
136.3547827609835
 30
0.0
 11
299.4750206302109
 21
136.3920530166078
 31
0.0
  0
LINE
  5
66C
  8
LAYER_1
 10
299.4750206302109
 20
136.3920530166078
 30
0.0
 11
299.6797101795573
 21
136.419137713886
 31
0.0
  0
LINE
  5
66D
  8
LAYER_1
 10
299.6797101795573
 20
136.419137713886
 30
0.0
 11
299.7317843608314
 21
136.4402537907861
 31
0.0
  0
LINE
  5
66E
  8
LAYER_1
 10
299.7317843608314
 20
136.4402537907861
 30
0.0
 11
299.7660172834648
 21
136.4706524131806
 31
0.0
  0
LINE
  5
66F
  8
LAYER_1
 10
299.7660172834648
 20
136.4706524131806
 30
0.0
 11
299.8222025602535
 21
136.5146948588868
 31
0.0
  0
LINE
  5
670
  8
LAYER_1
 10
299.8222025602535
 20
136.5146948588868
 30
0.0
 11
299.9121606192704
 21
136.4945986075247
 31
0.0
  0
LINE
  5
671
  8
LAYER_1
 10
299.9121606192704
 20
136.4945986075247
 30
0.0
 11
300.0120997636442
 21
136.4633136307836
 31
0.0
  0
LINE
  5
672
  8
LAYER_1
 10
300.0120997636442
 20
136.4633136307836
 30
0.0
 11
300.0685928164661
 21
136.461799535219
 31
0.0
  0
LINE
  5
673
  8
LAYER_1
 10
300.0685928164661
 20
136.461799535219
 30
0.0
 11
300.0903913841826
 21
136.4934216435303
 31
0.0
  0
LINE
  5
674
  8
LAYER_1
 10
300.0903913841826
 20
136.4934216435303
 30
0.0
 11
300.0862468700794
 21
136.5615456847195
 31
0.0
  0
LINE
  5
675
  8
LAYER_1
 10
300.0862468700794
 20
136.5615456847195
 30
0.0
 11
300.0696297068151
 21
136.6639462247536
 31
0.0
  0
LINE
  5
676
  8
LAYER_1
 10
300.0696297068151
 20
136.6639462247536
 30
0.0
 11
300.1726823663644
 21
136.6446134204768
 31
0.0
  0
LINE
  5
677
  8
LAYER_1
 10
300.1726823663644
 20
136.6446134204768
 30
0.0
 11
300.2606579617346
 21
136.6391443520904
 31
0.0
  0
LINE
  5
678
  8
LAYER_1
 10
300.2606579617346
 20
136.6391443520904
 30
0.0
 11
300.2710683083187
 21
136.6609781667643
 31
0.0
  0
LINE
  5
679
  8
LAYER_1
 10
300.2710683083187
 20
136.6609781667643
 30
0.0
 11
300.2699365457552
 21
136.7060392190937
 31
0.0
  0
LINE
  5
67A
  8
LAYER_1
 10
300.2699365457552
 20
136.7060392190937
 30
0.0
 11
300.2806420729188
 21
136.7750702346086
 31
0.0
  0
LINE
  5
67B
  8
LAYER_1
 10
300.2806420729188
 20
136.7750702346086
 30
0.0
 11
300.3501390186855
 21
136.8023253768317
 31
0.0
  0
LINE
  5
67C
  8
LAYER_1
 10
300.3501390186855
 20
136.8023253768317
 30
0.0
 11
300.4194979223318
 21
136.8300916507397
 31
0.0
  0
LINE
  5
67D
  8
LAYER_1
 10
300.4194979223318
 20
136.8300916507397
 30
0.0
 11
300.4460539152357
 21
136.8893358962615
 31
0.0
  0
LINE
  5
67E
  8
LAYER_1
 10
300.4460539152357
 20
136.8893358962615
 30
0.0
 11
300.4872111891724
 21
136.9988381397281
 31
0.0
  0
LINE
  5
67F
  8
LAYER_1
 10
300.4872111891724
 20
136.9988381397281
 30
0.0
 11
300.4988558903308
 21
137.0322105083818
 31
0.0
  0
LINE
  5
680
  8
LAYER_1
 10
300.4988558903308
 20
137.0322105083818
 30
0.0
 11
300.4805971533097
 21
137.0610299248368
 31
0.0
  0
LINE
  5
681
  8
LAYER_1
 10
300.4805971533097
 20
137.0610299248368
 30
0.0
 11
300.4373236398064
 21
137.0813894618366
 31
0.0
  0
LINE
  5
682
  8
LAYER_1
 10
300.4373236398064
 20
137.0813894618366
 30
0.0
 11
300.3739235036434
 21
137.0893821921238
 31
0.0
  0
LINE
  5
683
  8
LAYER_1
 10
300.3739235036434
 20
137.0893821921238
 30
0.0
 11
300.1905631381658
 21
137.1325268053669
 31
0.0
  0
LINE
  5
684
  8
LAYER_1
 10
300.1905631381658
 20
137.1325268053669
 30
0.0
 11
299.9044434653456
 21
137.2350276011579
 31
0.0
  0
LINE
  5
685
  8
LAYER_1
 10
299.9044434653456
 20
137.2350276011579
 30
0.0
 11
299.6133481815566
 21
137.3585883021844
 31
0.0
  0
LINE
  5
686
  8
LAYER_1
 10
299.6133481815566
 20
137.3585883021844
 30
0.0
 11
299.4150608815929
 21
137.4649128342843
 31
0.0
  0
LINE
  5
687
  8
LAYER_1
 10
299.4150608815929
 20
137.4649128342843
 30
0.0
 11
299.3049595414118
 21
137.5198271890491
 31
0.0
  0
LINE
  5
688
  8
LAYER_1
 10
299.3049595414118
 20
137.5198271890491
 30
0.0
 11
299.1517160258153
 21
137.5732296829282
 31
0.0
  0
LINE
  5
689
  8
LAYER_1
 10
299.1517160258153
 20
137.5732296829282
 30
0.0
 11
298.8783396012858
 21
137.689145450742
 31
0.0
  0
LINE
  5
68A
  8
LAYER_1
 10
298.8783396012858
 20
137.689145450742
 30
0.0
 11
298.6765087123084
 21
137.7553147586008
 31
0.0
  0
LINE
  5
68B
  8
LAYER_1
 10
298.6765087123084
 20
137.7553147586008
 30
0.0
 11
298.4922964268337
 21
137.785148312323
 31
0.0
  0
LINE
  5
68C
  8
LAYER_1
 10
298.4922964268337
 20
137.785148312323
 30
0.0
 11
298.2717761175391
 21
137.7920569193071
 31
0.0
  0
LINE
  5
68D
  8
LAYER_1
 10
298.2717761175391
 20
137.7920569193071
 30
0.0
 11
297.9672518442042
 21
137.7797721862042
 31
0.0
  0
LINE
  5
68E
  8
LAYER_1
 10
297.9672518442042
 20
137.7797721862042
 30
0.0
 11
297.8889986194866
 21
137.7520544657439
 31
0.0
  0
LINE
  5
68F
  8
LAYER_1
 10
297.8889986194866
 20
137.7520544657439
 30
0.0
 11
297.8044546761069
 21
137.6988588826838
 31
0.0
  0
LINE
  5
690
  8
LAYER_1
 10
297.8044546761069
 20
137.6988588826838
 30
0.0
 11
297.5762793775519
 21
137.5605907534453
 31
0.0
  0
LINE
  5
691
  8
LAYER_1
 10
297.5762793775519
 20
137.5605907534453
 30
0.0
 11
297.4977922227342
 21
137.5293570727096
 31
0.0
  0
LINE
  5
692
  8
LAYER_1
 10
297.4977922227342
 20
137.5293570727096
 30
0.0
 11
297.4346877750292
 21
137.5193358647342
 31
0.0
  0
LINE
  5
693
  8
LAYER_1
 10
297.4346877750292
 20
137.5193358647342
 30
0.0
 11
297.2702353203823
 21
137.5785198755406
 31
0.0
  0
LINE
  5
694
  8
LAYER_1
 10
297.2702353203823
 20
137.5785198755406
 30
0.0
 11
296.9674242320575
 21
137.7215035805523
 31
0.0
  0
LINE
  5
695
  8
LAYER_1
 10
296.9674242320575
 20
137.7215035805523
 30
0.0
 11
296.566085198185
 21
137.924162519109
 31
0.0
  0
LINE
  5
696
  8
LAYER_1
 10
296.566085198185
 20
137.924162519109
 30
0.0
 11
296.1911086544613
 21
137.8779669616572
 31
0.0
  0
LINE
  5
697
  8
LAYER_1
 10
296.1911086544613
 20
137.8779669616572
 30
0.0
 11
295.8504539125891
 21
137.8466190076419
 31
0.0
  0
LINE
  5
698
  8
LAYER_1
 10
295.8504539125891
 20
137.8466190076419
 30
0.0
 11
295.7456308805967
 21
137.8524492811688
 31
0.0
  0
LINE
  5
699
  8
LAYER_1
 10
295.7456308805967
 20
137.8524492811688
 30
0.0
 11
295.6413068927176
 21
137.8721599490907
 31
0.0
  0
LINE
  5
69A
  8
LAYER_1
 10
295.6413068927176
 20
137.8721599490907
 30
0.0
 11
295.4900407619569
 21
137.8912626831642
 31
0.0
  0
LINE
  5
69B
  8
LAYER_1
 10
295.4900407619569
 20
137.8912626831642
 30
0.0
 11
295.3207088890467
 21
137.8900926263548
 31
0.0
  0
LINE
  5
69C
  8
LAYER_1
 10
295.3207088890467
 20
137.8900926263548
 30
0.0
 11
295.1701986887288
 21
137.8709880639095
 31
0.0
  0
LINE
  5
69D
  8
LAYER_1
 10
295.1701986887288
 20
137.8709880639095
 30
0.0
 11
295.0753972710196
 21
137.8362873826502
 31
0.0
  0
LINE
  5
69E
  8
LAYER_1
 10
295.0753972710196
 20
137.8362873826502
 30
0.0
 11
294.9698910371797
 21
137.7960717205401
 31
0.0
  0
LINE
  5
69F
  8
LAYER_1
 10
294.9698910371797
 20
137.7960717205401
 30
0.0
 11
294.6688866855911
 21
137.6737729012527
 31
0.0
  0
LINE
  5
6A0
  8
LAYER_1
 10
294.6688866855911
 20
137.6737729012527
 30
0.0
 11
294.3305401623965
 21
137.5211103002245
 31
0.0
  0
LINE
  5
6A1
  8
LAYER_1
 10
294.3305401623965
 20
137.5211103002245
 30
0.0
 11
294.0999517168999
 21
137.4309436035931
 31
0.0
  0
LINE
  5
6A2
  8
LAYER_1
 10
294.0999517168999
 20
137.4309436035931
 30
0.0
 11
293.9311621595821
 21
137.3879488153163
 31
0.0
  0
LINE
  5
6A3
  8
LAYER_1
 10
293.9311621595821
 20
137.3879488153163
 30
0.0
 11
293.778212199346
 21
137.3768020409284
 31
0.0
  0
LINE
  5
6A4
  8
LAYER_1
 10
293.778212199346
 20
137.3768020409284
 30
0.0
 11
293.674056117004
 21
137.3855812761098
 31
0.0
  0
LINE
  5
6A5
  8
LAYER_1
 10
293.674056117004
 20
137.3855812761098
 30
0.0
 11
293.6290691137612
 21
137.4125650065969
 31
0.0
  0
LINE
  5
6A6
  8
LAYER_1
 10
293.6290691137612
 20
137.4125650065969
 30
0.0
 11
293.6431905485933
 21
137.4578950328326
 31
0.0
  0
LINE
  5
6A7
  8
LAYER_1
 10
293.6431905485933
 20
137.4578950328326
 30
0.0
 11
293.7163597804843
 21
137.5217132568367
 31
0.0
  0
LINE
  5
6A8
  8
LAYER_1
 10
293.7163597804843
 20
137.5217132568367
 30
0.0
 11
293.7736203434442
 21
137.5752550117522
 31
0.0
  0
LINE
  5
6A9
  8
LAYER_1
 10
293.7736203434442
 20
137.5752550117522
 30
0.0
 11
293.776554678118
 21
137.5946819772113
 31
0.0
  0
LINE
  5
6AA
  8
LAYER_1
 10
293.776554678118
 20
137.5946819772113
 30
0.0
 11
293.7613740061615
 21
137.6097356788561
 31
0.0
  0
LINE
  5
6AB
  8
LAYER_1
 10
293.7613740061615
 20
137.6097356788561
 30
0.0
 11
293.6737138050462
 21
137.6282910185249
 31
0.0
  0
LINE
  5
6AC
  8
LAYER_1
 10
293.6737138050462
 20
137.6282910185249
 30
0.0
 11
293.5047328780762
 21
137.6340566895581
 31
0.0
  0
LINE
  5
6AD
  8
LAYER_1
 10
293.5047328780762
 20
137.6340566895581
 30
0.0
 11
293.3023966472596
 21
137.6213836304557
 31
0.0
  0
LINE
  5
6AE
  8
LAYER_1
 10
293.3023966472596
 20
137.6213836304557
 30
0.0
 11
293.1607279483644
 21
137.5707869772976
 31
0.0
  0
LINE
  5
6AF
  8
LAYER_1
 10
293.1607279483644
 20
137.5707869772976
 30
0.0
 11
293.0820677076183
 21
137.5368414138721
 31
0.0
  0
LINE
  5
6B0
  8
LAYER_1
 10
293.0820677076183
 20
137.5368414138721
 30
0.0
 11
292.9817588257011
 21
137.5154151231072
 31
0.0
  0
LINE
  5
6B1
  8
LAYER_1
 10
292.9817588257011
 20
137.5154151231072
 30
0.0
 11
292.5813618099576
 21
137.4917186031834
 31
0.0
  0
LINE
  5
6B2
  8
LAYER_1
 10
292.5813618099576
 20
137.4917186031834
 30
0.0
 11
292.1851470946834
 21
137.4683202095491
 31
0.0
  0
LINE
  5
6B3
  8
LAYER_1
 10
292.1851470946834
 20
137.4683202095491
 30
0.0
 11
292.0839119389516
 21
137.4479715412083
 31
0.0
  0
LINE
  5
6B4
  8
LAYER_1
 10
292.0839119389516
 20
137.4479715412083
 30
0.0
 11
292.0080202604424
 21
137.4167240461029
 31
0.0
  0
LINE
  5
6B5
  8
LAYER_1
 10
292.0080202604424
 20
137.4167240461029
 30
0.0
 11
291.9171827542631
 21
137.3502150672687
 31
0.0
  0
LINE
  5
6B6
  8
LAYER_1
 10
291.9171827542631
 20
137.3502150672687
 30
0.0
 11
291.8396461499814
 21
137.2584880578803
 31
0.0
  0
LINE
  5
6B7
  8
LAYER_1
 10
291.8396461499814
 20
137.2584880578803
 30
0.0
 11
291.785496969098
 21
137.1563893008816
 31
0.0
  0
LINE
  5
6B8
  8
LAYER_1
 10
291.785496969098
 20
137.1563893008816
 30
0.0
 11
291.7648217331175
 21
137.058765180794
 31
0.0
  0
LINE
  5
6B9
  8
LAYER_1
 10
291.7648217331175
 20
137.058765180794
 30
0.0
 11
291.7697834281422
 21
136.9965056443276
 31
0.0
  0
LINE
  5
6BA
  8
LAYER_1
 10
291.7697834281422
 20
136.9965056443276
 30
0.0
 11
291.7900989826246
 21
136.9685646592721
 31
0.0
  0
LINE
  5
6BB
  8
LAYER_1
 10
291.7900989826246
 20
136.9685646592721
 30
0.0
 11
291.832380705636
 21
136.9723953027659
 31
0.0
  0
LINE
  5
6BC
  8
LAYER_1
 10
291.832380705636
 20
136.9723953027659
 30
0.0
 11
291.9032410078136
 21
137.0054507535234
 31
0.0
  0
LINE
  5
6BD
  8
LAYER_1
 10
291.9032410078136
 20
137.0054507535234
 30
0.0
 11
292.0270959752333
 21
137.0611540510131
 31
0.0
  0
LINE
  5
6BE
  8
LAYER_1
 10
292.0270959752333
 20
137.0611540510131
 30
0.0
 11
292.2328266811301
 21
137.1471553088343
 31
0.0
  0
LINE
  5
6BF
  8
LAYER_1
 10
292.2328266811301
 20
137.1471553088343
 30
0.0
 11
292.3688156424969
 21
137.2056086816829
 31
0.0
  0
LINE
  5
6C0
  8
LAYER_1
 10
292.3688156424969
 20
137.2056086816829
 30
0.0
 11
292.4536856456361
 21
137.2290213975681
 31
0.0
  0
LINE
  5
6C1
  8
LAYER_1
 10
292.4536856456361
 20
137.2290213975681
 30
0.0
 11
292.4973430157848
 21
137.2183776287641
 31
0.0
  0
LINE
  5
6C2
  8
LAYER_1
 10
292.4973430157848
 20
137.2183776287641
 30
0.0
 11
292.5096940781772
 21
137.1746616491211
 31
0.0
  0
LINE
  5
6C3
  8
LAYER_1
 10
292.5096940781772
 20
137.1746616491211
 30
0.0
 11
292.4885736334974
 21
137.0979699560761
 31
0.0
  0
LINE
  5
6C4
  8
LAYER_1
 10
292.4885736334974
 20
137.0979699560761
 30
0.0
 11
292.4270946089269
 21
137.0108868096295
 31
0.0
  0
LINE
  5
6C5
  8
LAYER_1
 10
292.4270946089269
 20
137.0108868096295
 30
0.0
 11
292.328080925756
 21
136.9166032276351
 31
0.0
  0
LINE
  5
6C6
  8
LAYER_1
 10
292.328080925756
 20
136.9166032276351
 30
0.0
 11
292.1943563021264
 21
136.8183103295259
 31
0.0
  0
LINE
  5
6C7
  8
LAYER_1
 10
292.1943563021264
 20
136.8183103295259
 30
0.0
 11
291.949147783991
 21
136.6739946551634
 31
0.0
  0
LINE
  5
6C8
  8
LAYER_1
 10
291.949147783991
 20
136.6739946551634
 30
0.0
 11
291.5565138346374
 21
136.5022765530169
 31
0.0
  0
LINE
  5
6C9
  8
LAYER_1
 10
291.5565138346374
 20
136.5022765530169
 30
0.0
 11
291.415803710803
 21
136.4320742617778
 31
0.0
  0
LINE
  5
6CA
  8
LAYER_1
 10
291.415803710803
 20
136.4320742617778
 30
0.0
 11
291.3630110807213
 21
136.3788535893845
 31
0.0
  0
LINE
  5
6CB
  8
LAYER_1
 10
291.3630110807213
 20
136.3788535893845
 30
0.0
 11
291.3730362501699
 21
136.3574035297784
 31
0.0
  0
LINE
  5
6CC
  8
LAYER_1
 10
291.3730362501699
 20
136.3574035297784
 30
0.0
 11
291.4122971971179
 21
136.3469026787558
 31
0.0
  0
LINE
  5
6CD
  8
LAYER_1
 10
291.4122971971179
 20
136.3469026787558
 30
0.0
 11
291.6336394614185
 21
136.3536068127514
 31
0.0
  0
LINE
  5
6CE
  8
LAYER_1
 10
291.6336394614185
 20
136.3536068127514
 30
0.0
 11
291.8255186205726
 21
136.3747104973496
 31
0.0
  0
LINE
  5
6CF
  8
LAYER_1
 10
291.8255186205726
 20
136.3747104973496
 30
0.0
 11
292.0103959257489
 21
136.4129225679527
 31
0.0
  0
LINE
  5
6D0
  8
LAYER_1
 10
292.0103959257489
 20
136.4129225679527
 30
0.0
 11
292.1927141189107
 21
136.4693886014938
 31
0.0
  0
LINE
  5
6D1
  8
LAYER_1
 10
292.1927141189107
 20
136.4693886014938
 30
0.0
 11
292.3769156373042
 21
136.5452538701789
 31
0.0
  0
LINE
  5
6D2
  8
LAYER_1
 10
292.3769156373042
 20
136.5452538701789
 30
0.0
 11
292.5836446345727
 21
136.6354084792359
 31
0.0
  0
LINE
  5
6D3
  8
LAYER_1
 10
292.5836446345727
 20
136.6354084792359
 30
0.0
 11
292.7400757144311
 21
136.687923806158
 31
0.0
  0
LINE
  5
6D4
  8
LAYER_1
 10
292.7400757144311
 20
136.687923806158
 30
0.0
 11
292.8783822394913
 21
136.7110578983927
 31
0.0
  0
LINE
  5
6D5
  8
LAYER_1
 10
292.8783822394913
 20
136.7110578983927
 30
0.0
 11
293.0307376739444
 21
136.7130683970846
 31
0.0
  0
LINE
  5
6D6
  8
LAYER_1
 10
293.0307376739444
 20
136.7130683970846
 30
0.0
 11
293.2321278235788
 21
136.7180934756882
 31
0.0
  0
LINE
  5
6D7
  8
LAYER_1
 10
293.2321278235788
 20
136.7180934756882
 30
0.0
 11
293.2841616790795
 21
136.7397860993763
 31
0.0
  0
LINE
  5
6D8
  8
LAYER_1
 10
293.2841616790795
 20
136.7397860993763
 30
0.0
 11
293.333368261275
 21
136.7809035554224
 31
0.0
  0
LINE
  5
6D9
  8
LAYER_1
 10
293.333368261275
 20
136.7809035554224
 30
0.0
 11
293.4478350439004
 21
136.8638067376569
 31
0.0
  0
LINE
  5
6DA
  8
LAYER_1
 10
293.4478350439004
 20
136.8638067376569
 30
0.0
 11
293.5883249504288
 21
136.9258727713697
 31
0.0
  0
LINE
  5
6DB
  8
LAYER_1
 10
293.5883249504288
 20
136.9258727713697
 30
0.0
 11
293.7394228709205
 21
136.9619151732987
 31
0.0
  0
LINE
  5
6DC
  8
LAYER_1
 10
293.7394228709205
 20
136.9619151732987
 30
0.0
 11
293.8857136954392
 21
136.9667473586053
 31
0.0
  0
LINE
  5
6DD
  8
LAYER_1
 10
293.8857136954392
 20
136.9667473586053
 30
0.0
 11
294.037621178636
 21
136.9424723619441
 31
0.0
  0
LINE
  5
6DE
  8
LAYER_1
 10
294.037621178636
 20
136.9424723619441
 30
0.0
 11
294.1656705340937
 21
136.9025507630747
 31
0.0
  0
LINE
  5
6DF
  8
LAYER_1
 10
294.1656705340937
 20
136.9025507630747
 30
0.0
 11
294.2540763048782
 21
136.8534729795643
 31
0.0
  0
LINE
  5
6E0
  8
LAYER_1
 10
294.2540763048782
 20
136.8534729795643
 30
0.0
 11
294.287052729313
 21
136.8017296321326
 31
0.0
  0
LINE
  5
6E1
  8
LAYER_1
 10
294.287052729313
 20
136.8017296321326
 30
0.0
 11
294.2641468789109
 21
136.7350434027443
 31
0.0
  0
LINE
  5
6E2
  8
LAYER_1
 10
294.2641468789109
 20
136.7350434027443
 30
0.0
 11
293.8484743189944
 21
136.7005150963804
 31
0.0
  0
LINE
  5
6E3
  8
LAYER_1
 10
293.8484743189944
 20
136.7005150963804
 30
0.0
 11
293.5710828900802
 21
136.6799528131879
 31
0.0
  0
LINE
  5
6E4
  8
LAYER_1
 10
293.5710828900802
 20
136.6799528131879
 30
0.0
 11
293.4557076094861
 21
136.6591235876139
 31
0.0
  0
LINE
  5
6E5
  8
LAYER_1
 10
293.4557076094861
 20
136.6591235876139
 30
0.0
 11
293.5438814816911
 21
136.6015809474119
 31
0.0
  0
LINE
  5
6E6
  8
LAYER_1
 10
293.5438814816911
 20
136.6015809474119
 30
0.0
 11
293.6658798384366
 21
136.5272684748418
 31
0.0
  0
LINE
  5
6E7
  8
LAYER_1
 10
293.6658798384366
 20
136.5272684748418
 30
0.0
 11
293.7566730573691
 21
136.430595108443
 31
0.0
  0
LINE
  5
6E8
  8
LAYER_1
 10
293.7566730573691
 20
136.430595108443
 30
0.0
 11
293.7982177431193
 21
136.3374421716734
 31
0.0
  0
LINE
  5
6E9
  8
LAYER_1
 10
293.7982177431193
 20
136.3374421716734
 30
0.0
 11
293.7948835027523
 21
136.3002736954511
 31
0.0
  0
LINE
  5
6EA
  8
LAYER_1
 10
293.7948835027523
 20
136.3002736954511
 30
0.0
 11
293.7724710081877
 21
136.2736906832653
 31
0.0
  0
LINE
  5
6EB
  8
LAYER_1
 10
293.7724710081877
 20
136.2736906832653
 30
0.0
 11
293.7008353745035
 21
136.2830905493271
 31
0.0
  0
LINE
  5
6EC
  8
LAYER_1
 10
293.7008353745035
 20
136.2830905493271
 30
0.0
 11
293.566859044927
 21
136.3293329334291
 31
0.0
  0
LINE
  5
6ED
  8
LAYER_1
 10
293.566859044927
 20
136.3293329334291
 30
0.0
 11
293.447595120801
 21
136.3686864163398
 31
0.0
  0
LINE
  5
6EE
  8
LAYER_1
 10
293.447595120801
 20
136.3686864163398
 30
0.0
 11
293.3221484535627
 21
136.3919675909822
 31
0.0
  0
LINE
  5
6EF
  8
LAYER_1
 10
293.3221484535627
 20
136.3919675909822
 30
0.0
 11
293.1894665101273
 21
136.3990499949286
 31
0.0
  0
LINE
  5
6F0
  8
LAYER_1
 10
293.1894665101273
 20
136.3990499949286
 30
0.0
 11
293.0484969605507
 21
136.3898075720522
 31
0.0
  0
LINE
  5
6F1
  8
LAYER_1
 10
293.0484969605507
 20
136.3898075720522
 30
0.0
 11
292.7374848090536
 21
136.3218431071491
 31
0.0
  0
LINE
  5
6F2
  8
LAYER_1
 10
292.7374848090536
 20
136.3218431071491
 30
0.0
 11
292.3806922422335
 21
136.1870642236328
 31
0.0
  0
LINE
  5
6F3
  8
LAYER_1
 10
292.3806922422335
 20
136.1870642236328
 30
0.0
 11
292.1367943624365
 21
136.1079808162339
 31
0.0
  0
LINE
  5
6F4
  8
LAYER_1
 10
292.1367943624365
 20
136.1079808162339
 30
0.0
 11
291.8522148902762
 21
136.064254069509
 31
0.0
  0
LINE
  5
6F5
  8
LAYER_1
 10
291.8522148902762
 20
136.064254069509
 30
0.0
 11
291.5416199124324
 21
136.0571370280623
 31
0.0
  0
LINE
  5
6F6
  8
LAYER_1
 10
291.5416199124324
 20
136.0571370280623
 30
0.0
 11
291.219675718736
 21
136.0878825333466
 31
0.0
  0
LINE
  5
6F7
  8
LAYER_1
 10
291.219675718736
 20
136.0878825333466
 30
0.0
 11
290.9546472366355
 21
136.1267165553206
 31
0.0
  0
LINE
  5
6F8
  8
LAYER_1
 10
290.9546472366355
 20
136.1267165553206
 30
0.0
 11
290.7976674418819
 21
136.1384439395465
 31
0.0
  0
LINE
  5
6F9
  8
LAYER_1
 10
290.7976674418819
 20
136.1384439395465
 30
0.0
 11
290.6990558990802
 21
136.12218341049
 31
0.0
  0
LINE
  5
6FA
  8
LAYER_1
 10
290.6990558990802
 20
136.12218341049
 30
0.0
 11
290.6091321728353
 21
136.0770537941927
 31
0.0
  0
LINE
  5
6FB
  8
LAYER_1
 10
290.6091321728353
 20
136.0770537941927
 30
0.0
 11
290.5179661690682
 21
136.0087239595239
 31
0.0
  0
LINE
  5
6FC
  8
LAYER_1
 10
290.5179661690682
 20
136.0087239595239
 30
0.0
 11
290.4556992175344
 21
135.929618103774
 31
0.0
  0
LINE
  5
6FD
  8
LAYER_1
 10
290.4556992175344
 20
135.929618103774
 30
0.0
 11
290.4249907875818
 21
135.8444355505176
 31
0.0
  0
LINE
  5
6FE
  8
LAYER_1
 10
290.4249907875818
 20
135.8444355505176
 30
0.0
 11
290.4285003485529
 21
135.7578754201751
 31
0.0
  0
LINE
  5
6FF
  8
LAYER_1
 10
290.4285003485529
 20
135.7578754201751
 30
0.0
 11
290.5109435935335
 21
135.6528545176521
 31
0.0
  0
LINE
  5
700
  8
LAYER_1
 10
290.5109435935335
 20
135.6528545176521
 30
0.0
 11
290.7161563621366
 21
135.4843720253338
 31
0.0
  0
LINE
  5
701
  8
LAYER_1
 10
290.7161563621366
 20
135.4843720253338
 30
0.0
 11
290.9367137467624
 21
135.2959450365691
 31
0.0
  0
LINE
  5
702
  8
LAYER_1
 10
290.9367137467624
 20
135.2959450365691
 30
0.0
 11
291.0659750084447
 21
135.128654033649
 31
0.0
  0
LINE
  5
703
  8
LAYER_1
 10
291.0659750084447
 20
135.128654033649
 30
0.0
 11
291.0965500687849
 21
135.0525961763964
 31
0.0
  0
LINE
  5
704
  8
LAYER_1
 10
291.0965500687849
 20
135.0525961763964
 30
0.0
 11
291.1045176081619
 21
134.9814162137629
 31
0.0
  0
LINE
  5
705
  8
LAYER_1
 10
291.1045176081619
 20
134.9814162137629
 30
0.0
 11
291.0899500504433
 21
134.9149789477608
 31
0.0
  0
LINE
  5
706
  8
LAYER_1
 10
291.0899500504433
 20
134.9149789477608
 30
0.0
 11
291.05291941319
 21
134.8531488756732
 31
0.0
  0
LINE
  5
707
  8
LAYER_1
 10
291.05291941319
 20
134.8531488756732
 30
0.0
 11
291.0037686979338
 21
134.8139356695631
 31
0.0
  0
LINE
  5
708
  8
LAYER_1
 10
291.0037686979338
 20
134.8139356695631
 30
0.0
 11
290.9494231701607
 21
134.8162395204611
 31
0.0
  0
LINE
  5
709
  8
LAYER_1
 10
290.9494231701607
 20
134.8162395204611
 30
0.0
 11
290.8853443015031
 21
134.8618987553192
 31
0.0
  0
LINE
  5
70A
  8
LAYER_1
 10
290.8853443015031
 20
134.8618987553192
 30
0.0
 11
290.8069937667379
 21
134.9527514979345
 31
0.0
  0
LINE
  5
70B
  8
LAYER_1
 10
290.8069937667379
 20
134.9527514979345
 30
0.0
 11
290.7127474632276
 21
135.0446238629357
 31
0.0
  0
LINE
  5
70C
  8
LAYER_1
 10
290.7127474632276
 20
135.0446238629357
 30
0.0
 11
290.6753309378056
 21
135.0525965827016
 31
0.0
  0
LINE
  5
70D
  8
LAYER_1
 10
290.6753309378056
 20
135.0525965827016
 30
0.0
 11
290.6438397612784
 21
135.0346694921319
 31
0.0
  0
LINE
  5
70E
  8
LAYER_1
 10
290.6438397612784
 20
135.0346694921319
 30
0.0
 11
290.5969959442089
 21
134.9193442886278
 31
0.0
  0
LINE
  5
70F
  8
LAYER_1
 10
290.5969959442089
 20
134.9193442886278
 30
0.0
 11
290.5689414984816
 21
134.6951041555271
 31
0.0
  0
LINE
  5
710
  8
LAYER_1
 10
290.5689414984816
 20
134.6951041555271
 30
0.0
 11
290.5651195905463
 21
134.4767735254279
 31
0.0
  0
LINE
  5
711
  8
LAYER_1
 10
290.5651195905463
 20
134.4767735254279
 30
0.0
 11
290.6036942883562
 21
134.336981854034
 31
0.0
  0
LINE
  5
712
  8
LAYER_1
 10
290.6036942883562
 20
134.336981854034
 30
0.0
 11
290.6404502634331
 21
134.2721750899772
 31
0.0
  0
LINE
  5
713
  8
LAYER_1
 10
290.6404502634331
 20
134.2721750899772
 30
0.0
 11
290.6848908880348
 21
134.2268105278162
 31
0.0
  0
LINE
  5
714
  8
LAYER_1
 10
290.6848908880348
 20
134.2268105278162
 30
0.0
 11
290.7390506328484
 21
134.2009917753263
 31
0.0
  0
LINE
  5
715
  8
LAYER_1
 10
290.7390506328484
 20
134.2009917753263
 30
0.0
 11
290.8049638669841
 21
134.194822440281
 31
0.0
  0
LINE
  5
716
  8
LAYER_1
 10
290.8049638669841
 20
134.194822440281
 30
0.0
 11
290.980189092272
 21
134.2418461488886
 31
0.0
  0
LINE
  5
717
  8
LAYER_1
 10
290.980189092272
 20
134.2418461488886
 30
0.0
 11
291.2268425325452
 21
134.3687106174065
 31
0.0
  0
LINE
  5
718
  8
LAYER_1
 10
291.2268425325452
 20
134.3687106174065
 30
0.0
 11
291.4776793906236
 21
134.514319255839
 31
0.0
  0
LINE
  5
719
  8
LAYER_1
 10
291.4776793906236
 20
134.514319255839
 30
0.0
 11
291.4776793906236
 21
134.712721235386
 31
0.0
  0
LINE
  5
71A
  8
LAYER_1
 10
291.4776793906236
 20
134.712721235386
 30
0.0
 11
291.4862390179566
 21
134.8670793471593
 31
0.0
  0
LINE
  5
71B
  8
LAYER_1
 10
291.4862390179566
 20
134.8670793471593
 30
0.0
 11
291.4981532009037
 21
134.9008069279546
 31
0.0
  0
LINE
  5
71C
  8
LAYER_1
 10
291.4981532009037
 20
134.9008069279546
 30
0.0
 11
291.5162369220491
 21
134.9111234180857
 31
0.0
  0
LINE
  5
71D
  8
LAYER_1
 10
291.5162369220491
 20
134.9111234180857
 30
0.0
 11
291.5550007548363
 21
134.8978570521143
 31
0.0
  0
LINE
  5
71E
  8
LAYER_1
 10
291.5550007548363
 20
134.8978570521143
 30
0.0
 11
291.5974701907547
 21
134.8602183794357
 31
0.0
  0
LINE
  5
71F
  8
LAYER_1
 10
291.5974701907547
 20
134.8602183794357
 30
0.0
 11
291.6819942251903
 21
134.724787477978
 31
0.0
  0
LINE
  5
720
  8
LAYER_1
 10
291.6819942251903
 20
134.724787477978
 30
0.0
 11
291.7087498154209
 21
134.6775285187777
 31
0.0
  0
LINE
  5
721
  8
LAYER_1
 10
291.7087498154209
 20
134.6775285187777
 30
0.0
 11
291.7446920631692
 21
134.6491898627083
 31
0.0
  0
LINE
  5
722
  8
LAYER_1
 10
291.7446920631692
 20
134.6491898627083
 30
0.0
 11
291.9079708042624
 21
134.6195437171648
 31
0.0
  0
LINE
  5
723
  8
LAYER_1
 10
291.9079708042624
 20
134.6195437171648
 30
0.0
 11
292.5514275941719
 21
134.5597087041805
 31
0.0
  0
LINE
  5
724
  8
LAYER_1
 10
292.5514275941719
 20
134.5597087041805
 30
0.0
 11
292.9432078967309
 21
134.5389178744282
 31
0.0
  0
LINE
  5
725
  8
LAYER_1
 10
292.9432078967309
 20
134.5389178744282
 30
0.0
 11
293.1420746891935
 21
134.5199107236053
 31
0.0
  0
LINE
  5
726
  8
LAYER_1
 10
293.1420746891935
 20
134.5199107236053
 30
0.0
 11
293.358880558222
 21
134.4640437867788
 31
0.0
  0
LINE
  5
727
  8
LAYER_1
 10
293.358880558222
 20
134.4640437867788
 30
0.0
 11
293.5405348490244
 21
134.4130247795781
 31
0.0
  0
LINE
  5
728
  8
LAYER_1
 10
293.5405348490244
 20
134.4130247795781
 30
0.0
 11
293.7154214190987
 21
134.379819300701
 31
0.0
  0
LINE
  5
729
  8
LAYER_1
 10
293.7154214190987
 20
134.379819300701
 30
0.0
 11
293.8668972032356
 21
134.3667854427634
 31
0.0
  0
LINE
  5
72A
  8
LAYER_1
 10
293.8668972032356
 20
134.3667854427634
 30
0.0
 11
293.9783192378039
 21
134.3762809936517
 31
0.0
  0
LINE
  5
72B
  8
LAYER_1
 10
293.9783192378039
 20
134.3762809936517
 30
0.0
 11
294.0546671968233
 21
134.4164804035616
 31
0.0
  0
LINE
  5
72C
  8
LAYER_1
 10
294.0546671968233
 20
134.4164804035616
 30
0.0
 11
294.1497016304495
 21
134.4946959434903
 31
0.0
  0
LINE
  5
72D
  8
LAYER_1
 10
294.1497016304495
 20
134.4946959434903
 30
0.0
 11
294.2441380846976
 21
134.5929647680291
 31
0.0
  0
LINE
  5
72E
  8
LAYER_1
 10
294.2441380846976
 20
134.5929647680291
 30
0.0
 11
294.3186916992814
 21
134.693323930191
 31
0.0
  0
LINE
  5
72F
  8
LAYER_1
 10
294.3186916992814
 20
134.693323930191
 30
0.0
 11
294.3538144298548
 21
134.7661820340311
 31
0.0
  0
LINE
  5
730
  8
LAYER_1
 10
294.3538144298548
 20
134.7661820340311
 30
0.0
 11
294.3702629765472
 21
134.8398135394289
 31
0.0
  0
LINE
  5
731
  8
LAYER_1
 10
294.3702629765472
 20
134.8398135394289
 30
0.0
 11
294.36771920255
 21
134.9150134836854
 31
0.0
  0
LINE
  5
732
  8
LAYER_1
 10
294.36771920255
 20
134.9150134836854
 30
0.0
 11
294.3458651742015
 21
134.9925764977917
 31
0.0
  0
LINE
  5
733
  8
LAYER_1
 10
294.3458651742015
 20
134.9925764977917
 30
0.0
 11
294.2429539087883
 21
135.1579712752995
 31
0.0
  0
LINE
  5
734
  8
LAYER_1
 10
294.2429539087883
 20
135.1579712752995
 30
0.0
 11
294.0589850000063
 21
135.3423565451256
 31
0.0
  0
LINE
  5
735
  8
LAYER_1
 10
294.0589850000063
 20
135.3423565451256
 30
0.0
 11
293.9138267506613
 21
135.4788782739193
 31
0.0
  0
LINE
  5
736
  8
LAYER_1
 10
293.9138267506613
 20
135.4788782739193
 30
0.0
 11
293.825977211417
 21
135.593634244125
 31
0.0
  0
LINE
  5
737
  8
LAYER_1
 10
293.825977211417
 20
135.593634244125
 30
0.0
 11
293.7826467136381
 21
135.7090672200293
 31
0.0
  0
LINE
  5
738
  8
LAYER_1
 10
293.7826467136381
 20
135.7090672200293
 30
0.0
 11
293.7710453855368
 21
135.8476202706454
 31
0.0
  0
LINE
  5
739
  8
LAYER_1
 10
293.7710453855368
 20
135.8476202706454
 30
0.0
 11
293.7804924845544
 21
135.9771667584354
 31
0.0
  0
LINE
  5
73A
  8
LAYER_1
 10
293.7804924845544
 20
135.9771667584354
 30
0.0
 11
293.8032058479671
 21
136.0498329847412
 31
0.0
  0
LINE
  5
73B
  8
LAYER_1
 10
293.8032058479671
 20
136.0498329847412
 30
0.0
 11
293.8427116952493
 21
136.0718020989789
 31
0.0
  0
LINE
  5
73C
  8
LAYER_1
 10
293.8427116952493
 20
136.0718020989789
 30
0.0
 11
293.87846866792
 21
136.0620726179903
 31
0.0
  0
LINE
  5
73D
  8
LAYER_1
 10
293.87846866792
 20
136.0620726179903
 30
0.0
 11
293.9043879808955
 21
136.0252409686079
 31
0.0
  0
LINE
  5
73E
  8
LAYER_1
 10
293.9043879808955
 20
136.0252409686079
 30
0.0
 11
293.914380747522
 21
135.965903780819
 31
0.0
  0
LINE
  5
73F
  8
LAYER_1
 10
293.914380747522
 20
135.965903780819
 30
0.0
 11
293.9306978545484
 21
135.8539827021398
 31
0.0
  0
LINE
  5
740
  8
LAYER_1
 10
293.9306978545484
 20
135.8539827021398
 30
0.0
 11
293.9872202629086
 21
135.7529452137886
 31
0.0
  0
LINE
  5
741
  8
LAYER_1
 10
293.9872202629086
 20
135.7529452137886
 30
0.0
 11
294.0953046035179
 21
135.6486227495513
 31
0.0
  0
LINE
  5
742
  8
LAYER_1
 10
294.0953046035179
 20
135.6486227495513
 30
0.0
 11
294.2663078120256
 21
135.5268469463693
 31
0.0
  0
LINE
  5
743
  8
LAYER_1
 10
294.2663078120256
 20
135.5268469463693
 30
0.0
 11
294.4687196155702
 21
135.3810876703596
 31
0.0
  0
LINE
  5
744
  8
LAYER_1
 10
294.4687196155702
 20
135.3810876703596
 30
0.0
 11
294.5879562156859
 21
135.2512973995729
 31
0.0
  0
LINE
  5
745
  8
LAYER_1
 10
294.5879562156859
 20
135.2512973995729
 30
0.0
 11
294.6227836641021
 21
135.1823516065304
 31
0.0
  0
LINE
  5
746
  8
LAYER_1
 10
294.6227836641021
 20
135.1823516065304
 30
0.0
 11
294.6444970093457
 21
135.1053511216888
 31
0.0
  0
LINE
  5
747
  8
LAYER_1
 10
294.6444970093457
 20
135.1053511216888
 30
0.0
 11
294.6588213935239
 21
134.9111234180857
 31
0.0
  0
LINE
  5
748
  8
LAYER_1
 10
294.6588213935239
 20
134.9111234180857
 30
0.0
 11
294.6492475273493
 21
134.7427924775306
 31
0.0
  0
LINE
  5
749
  8
LAYER_1
 10
294.6492475273493
 20
134.7427924775306
 30
0.0
 11
294.619747854756
 21
134.5973688094473
 31
0.0
  0
LINE
  5
74A
  8
LAYER_1
 10
294.619747854756
 20
134.5973688094473
 30
0.0
 11
294.5692560282873
 21
134.4736669174356
 31
0.0
  0
LINE
  5
74B
  8
LAYER_1
 10
294.5692560282873
 20
134.4736669174356
 30
0.0
 11
294.4967054973276
 21
134.3705017114007
 31
0.0
  0
LINE
  5
74C
  8
LAYER_1
 10
294.4967054973276
 20
134.3705017114007
 30
0.0
 11
294.4010298128436
 21
134.2866876949446
 31
0.0
  0
LINE
  5
74D
  8
LAYER_1
 10
294.4010298128436
 20
134.2866876949446
 30
0.0
 11
294.281162728952
 21
134.2210396763945
 31
0.0
  0
LINE
  5
74E
  8
LAYER_1
 10
294.281162728952
 20
134.2210396763945
 30
0.0
 11
294.1360375934637
 21
134.1723722609293
 31
0.0
  0
LINE
  5
74F
  8
LAYER_1
 10
294.1360375934637
 20
134.1723722609293
 30
0.0
 11
293.9645879573433
 21
134.1395001553006
 31
0.0
  0
LINE
  5
750
  8
LAYER_1
 10
293.9645879573433
 20
134.1395001553006
 30
0.0
 11
293.763566021611
 21
134.1235494338033
 31
0.0
  0
LINE
  5
751
  8
LAYER_1
 10
293.763566021611
 20
134.1235494338033
 30
0.0
 11
293.6062496031681
 21
134.1376554290468
 31
0.0
  0
LINE
  5
752
  8
LAYER_1
 10
293.6062496031681
 20
134.1376554290468
 30
0.0
 11
293.1595446866445
 21
134.202855090034
 31
0.0
  0
LINE
  5
753
  8
LAYER_1
 10
293.1595446866445
 20
134.202855090034
 30
0.0
 11
292.6153540984584
 21
134.2430208782058
 31
0.0
  0
LINE
  5
754
  8
LAYER_1
 10
292.6153540984584
 20
134.2430208782058
 30
0.0
 11
292.2990590678367
 21
134.243328857392
 31
0.0
  0
LINE
  5
755
  8
LAYER_1
 10
292.2990590678367
 20
134.243328857392
 30
0.0
 11
292.2026023635787
 21
134.2215408536061
 31
0.0
  0
LINE
  5
756
  8
LAYER_1
 10
292.2026023635787
 20
134.2215408536061
 30
0.0
 11
292.092363184426
 21
134.1783330599359
 31
0.0
  0
LINE
  5
757
  8
LAYER_1
 10
292.092363184426
 20
134.1783330599359
 30
0.0
 11
291.9846306023649
 21
134.1359892738382
 31
0.0
  0
LINE
  5
758
  8
LAYER_1
 10
291.9846306023649
 20
134.1359892738382
 30
0.0
 11
291.8949427361717
 21
134.1145012247145
 31
0.0
  0
LINE
  5
759
  8
LAYER_1
 10
291.8949427361717
 20
134.1145012247145
 30
0.0
 11
291.6383865258272
 21
134.1160882520253
 31
0.0
  0
LINE
  5
75A
  8
LAYER_1
 10
291.6383865258272
 20
134.1160882520253
 30
0.0
 11
291.4582904146815
 21
134.1194975572394
 31
0.0
  0
LINE
  5
75B
  8
LAYER_1
 10
291.4582904146815
 20
134.1194975572394
 30
0.0
 11
291.3374519571248
 21
134.1032490141802
 31
0.0
  0
LINE
  5
75C
  8
LAYER_1
 10
291.3374519571248
 20
134.1032490141802
 30
0.0
 11
291.2695698705574
 21
134.0655411680766
 31
0.0
  0
LINE
  5
75D
  8
LAYER_1
 10
291.2695698705574
 20
134.0655411680766
 30
0.0
 11
291.2483428723946
 21
134.0045722594269
 31
0.0
  0
LINE
  5
75E
  8
LAYER_1
 10
291.2483428723946
 20
134.0045722594269
 30
0.0
 11
291.2592408865503
 21
133.9575166558768
 31
0.0
  0
LINE
  5
75F
  8
LAYER_1
 10
291.2592408865503
 20
133.9575166558768
 30
0.0
 11
291.2898027419747
 21
133.903526340247
 31
0.0
  0
LINE
  5
760
  8
LAYER_1
 10
291.2898027419747
 20
133.903526340247
 30
0.0
 11
291.3971252607197
 21
133.7861876923395
 31
0.0
  0
LINE
  5
761
  8
LAYER_1
 10
291.3971252607197
 20
133.7861876923395
 30
0.0
 11
291.5447249967805
 21
133.6754476407052
 31
0.0
  0
LINE
  5
762
  8
LAYER_1
 10
291.5447249967805
 20
133.6754476407052
 30
0.0
 11
291.7070160104305
 21
133.5941976119203
 31
0.0
  0
LINE
  5
763
  8
LAYER_1
 10
291.7070160104305
 20
133.5941976119203
 30
0.0
 11
291.9607003554916
 21
133.5397516252382
 31
0.0
  0
LINE
  5
764
  8
LAYER_1
 10
291.9607003554916
 20
133.5397516252382
 30
0.0
 11
292.2940283009653
 21
133.5183050192245
 31
0.0
  0
LINE
  5
765
  8
LAYER_1
 10
292.2940283009653
 20
133.5183050192245
 30
0.0
 11
292.6456046226826
 21
133.5306716227838
 31
0.0
  0
LINE
  5
766
  8
LAYER_1
 10
292.6456046226826
 20
133.5306716227838
 30
0.0
 11
292.9540337917488
 21
133.5776652648221
 31
0.0
  0
LINE
  5
767
  8
LAYER_1
 10
292.9540337917488
 20
133.5776652648221
 30
0.0
 11
292.9540337917488
 21
133.5776652648221
 31
0.0
  0
LINE
  5
768
  8
LAYER_1
 10
291.6620281945776
 20
133.7260211344789
 30
0.0
 11
291.5959102843009
 21
133.7686810258631
 31
0.0
  0
LINE
  5
769
  8
LAYER_1
 10
291.5959102843009
 20
133.7686810258631
 30
0.0
 11
291.5457381182861
 21
133.8190959591128
 31
0.0
  0
LINE
  5
76A
  8
LAYER_1
 10
291.5457381182861
 20
133.8190959591128
 30
0.0
 11
291.5183825171526
 21
133.8684260580256
 31
0.0
  0
LINE
  5
76B
  8
LAYER_1
 10
291.5183825171526
 20
133.8684260580256
 30
0.0
 11
291.5207144030956
 21
133.9078314463987
 31
0.0
  0
LINE
  5
76C
  8
LAYER_1
 10
291.5207144030956
 20
133.9078314463987
 30
0.0
 11
291.559306368869
 21
133.930447296612
 31
0.0
  0
LINE
  5
76D
  8
LAYER_1
 10
291.559306368869
 20
133.930447296612
 30
0.0
 11
291.6291871712819
 21
133.9477620855549
 31
0.0
  0
LINE
  5
76E
  8
LAYER_1
 10
291.6291871712819
 20
133.9477620855549
 30
0.0
 11
292.5178158103009
 21
134.0850593490077
 31
0.0
  0
LINE
  5
76F
  8
LAYER_1
 10
292.5178158103009
 20
134.0850593490077
 30
0.0
 11
292.6778120133393
 21
134.1037311966331
 31
0.0
  0
LINE
  5
770
  8
LAYER_1
 10
292.6778120133393
 20
134.1037311966331
 30
0.0
 11
292.7459236622262
 21
134.0843520735875
 31
0.0
  0
LINE
  5
771
  8
LAYER_1
 10
292.7459236622262
 20
134.0843520735875
 30
0.0
 11
292.7607518645987
 21
134.0463844970148
 31
0.0
  0
LINE
  5
772
  8
LAYER_1
 10
292.7607518645987
 20
134.0463844970148
 30
0.0
 11
292.7205148714762
 21
133.9985010470371
 31
0.0
  0
LINE
  5
773
  8
LAYER_1
 10
292.7205148714762
 20
133.9985010470371
 30
0.0
 11
292.4117943817279
 21
133.8238240287647
 31
0.0
  0
LINE
  5
774
  8
LAYER_1
 10
292.4117943817279
 20
133.8238240287647
 30
0.0
 11
292.1426426149583
 21
133.7017005300821
 31
0.0
  0
LINE
  5
775
  8
LAYER_1
 10
292.1426426149583
 20
133.7017005300821
 30
0.0
 11
292.048870672531
 21
133.6833517965032
 31
0.0
  0
LINE
  5
776
  8
LAYER_1
 10
292.048870672531
 20
133.6833517965032
 30
0.0
 11
291.9387876160736
 21
133.6802725125219
 31
0.0
  0
LINE
  5
777
  8
LAYER_1
 10
291.9387876160736
 20
133.6802725125219
 30
0.0
 11
291.7786738893168
 21
133.6940717474943
 31
0.0
  0
LINE
  5
778
  8
LAYER_1
 10
291.7786738893168
 20
133.6940717474943
 30
0.0
 11
291.6620281945776
 21
133.7260211344789
 31
0.0
  0
LINE
  5
779
  8
LAYER_1
 10
291.6620281945776
 20
133.7260211344789
 30
0.0
 11
291.6620281945776
 21
133.7260211344789
 31
0.0
  0
LINE
  5
77A
  8
LAYER_1
 10
294.9213453100585
 20
134.0474943191093
 30
0.0
 11
294.8735299161687
 21
134.1076247158254
 31
0.0
  0
LINE
  5
77B
  8
LAYER_1
 10
294.8735299161687
 20
134.1076247158254
 30
0.0
 11
294.8678814641261
 21
134.1554164424501
 31
0.0
  0
LINE
  5
77C
  8
LAYER_1
 10
294.8678814641261
 20
134.1554164424501
 30
0.0
 11
294.9065090831626
 21
134.1965573626098
 31
0.0
  0
LINE
  5
77D
  8
LAYER_1
 10
294.9065090831626
 20
134.1965573626098
 30
0.0
 11
294.991522004085
 21
134.2367353399317
 31
0.0
  0
LINE
  5
77E
  8
LAYER_1
 10
294.991522004085
 20
134.2367353399317
 30
0.0
 11
295.1102677877658
 21
134.3026415653055
 31
0.0
  0
LINE
  5
77F
  8
LAYER_1
 10
295.1102677877658
 20
134.3026415653055
 30
0.0
 11
295.204530140323
 21
134.3998461754858
 31
0.0
  0
LINE
  5
780
  8
LAYER_1
 10
295.204530140323
 20
134.3998461754858
 30
0.0
 11
295.3009062946182
 21
134.5143064572314
 31
0.0
  0
LINE
  5
781
  8
LAYER_1
 10
295.3009062946182
 20
134.5143064572314
 30
0.0
 11
295.4113981954783
 21
134.6068707596386
 31
0.0
  0
LINE
  5
782
  8
LAYER_1
 10
295.4113981954783
 20
134.6068707596386
 30
0.0
 11
295.5452222622572
 21
134.6839378784991
 31
0.0
  0
LINE
  5
783
  8
LAYER_1
 10
295.5452222622572
 20
134.6839378784991
 30
0.0
 11
295.7115948127349
 21
134.7519071174859
 31
0.0
  0
LINE
  5
784
  8
LAYER_1
 10
295.7115948127349
 20
134.7519071174859
 30
0.0
 11
296.0892898416046
 21
134.8894870676385
 31
0.0
  0
LINE
  5
785
  8
LAYER_1
 10
296.0892898416046
 20
134.8894870676385
 30
0.0
 11
296.3196576634884
 21
134.9864939088626
 31
0.0
  0
LINE
  5
786
  8
LAYER_1
 10
296.3196576634884
 20
134.9864939088626
 30
0.0
 11
296.4345329857859
 21
135.0585137039216
 31
0.0
  0
LINE
  5
787
  8
LAYER_1
 10
296.4345329857859
 20
135.0585137039216
 30
0.0
 11
296.4586092993057
 21
135.090023976783
 31
0.0
  0
LINE
  5
788
  8
LAYER_1
 10
296.4586092993057
 20
135.090023976783
 30
0.0
 11
296.4657504143227
 21
135.1211321092752
 31
0.0
  0
LINE
  5
789
  8
LAYER_1
 10
296.4657504143227
 20
135.1211321092752
 30
0.0
 11
296.3654156304594
 21
135.2960999403485
 31
0.0
  0
LINE
  5
78A
  8
LAYER_1
 10
296.3654156304594
 20
135.2960999403485
 30
0.0
 11
296.2987597723701
 21
135.3991483336967
 31
0.0
  0
LINE
  5
78B
  8
LAYER_1
 10
296.2987597723701
 20
135.3991483336967
 30
0.0
 11
296.2708465176297
 21
135.4747911503967
 31
0.0
  0
LINE
  5
78C
  8
LAYER_1
 10
296.2708465176297
 20
135.4747911503967
 30
0.0
 11
296.2794955320604
 21
135.5388378193848
 31
0.0
  0
LINE
  5
78D
  8
LAYER_1
 10
296.2794955320604
 20
135.5388378193848
 30
0.0
 11
296.3225265830592
 21
135.6070975664429
 31
0.0
  0
LINE
  5
78E
  8
LAYER_1
 10
296.3225265830592
 20
135.6070975664429
 30
0.0
 11
296.3999022905631
 21
135.6779560402492
 31
0.0
  0
LINE
  5
78F
  8
LAYER_1
 10
296.3999022905631
 20
135.6779560402492
 30
0.0
 11
296.5192454441632
 21
135.7449330824377
 31
0.0
  0
LINE
  5
790
  8
LAYER_1
 10
296.5192454441632
 20
135.7449330824377
 30
0.0
 11
296.6846726244946
 21
135.809936599689
 31
0.0
  0
LINE
  5
791
  8
LAYER_1
 10
296.6846726244946
 20
135.809936599689
 30
0.0
 11
296.9003005137664
 21
135.8748743971069
 31
0.0
  0
LINE
  5
792
  8
LAYER_1
 10
296.9003005137664
 20
135.8748743971069
 30
0.0
 11
297.0943991139581
 21
135.9355906856258
 31
0.0
  0
LINE
  5
793
  8
LAYER_1
 10
297.0943991139581
 20
135.9355906856258
 30
0.0
 11
297.2504057066732
 21
136.0071377448227
 31
0.0
  0
LINE
  5
794
  8
LAYER_1
 10
297.2504057066732
 20
136.0071377448227
 30
0.0
 11
297.3930574605021
 21
136.1034163859193
 31
0.0
  0
LINE
  5
795
  8
LAYER_1
 10
297.3930574605021
 20
136.1034163859193
 30
0.0
 11
297.5470919503483
 21
136.2383273185594
 31
0.0
  0
LINE
  5
796
  8
LAYER_1
 10
297.5470919503483
 20
136.2383273185594
 30
0.0
 11
297.6556083963201
 21
136.3304702826864
 31
0.0
  0
LINE
  5
797
  8
LAYER_1
 10
297.6556083963201
 20
136.3304702826864
 30
0.0
 11
297.7300210230708
 21
136.3585018737563
 31
0.0
  0
LINE
  5
798
  8
LAYER_1
 10
297.7300210230708
 20
136.3585018737563
 30
0.0
 11
297.7594595467627
 21
136.3481237268426
 31
0.0
  0
LINE
  5
799
  8
LAYER_1
 10
297.7594595467627
 20
136.3481237268426
 30
0.0
 11
297.78639777109
 21
136.3212951032874
 31
0.0
  0
LINE
  5
79A
  8
LAYER_1
 10
297.78639777109
 20
136.3212951032874
 30
0.0
 11
297.8408067840173
 21
136.2177225764952
 31
0.0
  0
LINE
  5
79B
  8
LAYER_1
 10
297.8408067840173
 20
136.2177225764952
 30
0.0
 11
297.907137699687
 21
136.106048429677
 31
0.0
  0
LINE
  5
79C
  8
LAYER_1
 10
297.907137699687
 20
136.106048429677
 30
0.0
 11
298.0030420323071
 21
135.988245172008
 31
0.0
  0
LINE
  5
79D
  8
LAYER_1
 10
298.0030420323071
 20
135.988245172008
 30
0.0
 11
298.1003849893393
 21
135.8950342352014
 31
0.0
  0
LINE
  5
79E
  8
LAYER_1
 10
298.1003849893393
 20
135.8950342352014
 30
0.0
 11
298.1710319813945
 21
135.8571369493932
 31
0.0
  0
LINE
  5
79F
  8
LAYER_1
 10
298.1710319813945
 20
135.8571369493932
 30
0.0
 11
298.2822436515523
 21
135.7977220557732
 31
0.0
  0
LINE
  5
7A0
  8
LAYER_1
 10
298.2822436515523
 20
135.7977220557732
 30
0.0
 11
298.3294670590658
 21
135.7406645437357
 31
0.0
  0
LINE
  5
7A1
  8
LAYER_1
 10
298.3294670590658
 20
135.7406645437357
 30
0.0
 11
298.3524717431594
 21
135.666475181579
 31
0.0
  0
LINE
  5
7A2
  8
LAYER_1
 10
298.3524717431594
 20
135.666475181579
 30
0.0
 11
298.3526568150844
 21
135.579515145545
 31
0.0
  0
LINE
  5
7A3
  8
LAYER_1
 10
298.3526568150844
 20
135.579515145545
 30
0.0
 11
298.3314213860917
 21
135.4841453071468
 31
0.0
  0
LINE
  5
7A4
  8
LAYER_1
 10
298.3314213860917
 20
135.4841453071468
 30
0.0
 11
298.2901645674324
 21
135.3847268426245
 31
0.0
  0
LINE
  5
7A5
  8
LAYER_1
 10
298.2901645674324
 20
135.3847268426245
 30
0.0
 11
298.2302855719309
 21
135.2856207250672
 31
0.0
  0
LINE
  5
7A6
  8
LAYER_1
 10
298.2302855719309
 20
135.2856207250672
 30
0.0
 11
298.1531834092649
 21
135.1911880291399
 31
0.0
  0
LINE
  5
7A7
  8
LAYER_1
 10
298.1531834092649
 20
135.1911880291399
 30
0.0
 11
298.0602572922602
 21
135.1057898295079
 31
0.0
  0
LINE
  5
7A8
  8
LAYER_1
 10
298.0602572922602
 20
135.1057898295079
 30
0.0
 11
297.9225029356875
 21
135.0110042576921
 31
0.0
  0
LINE
  5
7A9
  8
LAYER_1
 10
297.9225029356875
 20
135.0110042576921
 30
0.0
 11
297.7509795552101
 21
134.9126552894932
 31
0.0
  0
LINE
  5
7AA
  8
LAYER_1
 10
297.7509795552101
 20
134.9126552894932
 30
0.0
 11
297.576208782059
 21
134.8269640423834
 31
0.0
  0
LINE
  5
7AB
  8
LAYER_1
 10
297.576208782059
 20
134.8269640423834
 30
0.0
 11
297.4287118411606
 21
134.7701511259518
 31
0.0
  0
LINE
  5
7AC
  8
LAYER_1
 10
297.4287118411606
 20
134.7701511259518
 30
0.0
 11
296.9798279109487
 21
134.602046802008
 31
0.0
  0
LINE
  5
7AD
  8
LAYER_1
 10
296.9798279109487
 20
134.602046802008
 30
0.0
 11
296.7208051245564
 21
134.4303989906261
 31
0.0
  0
LINE
  5
7AE
  8
LAYER_1
 10
296.7208051245564
 20
134.4303989906261
 30
0.0
 11
296.573290103087
 21
134.3221262260743
 31
0.0
  0
LINE
  5
7AF
  8
LAYER_1
 10
296.573290103087
 20
134.3221262260743
 30
0.0
 11
296.4524388469205
 21
134.2491659365282
 31
0.0
  0
LINE
  5
7B0
  8
LAYER_1
 10
296.4524388469205
 20
134.2491659365282
 30
0.0
 11
296.3267560149039
 21
134.1953179292229
 31
0.0
  0
LINE
  5
7B1
  8
LAYER_1
 10
296.3267560149039
 20
134.1953179292229
 30
0.0
 11
296.164746164311
 21
134.1443821129697
 31
0.0
  0
LINE
  5
7B2
  8
LAYER_1
 10
296.164746164311
 20
134.1443821129697
 30
0.0
 11
295.8494082866833
 21
134.0520548895268
 31
0.0
  0
LINE
  5
7B3
  8
LAYER_1
 10
295.8494082866833
 20
134.0520548895268
 30
0.0
 11
295.6579087179682
 21
134.023095399425
 31
0.0
  0
LINE
  5
7B4
  8
LAYER_1
 10
295.6579087179682
 20
134.023095399425
 30
0.0
 11
295.3585182098234
 21
134.0020139600253
 31
0.0
  0
LINE
  5
7B5
  8
LAYER_1
 10
295.3585182098234
 20
134.0020139600253
 30
0.0
 11
295.0279752819385
 21
133.9976158100296
 31
0.0
  0
LINE
  5
7B6
  8
LAYER_1
 10
295.0279752819385
 20
133.9976158100296
 30
0.0
 11
294.96390321889
 21
134.0139777121818
 31
0.0
  0
LINE
  5
7B7
  8
LAYER_1
 10
294.96390321889
 20
134.0139777121818
 30
0.0
 11
294.9213453100585
 21
134.0474943191093
 31
0.0
  0
LINE
  5
7B8
  8
LAYER_1
 10
294.9213453100585
 20
134.0474943191093
 30
0.0
 11
294.9213453100585
 21
134.0474943191093
 31
0.0
  0
LINE
  5
7B9
  8
LAYER_1
 10
292.3754651284702
 20
135.0064724333535
 30
0.0
 11
292.2811779913092
 21
135.0525081097892
 31
0.0
  0
LINE
  5
7BA
  8
LAYER_1
 10
292.2811779913092
 20
135.0525081097892
 30
0.0
 11
292.203982581647
 21
135.1141345214973
 31
0.0
  0
LINE
  5
7BB
  8
LAYER_1
 10
292.203982581647
 20
135.1141345214973
 30
0.0
 11
292.1453108198635
 21
135.1899039022029
 31
0.0
  0
LINE
  5
7BC
  8
LAYER_1
 10
292.1453108198635
 20
135.1899039022029
 30
0.0
 11
292.1065940168785
 21
135.2783684856331
 31
0.0
  0
LINE
  5
7BD
  8
LAYER_1
 10
292.1065940168785
 20
135.2783684856331
 30
0.0
 11
292.091826252375
 21
135.3765202943334
 31
0.0
  0
LINE
  5
7BE
  8
LAYER_1
 10
292.091826252375
 20
135.3765202943334
 30
0.0
 11
292.1074360839814
 21
135.4642193991536
 31
0.0
  0
LINE
  5
7BF
  8
LAYER_1
 10
292.1074360839814
 20
135.4642193991536
 30
0.0
 11
292.1517323687329
 21
135.53693651516
 31
0.0
  0
LINE
  5
7C0
  8
LAYER_1
 10
292.1517323687329
 20
135.53693651516
 30
0.0
 11
292.2230233542068
 21
135.5901423574213
 31
0.0
  0
LINE
  5
7C1
  8
LAYER_1
 10
292.2230233542068
 20
135.5901423574213
 30
0.0
 11
292.4254731472696
 21
135.7384340308884
 31
0.0
  0
LINE
  5
7C2
  8
LAYER_1
 10
292.4254731472696
 20
135.7384340308884
 30
0.0
 11
292.7009800320393
 21
135.9374964592048
 31
0.0
  0
LINE
  5
7C3
  8
LAYER_1
 10
292.7009800320393
 20
135.9374964592048
 30
0.0
 11
292.8297842006036
 21
136.0060789140056
 31
0.0
  0
LINE
  5
7C4
  8
LAYER_1
 10
292.8297842006036
 20
136.0060789140056
 30
0.0
 11
292.9344269347534
 21
136.0431357579313
 31
0.0
  0
LINE
  5
7C5
  8
LAYER_1
 10
292.9344269347534
 20
136.0431357579313
 30
0.0
 11
293.0639947535556
 21
136.0412244992341
 31
0.0
  0
LINE
  5
7C6
  8
LAYER_1
 10
293.0639947535556
 20
136.0412244992341
 30
0.0
 11
293.1757265956841
 21
135.9872651643597
 31
0.0
  0
LINE
  5
7C7
  8
LAYER_1
 10
293.1757265956841
 20
135.9872651643597
 30
0.0
 11
293.2541281217238
 21
135.8933115020217
 31
0.0
  0
LINE
  5
7C8
  8
LAYER_1
 10
293.2541281217238
 20
135.8933115020217
 30
0.0
 11
293.2759880414955
 21
135.8351035373903
 31
0.0
  0
LINE
  5
7C9
  8
LAYER_1
 10
293.2759880414955
 20
135.8351035373903
 30
0.0
 11
293.2837050938433
 21
135.7714171593569
 31
0.0
  0
LINE
  5
7CA
  8
LAYER_1
 10
293.2837050938433
 20
135.7714171593569
 30
0.0
 11
293.2342340070975
 21
135.6214252010609
 31
0.0
  0
LINE
  5
7CB
  8
LAYER_1
 10
293.2342340070975
 20
135.6214252010609
 30
0.0
 11
293.1306882964339
 21
135.4486311017113
 31
0.0
  0
LINE
  5
7CC
  8
LAYER_1
 10
293.1306882964339
 20
135.4486311017113
 30
0.0
 11
293.0888714879138
 21
135.4157769750788
 31
0.0
  0
LINE
  5
7CD
  8
LAYER_1
 10
293.0888714879138
 20
135.4157769750788
 30
0.0
 11
293.0368188408062
 21
135.4001868492644
 31
0.0
  0
LINE
  5
7CE
  8
LAYER_1
 10
293.0368188408062
 20
135.4001868492644
 30
0.0
 11
292.9875372953402
 21
135.4034437901056
 31
0.0
  0
LINE
  5
7CF
  8
LAYER_1
 10
292.9875372953402
 20
135.4034437901056
 30
0.0
 11
292.9540337917488
 21
135.4271307618618
 31
0.0
  0
LINE
  5
7D0
  8
LAYER_1
 10
292.9540337917488
 20
135.4271307618618
 30
0.0
 11
292.906815767779
 21
135.4555856211598
 31
0.0
  0
LINE
  5
7D1
  8
LAYER_1
 10
292.906815767779
 20
135.4555856211598
 30
0.0
 11
292.8316008918144
 21
135.4533543972791
 31
0.0
  0
LINE
  5
7D2
  8
LAYER_1
 10
292.8316008918144
 20
135.4533543972791
 30
0.0
 11
292.744839843652
 21
135.4236778804367
 31
0.0
  0
LINE
  5
7D3
  8
LAYER_1
 10
292.744839843652
 20
135.4236778804367
 30
0.0
 11
292.6629833030848
 21
135.3697966576986
 31
0.0
  0
LINE
  5
7D4
  8
LAYER_1
 10
292.6629833030848
 20
135.3697966576986
 30
0.0
 11
292.5429329756403
 21
135.2837953998766
 31
0.0
  0
LINE
  5
7D5
  8
LAYER_1
 10
292.5429329756403
 20
135.2837953998766
 30
0.0
 11
292.4249837529028
 21
135.3545107527491
 31
0.0
  0
LINE
  5
7D6
  8
LAYER_1
 10
292.4249837529028
 20
135.3545107527491
 30
0.0
 11
292.3569670778075
 21
135.3977568406651
 31
0.0
  0
LINE
  5
7D7
  8
LAYER_1
 10
292.3569670778075
 20
135.3977568406651
 30
0.0
 11
292.3122983129496
 21
135.4079468683655
 31
0.0
  0
LINE
  5
7D8
  8
LAYER_1
 10
292.3122983129496
 20
135.4079468683655
 30
0.0
 11
292.287815796014
 21
135.3844737146123
 31
0.0
  0
LINE
  5
7D9
  8
LAYER_1
 10
292.287815796014
 20
135.3844737146123
 30
0.0
 11
292.2803575599482
 21
135.3267298518614
 31
0.0
  0
LINE
  5
7DA
  8
LAYER_1
 10
292.2803575599482
 20
135.3267298518614
 30
0.0
 11
292.2981656031542
 21
135.264307285516
 31
0.0
  0
LINE
  5
7DB
  8
LAYER_1
 10
292.2981656031542
 20
135.264307285516
 30
0.0
 11
292.3472932606027
 21
135.2143309585084
 31
0.0
  0
LINE
  5
7DC
  8
LAYER_1
 10
292.3472932606027
 20
135.2143309585084
 30
0.0
 11
292.4212957224619
 21
135.1811535146766
 31
0.0
  0
LINE
  5
7DD
  8
LAYER_1
 10
292.4212957224619
 20
135.1811535146766
 30
0.0
 11
292.5137281788963
 21
135.1691270899738
 31
0.0
  0
LINE
  5
7DE
  8
LAYER_1
 10
292.5137281788963
 20
135.1691270899738
 30
0.0
 11
292.6654560752851
 21
135.1490161100551
 31
0.0
  0
LINE
  5
7DF
  8
LAYER_1
 10
292.6654560752851
 20
135.1490161100551
 30
0.0
 11
292.6996681747868
 21
135.1217353706168
 31
0.0
  0
LINE
  5
7E0
  8
LAYER_1
 10
292.6996681747868
 20
135.1217353706168
 30
0.0
 11
292.7103636459026
 21
135.081067287895
 31
0.0
  0
LINE
  5
7E1
  8
LAYER_1
 10
292.7103636459026
 20
135.081067287895
 30
0.0
 11
292.703196730519
 21
135.0452831943659
 31
0.0
  0
LINE
  5
7E2
  8
LAYER_1
 10
292.703196730519
 20
135.0452831943659
 30
0.0
 11
292.6828012355256
 21
135.0163204538241
 31
0.0
  0
LINE
  5
7E3
  8
LAYER_1
 10
292.6828012355256
 20
135.0163204538241
 30
0.0
 11
292.6089557089708
 21
134.980336356662
 31
0.0
  0
LINE
  5
7E4
  8
LAYER_1
 10
292.6089557089708
 20
134.980336356662
 30
0.0
 11
292.5020894707369
 21
134.9760689352984
 31
0.0
  0
LINE
  5
7E5
  8
LAYER_1
 10
292.5020894707369
 20
134.9760689352984
 30
0.0
 11
292.3754651284702
 21
135.0064724333535
 31
0.0
  0
LINE
  5
7E6
  8
LAYER_1
 10
292.3754651284702
 20
135.0064724333535
 30
0.0
 11
292.3754651284702
 21
135.0064724333535
 31
0.0
  0
LINE
  5
7E7
  8
LAYER_1
 10
295.1170694349601
 20
136.2720684089965
 30
0.0
 11
294.9625533721194
 21
136.3554592588004
 31
0.0
  0
LINE
  5
7E8
  8
LAYER_1
 10
294.9625533721194
 20
136.3554592588004
 30
0.0
 11
294.8105992654267
 21
136.4160964194211
 31
0.0
  0
LINE
  5
7E9
  8
LAYER_1
 10
294.8105992654267
 20
136.4160964194211
 30
0.0
 11
294.6870661931404
 21
136.4663104348509
 31
0.0
  0
LINE
  5
7EA
  8
LAYER_1
 10
294.6870661931404
 20
136.4663104348509
 30
0.0
 11
294.6578174138816
 21
136.4956990846041
 31
0.0
  0
LINE
  5
7EB
  8
LAYER_1
 10
294.6578174138816
 20
136.4956990846041
 30
0.0
 11
294.6421288606833
 21
136.5336044965119
 31
0.0
  0
LINE
  5
7EC
  8
LAYER_1
 10
294.6421288606833
 20
136.5336044965119
 30
0.0
 11
294.6357749615938
 21
136.5993565291399
 31
0.0
  0
LINE
  5
7ED
  8
LAYER_1
 10
294.6357749615938
 20
136.5993565291399
 30
0.0
 11
294.657780033821
 21
136.6373207536959
 31
0.0
  0
LINE
  5
7EE
  8
LAYER_1
 10
294.657780033821
 20
136.6373207536959
 30
0.0
 11
294.7095413602476
 21
136.6484267960082
 31
0.0
  0
LINE
  5
7EF
  8
LAYER_1
 10
294.7095413602476
 20
136.6484267960082
 30
0.0
 11
294.7924564269044
 21
136.6336040787533
 31
0.0
  0
LINE
  5
7F0
  8
LAYER_1
 10
294.7924564269044
 20
136.6336040787533
 30
0.0
 11
294.9537284276269
 21
136.6106107711992
 31
0.0
  0
LINE
  5
7F1
  8
LAYER_1
 10
294.9537284276269
 20
136.6106107711992
 30
0.0
 11
295.1685242042692
 21
136.6050900005022
 31
0.0
  0
LINE
  5
7F2
  8
LAYER_1
 10
295.1685242042692
 20
136.6050900005022
 30
0.0
 11
295.3789124859002
 21
136.6162705997809
 31
0.0
  0
LINE
  5
7F3
  8
LAYER_1
 10
295.3789124859002
 20
136.6162705997809
 30
0.0
 11
295.526961900013
 21
136.6433816053075
 31
0.0
  0
LINE
  5
7F4
  8
LAYER_1
 10
295.526961900013
 20
136.6433816053075
 30
0.0
 11
295.6339847688244
 21
136.6932576765576
 31
0.0
  0
LINE
  5
7F5
  8
LAYER_1
 10
295.6339847688244
 20
136.6932576765576
 30
0.0
 11
295.7333563051192
 21
136.7587118876242
 31
0.0
  0
LINE
  5
7F6
  8
LAYER_1
 10
295.7333563051192
 20
136.7587118876242
 30
0.0
 11
295.8065588540194
 21
136.8255489577422
 31
0.0
  0
LINE
  5
7F7
  8
LAYER_1
 10
295.8065588540194
 20
136.8255489577422
 30
0.0
 11
295.835074760643
 21
136.8795739108727
 31
0.0
  0
LINE
  5
7F8
  8
LAYER_1
 10
295.835074760643
 20
136.8795739108727
 30
0.0
 11
295.8323913193023
 21
136.9012535328012
 31
0.0
  0
LINE
  5
7F9
  8
LAYER_1
 10
295.8323913193023
 20
136.9012535328012
 30
0.0
 11
295.8213494731801
 21
136.9075743180336
 31
0.0
  0
LINE
  5
7FA
  8
LAYER_1
 10
295.8213494731801
 20
136.9075743180336
 30
0.0
 11
295.7562403166291
 21
136.8725364036289
 31
0.0
  0
LINE
  5
7FB
  8
LAYER_1
 10
295.7562403166291
 20
136.8725364036289
 30
0.0
 11
295.6340601384008
 21
136.7989160716181
 31
0.0
  0
LINE
  5
7FC
  8
LAYER_1
 10
295.6340601384008
 20
136.7989160716181
 30
0.0
 11
295.525866197018
 21
136.7568736622502
 31
0.0
  0
LINE
  5
7FD
  8
LAYER_1
 10
295.525866197018
 20
136.7568736622502
 30
0.0
 11
295.3984823691414
 21
136.7378026199664
 31
0.0
  0
LINE
  5
7FE
  8
LAYER_1
 10
295.3984823691414
 20
136.7378026199664
 30
0.0
 11
295.2187326330035
 21
136.7330965923611
 31
0.0
  0
LINE
  5
7FF
  8
LAYER_1
 10
295.2187326330035
 20
136.7330965923611
 30
0.0
 11
294.9483897831432
 21
136.7465158305864
 31
0.0
  0
LINE
  5
800
  8
LAYER_1
 10
294.9483897831432
 20
136.7465158305864
 30
0.0
 11
294.8593588105499
 21
136.7742331447418
 31
0.0
  0
LINE
  5
801
  8
LAYER_1
 10
294.8593588105499
 20
136.7742331447418
 30
0.0
 11
294.7545006331765
 21
136.8251982149546
 31
0.0
  0
LINE
  5
802
  8
LAYER_1
 10
294.7545006331765
 20
136.8251982149546
 30
0.0
 11
294.6124297939117
 21
136.8906114907936
 31
0.0
  0
LINE
  5
803
  8
LAYER_1
 10
294.6124297939117
 20
136.8906114907936
 30
0.0
 11
294.5201966300766
 21
136.9178186890278
 31
0.0
  0
LINE
  5
804
  8
LAYER_1
 10
294.5201966300766
 20
136.9178186890278
 30
0.0
 11
294.4533132411884
 21
136.940376945508
 31
0.0
  0
LINE
  5
805
  8
LAYER_1
 10
294.4533132411884
 20
136.940376945508
 30
0.0
 11
294.3721896748347
 21
136.9946125677794
 31
0.0
  0
LINE
  5
806
  8
LAYER_1
 10
294.3721896748347
 20
136.9946125677794
 30
0.0
 11
294.318618158077
 21
137.0363941293403
 31
0.0
  0
LINE
  5
807
  8
LAYER_1
 10
294.318618158077
 20
137.0363941293403
 30
0.0
 11
294.2758006203556
 21
137.0552534867215
 31
0.0
  0
LINE
  5
808
  8
LAYER_1
 10
294.2758006203556
 20
137.0552534867215
 30
0.0
 11
294.1545758683216
 21
137.0376132474782
 31
0.0
  0
LINE
  5
809
  8
LAYER_1
 10
294.1545758683216
 20
137.0376132474782
 30
0.0
 11
294.0324976726479
 21
137.0123564147965
 31
0.0
  0
LINE
  5
80A
  8
LAYER_1
 10
294.0324976726479
 20
137.0123564147965
 30
0.0
 11
293.9286320983778
 21
137.0055765049195
 31
0.0
  0
LINE
  5
80B
  8
LAYER_1
 10
293.9286320983778
 20
137.0055765049195
 30
0.0
 11
293.8490225260111
 21
137.0171167856955
 31
0.0
  0
LINE
  5
80C
  8
LAYER_1
 10
293.8490225260111
 20
137.0171167856955
 30
0.0
 11
293.7997124376171
 21
137.0468205249723
 31
0.0
  0
LINE
  5
80D
  8
LAYER_1
 10
293.7997124376171
 20
137.0468205249723
 30
0.0
 11
293.7810847756617
 21
137.0944555194451
 31
0.0
  0
LINE
  5
80E
  8
LAYER_1
 10
293.7810847756617
 20
137.0944555194451
 30
0.0
 11
293.8022409751791
 21
137.1358076166258
 31
0.0
  0
LINE
  5
80F
  8
LAYER_1
 10
293.8022409751791
 20
137.1358076166258
 30
0.0
 11
293.8570525347797
 21
137.1651718880791
 31
0.0
  0
LINE
  5
810
  8
LAYER_1
 10
293.8570525347797
 20
137.1651718880791
 30
0.0
 11
293.9393910546489
 21
137.176843506945
 31
0.0
  0
LINE
  5
811
  8
LAYER_1
 10
293.9393910546489
 20
137.176843506945
 30
0.0
 11
294.0967649652484
 21
137.1926948868712
 31
0.0
  0
LINE
  5
812
  8
LAYER_1
 10
294.0967649652484
 20
137.1926948868712
 30
0.0
 11
294.2800789103778
 21
137.2392211765885
 31
0.0
  0
LINE
  5
813
  8
LAYER_1
 10
294.2800789103778
 20
137.2392211765885
 30
0.0
 11
294.4982160377234
 21
137.3192221222425
 31
0.0
  0
LINE
  5
814
  8
LAYER_1
 10
294.4982160377234
 20
137.3192221222425
 30
0.0
 11
294.7600594949674
 21
137.4354975715538
 31
0.0
  0
LINE
  5
815
  8
LAYER_1
 10
294.7600594949674
 20
137.4354975715538
 30
0.0
 11
294.9087883526095
 21
137.4878157389768
 31
0.0
  0
LINE
  5
816
  8
LAYER_1
 10
294.9087883526095
 20
137.4878157389768
 30
0.0
 11
295.0916173727287
 21
137.5247551607587
 31
0.0
  0
LINE
  5
817
  8
LAYER_1
 10
295.0916173727287
 20
137.5247551607587
 30
0.0
 11
295.2949526059504
 21
137.5463922222393
 31
0.0
  0
LINE
  5
818
  8
LAYER_1
 10
295.2949526059504
 20
137.5463922222393
 30
0.0
 11
295.5052003060519
 21
137.5528034103332
 31
0.0
  0
LINE
  5
819
  8
LAYER_1
 10
295.5052003060519
 20
137.5528034103332
 30
0.0
 11
295.7087666252403
 21
137.54406511038
 31
0.0
  0
LINE
  5
81A
  8
LAYER_1
 10
295.7087666252403
 20
137.54406511038
 30
0.0
 11
295.8920576141392
 21
137.5202539108708
 31
0.0
  0
LINE
  5
81B
  8
LAYER_1
 10
295.8920576141392
 20
137.5202539108708
 30
0.0
 11
296.0414795265251
 21
137.4814460955686
 31
0.0
  0
LINE
  5
81C
  8
LAYER_1
 10
296.0414795265251
 20
137.4814460955686
 30
0.0
 11
296.1434385146059
 21
137.4277182529655
 31
0.0
  0
LINE
  5
81D
  8
LAYER_1
 10
296.1434385146059
 20
137.4277182529655
 30
0.0
 11
296.2301303893422
 21
137.4026196760794
 31
0.0
  0
LINE
  5
81E
  8
LAYER_1
 10
296.2301303893422
 20
137.4026196760794
 30
0.0
 11
296.3873344644544
 21
137.384789286098
 31
0.0
  0
LINE
  5
81F
  8
LAYER_1
 10
296.3873344644544
 20
137.384789286098
 30
0.0
 11
296.5659825045957
 21
137.370682376668
 31
0.0
  0
LINE
  5
820
  8
LAYER_1
 10
296.5659825045957
 20
137.370682376668
 30
0.0
 11
296.6393292917704
 21
137.345700104587
 31
0.0
  0
LINE
  5
821
  8
LAYER_1
 10
296.6393292917704
 20
137.345700104587
 30
0.0
 11
296.64013621349
 21
137.3238079851458
 31
0.0
  0
LINE
  5
822
  8
LAYER_1
 10
296.64013621349
 20
137.3238079851458
 30
0.0
 11
296.6189634570436
 21
137.2928096565786
 31
0.0
  0
LINE
  5
823
  8
LAYER_1
 10
296.6189634570436
 20
137.2928096565786
 30
0.0
 11
296.5164733267571
 21
137.194978016215
 31
0.0
  0
LINE
  5
824
  8
LAYER_1
 10
296.5164733267571
 20
137.194978016215
 30
0.0
 11
296.4219421018686
 21
137.1075420954558
 31
0.0
  0
LINE
  5
825
  8
LAYER_1
 10
296.4219421018686
 20
137.1075420954558
 30
0.0
 11
296.3761710315614
 21
137.0510091231661
 31
0.0
  0
LINE
  5
826
  8
LAYER_1
 10
296.3761710315614
 20
137.0510091231661
 30
0.0
 11
296.3663379427983
 21
137.0007541725087
 31
0.0
  0
LINE
  5
827
  8
LAYER_1
 10
296.3663379427983
 20
137.0007541725087
 30
0.0
 11
296.3796207641209
 21
136.9321522150687
 31
0.0
  0
LINE
  5
828
  8
LAYER_1
 10
296.3796207641209
 20
136.9321522150687
 30
0.0
 11
296.4037723456414
 21
136.8038891431818
 31
0.0
  0
LINE
  5
829
  8
LAYER_1
 10
296.4037723456414
 20
136.8038891431818
 30
0.0
 11
296.4014783476387
 21
136.7087775116079
 31
0.0
  0
LINE
  5
82A
  8
LAYER_1
 10
296.4014783476387
 20
136.7087775116079
 30
0.0
 11
296.3690337764419
 21
136.6280658369414
 31
0.0
  0
LINE
  5
82B
  8
LAYER_1
 10
296.3690337764419
 20
136.6280658369414
 30
0.0
 11
296.3027339431041
 21
136.5430024326243
 31
0.0
  0
LINE
  5
82C
  8
LAYER_1
 10
296.3027339431041
 20
136.5430024326243
 30
0.0
 11
296.1322533443952
 21
136.3995437570739
 31
0.0
  0
LINE
  5
82D
  8
LAYER_1
 10
296.1322533443952
 20
136.3995437570739
 30
0.0
 11
295.914719478392
 21
136.282311662651
 31
0.0
  0
LINE
  5
82E
  8
LAYER_1
 10
295.914719478392
 20
136.282311662651
 30
0.0
 11
295.6771945940196
 21
136.2029948330329
 31
0.0
  0
LINE
  5
82F
  8
LAYER_1
 10
295.6771945940196
 20
136.2029948330329
 30
0.0
 11
295.4467408386294
 21
136.1732819518935
 31
0.0
  0
LINE
  5
830
  8
LAYER_1
 10
295.4467408386294
 20
136.1732819518935
 30
0.0
 11
295.2764103696167
 21
136.190204250211
 31
0.0
  0
LINE
  5
831
  8
LAYER_1
 10
295.2764103696167
 20
136.190204250211
 30
0.0
 11
295.1170694349601
 21
136.2720684089965
 31
0.0
  0
LINE
  5
832
  8
LAYER_1
 10
295.1170694349601
 20
136.2720684089965
 30
0.0
 11
295.1170694349601
 21
136.2720684089965
 31
0.0
  0
LINE
  5
849
  8
LAYER_1
 10
298.2287755394172
 20
136.3650154507088
 30
0.0
 11
298.140447169736
 21
136.4092967021758
 31
0.0
  0
LINE
  5
84A
  8
LAYER_1
 10
298.140447169736
 20
136.4092967021758
 30
0.0
 11
298.0198803270671
 21
136.4933223019586
 31
0.0
  0
LINE
  5
84B
  8
LAYER_1
 10
298.0198803270671
 20
136.4933223019586
 30
0.0
 11
297.9071516156338
 21
136.5866293298973
 31
0.0
  0
LINE
  5
84C
  8
LAYER_1
 10
297.9071516156338
 20
136.5866293298973
 30
0.0
 11
297.8423376396627
 21
136.6587545611021
 31
0.0
  0
LINE
  5
84D
  8
LAYER_1
 10
297.8423376396627
 20
136.6587545611021
 30
0.0
 11
297.8234702577581
 21
136.7255120970172
 31
0.0
  0
LINE
  5
84E
  8
LAYER_1
 10
297.8234702577581
 20
136.7255120970172
 30
0.0
 11
297.8199786757837
 21
136.8077795135096
 31
0.0
  0
LINE
  5
84F
  8
LAYER_1
 10
297.8199786757837
 20
136.8077795135096
 30
0.0
 11
297.8214059236541
 21
136.8599905179904
 31
0.0
  0
LINE
  5
850
  8
LAYER_1
 10
297.8214059236541
 20
136.8599905179904
 30
0.0
 11
297.8095743221977
 21
136.8905220021185
 31
0.0
  0
LINE
  5
851
  8
LAYER_1
 10
297.8095743221977
 20
136.8905220021185
 30
0.0
 11
297.712768195641
 21
136.9221367969392
 31
0.0
  0
LINE
  5
852
  8
LAYER_1
 10
297.712768195641
 20
136.9221367969392
 30
0.0
 11
297.4211356750704
 21
136.9448337049998
 31
0.0
  0
LINE
  5
853
  8
LAYER_1
 10
297.4211356750704
 20
136.9448337049998
 30
0.0
 11
297.2584714702827
 21
136.9608307452663
 31
0.0
  0
LINE
  5
854
  8
LAYER_1
 10
297.2584714702827
 20
136.9608307452663
 30
0.0
 11
297.2078857873599
 21
136.9880348962132
 31
0.0
  0
LINE
  5
855
  8
LAYER_1
 10
297.2078857873599
 20
136.9880348962132
 30
0.0
 11
297.1547248418003
 21
137.0359324652895
 31
0.0
  0
LINE
  5
856
  8
LAYER_1
 10
297.1547248418003
 20
137.0359324652895
 30
0.0
 11
297.0946824101144
 21
137.1086183973879
 31
0.0
  0
LINE
  5
857
  8
LAYER_1
 10
297.0946824101144
 20
137.1086183973879
 30
0.0
 11
297.0759308251354
 21
137.1577674874252
 31
0.0
  0
LINE
  5
858
  8
LAYER_1
 10
297.0759308251354
 20
137.1577674874252
 30
0.0
 11
297.105865853529
 21
137.1885108596082
 31
0.0
  0
LINE
  5
859
  8
LAYER_1
 10
297.105865853529
 20
137.1885108596082
 30
0.0
 11
297.1587260318151
 21
137.1985112444524
 31
0.0
  0
LINE
  5
85A
  8
LAYER_1
 10
297.1587260318151
 20
137.1985112444524
 30
0.0
 11
297.2196903695332
 21
137.1878544738884
 31
0.0
  0
LINE
  5
85B
  8
LAYER_1
 10
297.2196903695332
 20
137.1878544738884
 30
0.0
 11
297.2739380793801
 21
137.1566257703889
 31
0.0
  0
LINE
  5
85C
  8
LAYER_1
 10
297.2739380793801
 20
137.1566257703889
 30
0.0
 11
297.3566194190843
 21
137.1162881152042
 31
0.0
  0
LINE
  5
85D
  8
LAYER_1
 10
297.3566194190843
 20
137.1162881152042
 30
0.0
 11
297.5029454905635
 21
137.1073857696083
 31
0.0
  0
LINE
  5
85E
  8
LAYER_1
 10
297.5029454905635
 20
137.1073857696083
 30
0.0
 11
297.6008735267872
 21
137.1143284046364
 31
0.0
  0
LINE
  5
85F
  8
LAYER_1
 10
297.6008735267872
 20
137.1143284046364
 30
0.0
 11
297.6934477836672
 21
137.135802029932
 31
0.0
  0
LINE
  5
860
  8
LAYER_1
 10
297.6934477836672
 20
137.135802029932
 30
0.0
 11
297.9513063030956
 21
137.2507211315936
 31
0.0
  0
LINE
  5
861
  8
LAYER_1
 10
297.9513063030956
 20
137.2507211315936
 30
0.0
 11
298.2193742512876
 21
137.3697395459272
 31
0.0
  0
LINE
  5
862
  8
LAYER_1
 10
298.2193742512876
 20
137.3697395459272
 30
0.0
 11
298.3186592446191
 21
137.3872964926468
 31
0.0
  0
LINE
  5
863
  8
LAYER_1
 10
298.3186592446191
 20
137.3872964926468
 30
0.0
 11
298.4437785316069
 21
137.3908253531054
 31
0.0
  0
LINE
  5
864
  8
LAYER_1
 10
298.4437785316069
 20
137.3908253531054
 30
0.0
 11
298.6516807345488
 21
137.3746626419763
 31
0.0
  0
LINE
  5
865
  8
LAYER_1
 10
298.6516807345488
 20
137.3746626419763
 30
0.0
 11
298.8307840394386
 21
137.292949425497
 31
0.0
  0
LINE
  5
866
  8
LAYER_1
 10
298.8307840394386
 20
137.292949425497
 30
0.0
 11
299.3093045670293
 21
137.0421964693987
 31
0.0
  0
LINE
  5
867
  8
LAYER_1
 10
299.3093045670293
 20
137.0421964693987
 30
0.0
 11
299.4862301787216
 21
136.9724178526932
 31
0.0
  0
LINE
  5
868
  8
LAYER_1
 10
299.4862301787216
 20
136.9724178526932
 30
0.0
 11
299.650439662982
 21
136.9268218998378
 31
0.0
  0
LINE
  5
869
  8
LAYER_1
 10
299.650439662982
 20
136.9268218998378
 30
0.0
 11
299.8452878958893
 21
136.8662335973925
 31
0.0
  0
LINE
  5
86A
  8
LAYER_1
 10
299.8452878958893
 20
136.8662335973925
 30
0.0
 11
299.894117731776
 21
136.8360632168287
 31
0.0
  0
LINE
  5
86B
  8
LAYER_1
 10
299.894117731776
 20
136.8360632168287
 30
0.0
 11
299.910535704017
 21
136.8079689532138
 31
0.0
  0
LINE
  5
86C
  8
LAYER_1
 10
299.910535704017
 20
136.8079689532138
 30
0.0
 11
299.8945300297712
 21
136.7834459073534
 31
0.0
  0
LINE
  5
86D
  8
LAYER_1
 10
299.8945300297712
 20
136.7834459073534
 30
0.0
 11
299.8460891293393
 21
136.7639891800532
 31
0.0
  0
LINE
  5
86E
  8
LAYER_1
 10
299.8460891293393
 20
136.7639891800532
 30
0.0
 11
299.651854721703
 21
136.7462550843557
 31
0.0
  0
LINE
  5
86F
  8
LAYER_1
 10
299.651854721703
 20
136.7462550843557
 30
0.0
 11
299.4963860768018
 21
136.7366826402478
 31
0.0
  0
LINE
  5
870
  8
LAYER_1
 10
299.4963860768018
 20
136.7366826402478
 30
0.0
 11
299.4804925427327
 21
136.7162490541621
 31
0.0
  0
LINE
  5
871
  8
LAYER_1
 10
299.4804925427327
 20
136.7162490541621
 30
0.0
 11
299.4867421230163
 21
136.6774286434056
 31
0.0
  0
LINE
  5
872
  8
LAYER_1
 10
299.4867421230163
 20
136.6774286434056
 30
0.0
 11
299.4880506282506
 21
136.605434140833
 31
0.0
  0
LINE
  5
873
  8
LAYER_1
 10
299.4880506282506
 20
136.605434140833
 30
0.0
 11
299.4639256597095
 21
136.576841239413
 31
0.0
  0
LINE
  5
874
  8
LAYER_1
 10
299.4639256597095
 20
136.576841239413
 30
0.0
 11
299.4149831757627
 21
136.5495892460524
 31
0.0
  0
LINE
  5
875
  8
LAYER_1
 10
299.4149831757627
 20
136.5495892460524
 30
0.0
 11
299.2177521672126
 21
136.488322211113
 31
0.0
  0
LINE
  5
876
  8
LAYER_1
 10
299.2177521672126
 20
136.488322211113
 30
0.0
 11
298.8465699026846
 21
136.4000617959425
 31
0.0
  0
LINE
  5
877
  8
LAYER_1
 10
298.8465699026846
 20
136.4000617959425
 30
0.0
 11
298.5017317430059
 21
136.3510822366647
 31
0.0
  0
LINE
  5
878
  8
LAYER_1
 10
298.5017317430059
 20
136.3510822366647
 30
0.0
 11
298.3487292678483
 21
136.3497570729227
 31
0.0
  0
LINE
  5
879
  8
LAYER_1
 10
298.3487292678483
 20
136.3497570729227
 30
0.0
 11
298.2287755394172
 21
136.3650154507088
 31
0.0
  0
LINE
  5
87A
  8
LAYER_1
 10
298.2287755394172
 20
136.3650154507088
 30
0.0
 11
298.2287755394172
 21
136.3650154507088
 31
0.0
  0
LINE
  5
87B
  8
LAYER_1
 10
293.0187198832244
 20
137.9106162089959
 30
0.0
 11
293.0516175860659
 21
137.9267050741922
 31
0.0
  0
LINE
  5
87C
  8
LAYER_1
 10
293.0516175860659
 20
137.9267050741922
 30
0.0
 11
293.079172276649
 21
137.9581836552637
 31
0.0
  0
LINE
  5
87D
  8
LAYER_1
 10
293.079172276649
 20
137.9581836552637
 30
0.0
 11
293.1287008555503
 21
138.083758511727
 31
0.0
  0
LINE
  5
87E
  8
LAYER_1
 10
293.1287008555503
 20
138.083758511727
 30
0.0
 11
293.1550056503915
 21
138.194632440857
 31
0.0
  0
LINE
  5
87F
  8
LAYER_1
 10
293.1550056503915
 20
138.194632440857
 30
0.0
 11
293.1573827377634
 21
138.2685272318922
 31
0.0
  0
LINE
  5
880
  8
LAYER_1
 10
293.1573827377634
 20
138.2685272318922
 30
0.0
 11
293.1350912205145
 21
138.3097244252938
 31
0.0
  0
LINE
  5
881
  8
LAYER_1
 10
293.1350912205145
 20
138.3097244252938
 30
0.0
 11
293.0873900999015
 21
138.322505358372
 31
0.0
  0
LINE
  5
882
  8
LAYER_1
 10
293.0873900999015
 20
138.322505358372
 30
0.0
 11
292.8311944852435
 21
138.3693066149948
 31
0.0
  0
LINE
  5
883
  8
LAYER_1
 10
292.8311944852435
 20
138.3693066149948
 30
0.0
 11
292.4162784652285
 21
138.4809314973326
 31
0.0
  0
LINE
  5
884
  8
LAYER_1
 10
292.4162784652285
 20
138.4809314973326
 30
0.0
 11
291.99077911428
 21
138.6142116232987
 31
0.0
  0
LINE
  5
885
  8
LAYER_1
 10
291.99077911428
 20
138.6142116232987
 30
0.0
 11
291.702833202083
 21
138.7259784076562
 31
0.0
  0
LINE
  5
886
  8
LAYER_1
 10
291.702833202083
 20
138.7259784076562
 30
0.0
 11
291.5788815340756
 21
138.8079586680937
 31
0.0
  0
LINE
  5
887
  8
LAYER_1
 10
291.5788815340756
 20
138.8079586680937
 30
0.0
 11
291.4497401323655
 21
138.9232449678942
 31
0.0
  0
LINE
  5
888
  8
LAYER_1
 10
291.4497401323655
 20
138.9232449678942
 30
0.0
 11
291.3362624992511
 21
139.0509517066659
 31
0.0
  0
LINE
  5
889
  8
LAYER_1
 10
291.3362624992511
 20
139.0509517066659
 30
0.0
 11
291.2593019338749
 21
139.1701933855946
 31
0.0
  0
LINE
  5
88A
  8
LAYER_1
 10
291.2593019338749
 20
139.1701933855946
 30
0.0
 11
291.2198934982149
 21
139.299665417994
 31
0.0
  0
LINE
  5
88B
  8
LAYER_1
 10
291.2198934982149
 20
139.299665417994
 30
0.0
 11
291.2067117452583
 21
139.4518438050448
 31
0.0
  0
LINE
  5
88C
  8
LAYER_1
 10
291.2067117452583
 20
139.4518438050448
 30
0.0
 11
291.2197674420888
 21
139.6013210764882
 31
0.0
  0
LINE
  5
88D
  8
LAYER_1
 10
291.2197674420888
 20
139.6013210764882
 30
0.0
 11
291.2590711526376
 21
139.7226893557609
 31
0.0
  0
LINE
  5
88E
  8
LAYER_1
 10
291.2590711526376
 20
139.7226893557609
 30
0.0
 11
291.2913599058697
 21
139.7956161251449
 31
0.0
  0
LINE
  5
88F
  8
LAYER_1
 10
291.2913599058697
 20
139.7956161251449
 30
0.0
 11
291.289284499955
 21
139.8311530836598
 31
0.0
  0
LINE
  5
890
  8
LAYER_1
 10
291.289284499955
 20
139.8311530836598
 30
0.0
 11
291.251060646506
 21
139.8308606456401
 31
0.0
  0
LINE
  5
891
  8
LAYER_1
 10
291.251060646506
 20
139.8308606456401
 30
0.0
 11
291.1749038539877
 21
139.7962995301467
 31
0.0
  0
LINE
  5
892
  8
LAYER_1
 10
291.1749038539877
 20
139.7962995301467
 30
0.0
 11
290.977719468936
 21
139.6604227089563
 31
0.0
  0
LINE
  5
893
  8
LAYER_1
 10
290.977719468936
 20
139.6604227089563
 30
0.0
 11
290.7965566040246
 21
139.4775663648273
 31
0.0
  0
LINE
  5
894
  8
LAYER_1
 10
290.7965566040246
 20
139.4775663648273
 30
0.0
 11
290.6436527594047
 21
139.2623136982185
 31
0.0
  0
LINE
  5
895
  8
LAYER_1
 10
290.6436527594047
 20
139.2623136982185
 30
0.0
 11
290.5312451304947
 21
139.0292483158958
 31
0.0
  0
LINE
  5
896
  8
LAYER_1
 10
290.5312451304947
 20
139.0292483158958
 30
0.0
 11
290.4851949286543
 21
138.8713627657311
 31
0.0
  0
LINE
  5
897
  8
LAYER_1
 10
290.4851949286543
 20
138.8713627657311
 30
0.0
 11
290.4473639721381
 21
138.6862129314805
 31
0.0
  0
LINE
  5
898
  8
LAYER_1
 10
290.4473639721381
 20
138.6862129314805
 30
0.0
 11
290.4263919303572
 21
138.5247289411267
 31
0.0
  0
LINE
  5
899
  8
LAYER_1
 10
290.4263919303572
 20
138.5247289411267
 30
0.0
 11
290.4309186758842
 21
138.4378410242299
 31
0.0
  0
LINE
  5
89A
  8
LAYER_1
 10
290.4309186758842
 20
138.4378410242299
 30
0.0
 11
290.4583064766905
 21
138.4131917190921
 31
0.0
  0
LINE
  5
89B
  8
LAYER_1
 10
290.4583064766905
 20
138.4131917190921
 30
0.0
 11
290.4939975263737
 21
138.4123379707212
 31
0.0
  0
LINE
  5
89C
  8
LAYER_1
 10
290.4939975263737
 20
138.4123379707212
 30
0.0
 11
290.536329631203
 21
138.4348190292523
 31
0.0
  0
LINE
  5
89D
  8
LAYER_1
 10
290.536329631203
 20
138.4348190292523
 30
0.0
 11
290.5836408005959
 21
138.4801742463981
 31
0.0
  0
LINE
  5
89E
  8
LAYER_1
 10
290.5836408005959
 20
138.4801742463981
 30
0.0
 11
290.675452321424
 21
138.5518418766022
 31
0.0
  0
LINE
  5
89F
  8
LAYER_1
 10
290.675452321424
 20
138.5518418766022
 30
0.0
 11
290.8261439369205
 21
138.4422686313376
 31
0.0
  0
LINE
  5
8A0
  8
LAYER_1
 10
290.8261439369205
 20
138.4422686313376
 30
0.0
 11
291.0791642780438
 21
138.2411272419371
 31
0.0
  0
LINE
  5
8A1
  8
LAYER_1
 10
291.0791642780438
 20
138.2411272419371
 30
0.0
 11
291.3436938176107
 21
138.0820218626013
 31
0.0
  0
LINE
  5
8A2
  8
LAYER_1
 10
291.3436938176107
 20
138.0820218626013
 30
0.0
 11
291.6090837080054
 21
137.9703931203663
 31
0.0
  0
LINE
  5
8A3
  8
LAYER_1
 10
291.6090837080054
 20
137.9703931203663
 30
0.0
 11
291.8646848984574
 21
137.9116815406934
 31
0.0
  0
LINE
  5
8A4
  8
LAYER_1
 10
291.8646848984574
 20
137.9116815406934
 30
0.0
 11
292.4721666314913
 21
137.8974657415252
 31
0.0
  0
LINE
  5
8A5
  8
LAYER_1
 10
292.4721666314913
 20
137.8974657415252
 30
0.0
 11
293.0187198832244
 21
137.9106162089959
 31
0.0
  0
LINE
  5
8A6
  8
LAYER_1
 10
293.0187198832244
 20
137.9106162089959
 30
0.0
 11
293.0187198832244
 21
137.9106162089959
 31
0.0
  0
LINE
  5
8A7
  8
LAYER_1
 10
293.6855097532385
 20
138.2439317621665
 30
0.0
 11
293.8076783517762
 21
138.2948281668346
 31
0.0
  0
LINE
  5
8A8
  8
LAYER_1
 10
293.8076783517762
 20
138.2948281668346
 30
0.0
 11
293.9511832445191
 21
138.3145201447274
 31
0.0
  0
LINE
  5
8A9
  8
LAYER_1
 10
293.9511832445191
 20
138.3145201447274
 30
0.0
 11
294.173154367376
 21
138.3045233150513
 31
0.0
  0
LINE
  5
8AA
  8
LAYER_1
 10
294.173154367376
 20
138.3045233150513
 30
0.0
 11
294.5307220625501
 21
138.2663530938629
 31
0.0
  0
LINE
  5
8AB
  8
LAYER_1
 10
294.5307220625501
 20
138.2663530938629
 30
0.0
 11
294.7936267884427
 21
138.2470936276381
 31
0.0
  0
LINE
  5
8AC
  8
LAYER_1
 10
294.7936267884427
 20
138.2470936276381
 30
0.0
 11
294.9750616745471
 21
138.2762509882725
 31
0.0
  0
LINE
  5
8AD
  8
LAYER_1
 10
294.9750616745471
 20
138.2762509882725
 30
0.0
 11
295.4050686746887
 21
138.3516939029155
 31
0.0
  0
LINE
  5
8AE
  8
LAYER_1
 10
295.4050686746887
 20
138.3516939029155
 30
0.0
 11
296.0070771747098
 21
138.4270974059734
 31
0.0
  0
LINE
  5
8AF
  8
LAYER_1
 10
296.0070771747098
 20
138.4270974059734
 30
0.0
 11
296.6012943701439
 21
138.4877829168886
 31
0.0
  0
LINE
  5
8B0
  8
LAYER_1
 10
296.6012943701439
 20
138.4877829168886
 30
0.0
 11
296.7602888282184
 21
138.48145146615
 31
0.0
  0
LINE
  5
8B1
  8
LAYER_1
 10
296.7602888282184
 20
138.48145146615
 30
0.0
 11
296.8759542105794
 21
138.4520718566827
 31
0.0
  0
LINE
  5
8B2
  8
LAYER_1
 10
296.8759542105794
 20
138.4520718566827
 30
0.0
 11
296.9941884562707
 21
138.4165724813805
 31
0.0
  0
LINE
  5
8B3
  8
LAYER_1
 10
296.9941884562707
 20
138.4165724813805
 30
0.0
 11
297.0798791955005
 21
138.4175450739618
 31
0.0
  0
LINE
  5
8B4
  8
LAYER_1
 10
297.0798791955005
 20
138.4175450739618
 30
0.0
 11
297.1438090518025
 21
138.4579733351602
 31
0.0
  0
LINE
  5
8B5
  8
LAYER_1
 10
297.1438090518025
 20
138.4579733351602
 30
0.0
 11
297.1967608518648
 21
138.540840965708
 31
0.0
  0
LINE
  5
8B6
  8
LAYER_1
 10
297.1967608518648
 20
138.540840965708
 30
0.0
 11
297.2961031341991
 21
138.7057072419926
 31
0.0
  0
LINE
  5
8B7
  8
LAYER_1
 10
297.2961031341991
 20
138.7057072419926
 30
0.0
 11
297.3404035835779
 21
138.7415746280453
 31
0.0
  0
LINE
  5
8B8
  8
LAYER_1
 10
297.3404035835779
 20
138.7415746280453
 30
0.0
 11
297.3866067592494
 21
138.7525115459033
 31
0.0
  0
LINE
  5
8B9
  8
LAYER_1
 10
297.3866067592494
 20
138.7525115459033
 30
0.0
 11
297.4158940359049
 21
138.7436179358655
 31
0.0
  0
LINE
  5
8BA
  8
LAYER_1
 10
297.4158940359049
 20
138.7436179358655
 30
0.0
 11
297.4325564006019
 21
138.7019197684051
 31
0.0
  0
LINE
  5
8BB
  8
LAYER_1
 10
297.4325564006019
 20
138.7019197684051
 30
0.0
 11
297.4440573713703
 21
138.4300068544671
 31
0.0
  0
LINE
  5
8BC
  8
LAYER_1
 10
297.4440573713703
 20
138.4300068544671
 30
0.0
 11
297.4476834402981
 21
138.1075022646064
 31
0.0
  0
LINE
  5
8BD
  8
LAYER_1
 10
297.4476834402981
 20
138.1075022646064
 30
0.0
 11
297.4730606408349
 21
138.3052497883832
 31
0.0
  0
LINE
  5
8BE
  8
LAYER_1
 10
297.4730606408349
 20
138.3052497883832
 30
0.0
 11
297.5166779899396
 21
138.5006927502272
 31
0.0
  0
LINE
  5
8BF
  8
LAYER_1
 10
297.5166779899396
 20
138.5006927502272
 30
0.0
 11
297.5984361031217
 21
138.6913170364051
 31
0.0
  0
LINE
  5
8C0
  8
LAYER_1
 10
297.5984361031217
 20
138.6913170364051
 30
0.0
 11
297.6984346695995
 21
138.9123758013936
 31
0.0
  0
LINE
  5
8C1
  8
LAYER_1
 10
297.6984346695995
 20
138.9123758013936
 30
0.0
 11
297.6825766872178
 21
138.935768913063
 31
0.0
  0
LINE
  5
8C2
  8
LAYER_1
 10
297.6825766872178
 20
138.935768913063
 30
0.0
 11
297.6389366866086
 21
138.9612258509548
 31
0.0
  0
LINE
  5
8C3
  8
LAYER_1
 10
297.6389366866086
 20
138.9612258509548
 30
0.0
 11
297.491914614675
 21
139.0119412467482
 31
0.0
  0
LINE
  5
8C4
  8
LAYER_1
 10
297.491914614675
 20
139.0119412467482
 30
0.0
 11
297.3045760154142
 21
139.0517423761866
 31
0.0
  0
LINE
  5
8C5
  8
LAYER_1
 10
297.3045760154142
 20
139.0517423761866
 30
0.0
 11
297.1241282472962
 21
139.0678493219546
 31
0.0
  0
LINE
  5
8C6
  8
LAYER_1
 10
297.1241282472962
 20
139.0678493219546
 30
0.0
 11
296.9203074796066
 21
139.0524503626406
 31
0.0
  0
LINE
  5
8C7
  8
LAYER_1
 10
296.9203074796066
 20
139.0524503626406
 30
0.0
 11
296.6973101319089
 21
139.0014847845469
 31
0.0
  0
LINE
  5
8C8
  8
LAYER_1
 10
296.6973101319089
 20
139.0014847845469
 30
0.0
 11
296.4309377960367
 21
138.9078001976914
 31
0.0
  0
LINE
  5
8C9
  8
LAYER_1
 10
296.4309377960367
 20
138.9078001976914
 30
0.0
 11
296.0969920638198
 21
138.7642438057893
 31
0.0
  0
LINE
  5
8CA
  8
LAYER_1
 10
296.0969920638198
 20
138.7642438057893
 30
0.0
 11
295.5769681920149
 21
138.5394855322441
 31
0.0
  0
LINE
  5
8CB
  8
LAYER_1
 10
295.5769681920149
 20
138.5394855322441
 30
0.0
 11
295.4182547954223
 21
138.4889943152318
 31
0.0
  0
LINE
  5
8CC
  8
LAYER_1
 10
295.4182547954223
 20
138.4889943152318
 30
0.0
 11
295.2534888764716
 21
138.4525724244371
 31
0.0
  0
LINE
  5
8CD
  8
LAYER_1
 10
295.2534888764716
 20
138.4525724244371
 30
0.0
 11
295.0859280870344
 21
138.4288699115141
 31
0.0
  0
LINE
  5
8CE
  8
LAYER_1
 10
295.0859280870344
 20
138.4288699115141
 30
0.0
 11
295.0456044493721
 21
138.4362234224677
 31
0.0
  0
LINE
  5
8CF
  8
LAYER_1
 10
295.0456044493721
 20
138.4362234224677
 30
0.0
 11
295.0169855444324
 21
138.4566798632088
 31
0.0
  0
LINE
  5
8D0
  8
LAYER_1
 10
295.0169855444324
 20
138.4566798632088
 30
0.0
 11
294.9815630623496
 21
138.5175124565325
 31
0.0
  0
LINE
  5
8D1
  8
LAYER_1
 10
294.9815630623496
 20
138.5175124565325
 30
0.0
 11
294.9877226460742
 21
138.576030533452
 31
0.0
  0
LINE
  5
8D2
  8
LAYER_1
 10
294.9877226460742
 20
138.576030533452
 30
0.0
 11
295.0299249364589
 21
138.6204446466525
 31
0.0
  0
LINE
  5
8D3
  8
LAYER_1
 10
295.0299249364589
 20
138.6204446466525
 30
0.0
 11
295.102630980655
 21
138.6389652472442
 31
0.0
  0
LINE
  5
8D4
  8
LAYER_1
 10
295.102630980655
 20
138.6389652472442
 30
0.0
 11
295.1262391292423
 21
138.650511521018
 31
0.0
  0
LINE
  5
8D5
  8
LAYER_1
 10
295.1262391292423
 20
138.650511521018
 30
0.0
 11
295.0610637449781
 21
138.6883801623243
 31
0.0
  0
LINE
  5
8D6
  8
LAYER_1
 10
295.0610637449781
 20
138.6883801623243
 30
0.0
 11
294.992808873581
 21
138.7122779047976
 31
0.0
  0
LINE
  5
8D7
  8
LAYER_1
 10
294.992808873581
 20
138.7122779047976
 30
0.0
 11
294.8954639866016
 21
138.7268496271414
 31
0.0
  0
LINE
  5
8D8
  8
LAYER_1
 10
294.8954639866016
 20
138.7268496271414
 30
0.0
 11
294.5307228751616
 21
138.7353459724704
 31
0.0
  0
LINE
  5
8D9
  8
LAYER_1
 10
294.5307228751616
 20
138.7353459724704
 30
0.0
 11
294.1377874475021
 21
138.7225785490336
 31
0.0
  0
LINE
  5
8DA
  8
LAYER_1
 10
294.1377874475021
 20
138.7225785490336
 30
0.0
 11
294.0281351759153
 21
138.6993208385036
 31
0.0
  0
LINE
  5
8DB
  8
LAYER_1
 10
294.0281351759153
 20
138.6993208385036
 30
0.0
 11
293.9156739147465
 21
138.6570926461766
 31
0.0
  0
LINE
  5
8DC
  8
LAYER_1
 10
293.9156739147465
 20
138.6570926461766
 30
0.0
 11
293.760937431446
 21
138.5856038917465
 31
0.0
  0
LINE
  5
8DD
  8
LAYER_1
 10
293.760937431446
 20
138.5856038917465
 30
0.0
 11
293.6344364027463
 21
138.5111662772378
 31
0.0
  0
LINE
  5
8DE
  8
LAYER_1
 10
293.6344364027463
 20
138.5111662772378
 30
0.0
 11
293.5340630199092
 21
138.4323561099484
 31
0.0
  0
LINE
  5
8DF
  8
LAYER_1
 10
293.5340630199092
 20
138.4323561099484
 30
0.0
 11
293.4577096773475
 21
138.3477495955986
 31
0.0
  0
LINE
  5
8E0
  8
LAYER_1
 10
293.4577096773475
 20
138.3477495955986
 30
0.0
 11
293.4119035632358
 21
138.2635103809652
 31
0.0
  0
LINE
  5
8E1
  8
LAYER_1
 10
293.4119035632358
 20
138.2635103809652
 30
0.0
 11
293.3815884365163
 21
138.1639106028386
 31
0.0
  0
LINE
  5
8E2
  8
LAYER_1
 10
293.3815884365163
 20
138.1639106028386
 30
0.0
 11
293.3704040789158
 21
138.0662520484027
 31
0.0
  0
LINE
  5
8E3
  8
LAYER_1
 10
293.3704040789158
 20
138.0662520484027
 30
0.0
 11
293.3819907800383
 21
137.987836707992
 31
0.0
  0
LINE
  5
8E4
  8
LAYER_1
 10
293.3819907800383
 20
137.987836707992
 30
0.0
 11
293.3943624624098
 21
137.9669478571603
 31
0.0
  0
LINE
  5
8E5
  8
LAYER_1
 10
293.3943624624098
 20
137.9669478571603
 30
0.0
 11
293.4099011906426
 21
137.9685695219722
 31
0.0
  0
LINE
  5
8E6
  8
LAYER_1
 10
293.4099011906426
 20
137.9685695219722
 30
0.0
 11
293.4648821794259
 21
138.0501755755095
 31
0.0
  0
LINE
  5
8E7
  8
LAYER_1
 10
293.4648821794259
 20
138.0501755755095
 30
0.0
 11
293.5503099377479
 21
138.1556468671199
 31
0.0
  0
LINE
  5
8E8
  8
LAYER_1
 10
293.5503099377479
 20
138.1556468671199
 30
0.0
 11
293.6855097532385
 21
138.2439317621665
 31
0.0
  0
LINE
  5
8E9
  8
LAYER_1
 10
293.6855097532385
 20
138.2439317621665
 30
0.0
 11
293.6855097532385
 21
138.2439317621665
 31
0.0
  0
LINE
  5
8EA
  8
LAYER_1
 10
297.9134376617894
 20
138.4384504817224
 30
0.0
 11
298.2717761175391
 21
138.5102944482947
 31
0.0
  0
LINE
  5
8EB
  8
LAYER_1
 10
298.2717761175391
 20
138.5102944482947
 30
0.0
 11
299.0369497964085
 21
138.6589793234213
 31
0.0
  0
LINE
  5
8EC
  8
LAYER_1
 10
299.0369497964085
 20
138.6589793234213
 30
0.0
 11
299.2570212402586
 21
138.7206042114857
 31
0.0
  0
LINE
  5
8ED
  8
LAYER_1
 10
299.2570212402586
 20
138.7206042114857
 30
0.0
 11
299.4614596931194
 21
138.7960166532535
 31
0.0
  0
LINE
  5
8EE
  8
LAYER_1
 10
299.4614596931194
 20
138.7960166532535
 30
0.0
 11
299.6430492798499
 21
138.8755796021231
 31
0.0
  0
LINE
  5
8EF
  8
LAYER_1
 10
299.6430492798499
 20
138.8755796021231
 30
0.0
 11
299.7782825139278
 21
138.9526667315045
 31
0.0
  0
LINE
  5
8F0
  8
LAYER_1
 10
299.7782825139278
 20
138.9526667315045
 30
0.0
 11
299.8786587408982
 21
139.035061727765
 31
0.0
  0
LINE
  5
8F1
  8
LAYER_1
 10
299.8786587408982
 20
139.035061727765
 30
0.0
 11
299.9556769000079
 21
139.1305482772741
 31
0.0
  0
LINE
  5
8F2
  8
LAYER_1
 10
299.9556769000079
 20
139.1305482772741
 30
0.0
 11
299.9979598419333
 21
139.201923063153
 31
0.0
  0
LINE
  5
8F3
  8
LAYER_1
 10
299.9979598419333
 20
139.201923063153
 30
0.0
 11
300.021834425021
 21
139.2708714971778
 31
0.0
  0
LINE
  5
8F4
  8
LAYER_1
 10
300.021834425021
 20
139.2708714971778
 30
0.0
 11
300.0348012426347
 21
139.4958766010077
 31
0.0
  0
LINE
  5
8F5
  8
LAYER_1
 10
300.0348012426347
 20
139.4958766010077
 30
0.0
 11
300.0202630404531
 21
139.7281874749549
 31
0.0
  0
LINE
  5
8F6
  8
LAYER_1
 10
300.0202630404531
 20
139.7281874749549
 30
0.0
 11
299.9498331168398
 21
139.9092195096562
 31
0.0
  0
LINE
  5
8F7
  8
LAYER_1
 62
     7
 10
299.9498331168398
 20
139.9092195096562
 30
0.0
 11
299.8644646790475
 21
140.0455615500655
 31
0.0
  0
LINE
  5
8F8
  8
LAYER_1
 62
     7
 10
299.8644646790475
 20
140.0455615500655
 30
0.0
 11
299.7466891516948
 21
140.1785462923002
 31
0.0
  0
LINE
  5
8F9
  8
LAYER_1
 62
     7
 10
299.7466891516948
 20
140.1785462923002
 30
0.0
 11
299.5919277822146
 21
140.3126611718786
 31
0.0
  0
LINE
  5
8FA
  8
LAYER_1
 62
     7
 10
299.5919277822146
 20
140.3126611718786
 30
0.0
 11
299.3956014117348
 21
140.4523940306245
 31
0.0
  0
LINE
  5
8FB
  8
LAYER_1
 62
     7
 10
299.3956014117348
 20
140.4523940306245
 30
0.0
 11
299.1758837579569
 21
140.6172119566159
 31
0.0
  0
LINE
  5
8FC
  8
LAYER_1
 62
     7
 10
299.1758837579569
 20
140.6172119566159
 30
0.0
 11
299.1405768696474
 21
140.670893480449
 31
0.0
  0
LINE
  5
8FD
  8
LAYER_1
 62
     7
 10
299.1405768696474
 20
140.670893480449
 30
0.0
 11
299.1428916907792
 21
140.7181253187911
 31
0.0
  0
LINE
  5
8FE
  8
LAYER_1
 62
     7
 10
299.1428916907792
 20
140.7181253187911
 30
0.0
 11
299.1676811711399
 21
140.7416262028601
 31
0.0
  0
LINE
  5
8FF
  8
LAYER_1
 62
     7
 10
299.1676811711399
 20
140.7416262028601
 30
0.0
 11
299.2165785552333
 21
140.7532837026273
 31
0.0
  0
LINE
  5
900
  8
LAYER_1
 62
     7
 10
299.2165785552333
 20
140.7532837026273
 30
0.0
 11
299.3703844985191
 21
140.743751177984
 31
0.0
  0
LINE
  5
901
  8
LAYER_1
 62
     7
 10
299.3703844985191
 20
140.743751177984
 30
0.0
 11
299.5716848547474
 21
140.6948923928666
 31
0.0
  0
LINE
  5
902
  8
LAYER_1
 62
     7
 10
299.5716848547474
 20
140.6948923928666
 30
0.0
 11
299.7878547548842
 21
140.6120718936987
 31
0.0
  0
LINE
  5
903
  8
LAYER_1
 62
     7
 10
299.7878547548842
 20
140.6120718936987
 30
0.0
 11
300.1743585776238
 21
140.4044708643336
 31
0.0
  0
LINE
  5
904
  8
LAYER_1
 62
     7
 10
300.1743585776238
 20
140.4044708643336
 30
0.0
 11
300.505825646217
 21
140.1688664820966
 31
0.0
  0
LINE
  5
905
  8
LAYER_1
 62
     7
 10
300.505825646217
 20
140.1688664820966
 30
0.0
 11
300.6435274878704
 21
140.046634195252
 31
0.0
  0
LINE
  5
906
  8
LAYER_1
 62
     7
 10
300.6435274878704
 20
140.046634195252
 30
0.0
 11
300.7585986491755
 21
139.924686423481
 31
0.0
  0
LINE
  5
907
  8
LAYER_1
 10
300.7585986491755
 20
139.924686423481
 30
0.0
 11
300.8480819408033
 21
139.8054516517371
 31
0.0
  0
LINE
  5
908
  8
LAYER_1
 10
300.8480819408033
 20
139.8054516517371
 30
0.0
 11
300.9090202750048
 21
139.6913582634023
 31
0.0
  0
LINE
  5
909
  8
LAYER_1
 10
300.9090202750048
 20
139.6913582634023
 30
0.0
 11
300.9639245737196
 21
139.5749430451725
 31
0.0
  0
LINE
  5
90A
  8
LAYER_1
 10
300.9639245737196
 20
139.5749430451725
 30
0.0
 11
301.0004232561592
 21
139.5265225615677
 31
0.0
  0
LINE
  5
90B
  8
LAYER_1
 10
301.0004232561592
 20
139.5265225615677
 30
0.0
 11
301.0205536371399
 21
139.5398831902983
 31
0.0
  0
LINE
  5
90C
  8
LAYER_1
 10
301.0205536371399
 20
139.5398831902983
 30
0.0
 11
301.0180680663335
 21
139.5824568434472
 31
0.0
  0
LINE
  5
90D
  8
LAYER_1
 10
301.0180680663335
 20
139.5824568434472
 30
0.0
 11
300.9416428077878
 21
139.7701927074156
 31
0.0
  0
LINE
  5
90E
  8
LAYER_1
 10
300.9416428077878
 20
139.7701927074156
 30
0.0
 11
300.8242293997616
 21
139.9685084487268
 31
0.0
  0
LINE
  5
90F
  8
LAYER_1
 62
     7
 10
300.8242293997616
 20
139.9685084487268
 30
0.0
 11
300.6688790911923
 21
140.1517134025424
 31
0.0
  0
LINE
  5
910
  8
LAYER_1
 62
     7
 10
300.6688790911923
 20
140.1517134025424
 30
0.0
 11
300.476199511195
 21
140.3194545913967
 31
0.0
  0
LINE
  5
911
  8
LAYER_1
 62
     7
 10
300.476199511195
 20
140.3194545913967
 30
0.0
 11
300.2467978825901
 21
140.4713787330971
 31
0.0
  0
LINE
  5
912
  8
LAYER_1
 62
     7
 10
300.2467978825901
 20
140.4713787330971
 30
0.0
 11
299.981281631342
 21
140.6071329517546
 31
0.0
  0
LINE
  5
913
  8
LAYER_1
 62
     7
 10
299.981281631342
 20
140.6071329517546
 30
0.0
 11
299.680258284996
 21
140.726364168329
 31
0.0
  0
LINE
  5
914
  8
LAYER_1
 62
     7
 10
299.680258284996
 20
140.726364168329
 30
0.0
 11
299.3443350663664
 21
140.8287193037795
 31
0.0
  0
LINE
  5
915
  8
LAYER_1
 62
     7
 10
299.3443350663664
 20
140.8287193037795
 30
0.0
 11
298.9741194014237
 21
140.9138452790656
 31
0.0
  0
LINE
  5
916
  8
LAYER_1
 62
     7
 10
298.9741194014237
 20
140.9138452790656
 30
0.0
 11
298.5006830698141
 21
140.9891051533081
 31
0.0
  0
LINE
  5
917
  8
LAYER_1
 10
298.5006830698141
 20
140.9891051533081
 30
0.0
 11
297.9891031299936
 21
141.0456873900779
 31
0.0
  0
LINE
  5
918
  8
LAYER_1
 10
297.9891031299936
 20
141.0456873900779
 30
0.0
 11
297.5794424619384
 21
141.071122184347
 31
0.0
  0
LINE
  5
919
  8
LAYER_1
 10
297.5794424619384
 20
141.071122184347
 30
0.0
 11
297.4566015302114
 21
141.0682626097921
 31
0.0
  0
LINE
  5
91A
  8
LAYER_1
 10
297.4566015302114
 20
141.0682626097921
 30
0.0
 11
297.4117638440546
 21
141.0529400358167
 31
0.0
  0
LINE
  5
91B
  8
LAYER_1
 10
297.4117638440546
 20
141.0529400358167
 30
0.0
 11
297.4412877933708
 21
141.0245968088162
 31
0.0
  0
LINE
  5
91C
  8
LAYER_1
 10
297.4412877933708
 20
141.0245968088162
 30
0.0
 11
297.5173922741216
 21
140.9868500590083
 31
0.0
  0
LINE
  5
91D
  8
LAYER_1
 10
297.5173922741216
 20
140.9868500590083
 30
0.0
 11
297.7345393377691
 21
140.9150925338245
 31
0.0
  0
LINE
  5
91E
  8
LAYER_1
 10
297.7345393377691
 20
140.9150925338245
 30
0.0
 11
297.8293992633987
 21
140.870699446907
 31
0.0
  0
LINE
  5
91F
  8
LAYER_1
 10
297.8293992633987
 20
140.870699446907
 30
0.0
 11
297.8880352703438
 21
140.8452080746668
 31
0.0
  0
LINE
  5
920
  8
LAYER_1
 10
297.8880352703438
 20
140.8452080746668
 30
0.0
 11
298.0655125426427
 21
140.786396340813
 31
0.0
  0
LINE
  5
921
  8
LAYER_1
 10
298.0655125426427
 20
140.786396340813
 30
0.0
 11
298.2847545148468
 21
140.6811028076374
 31
0.0
  0
LINE
  5
922
  8
LAYER_1
 62
     7
 10
298.2847545148468
 20
140.6811028076374
 30
0.0
 11
298.4758335578904
 21
140.5687769476072
 31
0.0
  0
LINE
  5
923
  8
LAYER_1
 62
     7
 10
298.4758335578904
 20
140.5687769476072
 30
0.0
 11
298.6395637038332
 21
140.4485423608474
 31
0.0
  0
LINE
  5
924
  8
LAYER_1
 62
     7
 10
298.6395637038332
 20
140.4485423608474
 30
0.0
 11
298.7767589847321
 21
140.3195225459075
 31
0.0
  0
LINE
  5
925
  8
LAYER_1
 62
     7
 10
298.7767589847321
 20
140.3195225459075
 30
0.0
 11
298.8882335342209
 21
140.1808412044888
 31
0.0
  0
LINE
  5
926
  8
LAYER_1
 62
     7
 10
298.8882335342209
 20
140.1808412044888
 30
0.0
 11
298.9748013843593
 21
140.0316220382936
 31
0.0
  0
LINE
  5
927
  8
LAYER_1
 62
     7
 10
298.9748013843593
 20
140.0316220382936
 30
0.0
 11
299.037276668777
 21
139.8709885458708
 31
0.0
  0
LINE
  5
928
  8
LAYER_1
 10
299.037276668777
 20
139.8709885458708
 30
0.0
 11
299.0764735211131
 21
139.6980643273466
 31
0.0
  0
LINE
  5
929
  8
LAYER_1
 10
299.0764735211131
 20
139.6980643273466
 30
0.0
 11
299.0911327006064
 21
139.5268956511299
 31
0.0
  0
LINE
  5
92A
  8
LAYER_1
 10
299.0911327006064
 20
139.5268956511299
 30
0.0
 11
299.0743525074606
 21
139.3867306870212
 31
0.0
  0
LINE
  5
92B
  8
LAYER_1
 10
299.0743525074606
 20
139.3867306870212
 30
0.0
 11
299.0234701203154
 21
139.2673550290211
 31
0.0
  0
LINE
  5
92C
  8
LAYER_1
 10
299.0234701203154
 20
139.2673550290211
 30
0.0
 11
298.9358228193816
 21
139.158554575857
 31
0.0
  0
LINE
  5
92D
  8
LAYER_1
 10
298.9358228193816
 20
139.158554575857
 30
0.0
 11
298.8348277899039
 21
139.0712175903644
 31
0.0
  0
LINE
  5
92E
  8
LAYER_1
 10
298.8348277899039
 20
139.0712175903644
 30
0.0
 11
298.7171605428315
 21
139.0016605114572
 31
0.0
  0
LINE
  5
92F
  8
LAYER_1
 10
298.7171605428315
 20
139.0016605114572
 30
0.0
 11
298.5621771276699
 21
138.9399441031928
 31
0.0
  0
LINE
  5
930
  8
LAYER_1
 10
298.5621771276699
 20
138.9399441031928
 30
0.0
 11
298.3492336955003
 21
138.8761288248996
 31
0.0
  0
LINE
  5
931
  8
LAYER_1
 10
298.3492336955003
 20
138.8761288248996
 30
0.0
 11
298.0873283783203
 21
138.7835129217578
 31
0.0
  0
LINE
  5
932
  8
LAYER_1
 10
298.0873283783203
 20
138.7835129217578
 30
0.0
 11
297.8836682026789
 21
138.6713370898474
 31
0.0
  0
LINE
  5
933
  8
LAYER_1
 10
297.8836682026789
 20
138.6713370898474
 30
0.0
 11
297.7600643317475
 21
138.5548417279576
 31
0.0
  0
LINE
  5
934
  8
LAYER_1
 10
297.7600643317475
 20
138.5548417279576
 30
0.0
 11
297.73509953078
 21
138.4997368161493
 31
0.0
  0
LINE
  5
935
  8
LAYER_1
 10
297.73509953078
 20
138.4997368161493
 30
0.0
 11
297.738328030272
 21
138.4492671333021
 31
0.0
  0
LINE
  5
936
  8
LAYER_1
 10
297.738328030272
 20
138.4492671333021
 30
0.0
 11
297.7523151813055
 21
138.4221353046443
 31
0.0
  0
LINE
  5
937
  8
LAYER_1
 10
297.7523151813055
 20
138.4221353046443
 30
0.0
 11
297.7764534563359
 21
138.4118882926678
 31
0.0
  0
LINE
  5
938
  8
LAYER_1
 10
297.7764534563359
 20
138.4118882926678
 30
0.0
 11
297.9134376617894
 21
138.4384504817224
 31
0.0
  0
LINE
  5
939
  8
LAYER_1
 10
297.9134376617894
 20
138.4384504817224
 30
0.0
 11
297.9134376617894
 21
138.4384504817224
 31
0.0
  0
LINE
  5
93A
  8
LAYER_1
 10
294.0253524945806
 20
122.5557859849696
 30
0.0
 11
293.9328166335215
 21
122.6181081939818
 31
0.0
  0
LINE
  5
93B
  8
LAYER_1
 10
293.9328166335215
 20
122.6181081939818
 30
0.0
 11
293.8512652280077
 21
122.6964291700568
 31
0.0
  0
LINE
  5
93C
  8
LAYER_1
 10
293.8512652280077
 20
122.6964291700568
 30
0.0
 11
293.793180780094
 21
122.7765824800836
 31
0.0
  0
LINE
  5
93D
  8
LAYER_1
 10
293.793180780094
 20
122.7765824800836
 30
0.0
 11
293.7710453855368
 21
122.8444017925271
 31
0.0
  0
LINE
  5
93E
  8
LAYER_1
 10
293.7710453855368
 20
122.8444017925271
 30
0.0
 11
293.8017655983347
 21
122.917285899887
 31
0.0
  0
LINE
  5
93F
  8
LAYER_1
 10
293.8017655983347
 20
122.917285899887
 30
0.0
 11
293.8756246345312
 21
123.0152105840945
 31
0.0
  0
LINE
  5
940
  8
LAYER_1
 10
293.8756246345312
 20
123.0152105840945
 30
0.0
 11
293.9802037819473
 21
123.1309672835031
 31
0.0
  0
LINE
  5
941
  8
LAYER_1
 10
293.9802037819473
 20
123.1309672835031
 30
0.0
 11
293.9606327813677
 21
123.4772632655041
 31
0.0
  0
LINE
  5
942
  8
LAYER_1
 10
293.9606327813677
 20
123.4772632655041
 30
0.0
 11
293.9320683212969
 21
123.7676952563903
 31
0.0
  0
LINE
  5
943
  8
LAYER_1
 10
293.9320683212969
 20
123.7676952563903
 30
0.0
 11
293.8762318573455
 21
123.9604238977142
 31
0.0
  0
LINE
  5
944
  8
LAYER_1
 10
293.8762318573455
 20
123.9604238977142
 30
0.0
 11
293.8335782636892
 21
124.0294859955613
 31
0.0
  0
LINE
  5
945
  8
LAYER_1
 10
293.8335782636892
 20
124.0294859955613
 30
0.0
 11
293.7786968196279
 21
124.085326217834
 31
0.0
  0
LINE
  5
946
  8
LAYER_1
 10
293.7786968196279
 20
124.085326217834
 30
0.0
 11
293.625036841414
 21
124.1722796514114
 31
0.0
  0
LINE
  5
947
  8
LAYER_1
 10
293.625036841414
 20
124.1722796514114
 30
0.0
 11
293.5342508343932
 21
124.2181914048243
 31
0.0
  0
LINE
  5
948
  8
LAYER_1
 10
293.5342508343932
 20
124.2181914048243
 30
0.0
 11
293.4820969157633
 21
124.2691434732769
 31
0.0
  0
LINE
  5
949
  8
LAYER_1
 10
293.4820969157633
 20
124.2691434732769
 30
0.0
 11
293.4621026469568
 21
124.3356751036148
 31
0.0
  0
LINE
  5
94A
  8
LAYER_1
 10
293.4621026469568
 20
124.3356751036148
 30
0.0
 11
293.4677955893949
 21
124.4283258474099
 31
0.0
  0
LINE
  5
94B
  8
LAYER_1
 10
293.4677955893949
 20
124.4283258474099
 30
0.0
 11
293.4864716016461
 21
124.5528668608124
 31
0.0
  0
LINE
  5
94C
  8
LAYER_1
 10
293.4864716016461
 20
124.5528668608124
 30
0.0
 11
293.3337947799416
 21
124.5402057877079
 31
0.0
  0
LINE
  5
94D
  8
LAYER_1
 10
293.3337947799416
 20
124.5402057877079
 30
0.0
 11
293.2222635509066
 21
124.5407949299504
 31
0.0
  0
LINE
  5
94E
  8
LAYER_1
 10
293.2222635509066
 20
124.5407949299504
 30
0.0
 11
293.1507595600399
 21
124.5632339359154
 31
0.0
  0
LINE
  5
94F
  8
LAYER_1
 10
293.1507595600399
 20
124.5632339359154
 30
0.0
 11
293.121634906957
 21
124.6059985524114
 31
0.0
  0
LINE
  5
950
  8
LAYER_1
 10
293.121634906957
 20
124.6059985524114
 30
0.0
 11
293.1372418944284
 21
124.6675646278282
 31
0.0
  0
LINE
  5
951
  8
LAYER_1
 10
293.1372418944284
 20
124.6675646278282
 30
0.0
 11
293.2640297744539
 21
124.9349814722664
 31
0.0
  0
LINE
  5
952
  8
LAYER_1
 10
293.2640297744539
 20
124.9349814722664
 30
0.0
 11
293.3258936714316
 21
125.0572686102852
 31
0.0
  0
LINE
  5
953
  8
LAYER_1
 10
293.3258936714316
 20
125.0572686102852
 30
0.0
 11
293.3999754643417
 21
125.1655090735896
 31
0.0
  0
LINE
  5
954
  8
LAYER_1
 10
293.3999754643417
 20
125.1655090735896
 30
0.0
 11
293.6740174164538
 21
125.4524706103602
 31
0.0
  0
LINE
  5
955
  8
LAYER_1
 10
293.6740174164538
 20
125.4524706103602
 30
0.0
 11
293.9879920392471
 21
125.7309260504816
 31
0.0
  0
LINE
  5
956
  8
LAYER_1
 10
293.9879920392471
 20
125.7309260504816
 30
0.0
 11
294.3069439998058
 21
125.9478376603853
 31
0.0
  0
LINE
  5
957
  8
LAYER_1
 10
294.3069439998058
 20
125.9478376603853
 30
0.0
 11
294.9167738709824
 21
126.2754996827009
 31
0.0
  0
LINE
  5
958
  8
LAYER_1
 10
294.9167738709824
 20
126.2754996827009
 30
0.0
 11
295.2153801089137
 21
126.4219135160573
 31
0.0
  0
LINE
  5
959
  8
LAYER_1
 10
295.2153801089137
 20
126.4219135160573
 30
0.0
 11
295.364161887781
 21
126.4830035035958
 31
0.0
  0
LINE
  5
95A
  8
LAYER_1
 10
295.364161887781
 20
126.4830035035958
 30
0.0
 11
295.6425885818249
 21
126.6102586343658
 31
0.0
  0
LINE
  5
95B
  8
LAYER_1
 10
295.6425885818249
 20
126.6102586343658
 30
0.0
 11
295.8820354919767
 21
126.7447384774066
 31
0.0
  0
LINE
  5
95C
  8
LAYER_1
 10
295.8820354919767
 20
126.7447384774066
 30
0.0
 11
296.0609143133565
 21
126.8969293583362
 31
0.0
  0
LINE
  5
95D
  8
LAYER_1
 10
296.0609143133565
 20
126.8969293583362
 30
0.0
 11
296.1618729785389
 21
126.989881885166
 31
0.0
  0
LINE
  5
95E
  8
LAYER_1
 10
296.1618729785389
 20
126.989881885166
 30
0.0
 11
296.2450861714834
 21
127.0448884711655
 31
0.0
  0
LINE
  5
95F
  8
LAYER_1
 10
296.2450861714834
 20
127.0448884711655
 30
0.0
 11
296.3015885693224
 21
127.0576036844109
 31
0.0
  0
LINE
  5
960
  8
LAYER_1
 10
296.3015885693224
 20
127.0576036844109
 30
0.0
 11
296.3170216582566
 21
127.0467438629254
 31
0.0
  0
LINE
  5
961
  8
LAYER_1
 10
296.3170216582566
 20
127.0467438629254
 30
0.0
 11
296.3224150523377
 21
127.0236816866747
 31
0.0
  0
LINE
  5
962
  8
LAYER_1
 10
296.3224150523377
 20
127.0236816866747
 30
0.0
 11
296.236413794516
 21
126.8512486908893
 31
0.0
  0
LINE
  5
963
  8
LAYER_1
 10
296.236413794516
 20
126.8512486908893
 30
0.0
 11
296.1801329344753
 21
126.7511240682859
 31
0.0
  0
LINE
  5
964
  8
LAYER_1
 10
296.1801329344753
 20
126.7511240682859
 30
0.0
 11
296.1553337027937
 21
126.6795493803488
 31
0.0
  0
LINE
  5
965
  8
LAYER_1
 10
296.1553337027937
 20
126.6795493803488
 30
0.0
 11
296.1603243470502
 21
126.6258228582371
 31
0.0
  0
LINE
  5
966
  8
LAYER_1
 10
296.1603243470502
 20
126.6258228582371
 30
0.0
 11
296.1934132163938
 21
126.5792428346835
 31
0.0
  0
LINE
  5
967
  8
LAYER_1
 10
296.1934132163938
 20
126.5792428346835
 30
0.0
 11
296.2141859655724
 21
126.5426305899988
 31
0.0
  0
LINE
  5
968
  8
LAYER_1
 10
296.2141859655724
 20
126.5426305899988
 30
0.0
 11
296.2274099742487
 21
126.475110216456
 31
0.0
  0
LINE
  5
969
  8
LAYER_1
 10
296.2274099742487
 20
126.475110216456
 30
0.0
 11
296.2364378680861
 21
126.2014518162589
 31
0.0
  0
LINE
  5
96A
  8
LAYER_1
 10
296.2364378680861
 20
126.2014518162589
 30
0.0
 11
296.2655088889087
 21
125.5603523063543
 31
0.0
  0
LINE
  5
96B
  8
LAYER_1
 10
296.2655088889087
 20
125.5603523063543
 30
0.0
 11
296.2787268030106
 21
125.2452232694936
 31
0.0
  0
LINE
  5
96C
  8
LAYER_1
 10
296.2787268030106
 20
125.2452232694936
 30
0.0
 11
296.2468281025741
 21
124.9691152564811
 31
0.0
  0
LINE
  5
96D
  8
LAYER_1
 10
296.2468281025741
 20
124.9691152564811
 30
0.0
 11
296.1614303092471
 21
124.6925309524379
 31
0.0
  0
LINE
  5
96E
  8
LAYER_1
 10
296.1614303092471
 20
124.6925309524379
 30
0.0
 11
296.0141511478278
 21
124.3759735503677
 31
0.0
  0
LINE
  5
96F
  8
LAYER_1
 10
296.0141511478278
 20
124.3759735503677
 30
0.0
 11
295.6444470208719
 21
123.6299664970322
 31
0.0
  0
LINE
  5
970
  8
LAYER_1
 10
295.6444470208719
 20
123.6299664970322
 30
0.0
 11
295.5531091500922
 21
123.394608538775
 31
0.0
  0
LINE
  5
971
  8
LAYER_1
 10
295.5531091500922
 20
123.394608538775
 30
0.0
 11
295.4771887255036
 21
123.1432892950897
 31
0.0
  0
LINE
  5
972
  8
LAYER_1
 10
295.4771887255036
 20
123.1432892950897
 30
0.0
 11
295.4178458494453
 21
122.9440215811745
 31
0.0
  0
LINE
  5
973
  8
LAYER_1
 10
295.4178458494453
 20
122.9440215811745
 30
0.0
 11
295.3594333102476
 21
122.7903888253939
 31
0.0
  0
LINE
  5
974
  8
LAYER_1
 10
295.3594333102476
 20
122.7903888253939
 30
0.0
 11
295.2936597434566
 21
122.6765449083252
 31
0.0
  0
LINE
  5
975
  8
LAYER_1
 10
295.2936597434566
 20
122.6765449083252
 30
0.0
 11
295.2122338861831
 21
122.5966438121244
 31
0.0
  0
LINE
  5
976
  8
LAYER_1
 10
295.2122338861831
 20
122.5966438121244
 30
0.0
 11
295.1068642723971
 21
122.5448396205201
 31
0.0
  0
LINE
  5
977
  8
LAYER_1
 10
295.1068642723971
 20
122.5448396205201
 30
0.0
 11
294.9692596392157
 21
122.5152861125154
 31
0.0
  0
LINE
  5
978
  8
LAYER_1
 10
294.9692596392157
 20
122.5152861125154
 30
0.0
 11
294.5641799584063
 21
122.4995471774964
 31
0.0
  0
LINE
  5
979
  8
LAYER_1
 10
294.5641799584063
 20
122.4995471774964
 30
0.0
 11
294.1887288504487
 21
122.5104496610061
 31
0.0
  0
LINE
  5
97A
  8
LAYER_1
 10
294.1887288504487
 20
122.5104496610061
 30
0.0
 11
294.0947931671062
 21
122.5273250310965
 31
0.0
  0
LINE
  5
97B
  8
LAYER_1
 10
294.0947931671062
 20
122.5273250310965
 30
0.0
 11
294.0253524945806
 21
122.5557859849696
 31
0.0
  0
LINE
  5
97C
  8
LAYER_1
 10
294.0253524945806
 20
122.5557859849696
 30
0.0
 11
294.0253524945806
 21
122.5557859849696
 31
0.0
  0
LINE
  5
97D
  8
LAYER_1
 10
296.8169220562655
 20
123.4764975837409
 30
0.0
 11
296.7892112429885
 21
123.5166031371974
 31
0.0
  0
LINE
  5
97E
  8
LAYER_1
 10
296.7892112429885
 20
123.5166031371974
 30
0.0
 11
296.7862773146186
 21
123.5656500415282
 31
0.0
  0
LINE
  5
97F
  8
LAYER_1
 10
296.7862773146186
 20
123.5656500415282
 30
0.0
 11
296.8642910225421
 21
123.7446307438857
 31
0.0
  0
LINE
  5
980
  8
LAYER_1
 10
296.8642910225421
 20
123.7446307438857
 30
0.0
 11
296.9474160473032
 21
123.9255842601473
 31
0.0
  0
LINE
  5
981
  8
LAYER_1
 10
296.9474160473032
 20
123.9255842601473
 30
0.0
 11
297.0319177349643
 21
124.1527395300112
 31
0.0
  0
LINE
  5
982
  8
LAYER_1
 10
297.0319177349643
 20
124.1527395300112
 30
0.0
 11
297.1670344610843
 21
124.6339772222552
 31
0.0
  0
LINE
  5
983
  8
LAYER_1
 10
297.1670344610843
 20
124.6339772222552
 30
0.0
 11
297.351045727163
 21
125.4099503863183
 31
0.0
  0
LINE
  5
984
  8
LAYER_1
 10
297.351045727163
 20
125.4099503863183
 30
0.0
 11
297.4220909996911
 21
125.6112435306338
 31
0.0
  0
LINE
  5
985
  8
LAYER_1
 10
297.4220909996911
 20
125.6112435306338
 30
0.0
 11
297.4889608789363
 21
125.7211639635166
 31
0.0
  0
LINE
  5
986
  8
LAYER_1
 10
297.4889608789363
 20
125.7211639635166
 30
0.0
 11
297.5430695308964
 21
125.7701915683607
 31
0.0
  0
LINE
  5
987
  8
LAYER_1
 10
297.5430695308964
 20
125.7701915683607
 30
0.0
 11
297.5939991509975
 21
125.7909010355368
 31
0.0
  0
LINE
  5
988
  8
LAYER_1
 10
297.5939991509975
 20
125.7909010355368
 30
0.0
 11
297.6516422501104
 21
125.7846056443667
 31
0.0
  0
LINE
  5
989
  8
LAYER_1
 10
297.6516422501104
 20
125.7846056443667
 30
0.0
 11
297.7258916438307
 21
125.7526188773223
 31
0.0
  0
LINE
  5
98A
  8
LAYER_1
 10
297.7258916438307
 20
125.7526188773223
 30
0.0
 11
297.8078356415466
 21
125.7102441104688
 31
0.0
  0
LINE
  5
98B
  8
LAYER_1
 10
297.8078356415466
 20
125.7102441104688
 30
0.0
 11
298.0560494961538
 21
126.0536231273335
 31
0.0
  0
LINE
  5
98C
  8
LAYER_1
 10
298.0560494961538
 20
126.0536231273335
 30
0.0
 11
298.3275103957845
 21
126.3970022457745
 31
0.0
  0
LINE
  5
98D
  8
LAYER_1
 10
298.3275103957845
 20
126.3970022457745
 30
0.0
 11
298.3783998932685
 21
126.3611683798837
 31
0.0
  0
LINE
  5
98E
  8
LAYER_1
 10
298.3783998932685
 20
126.3611683798837
 30
0.0
 11
298.3912427878586
 21
126.3132457214748
 31
0.0
  0
LINE
  5
98F
  8
LAYER_1
 10
298.3912427878586
 20
126.3132457214748
 30
0.0
 11
298.3865839932079
 21
126.1651704054166
 31
0.0
  0
LINE
  5
990
  8
LAYER_1
 10
298.3865839932079
 20
126.1651704054166
 30
0.0
 11
298.302254985171
 21
125.2359857222776
 31
0.0
  0
LINE
  5
991
  8
LAYER_1
 10
298.302254985171
 20
125.2359857222776
 30
0.0
 11
298.2877227759885
 21
125.0001158197263
 31
0.0
  0
LINE
  5
992
  8
LAYER_1
 10
298.2877227759885
 20
125.0001158197263
 30
0.0
 11
298.2900180944822
 21
124.7795852512305
 31
0.0
  0
LINE
  5
993
  8
LAYER_1
 10
298.2900180944822
 20
124.7795852512305
 30
0.0
 11
298.3087078195278
 21
124.5830018928412
 31
0.0
  0
LINE
  5
994
  8
LAYER_1
 10
298.3087078195278
 20
124.5830018928412
 30
0.0
 11
298.3433589315772
 21
124.4189741284902
 31
0.0
  0
LINE
  5
995
  8
LAYER_1
 10
298.3433589315772
 20
124.4189741284902
 30
0.0
 11
298.3992869157288
 21
124.1663793918492
 31
0.0
  0
LINE
  5
996
  8
LAYER_1
 10
298.3992869157288
 20
124.1663793918492
 30
0.0
 11
298.3908912324633
 21
124.0961432757188
 31
0.0
  0
LINE
  5
997
  8
LAYER_1
 10
298.3908912324633
 20
124.0961432757188
 30
0.0
 11
298.3591900978304
 21
124.0409723393491
 31
0.0
  0
LINE
  5
998
  8
LAYER_1
 10
298.3591900978304
 20
124.0409723393491
 30
0.0
 11
298.3229731879058
 21
124.0051765645522
 31
0.0
  0
LINE
  5
999
  8
LAYER_1
 10
298.3229731879058
 20
124.0051765645522
 30
0.0
 11
298.2736542623795
 21
123.9851985479433
 31
0.0
  0
LINE
  5
99A
  8
LAYER_1
 10
298.2736542623795
 20
123.9851985479433
 30
0.0
 11
298.0521031573131
 21
123.9746344149181
 31
0.0
  0
LINE
  5
99B
  8
LAYER_1
 10
298.0521031573131
 20
123.9746344149181
 30
0.0
 11
297.858748704719
 21
123.9643761279781
 31
0.0
  0
LINE
  5
99C
  8
LAYER_1
 10
297.858748704719
 20
123.9643761279781
 30
0.0
 11
297.6976357724047
 21
123.9204778189687
 31
0.0
  0
LINE
  5
99D
  8
LAYER_1
 10
297.6976357724047
 20
123.9204778189687
 30
0.0
 11
297.5217571071068
 21
123.8232543156068
 31
0.0
  0
LINE
  5
99E
  8
LAYER_1
 10
297.5217571071068
 20
123.8232543156068
 30
0.0
 11
297.2841056587288
 21
123.6530205471832
 31
0.0
  0
LINE
  5
99F
  8
LAYER_1
 10
297.2841056587288
 20
123.6530205471832
 30
0.0
 11
297.1148707911358
 21
123.53659730443
 31
0.0
  0
LINE
  5
9A0
  8
LAYER_1
 10
297.1148707911358
 20
123.53659730443
 30
0.0
 11
296.9816397264977
 21
123.4687637713121
 31
0.0
  0
LINE
  5
9A1
  8
LAYER_1
 10
296.9816397264977
 20
123.4687637713121
 30
0.0
 11
296.8828456511764
 21
123.4489278598744
 31
0.0
  0
LINE
  5
9A2
  8
LAYER_1
 10
296.8828456511764
 20
123.4489278598744
 30
0.0
 11
296.8169220562655
 21
123.4764975837409
 31
0.0
  0
LINE
  5
9A3
  8
LAYER_1
 10
296.8169220562655
 20
123.4764975837409
 30
0.0
 11
296.8169220562655
 21
123.4764975837409
 31
0.0
  0
LINE
  5
9A4
  8
LAYER_1
 10
298.2017249717592
 20
126.6523903292565
 30
0.0
 11
298.2156818530696
 21
126.8945468874212
 31
0.0
  0
LINE
  5
9A5
  8
LAYER_1
 10
298.2156818530696
 20
126.8945468874212
 30
0.0
 11
298.2315212469978
 21
127.0953543956913
 31
0.0
  0
LINE
  5
9A6
  8
LAYER_1
 10
298.2315212469978
 20
127.0953543956913
 30
0.0
 11
298.2144863006212
 21
127.1542183397379
 31
0.0
  0
LINE
  5
9A7
  8
LAYER_1
 10
298.2144863006212
 20
127.1542183397379
 30
0.0
 11
298.1766553441039
 21
127.2200878960857
 31
0.0
  0
LINE
  5
9A8
  8
LAYER_1
 10
298.1766553441039
 20
127.2200878960857
 30
0.0
 11
298.0606720280838
 21
127.3684469146061
 31
0.0
  0
LINE
  5
9A9
  8
LAYER_1
 10
298.0606720280838
 20
127.3684469146061
 30
0.0
 11
298.0310725060386
 21
127.4107439756304
 31
0.0
  0
LINE
  5
9AA
  8
LAYER_1
 10
298.0310725060386
 20
127.4107439756304
 30
0.0
 11
298.0154164572378
 21
127.4669146254397
 31
0.0
  0
LINE
  5
9AB
  8
LAYER_1
 10
298.0154164572378
 20
127.4669146254397
 30
0.0
 11
298.0160384086105
 21
127.519994716305
 31
0.0
  0
LINE
  5
9AC
  8
LAYER_1
 10
298.0160384086105
 20
127.519994716305
 30
0.0
 11
298.035272785501
 21
127.553020100493
 31
0.0
  0
LINE
  5
9AD
  8
LAYER_1
 10
298.035272785501
 20
127.553020100493
 30
0.0
 11
298.1790212580904
 21
127.5859685914606
 31
0.0
  0
LINE
  5
9AE
  8
LAYER_1
 10
298.1790212580904
 20
127.5859685914606
 30
0.0
 11
298.2942902899274
 21
127.5895058827478
 31
0.0
  0
LINE
  5
9AF
  8
LAYER_1
 10
298.2942902899274
 20
127.5895058827478
 30
0.0
 11
298.3338942598677
 21
127.5666746908869
 31
0.0
  0
LINE
  5
9B0
  8
LAYER_1
 10
298.3338942598677
 20
127.5666746908869
 30
0.0
 11
298.3796907242389
 21
127.5216015509845
 31
0.0
  0
LINE
  5
9B1
  8
LAYER_1
 10
298.3796907242389
 20
127.5216015509845
 30
0.0
 11
298.4383710184268
 21
127.4395422642249
 31
0.0
  0
LINE
  5
9B2
  8
LAYER_1
 10
298.4383710184268
 20
127.4395422642249
 30
0.0
 11
298.4860497922619
 21
127.336807538333
 31
0.0
  0
LINE
  5
9B3
  8
LAYER_1
 10
298.4860497922619
 20
127.336807538333
 30
0.0
 11
298.5180712983844
 21
127.2258788596045
 31
0.0
  0
LINE
  5
9B4
  8
LAYER_1
 10
298.5180712983844
 20
127.2258788596045
 30
0.0
 11
298.529779789429
 21
127.1192374096082
 31
0.0
  0
LINE
  5
9B5
  8
LAYER_1
 10
298.529779789429
 20
127.1192374096082
 30
0.0
 11
298.5191050398679
 21
127.0208083993251
 31
0.0
  0
LINE
  5
9B6
  8
LAYER_1
 10
298.5191050398679
 20
127.0208083993251
 30
0.0
 11
298.490251595369
 21
126.9202919971305
 31
0.0
  0
LINE
  5
9B7
  8
LAYER_1
 10
298.490251595369
 20
126.9202919971305
 30
0.0
 11
298.3970333450729
 21
126.7400708456227
 31
0.0
  0
LINE
  5
9B8
  8
LAYER_1
 10
298.3970333450729
 20
126.7400708456227
 30
0.0
 11
298.3421809518193
 21
126.6739028582557
 31
0.0
  0
LINE
  5
9B9
  8
LAYER_1
 10
298.3421809518193
 20
126.6739028582557
 30
0.0
 11
298.288174688719
 21
126.6327212060204
 31
0.0
  0
LINE
  5
9BA
  8
LAYER_1
 10
298.288174688719
 20
126.6327212060204
 30
0.0
 11
298.2397705588889
 21
126.6232942190999
 31
0.0
  0
LINE
  5
9BB
  8
LAYER_1
 10
298.2397705588889
 20
126.6232942190999
 30
0.0
 11
298.2017249717592
 21
126.6523903292565
 31
0.0
  0
LINE
  5
9BC
  8
LAYER_1
 10
298.2017249717592
 20
126.6523903292565
 30
0.0
 11
298.2017249717592
 21
126.6523903292565
 31
0.0
  0
LINE
  5
9BD
  8
LAYER_1
 10
295.843519809966
 20
127.9665246169527
 30
0.0
 11
295.7341545928574
 21
128.1425100388869
 31
0.0
  0
LINE
  5
9BE
  8
LAYER_1
 10
295.7341545928574
 20
128.1425100388869
 30
0.0
 11
295.526671493518
 21
128.3831720041269
 31
0.0
  0
LINE
  5
9BF
  8
LAYER_1
 10
295.526671493518
 20
128.3831720041269
 30
0.0
 11
295.2582770792629
 21
128.6489170050866
 31
0.0
  0
LINE
  5
9C0
  8
LAYER_1
 10
295.2582770792629
 20
128.6489170050866
 30
0.0
 11
294.9661780189815
 21
128.9001513310275
 31
0.0
  0
LINE
  5
9C1
  8
LAYER_1
 10
294.9661780189815
 20
128.9001513310275
 30
0.0
 11
294.6641083356976
 21
129.1246020316917
 31
0.0
  0
LINE
  5
9C2
  8
LAYER_1
 10
294.6641083356976
 20
129.1246020316917
 30
0.0
 11
294.3114216840048
 21
129.3378878773959
 31
0.0
  0
LINE
  5
9C3
  8
LAYER_1
 10
294.3114216840048
 20
129.3378878773959
 30
0.0
 11
293.7723269730672
 21
129.6146240379306
 31
0.0
  0
LINE
  5
9C4
  8
LAYER_1
 10
293.7723269730672
 20
129.6146240379306
 30
0.0
 11
292.9110331120512
 21
130.0294261909685
 31
0.0
  0
LINE
  5
9C5
  8
LAYER_1
 10
292.9110331120512
 20
130.0294261909685
 30
0.0
 11
292.6766727341334
 21
130.1454203756469
 31
0.0
  0
LINE
  5
9C6
  8
LAYER_1
 10
292.6766727341334
 20
130.1454203756469
 30
0.0
 11
292.5451292572923
 21
130.2242485219324
 31
0.0
  0
LINE
  5
9C7
  8
LAYER_1
 10
292.5451292572923
 20
130.2242485219324
 30
0.0
 11
292.4991513777412
 21
130.278879885269
 31
0.0
  0
LINE
  5
9C8
  8
LAYER_1
 10
292.4991513777412
 20
130.278879885269
 30
0.0
 11
292.5214879948474
 21
130.3222839242513
 31
0.0
  0
LINE
  5
9C9
  8
LAYER_1
 10
292.5214879948474
 20
130.3222839242513
 30
0.0
 11
292.5860870354744
 21
130.3421234924334
 31
0.0
  0
LINE
  5
9CA
  8
LAYER_1
 10
292.5860870354744
 20
130.3421234924334
 30
0.0
 11
292.7153442341088
 21
130.3224280609486
 31
0.0
  0
LINE
  5
9CB
  8
LAYER_1
 10
292.7153442341088
 20
130.3224280609486
 30
0.0
 11
293.097369153734
 21
130.2766934565135
 31
0.0
  0
LINE
  5
9CC
  8
LAYER_1
 10
293.097369153734
 20
130.2766934565135
 30
0.0
 11
293.302136815217
 21
130.2775218108229
 31
0.0
  0
LINE
  5
9CD
  8
LAYER_1
 10
293.302136815217
 20
130.2775218108229
 30
0.0
 11
293.3560904618202
 21
130.2957301660256
 31
0.0
  0
LINE
  5
9CE
  8
LAYER_1
 10
293.3560904618202
 20
130.2957301660256
 30
0.0
 11
293.4046982520275
 21
130.3305199296544
 31
0.0
  0
LINE
  5
9CF
  8
LAYER_1
 10
293.4046982520275
 20
130.3305199296544
 30
0.0
 11
293.4493869258287
 21
130.372372188285
 31
0.0
  0
LINE
  5
9D0
  8
LAYER_1
 10
293.4493869258287
 20
130.372372188285
 30
0.0
 11
293.4699110163513
 21
130.4195707096172
 31
0.0
  0
LINE
  5
9D1
  8
LAYER_1
 10
293.4699110163513
 20
130.4195707096172
 30
0.0
 11
293.4586576884772
 21
130.6492969759136
 31
0.0
  0
LINE
  5
9D2
  8
LAYER_1
 10
293.4586576884772
 20
130.6492969759136
 30
0.0
 11
293.4486537484663
 21
131.0270025687132
 31
0.0
  0
LINE
  5
9D3
  8
LAYER_1
 10
293.4486537484663
 20
131.0270025687132
 30
0.0
 11
293.4390754129339
 21
131.1749589389833
 31
0.0
  0
LINE
  5
9D4
  8
LAYER_1
 10
293.4390754129339
 20
131.1749589389833
 30
0.0
 11
293.3588607508529
 21
131.3931945952905
 31
0.0
  0
LINE
  5
9D5
  8
LAYER_1
 10
293.3588607508529
 20
131.3931945952905
 30
0.0
 11
293.295897595711
 21
131.5548844807002
 31
0.0
  0
LINE
  5
9D6
  8
LAYER_1
 10
293.295897595711
 20
131.5548844807002
 30
0.0
 11
293.2630382886904
 21
131.681601257352
 31
0.0
  0
LINE
  5
9D7
  8
LAYER_1
 10
293.2630382886904
 20
131.681601257352
 30
0.0
 11
293.2583426218624
 21
131.785244481213
 31
0.0
  0
LINE
  5
9D8
  8
LAYER_1
 10
293.2583426218624
 20
131.785244481213
 30
0.0
 11
293.2798708951807
 21
131.8777141145564
 31
0.0
  0
LINE
  5
9D9
  8
LAYER_1
 10
293.2798708951807
 20
131.8777141145564
 30
0.0
 11
293.2864168749559
 21
131.9683290671737
 31
0.0
  0
LINE
  5
9DA
  8
LAYER_1
 10
293.2864168749559
 20
131.9683290671737
 30
0.0
 11
293.2749813192929
 21
132.1337535049456
 31
0.0
  0
LINE
  5
9DB
  8
LAYER_1
 10
293.2749813192929
 20
132.1337535049456
 30
0.0
 11
293.2092936860068
 21
132.5785288790487
 31
0.0
  0
LINE
  5
9DC
  8
LAYER_1
 10
293.2092936860068
 20
132.5785288790487
 30
0.0
 11
293.2057744752906
 21
132.6472817787949
 31
0.0
  0
LINE
  5
9DD
  8
LAYER_1
 10
293.2057744752906
 20
132.6472817787949
 30
0.0
 11
293.2214233121767
 21
132.6863675067133
 31
0.0
  0
LINE
  5
9DE
  8
LAYER_1
 10
293.2214233121767
 20
132.6863675067133
 30
0.0
 11
293.2603714042776
 21
132.6767460012764
 31
0.0
  0
LINE
  5
9DF
  8
LAYER_1
 10
293.2603714042776
 20
132.6767460012764
 30
0.0
 11
293.3143140806467
 21
132.6098088785544
 31
0.0
  0
LINE
  5
9E0
  8
LAYER_1
 10
293.3143140806467
 20
132.6098088785544
 30
0.0
 11
293.4649690271186
 21
132.307434060219
 31
0.0
  0
LINE
  5
9E1
  8
LAYER_1
 10
293.4649690271186
 20
132.307434060219
 30
0.0
 11
293.5875949219294
 21
132.0574113357727
 31
0.0
  0
LINE
  5
9E2
  8
LAYER_1
 10
293.5875949219294
 20
132.0574113357727
 30
0.0
 11
293.7379243165225
 21
131.791426716442
 31
0.0
  0
LINE
  5
9E3
  8
LAYER_1
 10
293.7379243165225
 20
131.791426716442
 30
0.0
 11
293.9579051543584
 21
131.4137403215535
 31
0.0
  0
LINE
  5
9E4
  8
LAYER_1
 10
293.9579051543584
 20
131.4137403215535
 30
0.0
 11
294.061056342872
 21
131.2333410053058
 31
0.0
  0
LINE
  5
9E5
  8
LAYER_1
 10
294.061056342872
 20
131.2333410053058
 30
0.0
 11
294.2036039810465
 21
131.0206138289703
 31
0.0
  0
LINE
  5
9E6
  8
LAYER_1
 10
294.2036039810465
 20
131.0206138289703
 30
0.0
 11
294.5370307602106
 21
130.5967287277667
 31
0.0
  0
LINE
  5
9E7
  8
LAYER_1
 10
294.5370307602106
 20
130.5967287277667
 30
0.0
 11
294.8643189819284
 21
130.2597470846256
 31
0.0
  0
LINE
  5
9E8
  8
LAYER_1
 10
294.8643189819284
 20
130.2597470846256
 30
0.0
 11
295.2222816055609
 21
129.9521970579912
 31
0.0
  0
LINE
  5
9E9
  8
LAYER_1
 10
295.2222816055609
 20
129.9521970579912
 30
0.0
 11
295.6051305117165
 21
129.6786192077594
 31
0.0
  0
LINE
  5
9EA
  8
LAYER_1
 10
295.6051305117165
 20
129.6786192077594
 30
0.0
 11
296.0070771747098
 21
129.4435540938273
 31
0.0
  0
LINE
  5
9EB
  8
LAYER_1
 10
296.0070771747098
 20
129.4435540938273
 30
0.0
 11
296.4535216497319
 21
129.1904650871597
 31
0.0
  0
LINE
  5
9EC
  8
LAYER_1
 10
296.4535216497319
 20
129.1904650871597
 30
0.0
 11
296.7897812888972
 21
128.9590424975086
 31
0.0
  0
LINE
  5
9ED
  8
LAYER_1
 10
296.7897812888972
 20
128.9590424975086
 30
0.0
 11
296.9111892844832
 21
128.8556945558028
 31
0.0
  0
LINE
  5
9EE
  8
LAYER_1
 10
296.9111892844832
 20
128.8556945558028
 30
0.0
 11
296.9985683225413
 21
128.762849395067
 31
0.0
  0
LINE
  5
9EF
  8
LAYER_1
 10
296.9985683225413
 20
128.762849395067
 30
0.0
 11
297.0497572668065
 21
128.6822023228948
 31
0.0
  0
LINE
  5
9F0
  8
LAYER_1
 10
297.0497572668065
 20
128.6822023228948
 30
0.0
 11
297.0625951841615
 21
128.6154488500299
 31
0.0
  0
LINE
  5
9F1
  8
LAYER_1
 10
297.0625951841615
 20
128.6154488500299
 30
0.0
 11
297.0434875744284
 21
128.5541272686445
 31
0.0
  0
LINE
  5
9F2
  8
LAYER_1
 10
297.0434875744284
 20
128.5541272686445
 30
0.0
 11
297.0104248101795
 21
128.5147752078019
 31
0.0
  0
LINE
  5
9F3
  8
LAYER_1
 10
297.0104248101795
 20
128.5147752078019
 30
0.0
 11
296.4607026842148
 21
128.2037128776373
 31
0.0
  0
LINE
  5
9F4
  8
LAYER_1
 10
296.4607026842148
 20
128.2037128776373
 30
0.0
 11
296.0893123915324
 21
128.0007679003638
 31
0.0
  0
LINE
  5
9F5
  8
LAYER_1
 10
296.0893123915324
 20
128.0007679003638
 30
0.0
 11
295.9079617121369
 21
127.9163572250221
 31
0.0
  0
LINE
  5
9F6
  8
LAYER_1
 10
295.9079617121369
 20
127.9163572250221
 30
0.0
 11
295.870048986739
 21
127.9310939071945
 31
0.0
  0
LINE
  5
9F7
  8
LAYER_1
 10
295.870048986739
 20
127.9310939071945
 30
0.0
 11
295.843519809966
 21
127.9665246169527
 31
0.0
  0
LINE
  5
9F8
  8
LAYER_1
 10
295.843519809966
 20
127.9665246169527
 30
0.0
 11
295.843519809966
 21
127.9665246169527
 31
0.0
  0
ARC
  5
B09
  8
CUSTOM
  6
CONTINUOUS
 62
     7
 10
298.0262256373944
 20
137.6565663157164
 30
0.0
 40
3.828591293881539
 50
33.56970087733329
 51
65.19769749509054
  0
ARC
  5
B0A
  8
CUSTOM
  6
CONTINUOUS
 62
     7
 10
300.4655363847268
 20
139.2760640296412
 30
0.0
 40
0.900621281441609
 50
358.0198767796284
 51
33.53353659951363
  0
ARC
  5
B0F
  8
0
  6
CONTINUOUS
 10
294.9694969609714
 20
130.0785003386224
 30
0.0
 40
11.99665283203266
 50
69.28840061494526
 51
225.9260621496482
  0
ARC
  5
B10
  8
CUSTOM
  6
CONTINUOUS
 62
     7
 10
298.0196759824721
 20
137.6313753868113
 30
0.0
 40
3.85745225965428
 50
71.99079347571431
 51
104.5402593483801
  0
ARC
  5
B13
  8
CUSTOM
  6
CONTINUOUS
 62
     7
 10
294.5727964522808
 20
129.0417515583408
 30
0.0
 40
13.1062084154973
 50
67.29187558368859
 51
69.2644050415372
  0
ARC
  5
B17
  8
CUSTOM
  6
CONTINUOUS
 62
     7
 10
295.3930909615714
 20
123.8306808419641
 30
0.0
 40
9.083233101056734
 50
185.9547350617974
 51
195.131793216253
  0
ARC
  5
B18
  8
0
  6
CONTINUOUS
 62
     7
 10
294.9710787682313
 20
130.0777600739315
 30
0.0
 40
12.0027629877469
 50
229.0824776018147
 51
278.8768429626987
  0
ARC
  5
B1B
  8
CUSTOM
  6
CONTINUOUS
 62
     7
 10
289.014312985815
 20
123.5379326187845
 30
0.0
 40
3.166908485365765
 50
221.0158692821119
 51
233.0268605985937
  0
ARC
  5
B24
  8
0
  6
CONTINUOUS
 62
     7
 10
294.9714125068743
 20
130.0761520775
 30
0.0
 40
11.99815227572181
 50
281.6067490129233
 51
67.14097308117269
  0
ARC
  5
B28
  8
CUSTOM
  6
CONTINUOUS
 62
     7
 10
296.1538578926978
 20
123.3796750108157
 30
0.0
 40
5.204141482260197
 50
277.3901148781127
 51
283.6882525791539
  0
ENDSEC
  0
EOF
