  0
SECTION
  2
HEADER
  9
$ACADVER
  1
AC1009
  9
$INSBASE
 10
0.0
 20
0.0
 30
0.0
  9
$EXTMIN
 10
283.0437758372525
 20
118.0417622248072
 30
-0.0015258207003583
  9
$EXTMAX
 10
307.0551529565405
 20
142.05021819670819
 30
0.0000000349246037
  9
$LIMMIN
 10
0.0
 20
0.0
  9
$LIMMAX
 10
12.0
 20
9.0
  9
$ORTHOMODE
 70
     0
  9
$REGENMODE
 70
     1
  9
$FILLMODE
 70
     1
  9
$QTEXTMODE
 70
     0
  9
$MIRRTEXT
 70
     0
  9
$DRAGMODE
 70
     2
  9
$LTSCALE
 40
1.0
  9
$OSMODE
 70
    37
  9
$ATTMODE
 70
     1
  9
$TEXTSIZE
 40
0.2
  9
$TRACEWID
 40
0.05
  9
$TEXTSTYLE
  7
STANDARD
  9
$CLAYER
  8
CUSTOM
  9
$CELTYPE
  6
CONTINUOUS
  9
$CECOLOR
 62
   256
  9
$DIMSCALE
 40
1.0
  9
$DIMASZ
 40
0.18
  9
$DIMEXO
 40
0.0625
  9
$DIMDLI
 40
0.38
  9
$DIMRND
 40
0.0
  9
$DIMDLE
 40
0.0
  9
$DIMEXE
 40
0.18
  9
$DIMTP
 40
0.0
  9
$DIMTM
 40
0.0
  9
$DIMTXT
 40
0.18
  9
$DIMCEN
 40
0.09
  9
$DIMTSZ
 40
0.0
  9
$DIMTOL
 70
     0
  9
$DIMLIM
 70
     0
  9
$DIMTIH
 70
     1
  9
$DIMTOH
 70
     1
  9
$DIMSE1
 70
     0
  9
$DIMSE2
 70
     0
  9
$DIMTAD
 70
     0
  9
$DIMZIN
 70
     0
  9
$DIMBLK
  1

  9
$DIMASO
 70
     1
  9
$DIMSHO
 70
     1
  9
$DIMPOST
  1

  9
$DIMAPOST
  1

  9
$DIMALT
 70
     0
  9
$DIMALTD
 70
     2
  9
$DIMALTF
 40
25.399999999999999
  9
$DIMLFAC
 40
1.0
  9
$DIMTOFL
 70
     0
  9
$DIMTVP
 40
0.0
  9
$DIMTIX
 70
     0
  9
$DIMSOXD
 70
     0
  9
$DIMSAH
 70
     0
  9
$DIMBLK1
  1

  9
$DIMBLK2
  1

  9
$DIMSTYLE
  2
STANDARD
  9
$DIMCLRD
 70
     0
  9
$DIMCLRE
 70
     0
  9
$DIMCLRT
 70
     0
  9
$DIMTFAC
 40
1.0
  9
$DIMGAP
 40
0.09
  9
$LUNITS
 70
     2
  9
$LUPREC
 70
     4
  9
$SKETCHINC
 40
0.1
  9
$FILLETRAD
 40
0.0
  9
$AUNITS
 70
     0
  9
$AUPREC
 70
     0
  9
$MENU
  1
.
  9
$ELEVATION
 40
0.0
  9
$PELEVATION
 40
0.0
  9
$THICKNESS
 40
0.0
  9
$LIMCHECK
 70
     0
  9
$BLIPMODE
 70
     0
  9
$CHAMFERA
 40
0.0
  9
$CHAMFERB
 40
0.0
  9
$SKPOLY
 70
     0
  9
$TDCREATE
 40
2455257.6499033682
  9
$TDUPDATE
 40
2455257.7543934612
  9
$TDINDWG
 40
0.0806380093
  9
$TDUSRTIMER
 40
0.0806259722
  9
$USRTIMER
 70
     1
  9
$ANGBASE
 50
0.0
  9
$ANGDIR
 70
     0
  9
$PDMODE
 70
     0
  9
$PDSIZE
 40
0.0
  9
$PLINEWID
 40
0.0
  9
$COORDS
 70
     1
  9
$SPLFRAME
 70
     0
  9
$SPLINETYPE
 70
     6
  9
$SPLINESEGS
 70
     8
  9
$ATTDIA
 70
     0
  9
$ATTREQ
 70
     1
  9
$HANDLING
 70
     1
  9
$HANDSEED
  5
ACF
  9
$SURFTAB1
 70
     6
  9
$SURFTAB2
 70
     6
  9
$SURFTYPE
 70
     6
  9
$SURFU
 70
     6
  9
$SURFV
 70
     6
  9
$UCSNAME
  2

  9
$UCSORG
 10
0.0
 20
0.0
 30
0.0
  9
$UCSXDIR
 10
1.0
 20
0.0
 30
0.0
  9
$UCSYDIR
 10
0.0
 20
1.0
 30
0.0
  9
$PUCSNAME
  2

  9
$PUCSORG
 10
0.0
 20
0.0
 30
0.0
  9
$PUCSXDIR
 10
1.0
 20
0.0
 30
0.0
  9
$PUCSYDIR
 10
0.0
 20
1.0
 30
0.0
  9
$USERI1
 70
     0
  9
$USERI2
 70
     0
  9
$USERI3
 70
     0
  9
$USERI4
 70
     0
  9
$USERI5
 70
     0
  9
$USERR1
 40
0.0
  9
$USERR2
 40
0.0
  9
$USERR3
 40
0.0
  9
$USERR4
 40
0.0
  9
$USERR5
 40
0.0
  9
$WORLDVIEW
 70
     1
  9
$SHADEDGE
 70
     3
  9
$SHADEDIF
 70
    70
  9
$TILEMODE
 70
     1
  9
$MAXACTVP
 70
    64
  9
$PLIMCHECK
 70
     0
  9
$PEXTMIN
 10
1.0000000000000000E+020
 20
1.0000000000000000E+020
 30
1.0000000000000000E+020
  9
$PEXTMAX
 10
-1.0000000000000000E+020
 20
-1.0000000000000000E+020
 30
-1.0000000000000000E+020
  9
$PLIMMIN
 10
0.0
 20
0.0
  9
$PLIMMAX
 10
12.0
 20
9.0
  9
$UNITMODE
 70
     0
  9
$VISRETAIN
 70
     1
  9
$PLINEGEN
 70
     0
  9
$PSLTSCALE
 70
     1
  0
ENDSEC
  0
SECTION
  2
TABLES
  0
TABLE
  2
VPORT
 70
     2
  0
VPORT
  2
*ACTIVE
 70
     0
 10
0.0
 20
0.0
 11
1.0
 21
1.0
 12
295.0494643968965
 22
130.04599021075771
 13
0.0
 23
0.0
 14
1.0
 24
1.0
 15
0.0
 25
0.0
 16
0.0
 26
0.0
 36
1.0
 17
0.0
 27
0.0
 37
0.0
 40
24.30364190598176
 41
1.8193018480492811
 42
50.0
 43
0.0
 44
0.0
 50
0.0
 51
0.0
 71
     0
 72
  1000
 73
     1
 74
     3
 75
     0
 76
     0
 77
     0
 78
     0
  0
ENDTAB
  0
TABLE
  2
LTYPE
 70
     1
  0
LTYPE
  2
CONTINUOUS
 70
     0
  3
Solid line
 72
    65
 73
     0
 40
0.0
  0
ENDTAB
  0
TABLE
  2
LAYER
 70
     5
  0
LAYER
  2
0
 70
     0
 62
     7
  6
CONTINUOUS
  0
LAYER
  2
LAYER_1
 70
     0
 62
     7
  6
CONTINUOUS
  0
LAYER
  2
DEFPOINTS
 70
     0
 62
     7
  6
CONTINUOUS
  0
LAYER
  2
CUSTOM
 70
     0
 62
   212
  6
CONTINUOUS
  0
LAYER
  2
DEFAULT
 70
     0
 62
    14
  6
CONTINUOUS
  0
ENDTAB
  0
TABLE
  2
STYLE
 70
     1
  0
STYLE
  2
STANDARD
 70
     0
 40
0.0
 41
1.0
 50
0.0
 71
     0
 42
0.2
  3
txt
  4

  0
ENDTAB
  0
TABLE
  2
VIEW
 70
     0
  0
ENDTAB
  0
TABLE
  2
UCS
 70
     0
  0
ENDTAB
  0
TABLE
  2
APPID
 70
     3
  0
APPID
  2
ACAD
 70
     0
  0
APPID
  2
ACAD_EXEMPT_FROM_CAD_STANDARDS
 70
     0
  0
APPID
  2
ACAECLAYERSTANDARD
 70
     0
  0
ENDTAB
  0
TABLE
  2
DIMSTYLE
 70
     1
  0
DIMSTYLE
  2
STANDARD
 70
     0
  3

  4

  5

  6

  7

 40
1.0
 41
0.18
 42
0.0625
 43
0.38
 44
0.18
 45
0.0
 46
0.0
 47
0.0
 48
0.0
140
0.18
141
0.09
142
0.0
143
25.399999999999999
144
1.0
145
0.0
146
1.0
147
0.09
 71
     0
 72
     0
 73
     1
 74
     1
 75
     0
 76
     0
 77
     0
 78
     0
170
     0
171
     2
172
     0
173
     0
174
     0
175
     0
176
     0
177
     0
178
     0
  0
ENDTAB
  0
ENDSEC
  0
SECTION
  2
BLOCKS
  0
BLOCK
  8
0
  2
$MODEL_SPACE
 70
     0
 10
0.0
 20
0.0
 30
0.0
  3
$MODEL_SPACE
  1

  0
ENDBLK
  5
38
  8
0
  0
BLOCK
 67
     1
  8
0
  2
$PAPER_SPACE
 70
     0
 10
0.0
 20
0.0
 30
0.0
  3
$PAPER_SPACE
  1

  0
ENDBLK
  5
34
 67
     1
  8
0
  0
BLOCK
  8
0
  2
*D0
 70
     1
 10
0.0
 20
0.0
 30
0.0
  3
*D0
  1

  0
LINE
  5
A17
  8
0
  6
CONTINUOUS
 62
     0
 10
296.01889462995132
 20
139.1805248526652
 30
0.0
 11
309.84186580610532
 21
139.1805248526652
 31
0.0
  0
LINE
  5
A18
  8
0
  6
CONTINUOUS
 62
     0
 10
295.9797066075007
 20
121.5677471549306
 30
0.0
 11
309.8418658061052
 21
121.5677471549306
 31
0.0
  0
LINE
  5
A19
  8
0
  6
CONTINUOUS
 62
     0
 10
309.66186580610531
 20
139.00052485266519
 30
0.0
 11
309.66186580610531
 21
130.55413600379791
 31
0.0
  0
LINE
  5
A1A
  8
0
  6
CONTINUOUS
 62
     0
 10
309.6618658061052
 20
121.74774715493059
 30
0.0
 11
309.66186580610531
 21
130.19413600379789
 31
0.0
  0
SOLID
  5
A1B
  8
0
  6
CONTINUOUS
 62
     0
 10
309.63186580610528
 20
139.00052485266519
 30
0.0
 11
309.69186580610523
 21
139.00052485266519
 31
0.0
 12
309.66186580610531
 22
139.1805248526652
 32
0.0
 13
309.66186580610531
 23
139.1805248526652
 33
0.0
  0
SOLID
  5
A1C
  8
0
  6
CONTINUOUS
 62
     0
 10
309.63186580610511
 20
121.74774715493059
 30
0.0
 11
309.69186580610523
 21
121.74774715493059
 31
0.0
 12
309.6618658061052
 22
121.5677471549306
 32
0.0
 13
309.6618658061052
 23
121.5677471549306
 33
0.0
  0
INSERT
  5
A1D
  8
CUSTOM
  6
CONTINUOUS
  2
*U3
 10
0.0
 20
0.0
 30
0.0
  0
POINT
  5
A1E
  8
DEFPOINTS
  6
CONTINUOUS
 62
     0
 10
295.95639462995132
 20
139.1805248526652
 30
0.0
  0
POINT
  5
A1F
  8
DEFPOINTS
  6
CONTINUOUS
 62
     0
 10
295.9172066075007
 20
121.5677471549306
 30
0.0
  0
POINT
  5
A20
  8
DEFPOINTS
  6
CONTINUOUS
 62
     0
 10
309.6618658061052
 20
121.5677471549306
 30
0.0
  0
ENDBLK
  5
A0B
  8
0
  0
BLOCK
  8
0
  2
*D1
 70
     1
 10
0.0
 20
0.0
 30
0.0
  3
*D1
  1

  0
LINE
  5
A2B
  8
0
  6
CONTINUOUS
 62
     0
 10
253.94757374285001
 20
150.87073233959771
 30
0.0
 11
253.76757374285009
 21
150.87073233959771
 31
0.0
  0
LINE
  5
A2C
  8
0
  6
CONTINUOUS
 62
     0
 10
253.76757374285009
 20
150.87073233959771
 30
0.0
 11
242.77826083546489
 21
147.87085317326239
 31
0.0
  0
INSERT
  5
A2D
  8
CUSTOM
  6
CONTINUOUS
  2
*U4
 10
0.0
 20
0.0
 30
0.0
  0
SOLID
  5
A2E
  8
0
  6
CONTINUOUS
 62
     0
 10
242.77036046517139
 20
147.89979421935999
 30
0.0
 11
242.7861612057585
 21
147.8419121271647
 31
0.0
 12
242.60461455887921
 22
147.823450951501
 32
0.0
 13
242.60461455887921
 23
147.823450951501
 33
0.0
  0
LINE
  5
A2F
  8
0
  6
CONTINUOUS
 62
     0
 10
230.9381961198313
 20
144.6633028340749
 30
0.0
 11
231.11819611983131
 21
144.6633028340749
 31
0.0
  0
LINE
  5
A30
  8
0
  6
CONTINUOUS
 62
     0
 10
231.02819611983131
 20
144.57330283407489
 30
0.0
 11
231.02819611983131
 21
144.7533028340749
 31
0.0
  0
POINT
  5
A31
  8
DEFPOINTS
  6
CONTINUOUS
 62
     0
 10
242.60461455887921
 20
147.823450951501
 30
0.0
  0
POINT
  5
A32
  8
DEFPOINTS
  6
CONTINUOUS
 62
     0
 10
219.45177768078349
 20
141.50315471664879
 30
0.0
  0
ENDBLK
  5
A34
  8
0
  0
BLOCK
  8
0
  2
*D2
 70
     1
 10
0.0
 20
0.0
 30
0.0
  3
*D2
  1

  0
LINE
  5
A37
  8
0
  6
CONTINUOUS
 62
     0
 10
314.84934696847603
 20
133.1794873996474
 30
0.0
 11
306.32848812768998
 21
131.8956969593566
 31
0.0
  0
INSERT
  5
A38
  8
CUSTOM
  6
CONTINUOUS
  2
*U5
 10
0.0
 20
0.0
 30
0.0
  0
SOLID
  5
A39
  8
0
  6
CONTINUOUS
 62
     0
 10
306.32401863798327
 20
131.92536215212121
 30
0.0
 11
306.33295761739657
 21
131.8660317665919
 31
0.0
 12
306.15049697110231
 22
131.86888002111669
 32
0.0
 13
306.15049697110231
 23
131.86888002111669
 33
0.0
  0
LINE
  5
A3A
  8
0
  6
CONTINUOUS
 62
     0
 10
294.194419865253
 20
130.08108413846151
 30
0.0
 11
294.37441986525289
 21
130.08108413846151
 31
0.0
  0
LINE
  5
A3B
  8
0
  6
CONTINUOUS
 62
     0
 10
294.28441986525291
 20
129.9910841384615
 30
0.0
 11
294.28441986525291
 21
130.17108413846151
 31
0.0
  0
POINT
  5
A3C
  8
DEFPOINTS
  6
CONTINUOUS
 62
     0
 10
306.15049697110231
 20
131.86888002111669
 30
0.0
  0
POINT
  5
A3D
  8
DEFPOINTS
  6
CONTINUOUS
 62
     0
 10
282.41834275940369
 20
128.29328825580629
 30
0.0
  0
ENDBLK
  5
A3F
  8
0
  0
BLOCK
  8
0
  2
*U3
 70
     1
 10
0.0
 20
0.0
 30
0.0
  3
*U3
  1

  0
TEXT
  5
AC4
  8
0
  6
CONTINUOUS
 62
     0
 10
309.18186580610518
 20
130.28413600379801
 30
0.0
 40
0.18
  1
17.6128
  0
ENDBLK
  5
AC6
  8
0
  0
BLOCK
  8
0
  2
*U4
 70
     1
 10
0.0
 20
0.0
 30
0.0
  3
*U4
  1

  0
TEXT
  5
AC8
  8
0
  6
CONTINUOUS
 62
     0
 10
254.0375737428501
 20
150.78073233959771
 30
0.0
 40
0.18
  1
\U+220524.0000
  0
ENDBLK
  5
ACA
  8
0
  0
BLOCK
  8
0
  2
*U5
 70
     1
 10
0.0
 20
0.0
 30
0.0
  3
*U5
  1

  0
TEXT
  5
ACC
  8
0
  6
CONTINUOUS
 62
     0
 10
314.93934696847617
 20
133.0894873996474
 30
0.0
 40
0.18
  1
\U+220524.0000
  0
ENDBLK
  5
ACE
  8
0
  0
ENDSEC
  0
SECTION
  2
ENTITIES
  0
LINE
  5
3B
  8
LAYER_1
 10
295.86745218994071
 20
118.34680032002009
 30
0.0
 11
295.67864215714093
 21
118.46244477767431
 31
0.0
  0
LINE
  5
3C
  8
LAYER_1
 10
295.67864215714093
 20
118.46244477767431
 30
0.0
 11
295.50639575692452
 21
118.6181911320393
 31
0.0
  0
LINE
  5
3D
  8
LAYER_1
 10
295.50639575692452
 20
118.6181911320393
 30
0.0
 11
295.35299378238119
 21
118.8115941380794
 31
0.0
  0
LINE
  5
3E
  8
LAYER_1
 10
295.35299378238119
 20
118.8115941380794
 30
0.0
 11
295.22071702660099
 21
119.04020814445219
 31
0.0
  0
LINE
  5
3F
  8
LAYER_1
 10
295.22071702660099
 20
119.04020814445219
 30
0.0
 11
295.12043506238638
 21
119.26292331332959
 31
0.0
  0
LINE
  5
40
  8
LAYER_1
 10
295.12043506238638
 20
119.26292331332959
 30
0.0
 11
295.06045540482512
 21
119.43090310479209
 31
0.0
  0
LINE
  5
41
  8
LAYER_1
 10
295.06045540482512
 20
119.43090310479209
 30
0.0
 11
294.99864087390358
 21
119.6745732506394
 31
0.0
  0
LINE
  5
42
  8
LAYER_1
 10
294.99864087390358
 20
119.6745732506394
 30
0.0
 11
294.97713169692031
 21
119.8566091634078
 31
0.0
  0
LINE
  5
43
  8
LAYER_1
 10
294.97713169692031
 20
119.8566091634078
 30
0.0
 11
294.96829679795462
 21
120.133246490253
 31
0.0
  0
LINE
  5
44
  8
LAYER_1
 10
294.96829679795462
 20
120.133246490253
 30
0.0
 11
294.9811548274057
 21
120.44875684435119
 31
0.0
  0
LINE
  5
45
  8
LAYER_1
 10
294.9811548274057
 20
120.44875684435119
 30
0.0
 11
295.03239730235413
 21
120.6779208861109
 31
0.0
  0
LINE
  5
46
  8
LAYER_1
 10
295.03239730235413
 20
120.6779208861109
 30
0.0
 11
295.12114365829882
 21
120.9248229850419
 31
0.0
  0
LINE
  5
47
  8
LAYER_1
 10
295.12114365829882
 20
120.9248229850419
 30
0.0
 11
295.2186288220783
 21
121.12442772895049
 31
0.0
  0
LINE
  5
48
  8
LAYER_1
 10
295.2186288220783
 20
121.12442772895049
 30
0.0
 11
295.33677947051831
 21
121.29733884413869
 31
0.0
  0
LINE
  5
49
  8
LAYER_1
 10
295.33677947051831
 20
121.29733884413869
 30
0.0
 11
295.48752228044413
 21
121.46416015848401
 31
0.0
  0
LINE
  5
4A
  8
LAYER_1
 10
295.48752228044413
 20
121.46416015848401
 30
0.0
 11
295.70088217523482
 21
121.6770578813419
 31
0.0
  0
LINE
  5
4B
  8
LAYER_1
 10
295.70088217523482
 20
121.6770578813419
 30
0.0
 11
295.66515303445658
 21
121.7938314605768
 31
0.0
  0
LINE
  5
4C
  8
LAYER_1
 10
295.66515303445658
 20
121.7938314605768
 30
0.0
 11
295.5492072000726
 21
122.2220011495304
 31
0.0
  0
LINE
  5
4D
  8
LAYER_1
 10
295.5492072000726
 20
122.2220011495304
 30
0.0
 11
295.52816344546039
 21
122.37191083106499
 31
0.0
  0
LINE
  5
4E
  8
LAYER_1
 10
295.52816344546039
 20
122.37191083106499
 30
0.0
 11
295.52241077618748
 21
122.5269471674508
 31
0.0
  0
LINE
  5
4F
  8
LAYER_1
 10
295.52241077618748
 20
122.5269471674508
 30
0.0
 11
295.53191008539733
 21
122.7140889119401
 31
0.0
  0
LINE
  5
50
  8
LAYER_1
 10
295.53191008539733
 20
122.7140889119401
 30
0.0
 11
295.56163728878778
 21
122.91163419740511
 31
0.0
  0
LINE
  5
51
  8
LAYER_1
 10
295.56163728878778
 20
122.91163419740511
 30
0.0
 11
295.61201900660302
 21
123.1207701454653
 31
0.0
  0
LINE
  5
52
  8
LAYER_1
 10
295.61201900660302
 20
123.1207701454653
 30
0.0
 11
295.68348145278571
 21
123.3426840808921
 31
0.0
  0
LINE
  5
53
  8
LAYER_1
 10
295.68348145278571
 20
123.3426840808921
 30
0.0
 11
295.89135480807329
 21
123.8295953145123
 31
0.0
  0
LINE
  5
54
  8
LAYER_1
 10
295.89135480807329
 20
123.8295953145123
 30
0.0
 11
296.18866909769429
 21
124.3818662932879
 31
0.0
  0
LINE
  5
55
  8
LAYER_1
 10
296.18866909769429
 20
124.3818662932879
 30
0.0
 11
296.30092294016418
 21
124.59566306752249
 31
0.0
  0
LINE
  5
56
  8
LAYER_1
 10
296.30092294016418
 20
124.59566306752249
 30
0.0
 11
296.36780348491629
 21
124.7928844263302
 31
0.0
  0
LINE
  5
57
  8
LAYER_1
 10
296.36780348491629
 20
124.7928844263302
 30
0.0
 11
296.4000535375967
 21
125.0194577658649
 31
0.0
  0
LINE
  5
58
  8
LAYER_1
 10
296.4000535375967
 20
125.0194577658649
 30
0.0
 11
296.40841631015832
 21
125.3213101775533
 31
0.0
  0
LINE
  5
59
  8
LAYER_1
 10
296.40841631015832
 20
125.3213101775533
 30
0.0
 11
296.39502185653691
 21
125.6460074938953
 31
0.0
  0
LINE
  5
5A
  8
LAYER_1
 10
296.39502185653691
 20
125.6460074938953
 30
0.0
 11
296.3473633979516
 21
125.9108405432942
 31
0.0
  0
LINE
  5
5B
  8
LAYER_1
 10
296.3473633979516
 20
125.9108405432942
 30
0.0
 11
296.30266903588091
 21
126.1357827714257
 31
0.0
  0
LINE
  5
5C
  8
LAYER_1
 10
296.30266903588091
 20
126.1357827714257
 30
0.0
 11
296.32205181567122
 21
126.2961371323168
 31
0.0
  0
LINE
  5
5D
  8
LAYER_1
 10
296.32205181567122
 20
126.2961371323168
 30
0.0
 11
296.38429774092123
 21
126.49761727850679
 31
0.0
  0
LINE
  5
5E
  8
LAYER_1
 10
296.38429774092123
 20
126.49761727850679
 30
0.0
 11
296.46261445079398
 21
126.68763810019151
 31
0.0
  0
LINE
  5
5F
  8
LAYER_1
 10
296.46261445079398
 20
126.68763810019151
 30
0.0
 11
296.53955266939499
 21
126.8289598146206
 31
0.0
  0
LINE
  5
60
  8
LAYER_1
 10
296.53955266939499
 20
126.8289598146206
 30
0.0
 11
296.597663120829
 21
126.88434253746919
 31
0.0
  0
LINE
  5
61
  8
LAYER_1
 10
296.597663120829
 20
126.88434253746919
 30
0.0
 11
296.63903421276632
 21
126.8689156446864
 31
0.0
  0
LINE
  5
62
  8
LAYER_1
 10
296.63903421276632
 20
126.8689156446864
 30
0.0
 11
296.65718060645912
 21
126.8269263596964
 31
0.0
  0
LINE
  5
63
  8
LAYER_1
 10
296.65718060645912
 20
126.8269263596964
 30
0.0
 11
296.6513414957966
 21
126.76481156938441
 31
0.0
  0
LINE
  5
64
  8
LAYER_1
 10
296.6513414957966
 20
126.76481156938441
 30
0.0
 11
296.62075587152913
 21
126.68900826221071
 31
0.0
  0
LINE
  5
65
  8
LAYER_1
 10
296.62075587152913
 20
126.68900826221071
 30
0.0
 11
296.57839959155268
 21
126.5462885538702
 31
0.0
  0
LINE
  5
66
  8
LAYER_1
 10
296.57839959155268
 20
126.5462885538702
 30
0.0
 11
296.56644670805372
 21
126.3545860358109
 31
0.0
  0
LINE
  5
67
  8
LAYER_1
 10
296.56644670805372
 20
126.3545860358109
 30
0.0
 11
296.58441483542828
 21
126.14600824923779
 31
0.0
  0
LINE
  5
68
  8
LAYER_1
 10
296.58441483542828
 20
126.14600824923779
 30
0.0
 11
296.63182138491902
 21
125.9526626337781
 31
0.0
  0
LINE
  5
69
  8
LAYER_1
 10
296.63182138491902
 20
125.9526626337781
 30
0.0
 11
296.76939493576702
 21
125.5656571259462
 31
0.0
  0
LINE
  5
6A
  8
LAYER_1
 10
296.76939493576702
 20
125.5656571259462
 30
0.0
 11
296.81727990938953
 21
125.39926578386179
 31
0.0
  0
LINE
  5
6B
  8
LAYER_1
 10
296.81727990938953
 20
125.39926578386179
 30
0.0
 11
296.84376002483481
 21
125.2293694517373
 31
0.0
  0
LINE
  5
6C
  8
LAYER_1
 10
296.84376002483481
 20
125.2293694517373
 30
0.0
 11
296.84895158690949
 21
125.05673706177561
 31
0.0
  0
LINE
  5
6D
  8
LAYER_1
 10
296.84895158690949
 20
125.05673706177561
 30
0.0
 11
296.83297100199422
 21
124.8821377493329
 31
0.0
  0
LINE
  5
6E
  8
LAYER_1
 10
296.83297100199422
 20
124.8821377493329
 30
0.0
 11
296.79593467647129
 21
124.7063403450353
 31
0.0
  0
LINE
  5
6F
  8
LAYER_1
 10
296.79593467647129
 20
124.7063403450353
 30
0.0
 11
296.73795881356671
 21
124.530114085816
 31
0.0
  0
LINE
  5
70
  8
LAYER_1
 10
296.73795881356671
 20
124.530114085816
 30
0.0
 11
296.65915992124138
 21
124.35422770072461
 31
0.0
  0
LINE
  5
71
  8
LAYER_1
 10
296.65915992124138
 20
124.35422770072461
 30
0.0
 11
296.55965430429961
 21
124.1794504266938
 31
0.0
  0
LINE
  5
72
  8
LAYER_1
 10
296.55965430429961
 20
124.1794504266938
 30
0.0
 11
296.06441138045
 21
123.27969126548579
 31
0.0
  0
LINE
  5
73
  8
LAYER_1
 10
296.06441138045
 20
123.27969126548579
 30
0.0
 11
296.02288538473022
 21
123.17628877733389
 31
0.0
  0
LINE
  5
74
  8
LAYER_1
 10
296.02288538473022
 20
123.17628877733389
 30
0.0
 11
295.94150838563439
 21
122.943705171159
 31
0.0
  0
LINE
  5
75
  8
LAYER_1
 10
295.94150838563439
 20
122.943705171159
 30
0.0
 11
295.90249122168308
 21
122.6949417890461
 31
0.0
  0
LINE
  5
76
  8
LAYER_1
 10
295.90249122168308
 20
122.6949417890461
 30
0.0
 11
295.90617650956489
 21
122.4349318846681
 31
0.0
  0
LINE
  5
77
  8
LAYER_1
 10
295.90617650956489
 20
122.4349318846681
 30
0.0
 11
295.95290706911771
 21
122.1686087117006
 31
0.0
  0
LINE
  5
78
  8
LAYER_1
 10
295.95290706911771
 20
122.1686087117006
 30
0.0
 11
296.04166002751919
 21
121.79492828091119
 31
0.0
  0
LINE
  5
79
  8
LAYER_1
 10
296.04166002751919
 20
121.79492828091119
 30
0.0
 11
296.08788615942251
 21
121.5260956667174
 31
0.0
  0
LINE
  5
7A
  8
LAYER_1
 10
296.08788615942251
 20
121.5260956667174
 30
0.0
 11
296.0946761253482
 21
121.33531596887801
 31
0.0
  0
LINE
  5
7B
  8
LAYER_1
 10
296.0946761253482
 20
121.33531596887801
 30
0.0
 11
296.0651208905461
 21
121.1957944903058
 31
0.0
  0
LINE
  5
7C
  8
LAYER_1
 10
296.0651208905461
 20
121.1957944903058
 30
0.0
 11
296.02601819939468
 21
121.1347312173212
 31
0.0
  0
LINE
  5
7D
  8
LAYER_1
 10
296.02601819939468
 20
121.1347312173212
 30
0.0
 11
295.97917163976501
 21
121.1225037732227
 31
0.0
  0
LINE
  5
7E
  8
LAYER_1
 10
295.97917163976501
 20
121.1225037732227
 30
0.0
 11
295.93208789959351
 21
121.1573077575265
 31
0.0
  0
LINE
  5
7F
  8
LAYER_1
 10
295.93208789959351
 20
121.1573077575265
 30
0.0
 11
295.89227366681951
 21
121.2373390744786
 31
0.0
  0
LINE
  5
80
  8
LAYER_1
 10
295.89227366681951
 20
121.2373390744786
 30
0.0
 11
295.8469872167941
 21
121.3492856487956
 31
0.0
  0
LINE
  5
81
  8
LAYER_1
 10
295.8469872167941
 20
121.3492856487956
 30
0.0
 11
295.82458325463608
 21
121.3764212357747
 31
0.0
  0
LINE
  5
82
  8
LAYER_1
 10
295.82458325463608
 20
121.3764212357747
 30
0.0
 11
295.79971860784929
 21
121.3841304667524
 31
0.0
  0
LINE
  5
83
  8
LAYER_1
 10
295.79971860784929
 20
121.3841304667524
 30
0.0
 11
295.73474617293112
 21
121.3406659899015
 31
0.0
  0
LINE
  5
84
  8
LAYER_1
 10
295.73474617293112
 20
121.3406659899015
 30
0.0
 11
295.63634854970832
 21
121.21768488295091
 31
0.0
  0
LINE
  5
85
  8
LAYER_1
 10
295.63634854970832
 20
121.21768488295091
 30
0.0
 11
295.501540412233
 21
121.0097680530282
 31
0.0
  0
LINE
  5
86
  8
LAYER_1
 10
295.501540412233
 20
121.0097680530282
 30
0.0
 11
295.41784930303771
 21
120.8076839344631
 31
0.0
  0
LINE
  5
87
  8
LAYER_1
 10
295.41784930303771
 20
120.8076839344631
 30
0.0
 11
295.375782109064
 21
120.5789078123976
 31
0.0
  0
LINE
  5
88
  8
LAYER_1
 10
295.375782109064
 20
120.5789078123976
 30
0.0
 11
295.36584581883318
 21
120.2909153782783
 31
0.0
  0
LINE
  5
89
  8
LAYER_1
 10
295.36584581883318
 20
120.2909153782783
 30
0.0
 11
295.38419272403911
 21
119.9420725749922
 31
0.0
  0
LINE
  5
8A
  8
LAYER_1
 10
295.38419272403911
 20
119.9420725749922
 30
0.0
 11
295.41527373567351
 21
119.80767937649181
 31
0.0
  0
LINE
  5
8B
  8
LAYER_1
 10
295.41527373567351
 20
119.80767937649181
 30
0.0
 11
295.47119674258909
 21
119.6363704234759
 31
0.0
  0
LINE
  5
8C
  8
LAYER_1
 10
295.47119674258909
 20
119.6363704234759
 30
0.0
 11
295.63546138275342
 21
119.2494003657539
 31
0.0
  0
LINE
  5
8D
  8
LAYER_1
 10
295.63546138275342
 20
119.2494003657539
 30
0.0
 11
295.82956424914647
 21
118.92834455793
 31
0.0
  0
LINE
  5
8E
  8
LAYER_1
 10
295.82956424914647
 20
118.92834455793
 30
0.0
 11
295.92962863703502
 21
118.80380395083201
 31
0.0
  0
LINE
  5
8F
  8
LAYER_1
 10
295.92962863703502
 20
118.80380395083201
 30
0.0
 11
296.02734112845911
 21
118.7092653108774
 31
0.0
  0
LINE
  5
90
  8
LAYER_1
 10
296.02734112845911
 20
118.7092653108774
 30
0.0
 11
296.11943117135979
 21
118.6492363888338
 31
0.0
  0
LINE
  5
91
  8
LAYER_1
 10
296.11943117135979
 20
118.6492363888338
 30
0.0
 11
296.20262821368311
 21
118.62822503704611
 31
0.0
  0
LINE
  5
92
  8
LAYER_1
 10
296.20262821368311
 20
118.62822503704611
 30
0.0
 11
296.26420820504541
 21
118.63821516268931
 31
0.0
  0
LINE
  5
93
  8
LAYER_1
 10
296.26420820504541
 20
118.63821516268931
 30
0.0
 11
296.32942594660398
 21
118.6906993057023
 31
0.0
  0
LINE
  5
94
  8
LAYER_1
 10
296.32942594660398
 20
118.6906993057023
 30
0.0
 11
296.59359235108138
 21
119.05823112300109
 31
0.0
  0
LINE
  5
95
  8
LAYER_1
 10
296.59359235108138
 20
119.05823112300109
 30
0.0
 11
296.84469980828959
 21
119.38821162319491
 31
0.0
  0
LINE
  5
96
  8
LAYER_1
 10
296.84469980828959
 20
119.38821162319491
 30
0.0
 11
296.9393336251876
 21
119.4829780986757
 31
0.0
  0
LINE
  5
97
  8
LAYER_1
 10
296.9393336251876
 20
119.4829780986757
 30
0.0
 11
297.00090051321467
 21
119.5169043626134
 31
0.0
  0
LINE
  5
98
  8
LAYER_1
 10
297.00090051321467
 20
119.5169043626134
 30
0.0
 11
297.04852118543567
 21
119.4927707600916
 31
0.0
  0
LINE
  5
99
  8
LAYER_1
 10
297.04852118543567
 20
119.4927707600916
 30
0.0
 11
297.07783537979878
 21
119.4124447704417
 31
0.0
  0
LINE
  5
9A
  8
LAYER_1
 10
297.07783537979878
 20
119.4124447704417
 30
0.0
 11
297.09105390335702
 21
119.26403872211741
 31
0.0
  0
LINE
  5
9B
  8
LAYER_1
 10
297.09105390335702
 20
119.26403872211741
 30
0.0
 11
297.09038705528491
 21
119.0356647404206
 31
0.0
  0
LINE
  5
9C
  8
LAYER_1
 10
297.09038705528491
 20
119.0356647404206
 30
0.0
 11
297.07680742816081
 21
118.7635428841391
 31
0.0
  0
LINE
  5
9D
  8
LAYER_1
 10
297.07680742816081
 20
118.7635428841391
 30
0.0
 11
297.05707390558263
 21
118.621058223237
 31
0.0
  0
LINE
  5
9E
  8
LAYER_1
 10
297.05707390558263
 20
118.621058223237
 30
0.0
 11
297.04839015207472
 21
118.58236224338521
 31
0.0
  0
LINE
  5
9F
  8
LAYER_1
 10
297.04839015207472
 20
118.58236224338521
 30
0.0
 11
297.07633184816359
 21
118.57089093288219
 31
0.0
  0
LINE
  5
A0
  8
LAYER_1
 10
297.07633184816359
 20
118.57089093288219
 30
0.0
 11
297.18953136551039
 21
118.6535760309101
 31
0.0
  0
LINE
  5
A1
  8
LAYER_1
 10
297.18953136551039
 20
118.6535760309101
 30
0.0
 11
297.38668019887569
 21
118.856821775456
 31
0.0
  0
LINE
  5
A2
  8
LAYER_1
 10
297.38668019887569
 20
118.856821775456
 30
0.0
 11
297.60678800702368
 21
119.1134137406392
 31
0.0
  0
LINE
  5
A3
  8
LAYER_1
 10
297.60678800702368
 20
119.1134137406392
 30
0.0
 11
297.78886465186832
 21
119.35613739899991
 31
0.0
  0
LINE
  5
A4
  8
LAYER_1
 10
297.78886465186832
 20
119.35613739899991
 30
0.0
 11
297.94066304217199
 21
119.5969833188266
 31
0.0
  0
LINE
  5
A5
  8
LAYER_1
 10
297.94066304217199
 20
119.5969833188266
 30
0.0
 11
298.06479866476712
 21
119.8253142321939
 31
0.0
  0
LINE
  5
A6
  8
LAYER_1
 10
298.06479866476712
 20
119.8253142321939
 30
0.0
 11
298.16201231523303
 21
120.0437851390928
 31
0.0
  0
LINE
  5
A7
  8
LAYER_1
 10
298.16201231523303
 20
120.0437851390928
 30
0.0
 11
298.23304478915321
 21
120.2550509379374
 31
0.0
  0
LINE
  5
A8
  8
LAYER_1
 10
298.23304478915321
 20
120.2550509379374
 30
0.0
 11
298.27863678053569
 21
120.4617665271418
 31
0.0
  0
LINE
  5
A9
  8
LAYER_1
 10
298.27863678053569
 20
120.4617665271418
 30
0.0
 11
298.29952918653612
 21
120.666586906696
 31
0.0
  0
LINE
  5
AA
  8
LAYER_1
 10
298.29952918653612
 20
120.666586906696
 30
0.0
 11
298.29646259958372
 21
120.8721669750155
 31
0.0
  0
LINE
  5
AB
  8
LAYER_1
 10
298.29646259958372
 20
120.8721669750155
 30
0.0
 11
298.27017791684079
 21
121.0811617320898
 31
0.0
  0
LINE
  5
AC
  8
LAYER_1
 10
298.27017791684079
 20
121.0811617320898
 30
0.0
 11
298.24141223422242
 21
121.23067465679701
 31
0.0
  0
LINE
  5
AD
  8
LAYER_1
 10
298.24141223422242
 20
121.23067465679701
 30
0.0
 11
298.21393464001318
 21
121.3121568888858
 31
0.0
  0
LINE
  5
AE
  8
LAYER_1
 10
298.21393464001318
 20
121.3121568888858
 30
0.0
 11
298.17354010213108
 21
121.35073656393349
 31
0.0
  0
LINE
  5
AF
  8
LAYER_1
 10
298.17354010213108
 20
121.35073656393349
 30
0.0
 11
298.1060233853313
 21
121.3715419190885
 31
0.0
  0
LINE
  5
B0
  8
LAYER_1
 10
298.1060233853313
 20
121.3715419190885
 30
0.0
 11
298.02865082669058
 21
121.4016082855736
 31
0.0
  0
LINE
  5
B1
  8
LAYER_1
 10
298.02865082669058
 20
121.4016082855736
 30
0.0
 11
297.99175355905209
 21
121.4386277494395
 31
0.0
  0
LINE
  5
B2
  8
LAYER_1
 10
297.99175355905209
 20
121.4386277494395
 30
0.0
 11
298.04017251901388
 21
121.5417006226638
 31
0.0
  0
LINE
  5
B3
  8
LAYER_1
 10
298.04017251901388
 20
121.5417006226638
 30
0.0
 11
298.16792191980937
 21
121.7305758674146
 31
0.0
  0
LINE
  5
B4
  8
LAYER_1
 10
298.16792191980937
 20
121.7305758674146
 30
0.0
 11
298.3878265754596
 21
122.072809510498
 31
0.0
  0
LINE
  5
B5
  8
LAYER_1
 10
298.3878265754596
 20
122.072809510498
 30
0.0
 11
298.5573729774062
 21
122.4266123835887
 31
0.0
  0
LINE
  5
B6
  8
LAYER_1
 10
298.5573729774062
 20
122.4266123835887
 30
0.0
 11
298.61386369397661
 21
122.60208799432949
 31
0.0
  0
LINE
  5
B7
  8
LAYER_1
 10
298.61386369397661
 20
122.60208799432949
 30
0.0
 11
298.65603632409608
 21
122.801100040827
 31
0.0
  0
LINE
  5
B8
  8
LAYER_1
 10
298.65603632409608
 20
122.801100040827
 30
0.0
 11
298.68372062597211
 21
123.0167592155836
 31
0.0
  0
LINE
  5
B9
  8
LAYER_1
 10
298.68372062597211
 20
123.0167592155836
 30
0.0
 11
298.69674615465658
 21
123.2421762111025
 31
0.0
  0
LINE
  5
BA
  8
LAYER_1
 10
298.69674615465658
 20
123.2421762111025
 30
0.0
 11
298.69494256678342
 21
123.47046182146249
 31
0.0
  0
LINE
  5
BB
  8
LAYER_1
 10
298.69494256678342
 20
123.47046182146249
 30
0.0
 11
298.67813931583009
 21
123.694726536015
 31
0.0
  0
LINE
  5
BC
  8
LAYER_1
 10
298.67813931583009
 20
123.694726536015
 30
0.0
 11
298.646166160002
 21
123.9080811488396
 31
0.0
  0
LINE
  5
BD
  8
LAYER_1
 10
298.646166160002
 20
123.9080811488396
 30
0.0
 11
298.59885255278061
 21
124.10363625086239
 31
0.0
  0
LINE
  5
BE
  8
LAYER_1
 10
298.59885255278061
 20
124.10363625086239
 30
0.0
 11
298.51247160294162
 21
124.4319238812941
 31
0.0
  0
LINE
  5
BF
  8
LAYER_1
 10
298.51247160294162
 20
124.4319238812941
 30
0.0
 11
298.47002715478061
 21
124.72588473263821
 31
0.0
  0
LINE
  5
C0
  8
LAYER_1
 10
298.47002715478061
 20
124.72588473263821
 30
0.0
 11
298.46636634677458
 21
125.05517339700179
 31
0.0
  0
LINE
  5
C1
  8
LAYER_1
 10
298.46636634677458
 20
125.05517339700179
 30
0.0
 11
298.49633652055297
 21
125.4894439586091
 31
0.0
  0
LINE
  5
C2
  8
LAYER_1
 10
298.49633652055297
 20
125.4894439586091
 30
0.0
 11
298.53022266187332
 21
125.80464257519991
 31
0.0
  0
LINE
  5
C3
  8
LAYER_1
 10
298.53022266187332
 20
125.80464257519991
 30
0.0
 11
298.57336057108461
 21
126.0556428694637
 31
0.0
  0
LINE
  5
C4
  8
LAYER_1
 10
298.57336057108461
 20
126.0556428694637
 30
0.0
 11
298.63296663120462
 21
126.275517052239
 31
0.0
  0
LINE
  5
C5
  8
LAYER_1
 10
298.63296663120462
 20
126.275517052239
 30
0.0
 11
298.7162571236745
 21
126.4973370296367
 31
0.0
  0
LINE
  5
C6
  8
LAYER_1
 10
298.7162571236745
 20
126.4973370296367
 30
0.0
 11
298.79616126716331
 21
126.69914079775501
 31
0.0
  0
LINE
  5
C7
  8
LAYER_1
 10
298.79616126716331
 20
126.69914079775501
 30
0.0
 11
298.83899200979801
 21
126.8571958786785
 31
0.0
  0
LINE
  5
C8
  8
LAYER_1
 10
298.83899200979801
 20
126.8571958786785
 30
0.0
 11
298.8562537759372
 21
127.0359910012295
 31
0.0
  0
LINE
  5
C9
  8
LAYER_1
 10
298.8562537759372
 20
127.0359910012295
 30
0.0
 11
298.8594511930969
 21
127.30001509738319
 31
0.0
  0
LINE
  5
CA
  8
LAYER_1
 10
298.8594511930969
 20
127.30001509738319
 30
0.0
 11
298.84898223701691
 21
127.68568081449421
 31
0.0
  0
LINE
  5
CB
  8
LAYER_1
 10
298.84898223701691
 20
127.68568081449421
 30
0.0
 11
298.82751704254991
 21
127.77625361296759
 31
0.0
  0
LINE
  5
CC
  8
LAYER_1
 10
298.82751704254991
 20
127.77625361296759
 30
0.0
 11
298.78778346131639
 21
127.8564837146395
 31
0.0
  0
LINE
  5
CD
  8
LAYER_1
 10
298.78778346131639
 20
127.8564837146395
 30
0.0
 11
298.70552833554939
 21
127.9790365761247
 31
0.0
  0
LINE
  5
CE
  8
LAYER_1
 10
298.70552833554939
 20
127.9790365761247
 30
0.0
 11
298.61652509327149
 21
128.05426618064479
 31
0.0
  0
LINE
  5
CF
  8
LAYER_1
 10
298.61652509327149
 20
128.05426618064479
 30
0.0
 11
298.50330647959061
 21
128.0919231370479
 31
0.0
  0
LINE
  5
D0
  8
LAYER_1
 10
298.50330647959061
 20
128.0919231370479
 30
0.0
 11
298.34840523961572
 21
128.10175835891241
 31
0.0
  0
LINE
  5
D1
  8
LAYER_1
 10
298.34840523961572
 20
128.10175835891241
 30
0.0
 11
298.07448040491852
 21
128.08010626414719
 31
0.0
  0
LINE
  5
D2
  8
LAYER_1
 10
298.07448040491852
 20
128.08010626414719
 30
0.0
 11
298.00726790898477
 21
128.05391939933099
 31
0.0
  0
LINE
  5
D3
  8
LAYER_1
 10
298.00726790898477
 20
128.05391939933099
 30
0.0
 11
297.98510539356988
 21
128.01715438396849
 31
0.0
  0
LINE
  5
D4
  8
LAYER_1
 10
297.98510539356988
 20
128.01715438396849
 30
0.0
 11
298.0024582736043
 21
127.97859634466219
 31
0.0
  0
LINE
  5
D5
  8
LAYER_1
 10
298.0024582736043
 20
127.97859634466219
 30
0.0
 11
298.04417909257012
 21
127.944093229207
 31
0.0
  0
LINE
  5
D6
  8
LAYER_1
 10
298.04417909257012
 20
127.944093229207
 30
0.0
 11
298.08557161709808
 21
127.9044290245519
 31
0.0
  0
LINE
  5
D7
  8
LAYER_1
 10
298.08557161709808
 20
127.9044290245519
 30
0.0
 11
298.09434638292419
 21
127.8499167085795
 31
0.0
  0
LINE
  5
D8
  8
LAYER_1
 10
298.09434638292419
 20
127.8499167085795
 30
0.0
 11
298.0704219258983
 21
127.8013028237968
 31
0.0
  0
LINE
  5
D9
  8
LAYER_1
 10
298.0704219258983
 20
127.8013028237968
 30
0.0
 11
297.99943891961129
 21
127.7963927295079
 31
0.0
  0
LINE
  5
DA
  8
LAYER_1
 10
297.99943891961129
 20
127.7963927295079
 30
0.0
 11
297.85610355762611
 21
127.8419063040249
 31
0.0
  0
LINE
  5
DB
  8
LAYER_1
 10
297.85610355762611
 20
127.8419063040249
 30
0.0
 11
297.74679146489558
 21
127.895528812058
 31
0.0
  0
LINE
  5
DC
  8
LAYER_1
 10
297.74679146489558
 20
127.895528812058
 30
0.0
 11
297.61095568051269
 21
127.93715983761859
 31
0.0
  0
LINE
  5
DD
  8
LAYER_1
 10
297.61095568051269
 20
127.93715983761859
 30
0.0
 11
297.4598464850564
 21
127.96411035267209
 31
0.0
  0
LINE
  5
DE
  8
LAYER_1
 10
297.4598464850564
 20
127.96411035267209
 30
0.0
 11
297.30471446384217
 21
127.9736913291855
 31
0.0
  0
LINE
  5
DF
  8
LAYER_1
 10
297.30471446384217
 20
127.9736913291855
 30
0.0
 11
297.10241114373332
 21
127.9582484889315
 31
0.0
  0
LINE
  5
E0
  8
LAYER_1
 10
297.10241114373332
 20
127.9582484889315
 30
0.0
 11
296.92996291151042
 21
127.8926959520557
 31
0.0
  0
LINE
  5
E1
  8
LAYER_1
 10
296.92996291151042
 20
127.8926959520557
 30
0.0
 11
296.51748817506001
 21
127.65191514260491
 31
0.0
  0
LINE
  5
E2
  8
LAYER_1
 10
296.51748817506001
 20
127.65191514260491
 30
0.0
 11
295.92687195922048
 21
127.2601045703241
 31
0.0
  0
LINE
  5
E3
  8
LAYER_1
 10
295.92687195922048
 20
127.2601045703241
 30
0.0
 11
294.93543444364559
 21
126.5865965487901
 31
0.0
  0
LINE
  5
E4
  8
LAYER_1
 10
294.93543444364559
 20
126.5865965487901
 30
0.0
 11
294.2665486493122
 21
126.1537919356054
 31
0.0
  0
LINE
  5
E5
  8
LAYER_1
 10
294.2665486493122
 20
126.1537919356054
 30
0.0
 11
293.94865755109322
 21
125.9310610224088
 31
0.0
  0
LINE
  5
E6
  8
LAYER_1
 10
293.94865755109322
 20
125.9310610224088
 30
0.0
 11
293.56787125224662
 21
125.59296854141149
 31
0.0
  0
LINE
  5
E7
  8
LAYER_1
 10
293.56787125224662
 20
125.59296854141149
 30
0.0
 11
293.16203492995868
 21
125.20892946634829
 31
0.0
  0
LINE
  5
E8
  8
LAYER_1
 10
293.16203492995868
 20
125.20892946634829
 30
0.0
 11
293.00465614369892
 21
124.8784528677557
 31
0.0
  0
LINE
  5
E9
  8
LAYER_1
 10
293.00465614369892
 20
124.8784528677557
 30
0.0
 11
292.79314960914598
 21
124.4237534941477
 31
0.0
  0
LINE
  5
EA
  8
LAYER_1
 10
292.79314960914598
 20
124.4237534941477
 30
0.0
 11
292.7442395280213
 21
124.3383068426442
 31
0.0
  0
LINE
  5
EB
  8
LAYER_1
 10
292.7442395280213
 20
124.3383068426442
 30
0.0
 11
292.70319226116249
 21
124.31129284243519
 31
0.0
  0
LINE
  5
EC
  8
LAYER_1
 10
292.70319226116249
 20
124.31129284243519
 30
0.0
 11
292.6732688124593
 21
124.3485213502212
 31
0.0
  0
LINE
  5
ED
  8
LAYER_1
 10
292.6732688124593
 20
124.3485213502212
 30
0.0
 11
292.65894625665288
 21
124.4259411418174
 31
0.0
  0
LINE
  5
EE
  8
LAYER_1
 10
292.65894625665288
 20
124.4259411418174
 30
0.0
 11
292.66119870997039
 21
124.5289859799969
 31
0.0
  0
LINE
  5
EF
  8
LAYER_1
 10
292.66119870997039
 20
124.5289859799969
 30
0.0
 11
292.68100049178719
 21
124.6430896275335
 31
0.0
  0
LINE
  5
F0
  8
LAYER_1
 10
292.68100049178719
 20
124.6430896275335
 30
0.0
 11
292.6960282914892
 21
124.7273394060968
 31
0.0
  0
LINE
  5
F1
  8
LAYER_1
 10
292.6960282914892
 20
124.7273394060968
 30
0.0
 11
292.69290431395848
 21
124.7846704629729
 31
0.0
  0
LINE
  5
F2
  8
LAYER_1
 10
292.69290431395848
 20
124.7846704629729
 30
0.0
 11
292.67320989823492
 21
124.8154075374285
 31
0.0
  0
LINE
  5
F3
  8
LAYER_1
 10
292.67320989823492
 20
124.8154075374285
 30
0.0
 11
292.63852628178518
 21
124.819875571883
 31
0.0
  0
LINE
  5
F4
  8
LAYER_1
 10
292.63852628178518
 20
124.819875571883
 30
0.0
 11
292.59043480365079
 21
124.7983995087572
 31
0.0
  0
LINE
  5
F5
  8
LAYER_1
 10
292.59043480365079
 20
124.7983995087572
 30
0.0
 11
292.53051670129611
 21
124.7513042904706
 31
0.0
  0
LINE
  5
F6
  8
LAYER_1
 10
292.53051670129611
 20
124.7513042904706
 30
0.0
 11
292.38152618323488
 21
124.58155595494
 31
0.0
  0
LINE
  5
F7
  8
LAYER_1
 10
292.38152618323488
 20
124.58155595494
 30
0.0
 11
292.26733081234619
 21
124.44235687938161
 31
0.0
  0
LINE
  5
F8
  8
LAYER_1
 10
292.26733081234619
 20
124.44235687938161
 30
0.0
 11
292.16637367080881
 21
124.34735332493609
 31
0.0
  0
LINE
  5
F9
  8
LAYER_1
 10
292.16637367080881
 20
124.34735332493609
 30
0.0
 11
292.0740306014722
 21
124.2929718391723
 31
0.0
  0
LINE
  5
FA
  8
LAYER_1
 10
292.0740306014722
 20
124.2929718391723
 30
0.0
 11
291.98567744718611
 21
124.275638766505
 31
0.0
  0
LINE
  5
FB
  8
LAYER_1
 10
291.98567744718611
 20
124.275638766505
 30
0.0
 11
291.94457218028998
 21
124.28515910199761
 31
0.0
  0
LINE
  5
FC
  8
LAYER_1
 10
291.94457218028998
 20
124.28515910199761
 30
0.0
 11
291.89993063786778
 21
124.31834609399699
 31
0.0
  0
LINE
  5
FD
  8
LAYER_1
 10
291.89993063786778
 20
124.31834609399699
 30
0.0
 11
291.77142693184533
 21
124.4834750464621
 31
0.0
  0
LINE
  5
FE
  8
LAYER_1
 10
291.77142693184533
 20
124.4834750464621
 30
0.0
 11
291.56612294777142
 21
124.79096412734749
 31
0.0
  0
LINE
  5
FF
  8
LAYER_1
 10
291.56612294777142
 20
124.79096412734749
 30
0.0
 11
291.4009979567802
 21
125.0639388178132
 31
0.0
  0
LINE
  5
100
  8
LAYER_1
 10
291.4009979567802
 20
125.0639388178132
 30
0.0
 11
291.27212319272297
 21
125.3137385823933
 31
0.0
  0
LINE
  5
101
  8
LAYER_1
 10
291.27212319272297
 20
125.3137385823933
 30
0.0
 11
291.17557019417882
 21
125.551703291923
 31
0.0
  0
LINE
  5
102
  8
LAYER_1
 10
291.17557019417882
 20
125.551703291923
 30
0.0
 11
291.10741029657481
 21
125.7891726140883
 31
0.0
  0
LINE
  5
103
  8
LAYER_1
 10
291.10741029657481
 20
125.7891726140883
 30
0.0
 11
291.06371493691012
 21
126.0374863181479
 31
0.0
  0
LINE
  5
104
  8
LAYER_1
 10
291.06371493691012
 20
126.0374863181479
 30
0.0
 11
291.04055534903642
 21
126.30798397021189
 31
0.0
  0
LINE
  5
105
  8
LAYER_1
 10
291.04055534903642
 20
126.30798397021189
 30
0.0
 11
291.03400317311002
 21
126.6120053395401
 31
0.0
  0
LINE
  5
106
  8
LAYER_1
 10
291.03400317311002
 20
126.6120053395401
 30
0.0
 11
291.04524167084998
 21
127.0356705281651
 31
0.0
  0
LINE
  5
107
  8
LAYER_1
 10
291.04524167084998
 20
127.0356705281651
 30
0.0
 11
291.08532010344749
 21
127.2856815713418
 31
0.0
  0
LINE
  5
108
  8
LAYER_1
 10
291.08532010344749
 20
127.2856815713418
 30
0.0
 11
291.18289130231022
 21
127.55863269611871
 31
0.0
  0
LINE
  5
109
  8
LAYER_1
 10
291.18289130231022
 20
127.55863269611871
 30
0.0
 11
291.23048739308001
 21
127.6326042787984
 31
0.0
  0
LINE
  5
10A
  8
LAYER_1
 10
291.23048739308001
 20
127.6326042787984
 30
0.0
 11
291.27397320094423
 21
127.6583535531334
 31
0.0
  0
LINE
  5
10B
  8
LAYER_1
 10
291.27397320094423
 20
127.6583535531334
 30
0.0
 11
291.32537027494158
 21
127.63040982551929
 31
0.0
  0
LINE
  5
10C
  8
LAYER_1
 10
291.32537027494158
 20
127.63040982551929
 30
0.0
 11
291.42987171652987
 21
127.536496387376
 31
0.0
  0
LINE
  5
10D
  8
LAYER_1
 10
291.42987171652987
 20
127.536496387376
 30
0.0
 11
291.86066126009001
 21
127.0902684729156
 31
0.0
  0
LINE
  5
10E
  8
LAYER_1
 10
291.86066126009001
 20
127.0902684729156
 30
0.0
 11
292.02041530535121
 21
126.93084952769981
 31
0.0
  0
LINE
  5
10F
  8
LAYER_1
 10
292.02041530535121
 20
126.93084952769981
 30
0.0
 11
292.15804147269739
 21
126.8220205316095
 31
0.0
  0
LINE
  5
110
  8
LAYER_1
 10
292.15804147269739
 20
126.8220205316095
 30
0.0
 11
292.29592503425908
 21
126.7490067113803
 31
0.0
  0
LINE
  5
111
  8
LAYER_1
 10
292.29592503425908
 20
126.7490067113803
 30
0.0
 11
292.45645136373821
 21
126.69703298901651
 31
0.0
  0
LINE
  5
112
  8
LAYER_1
 10
292.45645136373821
 20
126.69703298901651
 30
0.0
 11
292.62257667762782
 21
126.6364218319155
 31
0.0
  0
LINE
  5
113
  8
LAYER_1
 10
292.62257667762782
 20
126.6364218319155
 30
0.0
 11
292.75928286888831
 21
126.5512196744435
 31
0.0
  0
LINE
  5
114
  8
LAYER_1
 10
292.75928286888831
 20
126.5512196744435
 30
0.0
 11
292.87986972207841
 21
126.4525436307229
 31
0.0
  0
LINE
  5
115
  8
LAYER_1
 10
292.87986972207841
 20
126.4525436307229
 30
0.0
 11
292.9265065267565
 21
126.52372044449361
 31
0.0
  0
LINE
  5
116
  8
LAYER_1
 10
292.9265065267565
 20
126.52372044449361
 30
0.0
 11
292.99972674992301
 21
126.6845637934462
 31
0.0
  0
LINE
  5
117
  8
LAYER_1
 10
292.99972674992301
 20
126.6845637934462
 30
0.0
 11
293.04290569593741
 21
126.88136147771959
 31
0.0
  0
LINE
  5
118
  8
LAYER_1
 10
293.04290569593741
 20
126.88136147771959
 30
0.0
 11
293.05201444447061
 21
127.0833844473832
 31
0.0
  0
LINE
  5
119
  8
LAYER_1
 10
293.05201444447061
 20
127.0833844473832
 30
0.0
 11
293.02302427834161
 21
127.2599035509278
 31
0.0
  0
LINE
  5
11A
  8
LAYER_1
 10
293.02302427834161
 20
127.2599035509278
 30
0.0
 11
292.91294751961237
 21
127.5293517171897
 31
0.0
  0
LINE
  5
11B
  8
LAYER_1
 10
292.91294751961237
 20
127.5293517171897
 30
0.0
 11
292.77266198449581
 21
127.8715371115553
 31
0.0
  0
LINE
  5
11C
  8
LAYER_1
 10
292.77266198449581
 20
127.8715371115553
 30
0.0
 11
292.74831568130878
 21
127.9739205867785
 31
0.0
  0
LINE
  5
11D
  8
LAYER_1
 10
292.74831568130878
 20
127.9739205867785
 30
0.0
 11
292.75035970016319
 21
128.0435942752197
 31
0.0
  0
LINE
  5
11E
  8
LAYER_1
 10
292.75035970016319
 20
128.0435942752197
 30
0.0
 11
292.78368087438508
 21
128.10233206156499
 31
0.0
  0
LINE
  5
11F
  8
LAYER_1
 10
292.78368087438508
 20
128.10233206156499
 30
0.0
 11
292.84555970307252
 21
128.1533789006584
 31
0.0
  0
LINE
  5
120
  8
LAYER_1
 10
292.84555970307252
 20
128.1533789006584
 30
0.0
 11
292.9241484341407
 21
128.18939184547469
 31
0.0
  0
LINE
  5
121
  8
LAYER_1
 10
292.9241484341407
 20
128.18939184547469
 30
0.0
 11
293.00759962023699
 21
128.203027948992
 31
0.0
  0
LINE
  5
122
  8
LAYER_1
 10
293.00759962023699
 20
128.203027948992
 30
0.0
 11
293.12770408782109
 21
128.22419410298281
 31
0.0
  0
LINE
  5
123
  8
LAYER_1
 10
293.12770408782109
 20
128.22419410298281
 30
0.0
 11
293.15858194695801
 21
128.25009086603151
 31
0.0
  0
LINE
  5
124
  8
LAYER_1
 10
293.15858194695801
 20
128.25009086603151
 30
0.0
 11
293.16903678393868
 21
128.28569842003969
 31
0.0
  0
LINE
  5
125
  8
LAYER_1
 10
293.16903678393868
 20
128.28569842003969
 30
0.0
 11
293.10837717496628
 21
128.38398562987939
 31
0.0
  0
LINE
  5
126
  8
LAYER_1
 10
293.10837717496628
 20
128.38398562987939
 30
0.0
 11
292.9535269262671
 21
128.54186681226511
 31
0.0
  0
LINE
  5
127
  8
LAYER_1
 10
292.9535269262671
 20
128.54186681226511
 30
0.0
 11
292.74517931147483
 21
128.7215236061341
 31
0.0
  0
LINE
  5
128
  8
LAYER_1
 10
292.74517931147483
 20
128.7215236061341
 30
0.0
 11
292.5240276042187
 21
128.88513775200121
 31
0.0
  0
LINE
  5
129
  8
LAYER_1
 10
292.5240276042187
 20
128.88513775200121
 30
0.0
 11
292.16100404556852
 21
129.15770634062511
 31
0.0
  0
LINE
  5
12A
  8
LAYER_1
 10
292.16100404556852
 20
129.15770634062511
 30
0.0
 11
292.05867034270682
 21
129.26036153231399
 31
0.0
  0
LINE
  5
12B
  8
LAYER_1
 10
292.05867034270682
 20
129.26036153231399
 30
0.0
 11
292.02235388805838
 21
129.3288931989907
 31
0.0
  0
LINE
  5
12C
  8
LAYER_1
 10
292.02235388805838
 20
129.3288931989907
 30
0.0
 11
292.045505654561
 21
129.3791141216048
 31
0.0
  0
LINE
  5
12D
  8
LAYER_1
 10
292.045505654561
 20
129.3791141216048
 30
0.0
 11
292.10116852470321
 21
129.43621246729481
 31
0.0
  0
LINE
  5
12E
  8
LAYER_1
 10
292.10116852470321
 20
129.43621246729481
 30
0.0
 11
292.1514014333157
 21
129.46959865031829
 31
0.0
  0
LINE
  5
12F
  8
LAYER_1
 10
292.1514014333157
 20
129.46959865031829
 30
0.0
 11
292.20978888317978
 21
129.48573495162199
 31
0.0
  0
LINE
  5
130
  8
LAYER_1
 10
292.20978888317978
 20
129.48573495162199
 30
0.0
 11
292.4537709696848
 21
129.47861191717701
 31
0.0
  0
LINE
  5
131
  8
LAYER_1
 10
292.4537709696848
 20
129.47861191717701
 30
0.0
 11
292.62715979797258
 21
129.4703123250421
 31
0.0
  0
LINE
  5
132
  8
LAYER_1
 10
292.62715979797258
 20
129.4703123250421
 30
0.0
 11
292.72748554154839
 21
129.48161573000559
 31
0.0
  0
LINE
  5
133
  8
LAYER_1
 10
292.72748554154839
 20
129.48161573000559
 30
0.0
 11
292.77768259374483
 21
129.5201095731226
 31
0.0
  0
LINE
  5
134
  8
LAYER_1
 10
292.77768259374483
 20
129.5201095731226
 30
0.0
 11
292.80068524631292
 21
129.59338109229529
 31
0.0
  0
LINE
  5
135
  8
LAYER_1
 10
292.80068524631292
 20
129.59338109229529
 30
0.0
 11
292.8379342725014
 21
129.63903352154489
 31
0.0
  0
LINE
  5
136
  8
LAYER_1
 10
292.8379342725014
 20
129.63903352154489
 30
0.0
 11
292.9171376414489
 21
129.65993161581531
 31
0.0
  0
LINE
  5
137
  8
LAYER_1
 10
292.9171376414489
 20
129.65993161581531
 30
0.0
 11
293.0210638567396
 21
129.6546096298367
 31
0.0
  0
LINE
  5
138
  8
LAYER_1
 10
293.0210638567396
 20
129.6546096298367
 30
0.0
 11
293.13248111722561
 21
129.6216021230685
 31
0.0
  0
LINE
  5
139
  8
LAYER_1
 10
293.13248111722561
 20
129.6216021230685
 30
0.0
 11
293.55916505038658
 21
129.42346221024351
 31
0.0
  0
LINE
  5
13A
  8
LAYER_1
 10
293.55916505038658
 20
129.42346221024351
 30
0.0
 11
293.90297038276788
 21
129.22930784469099
 31
0.0
  0
LINE
  5
13B
  8
LAYER_1
 10
293.90297038276788
 20
129.22930784469099
 30
0.0
 11
294.19932244058441
 21
129.01662546348109
 31
0.0
  0
LINE
  5
13C
  8
LAYER_1
 10
294.19932244058441
 20
129.01662546348109
 30
0.0
 11
294.48364634690353
 21
128.76290140210639
 31
0.0
  0
LINE
  5
13D
  8
LAYER_1
 10
294.48364634690353
 20
128.76290140210639
 30
0.0
 11
294.8501669726449
 21
128.38670543551601
 31
0.0
  0
LINE
  5
13E
  8
LAYER_1
 10
294.8501669726449
 20
128.38670543551601
 30
0.0
 11
295.1318263308064
 21
128.05581948464109
 31
0.0
  0
LINE
  5
13F
  8
LAYER_1
 10
295.1318263308064
 20
128.05581948464109
 30
0.0
 11
295.3125844143637
 21
127.79091015147981
 31
0.0
  0
LINE
  5
140
  8
LAYER_1
 10
295.3125844143637
 20
127.79091015147981
 30
0.0
 11
295.36011316008188
 21
127.6896548836508
 31
0.0
  0
LINE
  5
141
  8
LAYER_1
 10
295.36011316008188
 20
127.6896548836508
 30
0.0
 11
295.37640162260578
 21
127.61264363172749
 31
0.0
  0
LINE
  5
142
  8
LAYER_1
 10
295.37640162260578
 20
127.61264363172749
 30
0.0
 11
295.34529795946759
 21
127.5257580510839
 31
0.0
  0
LINE
  5
143
  8
LAYER_1
 10
295.34529795946759
 20
127.5257580510839
 30
0.0
 11
295.23560038487619
 21
127.39260174656521
 31
0.0
  0
LINE
  5
144
  8
LAYER_1
 10
295.23560038487619
 20
127.39260174656521
 30
0.0
 11
294.6821033807762
 21
126.88434253746919
 31
0.0
  0
LINE
  5
145
  8
LAYER_1
 10
294.6821033807762
 20
126.88434253746919
 30
0.0
 11
294.4462143818912
 21
126.65871456808181
 31
0.0
  0
LINE
  5
146
  8
LAYER_1
 10
294.4462143818912
 20
126.65871456808181
 30
0.0
 11
294.5159159022233
 21
126.6939316629893
 31
0.0
  0
LINE
  5
147
  8
LAYER_1
 10
294.5159159022233
 20
126.6939316629893
 30
0.0
 11
294.68329415914098
 21
126.8113530955392
 31
0.0
  0
LINE
  5
148
  8
LAYER_1
 10
294.68329415914098
 20
126.8113530955392
 30
0.0
 11
295.20394445167358
 21
127.2142601619647
 31
0.0
  0
LINE
  5
149
  8
LAYER_1
 10
295.20394445167358
 20
127.2142601619647
 30
0.0
 11
295.93344170783888
 21
127.7723996069368
 31
0.0
  0
LINE
  5
14A
  8
LAYER_1
 10
295.93344170783888
 20
127.7723996069368
 30
0.0
 11
296.22614575625607
 21
127.9684228738902
 31
0.0
  0
LINE
  5
14B
  8
LAYER_1
 10
296.22614575625607
 20
127.9684228738902
 30
0.0
 11
296.50072027264162
 21
128.1302010290602
 31
0.0
  0
LINE
  5
14C
  8
LAYER_1
 10
296.50072027264162
 20
128.1302010290602
 30
0.0
 11
296.737281604717
 21
128.2516015080036
 31
0.0
  0
LINE
  5
14D
  8
LAYER_1
 10
296.737281604717
 20
128.2516015080036
 30
0.0
 11
296.94468171626158
 21
128.32055237985779
 31
0.0
  0
LINE
  5
14E
  8
LAYER_1
 10
296.94468171626158
 20
128.32055237985779
 30
0.0
 11
297.21161272150238
 21
128.35670671881331
 31
0.0
  0
LINE
  5
14F
  8
LAYER_1
 10
297.21161272150238
 20
128.35670671881331
 30
0.0
 11
297.62676693781901
 21
128.37971749748209
 31
0.0
  0
LINE
  5
150
  8
LAYER_1
 10
297.62676693781901
 20
128.37971749748209
 30
0.0
 11
298.12137846370689
 21
128.39710755442451
 31
0.0
  0
LINE
  5
151
  8
LAYER_1
 10
298.12137846370689
 20
128.39710755442451
 30
0.0
 11
298.44541868329588
 21
128.39436133896299
 31
0.0
  0
LINE
  5
152
  8
LAYER_1
 10
298.44541868329588
 20
128.39436133896299
 30
0.0
 11
298.6528437825981
 21
128.36858301382031
 31
0.0
  0
LINE
  5
153
  8
LAYER_1
 10
298.6528437825981
 20
128.36858301382031
 30
0.0
 11
298.7976102523524
 21
128.31687664014351
 31
0.0
  0
LINE
  5
154
  8
LAYER_1
 10
298.7976102523524
 20
128.31687664014351
 30
0.0
 11
298.90066209929262
 21
128.25351083675179
 31
0.0
  0
LINE
  5
155
  8
LAYER_1
 10
298.90066209929262
 20
128.25351083675179
 30
0.0
 11
298.98512061704793
 21
128.1737303115577
 31
0.0
  0
LINE
  5
156
  8
LAYER_1
 10
298.98512061704793
 20
128.1737303115577
 30
0.0
 11
299.0552357558654
 21
128.0725598598967
 31
0.0
  0
LINE
  5
157
  8
LAYER_1
 10
299.0552357558654
 20
128.0725598598967
 30
0.0
 11
299.1152577707233
 21
127.9450242771039
 31
0.0
  0
LINE
  5
158
  8
LAYER_1
 10
299.1152577707233
 20
127.9450242771039
 30
0.0
 11
299.14139415214288
 21
127.85532544067421
 31
0.0
  0
LINE
  5
159
  8
LAYER_1
 10
299.14139415214288
 20
127.85532544067421
 30
0.0
 11
299.15828709492462
 21
127.7238844542681
 31
0.0
  0
LINE
  5
15A
  8
LAYER_1
 10
299.15828709492462
 20
127.7238844542681
 30
0.0
 11
299.17505875566479
 21
127.2027678251786
 31
0.0
  0
LINE
  5
15B
  8
LAYER_1
 10
299.17505875566479
 20
127.2027678251786
 30
0.0
 11
299.17808227428498
 21
126.8361211433117
 31
0.0
  0
LINE
  5
15C
  8
LAYER_1
 10
299.17808227428498
 20
126.8361211433117
 30
0.0
 11
299.16746775944313
 21
126.6047314643653
 31
0.0
  0
LINE
  5
15D
  8
LAYER_1
 10
299.16746775944313
 20
126.6047314643653
 30
0.0
 11
299.13348197182108
 21
126.4171678737149
 31
0.0
  0
LINE
  5
15E
  8
LAYER_1
 10
299.13348197182108
 20
126.4171678737149
 30
0.0
 11
299.06639126581069
 21
126.18199925358449
 31
0.0
  0
LINE
  5
15F
  8
LAYER_1
 10
299.06639126581069
 20
126.18199925358449
 30
0.0
 11
298.91903683639049
 21
125.6504417034598
 31
0.0
  0
LINE
  5
160
  8
LAYER_1
 10
298.91903683639049
 20
125.6504417034598
 30
0.0
 11
298.9058960186639
 21
125.5070884640552
 31
0.0
  0
LINE
  5
161
  8
LAYER_1
 10
298.9058960186639
 20
125.5070884640552
 30
0.0
 11
298.91338594651961
 21
125.3363205061398
 31
0.0
  0
LINE
  5
162
  8
LAYER_1
 10
298.91338594651961
 20
125.3363205061398
 30
0.0
 11
298.9714267166454
 21
124.6913113264191
 31
0.0
  0
LINE
  5
163
  8
LAYER_1
 10
298.9714267166454
 20
124.6913113264191
 30
0.0
 11
299.05734711977152
 21
123.8886332586725
 31
0.0
  0
LINE
  5
164
  8
LAYER_1
 10
299.05734711977152
 20
123.8886332586725
 30
0.0
 11
299.13091199115189
 21
123.2325522678353
 31
0.0
  0
LINE
  5
165
  8
LAYER_1
 10
299.13091199115189
 20
123.2325522678353
 30
0.0
 11
299.14750050991501
 21
123.0345426773378
 31
0.0
  0
LINE
  5
166
  8
LAYER_1
 10
299.14750050991501
 20
123.0345426773378
 30
0.0
 11
299.14546197617892
 21
122.8414293667595
 31
0.0
  0
LINE
  5
167
  8
LAYER_1
 10
299.14546197617892
 20
122.8414293667595
 30
0.0
 11
299.12464209562012
 21
122.65263802398989
 31
0.0
  0
LINE
  5
168
  8
LAYER_1
 10
299.12464209562012
 20
122.65263802398989
 30
0.0
 11
299.08488647233992
 21
122.46759443849579
 31
0.0
  0
LINE
  5
169
  8
LAYER_1
 10
299.08488647233992
 20
122.46759443849579
 30
0.0
 11
299.02604091359478
 21
122.2857242981655
 31
0.0
  0
LINE
  5
16A
  8
LAYER_1
 10
299.02604091359478
 20
122.2857242981655
 30
0.0
 11
298.94795102348593
 21
122.10645329088889
 31
0.0
  0
LINE
  5
16B
  8
LAYER_1
 10
298.94795102348593
 20
122.10645329088889
 30
0.0
 11
298.85046250769068
 21
121.92920720613159
 31
0.0
  0
LINE
  5
16C
  8
LAYER_1
 10
298.85046250769068
 20
121.92920720613159
 30
0.0
 11
298.7334209703107
 21
121.7534117317828
 31
0.0
  0
LINE
  5
16D
  8
LAYER_1
 10
298.7334209703107
 20
121.7534117317828
 30
0.0
 11
298.57651055213438
 21
121.530578023423
 31
0.0
  0
LINE
  5
16E
  8
LAYER_1
 10
298.57651055213438
 20
121.530578023423
 30
0.0
 11
298.57968379414581
 21
121.431509387502
 31
0.0
  0
LINE
  5
16F
  8
LAYER_1
 10
298.57968379414581
 20
121.431509387502
 30
0.0
 11
298.61775731474711
 21
121.2439072994533
 31
0.0
  0
LINE
  5
170
  8
LAYER_1
 10
298.61775731474711
 20
121.2439072994533
 30
0.0
 11
298.66731982011652
 21
120.9652301183804
 31
0.0
  0
LINE
  5
171
  8
LAYER_1
 10
298.66731982011652
 20
120.9652301183804
 30
0.0
 11
298.66492729315291
 21
120.57758610224811
 31
0.0
  0
LINE
  5
172
  8
LAYER_1
 10
298.66492729315291
 20
120.57758610224811
 30
0.0
 11
298.64688257728642
 21
120.2882164973486
 31
0.0
  0
LINE
  5
173
  8
LAYER_1
 10
298.64688257728642
 20
120.2882164973486
 30
0.0
 11
298.61136532456243
 21
120.0640242066614
 31
0.0
  0
LINE
  5
174
  8
LAYER_1
 10
298.61136532456243
 20
120.0640242066614
 30
0.0
 11
298.54798265951302
 21
119.8600116630128
 31
0.0
  0
LINE
  5
175
  8
LAYER_1
 10
298.54798265951302
 20
119.8600116630128
 30
0.0
 11
298.44634170666922
 21
119.63118129923021
 31
0.0
  0
LINE
  5
176
  8
LAYER_1
 10
298.44634170666922
 20
119.63118129923021
 30
0.0
 11
298.2914371146764
 21
119.3402916057678
 31
0.0
  0
LINE
  5
177
  8
LAYER_1
 10
298.2914371146764
 20
119.3402916057678
 30
0.0
 11
298.12656941632389
 21
119.0904132211715
 31
0.0
  0
LINE
  5
178
  8
LAYER_1
 10
298.12656941632389
 20
119.0904132211715
 30
0.0
 11
297.94258527110418
 21
118.8691849254233
 31
0.0
  0
LINE
  5
179
  8
LAYER_1
 10
297.94258527110418
 20
118.8691849254233
 30
0.0
 11
297.73033133851283
 21
118.6642458032338
 31
0.0
  0
LINE
  5
17A
  8
LAYER_1
 10
297.73033133851283
 20
118.6642458032338
 30
0.0
 11
297.4816702436807
 21
118.45567086079561
 31
0.0
  0
LINE
  5
17B
  8
LAYER_1
 10
297.4816702436807
 20
118.45567086079561
 30
0.0
 11
297.29930471598459
 21
118.3312623028214
 31
0.0
  0
LINE
  5
17C
  8
LAYER_1
 10
297.29930471598459
 20
118.3312623028214
 30
0.0
 11
297.14725969854942
 21
118.2711724350285
 31
0.0
  0
LINE
  5
17D
  8
LAYER_1
 10
297.14725969854942
 20
118.2711724350285
 30
0.0
 11
296.9895600329188
 21
118.2555530552544
 31
0.0
  0
LINE
  5
17E
  8
LAYER_1
 10
296.9895600329188
 20
118.2555530552544
 30
0.0
 11
296.85507836150668
 21
118.26579123009731
 31
0.0
  0
LINE
  5
17F
  8
LAYER_1
 10
296.85507836150668
 20
118.26579123009731
 30
0.0
 11
296.76368330329848
 21
118.298061598028
 31
0.0
  0
LINE
  5
180
  8
LAYER_1
 10
296.76368330329848
 20
118.298061598028
 30
0.0
 11
296.7116083094167
 21
118.3546982796677
 31
0.0
  0
LINE
  5
181
  8
LAYER_1
 10
296.7116083094167
 20
118.3546982796677
 30
0.0
 11
296.69508703412851
 21
118.43803529406
 31
0.0
  0
LINE
  5
182
  8
LAYER_1
 10
296.69508703412851
 20
118.43803529406
 30
0.0
 11
296.68287167760383
 21
118.5202254110269
 31
0.0
  0
LINE
  5
183
  8
LAYER_1
 10
296.68287167760383
 20
118.5202254110269
 30
0.0
 11
296.65350283521889
 21
118.5869120467203
 31
0.0
  0
LINE
  5
184
  8
LAYER_1
 10
296.65350283521889
 20
118.5869120467203
 30
0.0
 11
296.62637679640761
 21
118.6136534162779
 31
0.0
  0
LINE
  5
185
  8
LAYER_1
 10
296.62637679640761
 20
118.6136534162779
 30
0.0
 11
296.59276714563782
 21
118.6069803646145
 31
0.0
  0
LINE
  5
186
  8
LAYER_1
 10
296.59276714563782
 20
118.6069803646145
 30
0.0
 11
296.43621813575271
 21
118.4490558091706
 31
0.0
  0
LINE
  5
187
  8
LAYER_1
 10
296.43621813575271
 20
118.4490558091706
 30
0.0
 11
296.27209519445631
 21
118.2875923372191
 31
0.0
  0
LINE
  5
188
  8
LAYER_1
 10
296.27209519445631
 20
118.2875923372191
 30
0.0
 11
296.21681252421291
 21
118.2621448459186
 31
0.0
  0
LINE
  5
189
  8
LAYER_1
 10
296.21681252421291
 20
118.2621448459186
 30
0.0
 11
296.15529774480348
 21
118.2570958968972
 31
0.0
  0
LINE
  5
18A
  8
LAYER_1
 10
296.15529774480348
 20
118.2570958968972
 30
0.0
 11
296.02733980796802
 21
118.2840829794004
 31
0.0
  0
LINE
  5
18B
  8
LAYER_1
 10
296.02733980796802
 20
118.2840829794004
 30
0.0
 11
295.86745218994071
 21
118.34680032002009
 31
0.0
  0
LINE
  5
18C
  8
LAYER_1
 10
295.86745218994071
 20
118.34680032002009
 30
0.0
 11
295.86745218994071
 21
118.34680032002009
 31
0.0
  0
LINE
  5
18D
  8
LAYER_1
 10
293.2407045157193
 20
120.2209252798224
 30
0.0
 11
292.92045197287138
 21
120.30528770644651
 31
0.0
  0
LINE
  5
18E
  8
LAYER_1
 10
292.92045197287138
 20
120.30528770644651
 30
0.0
 11
292.5320699037145
 21
120.43028408617261
 31
0.0
  0
LINE
  5
18F
  8
LAYER_1
 10
292.5320699037145
 20
120.43028408617261
 30
0.0
 11
292.12533320955788
 21
120.5787928280841
 31
0.0
  0
LINE
  5
190
  8
LAYER_1
 10
292.12533320955788
 20
120.5787928280841
 30
0.0
 11
291.7500165885549
 21
120.73369234126319
 31
0.0
  0
LINE
  5
191
  8
LAYER_1
 10
291.7500165885549
 20
120.73369234126319
 30
0.0
 11
291.46004026871873
 21
120.83943179417039
 31
0.0
  0
LINE
  5
192
  8
LAYER_1
 10
291.46004026871873
 20
120.83943179417039
 30
0.0
 11
291.07634035675233
 21
120.9604934147473
 31
0.0
  0
LINE
  5
193
  8
LAYER_1
 10
291.07634035675233
 20
120.9604934147473
 30
0.0
 11
290.62618001939569
 21
121.0424252233145
 31
0.0
  0
LINE
  5
194
  8
LAYER_1
 10
290.62618001939569
 20
121.0424252233145
 30
0.0
 11
290.0297912253364
 21
121.1064414194275
 31
0.0
  0
LINE
  5
195
  8
LAYER_1
 10
290.0297912253364
 20
121.1064414194275
 30
0.0
 11
289.80001538983129
 21
121.130261252918
 31
0.0
  0
LINE
  5
196
  8
LAYER_1
 10
289.80001538983129
 20
121.130261252918
 30
0.0
 11
289.57893204339092
 21
121.1688533202669
 31
0.0
  0
LINE
  5
197
  8
LAYER_1
 10
289.57893204339092
 20
121.1688533202669
 30
0.0
 11
289.36766035312331
 21
121.2217937437899
 31
0.0
  0
LINE
  5
198
  8
LAYER_1
 10
289.36766035312331
 20
121.2217937437899
 30
0.0
 11
289.1673192829881
 21
121.2886586457996
 31
0.0
  0
LINE
  5
199
  8
LAYER_1
 10
289.1673192829881
 20
121.2886586457996
 30
0.0
 11
288.97902789851412
 21
121.3690239454578
 31
0.0
  0
LINE
  5
19A
  8
LAYER_1
 10
288.97902789851412
 20
121.3690239454578
 30
0.0
 11
288.8039051636614
 21
121.46246586665499
 31
0.0
  0
LINE
  5
19B
  8
LAYER_1
 10
288.8039051636614
 20
121.46246586665499
 30
0.0
 11
288.6430702455379
 21
121.568560328551
 31
0.0
  0
LINE
  5
19C
  8
LAYER_1
 10
288.6430702455379
 20
121.568560328551
 30
0.0
 11
288.49764210809877
 21
121.68688355503809
 31
0.0
  0
LINE
  5
19D
  8
LAYER_1
 10
288.49764210809877
 20
121.68688355503809
 30
0.0
 11
288.38050864421427
 21
121.80131986478889
 31
0.0
  0
LINE
  5
19E
  8
LAYER_1
 10
288.38050864421427
 20
121.80131986478889
 30
0.0
 11
288.29987213597229
 21
121.9005206514105
 31
0.0
  0
LINE
  5
19F
  8
LAYER_1
 10
288.29987213597229
 20
121.9005206514105
 30
0.0
 11
288.25328510365802
 21
121.9880785652438
 31
0.0
  0
LINE
  5
1A0
  8
LAYER_1
 10
288.25328510365802
 20
121.9880785652438
 30
0.0
 11
288.23829996598079
 21
122.0675865613629
 31
0.0
  0
LINE
  5
1A1
  8
LAYER_1
 10
288.23829996598079
 20
122.0675865613629
 30
0.0
 11
288.25003131168131
 21
122.1121345520592
 31
0.0
  0
LINE
  5
1A2
  8
LAYER_1
 10
288.25003131168131
 20
122.1121345520592
 30
0.0
 11
288.31713440999351
 21
122.0861378379816
 31
0.0
  0
LINE
  5
1A3
  8
LAYER_1
 10
288.31713440999351
 20
122.0861378379816
 30
0.0
 11
288.39131402083109
 21
122.0320805836034
 31
0.0
  0
LINE
  5
1A4
  8
LAYER_1
 10
288.39131402083109
 20
122.0320805836034
 30
0.0
 11
288.45895679375337
 21
121.959607149017
 31
0.0
  0
LINE
  5
1A5
  8
LAYER_1
 10
288.45895679375337
 20
121.959607149017
 30
0.0
 11
288.5566715198546
 21
121.8643497555264
 31
0.0
  0
LINE
  5
1A6
  8
LAYER_1
 10
288.5566715198546
 20
121.8643497555264
 30
0.0
 11
288.71199176185689
 21
121.7498593056347
 31
0.0
  0
LINE
  5
1A7
  8
LAYER_1
 10
288.71199176185689
 20
121.7498593056347
 30
0.0
 11
288.88988326209892
 21
121.6397506519627
 31
0.0
  0
LINE
  5
1A8
  8
LAYER_1
 10
288.88988326209892
 20
121.6397506519627
 30
0.0
 11
289.05531166134472
 21
121.5576382408258
 31
0.0
  0
LINE
  5
1A9
  8
LAYER_1
 10
289.05531166134472
 20
121.5576382408258
 30
0.0
 11
289.26681992269488
 21
121.49209078276211
 31
0.0
  0
LINE
  5
1AA
  8
LAYER_1
 10
289.26681992269488
 20
121.49209078276211
 30
0.0
 11
289.5451851631077
 21
121.44427264631319
 31
0.0
  0
LINE
  5
1AB
  8
LAYER_1
 10
289.5451851631077
 20
121.44427264631319
 30
0.0
 11
289.90828490394352
 21
121.4119501697667
 31
0.0
  0
LINE
  5
1AC
  8
LAYER_1
 10
289.90828490394352
 20
121.4119501697667
 30
0.0
 11
290.3739970728675
 21
121.3928897929888
 31
0.0
  0
LINE
  5
1AD
  8
LAYER_1
 10
290.3739970728675
 20
121.3928897929888
 30
0.0
 11
290.99447883894868
 21
121.364186782915
 31
0.0
  0
LINE
  5
1AE
  8
LAYER_1
 10
290.99447883894868
 20
121.364186782915
 30
0.0
 11
291.48240085782061
 21
121.3103597003164
 31
0.0
  0
LINE
  5
1AF
  8
LAYER_1
 10
291.48240085782061
 20
121.3103597003164
 30
0.0
 11
291.86404405390402
 21
121.2272705319715
 31
0.0
  0
LINE
  5
1B0
  8
LAYER_1
 10
291.86404405390402
 20
121.2272705319715
 30
0.0
 11
292.16568925004361
 21
121.1107810615038
 31
0.0
  0
LINE
  5
1B1
  8
LAYER_1
 10
292.16568925004361
 20
121.1107810615038
 30
0.0
 11
292.75336422402449
 21
120.8158068855015
 31
0.0
  0
LINE
  5
1B2
  8
LAYER_1
 10
292.75336422402449
 20
120.8158068855015
 30
0.0
 11
293.09996706787331
 21
120.65173686543071
 31
0.0
  0
LINE
  5
1B3
  8
LAYER_1
 10
293.09996706787331
 20
120.65173686543071
 30
0.0
 11
293.36970635166409
 21
120.54127147597239
 31
0.0
  0
LINE
  5
1B4
  8
LAYER_1
 10
293.36970635166409
 20
120.54127147597239
 30
0.0
 11
293.7252058528378
 21
120.4456196619076
 31
0.0
  0
LINE
  5
1B5
  8
LAYER_1
 10
293.7252058528378
 20
120.4456196619076
 30
0.0
 11
294.07833852583792
 21
120.39062790604081
 31
0.0
  0
LINE
  5
1B6
  8
LAYER_1
 10
294.07833852583792
 20
120.39062790604081
 30
0.0
 11
294.37928711206399
 21
120.3812026459171
 31
0.0
  0
LINE
  5
1B7
  8
LAYER_1
 10
294.37928711206399
 20
120.3812026459171
 30
0.0
 11
294.49462460629587
 21
120.3951106690517
 31
0.0
  0
LINE
  5
1B8
  8
LAYER_1
 10
294.49462460629587
 20
120.3951106690517
 30
0.0
 11
294.5782345560674
 21
120.42225011592851
 31
0.0
  0
LINE
  5
1B9
  8
LAYER_1
 10
294.5782345560674
 20
120.42225011592851
 30
0.0
 11
294.6549548936149
 21
120.44799481933249
 31
0.0
  0
LINE
  5
1BA
  8
LAYER_1
 10
294.6549548936149
 20
120.44799481933249
 30
0.0
 11
294.72761746317718
 21
120.4500835317363
 31
0.0
  0
LINE
  5
1BB
  8
LAYER_1
 10
294.72761746317718
 20
120.4500835317363
 30
0.0
 11
294.78179488225561
 21
120.430505623971
 31
0.0
  0
LINE
  5
1BC
  8
LAYER_1
 10
294.78179488225561
 20
120.430505623971
 30
0.0
 11
294.80306007309042
 21
120.39125016214111
 31
0.0
  0
LINE
  5
1BD
  8
LAYER_1
 10
294.80306007309042
 20
120.39125016214111
 30
0.0
 11
294.77990251674032
 21
120.3561203212311
 31
0.0
  0
LINE
  5
1BE
  8
LAYER_1
 10
294.77990251674032
 20
120.3561203212311
 30
0.0
 11
294.72422562907673
 21
120.3305091905939
 31
0.0
  0
LINE
  5
1BF
  8
LAYER_1
 10
294.72422562907673
 20
120.3305091905939
 30
0.0
 11
294.6129664212346
 21
120.28628167296191
 31
0.0
  0
LINE
  5
1C0
  8
LAYER_1
 10
294.6129664212346
 20
120.28628167296191
 30
0.0
 11
294.41806496237359
 21
120.2185668824784
 31
0.0
  0
LINE
  5
1C1
  8
LAYER_1
 10
294.41806496237359
 20
120.2185668824784
 30
0.0
 11
294.18347319375971
 21
120.1891027615732
 31
0.0
  0
LINE
  5
1C2
  8
LAYER_1
 10
294.18347319375971
 20
120.1891027615732
 30
0.0
 11
293.84643639471699
 21
120.1797999008288
 31
0.0
  0
LINE
  5
1C3
  8
LAYER_1
 10
293.84643639471699
 20
120.1797999008288
 30
0.0
 11
293.50087389480859
 21
120.1904700794575
 31
0.0
  0
LINE
  5
1C4
  8
LAYER_1
 10
293.50087389480859
 20
120.1904700794575
 30
0.0
 11
293.2407045157193
 21
120.2209252798224
 31
0.0
  0
LINE
  5
1C5
  8
LAYER_1
 10
293.2407045157193
 20
120.2209252798224
 30
0.0
 11
293.2407045157193
 21
120.2209252798224
 31
0.0
  0
LINE
  5
1C6
  8
LAYER_1
 10
293.69937775533219
 20
120.69335062302829
 30
0.0
 11
293.49870818760797
 21
120.74691848303971
 31
0.0
  0
LINE
  5
1C7
  8
LAYER_1
 10
293.49870818760797
 20
120.74691848303971
 30
0.0
 11
293.22637098967903
 21
120.83683682574269
 31
0.0
  0
LINE
  5
1C8
  8
LAYER_1
 10
293.22637098967903
 20
120.83683682574269
 30
0.0
 11
292.98270084383148
 21
120.9284731275412
 31
0.0
  0
LINE
  5
1C9
  8
LAYER_1
 10
292.98270084383148
 20
120.9284731275412
 30
0.0
 11
292.7317816074127
 21
121.0487858264364
 31
0.0
  0
LINE
  5
1CA
  8
LAYER_1
 10
292.7317816074127
 20
121.0487858264364
 30
0.0
 11
292.45235997401392
 21
121.215743049803
 31
0.0
  0
LINE
  5
1CB
  8
LAYER_1
 10
292.45235997401392
 20
121.215743049803
 30
0.0
 11
292.18392310088512
 21
121.387062363597
 31
0.0
  0
LINE
  5
1CC
  8
LAYER_1
 10
292.18392310088512
 20
121.387062363597
 30
0.0
 11
291.95758887184058
 21
121.510253327077
 31
0.0
  0
LINE
  5
1CD
  8
LAYER_1
 10
291.95758887184058
 20
121.510253327077
 30
0.0
 11
291.77472876938913
 21
121.5846535615258
 31
0.0
  0
LINE
  5
1CE
  8
LAYER_1
 10
291.77472876938913
 20
121.5846535615258
 30
0.0
 11
291.63671427604459
 21
121.60960078980131
 31
0.0
  0
LINE
  5
1CF
  8
LAYER_1
 10
291.63671427604459
 20
121.60960078980131
 30
0.0
 11
291.52711309731143
 21
121.6484023073762
 31
0.0
  0
LINE
  5
1D0
  8
LAYER_1
 10
291.52711309731143
 20
121.6484023073762
 30
0.0
 11
291.34798358574881
 21
121.7416909500128
 31
0.0
  0
LINE
  5
1D1
  8
LAYER_1
 10
291.34798358574881
 20
121.7416909500128
 30
0.0
 11
291.0593705207491
 21
121.9053542587845
 31
0.0
  0
LINE
  5
1D2
  8
LAYER_1
 10
291.0593705207491
 20
121.9053542587845
 30
0.0
 11
290.86881652533549
 21
121.9896056625679
 31
0.0
  0
LINE
  5
1D3
  8
LAYER_1
 10
290.86881652533549
 20
121.9896056625679
 30
0.0
 11
290.681532370946
 21
122.02428023873119
 31
0.0
  0
LINE
  5
1D4
  8
LAYER_1
 10
290.681532370946
 20
122.02428023873119
 30
0.0
 11
290.40272862586738
 21
122.0392133693681
 31
0.0
  0
LINE
  5
1D5
  8
LAYER_1
 10
290.40272862586738
 20
122.0392133693681
 30
0.0
 11
290.08214931222687
 21
122.0608533765603
 31
0.0
  0
LINE
  5
1D6
  8
LAYER_1
 10
290.08214931222687
 20
122.0608533765603
 30
0.0
 11
289.91532383325449
 21
122.08743395091589
 31
0.0
  0
LINE
  5
1D7
  8
LAYER_1
 10
289.91532383325449
 20
122.08743395091589
 30
0.0
 11
289.83296753754462
 21
122.1204083438268
 31
0.0
  0
LINE
  5
1D8
  8
LAYER_1
 10
289.83296753754462
 20
122.1204083438268
 30
0.0
 11
289.74924697123618
 21
122.1353754009312
 31
0.0
  0
LINE
  5
1D9
  8
LAYER_1
 10
289.74924697123618
 20
122.1353754009312
 30
0.0
 11
289.67009439041198
 21
122.13191622177909
 31
0.0
  0
LINE
  5
1DA
  8
LAYER_1
 10
289.67009439041198
 20
122.13191622177909
 30
0.0
 11
289.60144235588302
 21
122.1096112964634
 31
0.0
  0
LINE
  5
1DB
  8
LAYER_1
 10
289.60144235588302
 20
122.1096112964634
 30
0.0
 11
289.50816183934438
 21
122.07981410703761
 31
0.0
  0
LINE
  5
1DC
  8
LAYER_1
 10
289.50816183934438
 20
122.07981410703761
 30
0.0
 11
289.39489690689459
 21
122.0697977747221
 31
0.0
  0
LINE
  5
1DD
  8
LAYER_1
 10
289.39489690689459
 20
122.0697977747221
 30
0.0
 11
289.2820581883833
 21
122.0795831226479
 31
0.0
  0
LINE
  5
1DE
  8
LAYER_1
 10
289.2820581883833
 20
122.0795831226479
 30
0.0
 11
289.19005661839412
 21
122.1091910755222
 31
0.0
  0
LINE
  5
1DF
  8
LAYER_1
 10
289.19005661839412
 20
122.1091910755222
 30
0.0
 11
289.06801752957477
 21
122.20676897841621
 31
0.0
  0
LINE
  5
1E0
  8
LAYER_1
 10
289.06801752957477
 20
122.20676897841621
 30
0.0
 11
288.88330914570088
 21
122.3839127758913
 31
0.0
  0
LINE
  5
1E1
  8
LAYER_1
 10
288.88330914570088
 20
122.3839127758913
 30
0.0
 11
288.66880489289338
 21
122.5869019388327
 31
0.0
  0
LINE
  5
1E2
  8
LAYER_1
 10
288.66880489289338
 20
122.5869019388327
 30
0.0
 11
288.47512925620151
 21
122.7466184008811
 31
0.0
  0
LINE
  5
1E3
  8
LAYER_1
 10
288.47512925620151
 20
122.7466184008811
 30
0.0
 11
288.35332887156721
 21
122.8415408974806
 31
0.0
  0
LINE
  5
1E4
  8
LAYER_1
 10
288.35332887156721
 20
122.8415408974806
 30
0.0
 11
288.26501218315462
 21
122.9284424255946
 31
0.0
  0
LINE
  5
1E5
  8
LAYER_1
 10
288.26501218315462
 20
122.9284424255946
 30
0.0
 11
288.2038599293769
 21
123.0146411476438
 31
0.0
  0
LINE
  5
1E6
  8
LAYER_1
 10
288.2038599293769
 20
123.0146411476438
 30
0.0
 11
288.16355284864233
 21
123.1074554291995
 31
0.0
  0
LINE
  5
1E7
  8
LAYER_1
 10
288.16355284864233
 20
123.1074554291995
 30
0.0
 11
288.13252689133441
 21
123.175692524754
 31
0.0
  0
LINE
  5
1E8
  8
LAYER_1
 10
288.13252689133441
 20
123.175692524754
 30
0.0
 11
288.10318486508021
 21
123.185101431102
 31
0.0
  0
LINE
  5
1E9
  8
LAYER_1
 10
288.10318486508021
 20
123.185101431102
 30
0.0
 11
288.07594942864972
 21
123.13597875088961
 31
0.0
  0
LINE
  5
1EA
  8
LAYER_1
 10
288.07594942864972
 20
123.13597875088961
 30
0.0
 11
288.05124303765939
 21
123.0286209851869
 31
0.0
  0
LINE
  5
1EB
  8
LAYER_1
 10
288.05124303765939
 20
123.0286209851869
 30
0.0
 11
288.0152800683577
 21
122.8856910140108
 31
0.0
  0
LINE
  5
1EC
  8
LAYER_1
 10
288.0152800683577
 20
122.8856910140108
 30
0.0
 11
287.99099440619023
 21
122.85821159142969
 31
0.0
  0
LINE
  5
1ED
  8
LAYER_1
 10
287.99099440619023
 20
122.85821159142969
 30
0.0
 11
287.95571088041629
 21
122.8471481095653
 31
0.0
  0
LINE
  5
1EE
  8
LAYER_1
 10
287.95571088041629
 20
122.8471481095653
 30
0.0
 11
287.89284930152343
 21
122.8550729869188
 31
0.0
  0
LINE
  5
1EF
  8
LAYER_1
 10
287.89284930152343
 20
122.8550729869188
 30
0.0
 11
287.8345967449178
 21
122.8874250221531
 31
0.0
  0
LINE
  5
1F0
  8
LAYER_1
 10
287.8345967449178
 20
122.8874250221531
 30
0.0
 11
287.8058391883975
 21
122.92410796390701
 31
0.0
  0
LINE
  5
1F1
  8
LAYER_1
 10
287.8058391883975
 20
122.92410796390701
 30
0.0
 11
287.78918413719049
 21
122.9831035507716
 31
0.0
  0
LINE
  5
1F2
  8
LAYER_1
 10
287.78918413719049
 20
122.9831035507716
 30
0.0
 11
287.77962682794492
 21
123.2510958246592
 31
0.0
  0
LINE
  5
1F3
  8
LAYER_1
 10
287.77962682794492
 20
123.2510958246592
 30
0.0
 11
287.79013519560868
 21
123.519591104131
 31
0.0
  0
LINE
  5
1F4
  8
LAYER_1
 10
287.79013519560868
 20
123.519591104131
 30
0.0
 11
287.82703520580748
 21
123.75511117808161
 31
0.0
  0
LINE
  5
1F5
  8
LAYER_1
 10
287.82703520580748
 20
123.75511117808161
 30
0.0
 11
287.89838886382512
 21
123.99290615370001
 31
0.0
  0
LINE
  5
1F6
  8
LAYER_1
 10
287.89838886382512
 20
123.99290615370001
 30
0.0
 11
288.0122583781083
 21
124.26822603659831
 31
0.0
  0
LINE
  5
1F7
  8
LAYER_1
 10
288.0122583781083
 20
124.26822603659831
 30
0.0
 11
288.10389224207711
 21
124.4475424484578
 31
0.0
  0
LINE
  5
1F8
  8
LAYER_1
 10
288.10389224207711
 20
124.4475424484578
 30
0.0
 11
288.21876218083338
 21
124.631357062918
 31
0.0
  0
LINE
  5
1F9
  8
LAYER_1
 10
288.21876218083338
 20
124.631357062918
 30
0.0
 11
288.35549498507203
 21
124.8181210453384
 31
0.0
  0
LINE
  5
1FA
  8
LAYER_1
 10
288.35549498507203
 20
124.8181210453384
 30
0.0
 11
288.5127174454849
 21
125.006285662653
 31
0.0
  0
LINE
  5
1FB
  8
LAYER_1
 10
288.5127174454849
 20
125.006285662653
 30
0.0
 11
288.88313809129841
 21
125.3806220728564
 31
0.0
  0
LINE
  5
1FC
  8
LAYER_1
 10
288.88313809129841
 20
125.3806220728564
 30
0.0
 11
289.3190381390894
 21
125.741976225857
 31
0.0
  0
LINE
  5
1FD
  8
LAYER_1
 10
289.3190381390894
 20
125.741976225857
 30
0.0
 11
289.60927774455928
 21
125.9705746910636
 31
0.0
  0
LINE
  5
1FE
  8
LAYER_1
 10
289.60927774455928
 20
125.9705746910636
 30
0.0
 11
289.77428673547359
 21
126.1182906303533
 31
0.0
  0
LINE
  5
1FF
  8
LAYER_1
 10
289.77428673547359
 20
126.1182906303533
 30
0.0
 11
289.84188014233962
 21
126.2147059930803
 31
0.0
  0
LINE
  5
200
  8
LAYER_1
 10
289.84188014233962
 20
126.2147059930803
 30
0.0
 11
289.91013795944963
 21
126.3431685607197
 31
0.0
  0
LINE
  5
201
  8
LAYER_1
 10
289.91013795944963
 20
126.3431685607197
 30
0.0
 11
290.04268307967988
 21
126.68367296974429
 31
0.0
  0
LINE
  5
202
  8
LAYER_1
 10
290.04268307967988
 20
126.68367296974429
 30
0.0
 11
290.12714921565492
 21
126.9273431155915
 31
0.0
  0
LINE
  5
203
  8
LAYER_1
 10
290.12714921565492
 20
126.9273431155915
 30
0.0
 11
290.2447603926351
 21
127.22834746717849
 31
0.0
  0
LINE
  5
204
  8
LAYER_1
 10
290.2447603926351
 20
127.22834746717849
 30
0.0
 11
290.3398046791566
 21
127.4485802141122
 31
0.0
  0
LINE
  5
205
  8
LAYER_1
 10
290.3398046791566
 20
127.4485802141122
 30
0.0
 11
290.43660653951162
 21
127.6359009359518
 31
0.0
  0
LINE
  5
206
  8
LAYER_1
 10
290.43660653951162
 20
127.6359009359518
 30
0.0
 11
290.56182425388357
 21
127.8074558050665
 31
0.0
  0
LINE
  5
207
  8
LAYER_1
 10
290.56182425388357
 20
127.8074558050665
 30
0.0
 11
290.69631943493869
 21
127.9351603091618
 31
0.0
  0
LINE
  5
208
  8
LAYER_1
 10
290.69631943493869
 20
127.9351603091618
 30
0.0
 11
290.81358088489662
 21
127.9988585716157
 31
0.0
  0
LINE
  5
209
  8
LAYER_1
 10
290.81358088489662
 20
127.9988585716157
 30
0.0
 11
290.85746416061949
 21
128.00040679679969
 31
0.0
  0
LINE
  5
20A
  8
LAYER_1
 10
290.85746416061949
 20
128.00040679679969
 30
0.0
 11
290.88709730440348
 21
127.9783950205377
 31
0.0
  0
LINE
  5
20B
  8
LAYER_1
 10
290.88709730440348
 20
127.9783950205377
 30
0.0
 11
290.87058395206441
 21
127.8990374588432
 31
0.0
  0
LINE
  5
20C
  8
LAYER_1
 10
290.87058395206441
 20
127.8990374588432
 30
0.0
 11
290.81008402095438
 21
127.7418916884983
 31
0.0
  0
LINE
  5
20D
  8
LAYER_1
 10
290.81008402095438
 20
127.7418916884983
 30
0.0
 11
290.71826051413069
 21
127.5293517171897
 31
0.0
  0
LINE
  5
20E
  8
LAYER_1
 10
290.71826051413069
 20
127.5293517171897
 30
0.0
 11
290.71839672787928
 21
126.7696742275662
 31
0.0
  0
LINE
  5
20F
  8
LAYER_1
 10
290.71839672787928
 20
126.7696742275662
 30
0.0
 11
290.72899509209992
 21
126.08590761436299
 31
0.0
  0
LINE
  5
210
  8
LAYER_1
 10
290.72899509209992
 20
126.08590761436299
 30
0.0
 11
290.74875878282393
 21
125.9003545224044
 31
0.0
  0
LINE
  5
211
  8
LAYER_1
 10
290.74875878282393
 20
125.9003545224044
 30
0.0
 11
290.78408100914959
 21
125.72493427071851
 31
0.0
  0
LINE
  5
212
  8
LAYER_1
 10
290.78408100914959
 20
125.72493427071851
 30
0.0
 11
290.89220344085362
 21
125.3353775738219
 31
0.0
  0
LINE
  5
213
  8
LAYER_1
 10
290.89220344085362
 20
125.3353775738219
 30
0.0
 11
290.9624888214633
 21
125.1602927269101
 31
0.0
  0
LINE
  5
214
  8
LAYER_1
 10
290.9624888214633
 20
125.1602927269101
 30
0.0
 11
291.0539520373348
 21
124.9797242862079
 31
0.0
  0
LINE
  5
215
  8
LAYER_1
 10
291.0539520373348
 20
124.9797242862079
 30
0.0
 11
291.33149847160712
 21
124.5462992452955
 31
0.0
  0
LINE
  5
216
  8
LAYER_1
 10
291.33149847160712
 20
124.5462992452955
 30
0.0
 11
291.78701431510291
 21
123.923427288504
 31
0.0
  0
LINE
  5
217
  8
LAYER_1
 10
291.78701431510291
 20
123.923427288504
 30
0.0
 11
292.24730972740781
 21
123.3154088265709
 31
0.0
  0
LINE
  5
218
  8
LAYER_1
 10
292.24730972740781
 20
123.3154088265709
 30
0.0
 11
292.5593350004105
 21
122.92700248069229
 31
0.0
  0
LINE
  5
219
  8
LAYER_1
 10
292.5593350004105
 20
122.92700248069229
 30
0.0
 11
292.79845513977079
 21
122.6699462104761
 31
0.0
  0
LINE
  5
21A
  8
LAYER_1
 10
292.79845513977079
 20
122.6699462104761
 30
0.0
 11
293.04003494799503
 21
122.4559778739568
 31
0.0
  0
LINE
  5
21B
  8
LAYER_1
 10
293.04003494799503
 20
122.4559778739568
 30
0.0
 11
293.17810033104189
 21
122.3542487529277
 31
0.0
  0
LINE
  5
21C
  8
LAYER_1
 10
293.17810033104189
 20
122.3542487529277
 30
0.0
 11
293.32970176499839
 21
122.2655461763465
 31
0.0
  0
LINE
  5
21D
  8
LAYER_1
 10
293.32970176499839
 20
122.2655461763465
 30
0.0
 11
293.4921504249873
 21
122.19068387154169
 31
0.0
  0
LINE
  5
21E
  8
LAYER_1
 10
293.4921504249873
 20
122.19068387154169
 30
0.0
 11
293.66275738454942
 21
122.1304760737241
 31
0.0
  0
LINE
  5
21F
  8
LAYER_1
 10
293.66275738454942
 20
122.1304760737241
 30
0.0
 11
293.838833920377
 21
122.08573651022201
 31
0.0
  0
LINE
  5
220
  8
LAYER_1
 10
293.838833920377
 20
122.08573651022201
 30
0.0
 11
294.01769100443897
 21
122.05727931467089
 31
0.0
  0
LINE
  5
221
  8
LAYER_1
 10
294.01769100443897
 20
122.05727931467089
 30
0.0
 11
294.1966400150078
 21
122.04591831597401
 31
0.0
  0
LINE
  5
222
  8
LAYER_1
 10
294.1966400150078
 20
122.04591831597401
 30
0.0
 11
294.37299202562212
 21
122.0524675461895
 31
0.0
  0
LINE
  5
223
  8
LAYER_1
 10
294.37299202562212
 20
122.0524675461895
 30
0.0
 11
294.53349306261759
 21
122.0750604401712
 31
0.0
  0
LINE
  5
224
  8
LAYER_1
 10
294.53349306261759
 20
122.0750604401712
 30
0.0
 11
294.68238464541059
 21
122.11847158949151
 31
0.0
  0
LINE
  5
225
  8
LAYER_1
 10
294.68238464541059
 20
122.11847158949151
 30
0.0
 11
294.84993172205247
 21
122.19408464435099
 31
0.0
  0
LINE
  5
226
  8
LAYER_1
 10
294.84993172205247
 20
122.19408464435099
 30
0.0
 11
295.06639954532579
 21
122.31328345810159
 31
0.0
  0
LINE
  5
227
  8
LAYER_1
 10
295.06639954532579
 20
122.31328345810159
 30
0.0
 11
295.22628015459111
 21
122.4002934696494
 31
0.0
  0
LINE
  5
228
  8
LAYER_1
 10
295.22628015459111
 20
122.4002934696494
 30
0.0
 11
295.32177452547347
 21
122.4361981341856
 31
0.0
  0
LINE
  5
229
  8
LAYER_1
 10
295.32177452547347
 20
122.4361981341856
 30
0.0
 11
295.36576618305298
 21
122.42310444783691
 31
0.0
  0
LINE
  5
22A
  8
LAYER_1
 10
295.36576618305298
 20
122.42310444783691
 30
0.0
 11
295.37113885558171
 21
122.36311940673311
 31
0.0
  0
LINE
  5
22B
  8
LAYER_1
 10
295.37113885558171
 20
122.36311940673311
 30
0.0
 11
295.3442183055206
 21
122.2988057953638
 31
0.0
  0
LINE
  5
22C
  8
LAYER_1
 10
295.3442183055206
 20
122.2988057953638
 30
0.0
 11
295.28095164054679
 21
122.2240696482602
 31
0.0
  0
LINE
  5
22D
  8
LAYER_1
 10
295.28095164054679
 20
122.2240696482602
 30
0.0
 11
295.06952890639798
 21
122.0591217046707
 31
0.0
  0
LINE
  5
22E
  8
LAYER_1
 10
295.06952890639798
 20
122.0591217046707
 30
0.0
 11
294.78516822947842
 21
121.8998591868778
 31
0.0
  0
LINE
  5
22F
  8
LAYER_1
 10
294.78516822947842
 20
121.8998591868778
 30
0.0
 11
294.47616738928173
 21
121.77786560421811
 31
0.0
  0
LINE
  5
230
  8
LAYER_1
 10
294.47616738928173
 20
121.77786560421811
 30
0.0
 11
294.25244641238987
 21
121.73713901357689
 31
0.0
  0
LINE
  5
231
  8
LAYER_1
 10
294.25244641238987
 20
121.73713901357689
 30
0.0
 11
293.97425700046318
 21
121.7224285380769
 31
0.0
  0
LINE
  5
232
  8
LAYER_1
 10
293.97425700046318
 20
121.7224285380769
 30
0.0
 11
293.70214296555201
 21
121.7340716140165
 31
0.0
  0
LINE
  5
233
  8
LAYER_1
 10
293.70214296555201
 20
121.7340716140165
 30
0.0
 11
293.49664822128261
 21
121.7724056776936
 31
0.0
  0
LINE
  5
234
  8
LAYER_1
 10
293.49664822128261
 20
121.7724056776936
 30
0.0
 11
293.28115319374467
 21
121.8688911280328
 31
0.0
  0
LINE
  5
235
  8
LAYER_1
 10
293.28115319374467
 20
121.8688911280328
 30
0.0
 11
293.04539624398222
 21
122.0097524989022
 31
0.0
  0
LINE
  5
236
  8
LAYER_1
 10
293.04539624398222
 20
122.0097524989022
 30
0.0
 11
292.82961710767438
 21
122.16830642078379
 31
0.0
  0
LINE
  5
237
  8
LAYER_1
 10
292.82961710767438
 20
122.16830642078379
 30
0.0
 11
292.67405592681132
 21
122.31786962573371
 31
0.0
  0
LINE
  5
238
  8
LAYER_1
 10
292.67405592681132
 20
122.31786962573371
 30
0.0
 11
292.3996842581962
 21
122.6481564798939
 31
0.0
  0
LINE
  5
239
  8
LAYER_1
 10
292.3996842581962
 20
122.6481564798939
 30
0.0
 11
292.25809803921481
 21
122.8513329494386
 31
0.0
  0
LINE
  5
23A
  8
LAYER_1
 10
292.25809803921481
 20
122.8513329494386
 30
0.0
 11
292.11109618095418
 21
123.109227934741
 31
0.0
  0
LINE
  5
23B
  8
LAYER_1
 10
292.11109618095418
 20
123.109227934741
 30
0.0
 11
291.9891264687123
 21
123.3284990593272
 31
0.0
  0
LINE
  5
23C
  8
LAYER_1
 10
291.9891264687123
 20
123.3284990593272
 30
0.0
 11
291.92902552910851
 21
123.4025625685116
 31
0.0
  0
LINE
  5
23D
  8
LAYER_1
 10
291.92902552910851
 20
123.4025625685116
 30
0.0
 11
291.85718694607812
 21
123.4609240148549
 31
0.0
  0
LINE
  5
23E
  8
LAYER_1
 10
291.85718694607812
 20
123.4609240148549
 30
0.0
 11
291.76436524945609
 21
123.5095928523881
 31
0.0
  0
LINE
  5
23F
  8
LAYER_1
 10
291.76436524945609
 20
123.5095928523881
 30
0.0
 11
291.64131527380817
 21
123.55457883986919
 31
0.0
  0
LINE
  5
240
  8
LAYER_1
 10
291.64131527380817
 20
123.55457883986919
 30
0.0
 11
291.26754890951321
 21
123.6575396744912
 31
0.0
  0
LINE
  5
241
  8
LAYER_1
 10
291.26754890951321
 20
123.6575396744912
 30
0.0
 11
291.0831536852134
 21
123.70121248422829
 31
0.0
  0
LINE
  5
242
  8
LAYER_1
 10
291.0831536852134
 20
123.70121248422829
 30
0.0
 11
290.96655065250019
 21
123.7074714095252
 31
0.0
  0
LINE
  5
243
  8
LAYER_1
 10
290.96655065250019
 20
123.7074714095252
 30
0.0
 11
290.87494147156048
 21
123.6698748909901
 31
0.0
  0
LINE
  5
244
  8
LAYER_1
 10
290.87494147156048
 20
123.6698748909901
 30
0.0
 11
290.76552790415889
 21
123.5819815723827
 31
0.0
  0
LINE
  5
245
  8
LAYER_1
 10
290.76552790415889
 20
123.5819815723827
 30
0.0
 11
290.66971854533148
 21
123.4987412585788
 31
0.0
  0
LINE
  5
246
  8
LAYER_1
 10
290.66971854533148
 20
123.4987412585788
 30
0.0
 11
290.26385418799879
 21
123.5120702970957
 31
0.0
  0
LINE
  5
247
  8
LAYER_1
 10
290.26385418799879
 20
123.5120702970957
 30
0.0
 11
289.72344081420039
 21
123.5449382380981
 31
0.0
  0
LINE
  5
248
  8
LAYER_1
 10
289.72344081420039
 20
123.5449382380981
 30
0.0
 11
289.59750566678508
 21
123.55036880908661
 31
0.0
  0
LINE
  5
249
  8
LAYER_1
 10
289.59750566678508
 20
123.55036880908661
 30
0.0
 11
289.47230664244222
 21
123.52374679162089
 31
0.0
  0
LINE
  5
24A
  8
LAYER_1
 10
289.47230664244222
 20
123.52374679162089
 30
0.0
 11
289.3286487758669
 21
123.4585142199291
 31
0.0
  0
LINE
  5
24B
  8
LAYER_1
 10
289.3286487758669
 20
123.4585142199291
 30
0.0
 11
289.1473372033285
 21
123.34811322981329
 31
0.0
  0
LINE
  5
24C
  8
LAYER_1
 10
289.1473372033285
 20
123.34811322981329
 30
0.0
 11
288.99754402975168
 21
123.2394638205311
 31
0.0
  0
LINE
  5
24D
  8
LAYER_1
 10
288.99754402975168
 20
123.2394638205311
 30
0.0
 11
288.93492044400938
 21
123.1591817118202
 31
0.0
  0
LINE
  5
24E
  8
LAYER_1
 10
288.93492044400938
 20
123.1591817118202
 30
0.0
 11
288.93505736879217
 21
123.1253738857887
 31
0.0
  0
LINE
  5
24F
  8
LAYER_1
 10
288.93505736879217
 20
123.1253738857887
 30
0.0
 11
288.95549887782499
 21
123.09349235173801
 31
0.0
  0
LINE
  5
250
  8
LAYER_1
 10
288.95549887782499
 20
123.09349235173801
 30
0.0
 11
289.05531166134472
 21
123.0286209851869
 31
0.0
  0
LINE
  5
251
  8
LAYER_1
 10
289.05531166134472
 20
123.0286209851869
 30
0.0
 11
289.19080157860429
 21
122.99001408770459
 31
0.0
  0
LINE
  5
252
  8
LAYER_1
 10
289.19080157860429
 20
122.99001408770459
 30
0.0
 11
289.4072446172716
 21
122.9722010672625
 31
0.0
  0
LINE
  5
253
  8
LAYER_1
 10
289.4072446172716
 20
122.9722010672625
 30
0.0
 11
289.71417411460141
 21
122.97490665222411
 31
0.0
  0
LINE
  5
254
  8
LAYER_1
 10
289.71417411460141
 20
122.97490665222411
 30
0.0
 11
290.12112310311858
 21
122.99785577410999
 31
0.0
  0
LINE
  5
255
  8
LAYER_1
 10
290.12112310311858
 20
122.99785577410999
 30
0.0
 11
290.3556404163408
 21
123.0086950771932
 31
0.0
  0
LINE
  5
256
  8
LAYER_1
 10
290.3556404163408
 20
123.0086950771932
 30
0.0
 11
290.53422994856538
 21
122.9988709271401
 31
0.0
  0
LINE
  5
257
  8
LAYER_1
 10
290.53422994856538
 20
122.9988709271401
 30
0.0
 11
290.69131964882001
 21
122.9637764347643
 31
0.0
  0
LINE
  5
258
  8
LAYER_1
 10
290.69131964882001
 20
122.9637764347643
 30
0.0
 11
290.86133736456088
 21
122.8988047108797
 31
0.0
  0
LINE
  5
259
  8
LAYER_1
 10
290.86133736456088
 20
122.8988047108797
 30
0.0
 11
290.9943448598774
 21
122.84487239528789
 31
0.0
  0
LINE
  5
25A
  8
LAYER_1
 10
290.9943448598774
 20
122.84487239528789
 30
0.0
 11
291.08217753746459
 21
122.83293627187049
 31
0.0
  0
LINE
  5
25B
  8
LAYER_1
 10
291.08217753746459
 20
122.83293627187049
 30
0.0
 11
291.16419832682391
 21
122.86846368221811
 31
0.0
  0
LINE
  5
25C
  8
LAYER_1
 10
291.16419832682391
 20
122.86846368221811
 30
0.0
 11
291.27976995430748
 21
122.95692176476859
 31
0.0
  0
LINE
  5
25D
  8
LAYER_1
 10
291.27976995430748
 20
122.95692176476859
 30
0.0
 11
291.40570276547157
 21
123.0515061140355
 31
0.0
  0
LINE
  5
25E
  8
LAYER_1
 10
291.40570276547157
 20
123.0515061140355
 30
0.0
 11
291.50216911947592
 21
123.10597109547609
 31
0.0
  0
LINE
  5
25F
  8
LAYER_1
 10
291.50216911947592
 20
123.10597109547609
 30
0.0
 11
291.58294488875509
 21
123.12611549398019
 31
0.0
  0
LINE
  5
260
  8
LAYER_1
 10
291.58294488875509
 20
123.12611549398019
 30
0.0
 11
291.66180604732119
 21
123.1177382975917
 31
0.0
  0
LINE
  5
261
  8
LAYER_1
 10
291.66180604732119
 20
123.1177382975917
 30
0.0
 11
291.75500611547051
 21
123.0753766340742
 31
0.0
  0
LINE
  5
262
  8
LAYER_1
 10
291.75500611547051
 20
123.0753766340742
 30
0.0
 11
291.84507164215768
 21
122.99249224344631
 31
0.0
  0
LINE
  5
263
  8
LAYER_1
 10
291.84507164215768
 20
122.99249224344631
 30
0.0
 11
291.93752949265593
 21
122.86264376946851
 31
0.0
  0
LINE
  5
264
  8
LAYER_1
 10
291.93752949265593
 20
122.86264376946851
 30
0.0
 11
292.0379060243568
 21
122.67938985590131
 31
0.0
  0
LINE
  5
265
  8
LAYER_1
 10
292.0379060243568
 20
122.67938985590131
 30
0.0
 11
292.16323821516198
 21
122.4558077337402
 31
0.0
  0
LINE
  5
266
  8
LAYER_1
 10
292.16323821516198
 20
122.4558077337402
 30
0.0
 11
292.29860766298827
 21
122.2753575277915
 31
0.0
  0
LINE
  5
267
  8
LAYER_1
 10
292.29860766298827
 20
122.2753575277915
 30
0.0
 11
292.46066870801008
 21
122.1191904446043
 31
0.0
  0
LINE
  5
268
  8
LAYER_1
 10
292.46066870801008
 20
122.1191904446043
 30
0.0
 11
292.66607589355527
 21
121.9684577923023
 31
0.0
  0
LINE
  5
269
  8
LAYER_1
 10
292.66607589355527
 20
121.9684577923023
 30
0.0
 11
292.99611977732832
 21
121.7735567397451
 31
0.0
  0
LINE
  5
26A
  8
LAYER_1
 10
292.99611977732832
 20
121.7735567397451
 30
0.0
 11
293.4413740834446
 21
121.5773001521486
 31
0.0
  0
LINE
  5
26B
  8
LAYER_1
 10
293.4413740834446
 20
121.5773001521486
 30
0.0
 11
293.56633836507672
 21
121.5218532331109
 31
0.0
  0
LINE
  5
26C
  8
LAYER_1
 10
293.56633836507672
 20
121.5218532331109
 30
0.0
 11
293.6628133530611
 21
121.4648825687657
 31
0.0
  0
LINE
  5
26D
  8
LAYER_1
 10
293.6628133530611
 20
121.4648825687657
 30
0.0
 11
293.85638101420068
 21
121.2859300030288
 31
0.0
  0
LINE
  5
26E
  8
LAYER_1
 10
293.85638101420068
 20
121.2859300030288
 30
0.0
 11
294.00730269990117
 21
121.138293191637
 31
0.0
  0
LINE
  5
26F
  8
LAYER_1
 10
294.00730269990117
 20
121.138293191637
 30
0.0
 11
294.1379466174825
 21
121.0438343906136
 31
0.0
  0
LINE
  5
270
  8
LAYER_1
 10
294.1379466174825
 20
121.0438343906136
 30
0.0
 11
294.2640821748389
 21
120.9936721790711
 31
0.0
  0
LINE
  5
271
  8
LAYER_1
 10
294.2640821748389
 20
120.9936721790711
 30
0.0
 11
294.4014787798622
 21
120.9789251361215
 31
0.0
  0
LINE
  5
272
  8
LAYER_1
 10
294.4014787798622
 20
120.9789251361215
 30
0.0
 11
294.50114001161973
 21
120.97055362800251
 31
0.0
  0
LINE
  5
273
  8
LAYER_1
 10
294.50114001161973
 20
120.97055362800251
 30
0.0
 11
294.55684574694089
 21
120.94318553299
 31
0.0
  0
LINE
  5
274
  8
LAYER_1
 10
294.55684574694089
 20
120.94318553299
 30
0.0
 11
294.57168857629227
 21
120.89344059667781
 31
0.0
  0
LINE
  5
275
  8
LAYER_1
 10
294.57168857629227
 20
120.89344059667781
 30
0.0
 11
294.54876078541901
 21
120.81793856465841
 31
0.0
  0
LINE
  5
276
  8
LAYER_1
 10
294.54876078541901
 20
120.81793856465841
 30
0.0
 11
294.4922944471482
 21
120.7470663780578
 31
0.0
  0
LINE
  5
277
  8
LAYER_1
 10
294.4922944471482
 20
120.7470663780578
 30
0.0
 11
294.39460633402382
 21
120.6994288441785
 31
0.0
  0
LINE
  5
278
  8
LAYER_1
 10
294.39460633402382
 20
120.6994288441785
 30
0.0
 11
294.24967277134022
 21
120.67319200384929
 31
0.0
  0
LINE
  5
279
  8
LAYER_1
 10
294.24967277134022
 20
120.67319200384929
 30
0.0
 11
294.05147018596881
 21
120.6665216947449
 31
0.0
  0
LINE
  5
27A
  8
LAYER_1
 10
294.05147018596881
 20
120.6665216947449
 30
0.0
 11
293.69937775533219
 21
120.69335062302829
 31
0.0
  0
LINE
  5
27B
  8
LAYER_1
 10
293.69937775533219
 20
120.69335062302829
 30
0.0
 11
293.69937775533219
 21
120.69335062302829
 31
0.0
  0
LINE
  5
27C
  8
LAYER_1
 10
297.36876326593159
 20
120.7894547561292
 30
0.0
 11
297.1537601721646
 21
120.8798743776201
 31
0.0
  0
LINE
  5
27D
  8
LAYER_1
 10
297.1537601721646
 20
120.8798743776201
 30
0.0
 11
296.6240292677216
 21
121.111343082888
 31
0.0
  0
LINE
  5
27E
  8
LAYER_1
 10
296.6240292677216
 20
121.111343082888
 30
0.0
 11
296.4857019195311
 21
121.1920135175982
 31
0.0
  0
LINE
  5
27F
  8
LAYER_1
 10
296.4857019195311
 20
121.1920135175982
 30
0.0
 11
296.41617988442999
 21
121.25726609981081
 31
0.0
  0
LINE
  5
280
  8
LAYER_1
 10
296.41617988442999
 20
121.25726609981081
 30
0.0
 11
296.38386075989899
 21
121.3344533833741
 31
0.0
  0
LINE
  5
281
  8
LAYER_1
 10
296.38386075989899
 20
121.3344533833741
 30
0.0
 11
296.42436581274131
 21
121.43387134001451
 31
0.0
  0
LINE
  5
282
  8
LAYER_1
 10
296.42436581274131
 20
121.43387134001451
 30
0.0
 11
296.49059413639998
 21
121.5210836914501
 31
0.0
  0
LINE
  5
283
  8
LAYER_1
 10
296.49059413639998
 20
121.5210836914501
 30
0.0
 11
296.59541269903588
 21
121.54643031753569
 31
0.0
  0
LINE
  5
284
  8
LAYER_1
 10
296.59541269903588
 20
121.54643031753569
 30
0.0
 11
296.72719538794257
 21
121.5390235806273
 31
0.0
  0
LINE
  5
285
  8
LAYER_1
 10
296.72719538794257
 20
121.5390235806273
 30
0.0
 11
296.88208352458309
 21
121.5092840865112
 31
0.0
  0
LINE
  5
286
  8
LAYER_1
 10
296.88208352458309
 20
121.5092840865112
 30
0.0
 11
297.09657396302072
 21
121.4624479892349
 31
0.0
  0
LINE
  5
287
  8
LAYER_1
 10
297.09657396302072
 20
121.4624479892349
 30
0.0
 11
297.2865035692322
 21
121.4438909227699
 31
0.0
  0
LINE
  5
288
  8
LAYER_1
 10
297.2865035692322
 20
121.4438909227699
 30
0.0
 11
297.45891462454841
 21
121.4534378712394
 31
0.0
  0
LINE
  5
289
  8
LAYER_1
 10
297.45891462454841
 20
121.4534378712394
 30
0.0
 11
297.62084951186972
 21
121.4909137171915
 31
0.0
  0
LINE
  5
28A
  8
LAYER_1
 10
297.62084951186972
 20
121.4909137171915
 30
0.0
 11
297.75018309584232
 21
121.5275818288134
 31
0.0
  0
LINE
  5
28B
  8
LAYER_1
 10
297.75018309584232
 20
121.5275818288134
 30
0.0
 11
297.83339263204431
 21
121.5343839838882
 31
0.0
  0
LINE
  5
28C
  8
LAYER_1
 10
297.83339263204431
 20
121.5343839838882
 30
0.0
 11
297.88597591347462
 21
121.50922496913471
 31
0.0
  0
LINE
  5
28D
  8
LAYER_1
 10
297.88597591347462
 20
121.50922496913471
 30
0.0
 11
297.92343103787272
 21
121.4500097744199
 31
0.0
  0
LINE
  5
28E
  8
LAYER_1
 10
297.92343103787272
 20
121.4500097744199
 30
0.0
 11
297.9356258759953
 21
121.3778469600026
 31
0.0
  0
LINE
  5
28F
  8
LAYER_1
 10
297.9356258759953
 20
121.3778469600026
 30
0.0
 11
297.92002924930119
 21
121.2769711810395
 31
0.0
  0
LINE
  5
290
  8
LAYER_1
 10
297.92002924930119
 20
121.2769711810395
 30
0.0
 11
297.87690850647539
 21
121.14842684452
 31
0.0
  0
LINE
  5
291
  8
LAYER_1
 10
297.87690850647539
 20
121.14842684452
 30
0.0
 11
297.80653099620878
 21
120.9932586621623
 31
0.0
  0
LINE
  5
292
  8
LAYER_1
 10
297.80653099620878
 20
120.9932586621623
 30
0.0
 11
297.71597770037312
 21
120.8476351935978
 31
0.0
  0
LINE
  5
293
  8
LAYER_1
 10
297.71597770037312
 20
120.8476351935978
 30
0.0
 11
297.61827221771068
 21
120.7676594388532
 31
0.0
  0
LINE
  5
294
  8
LAYER_1
 10
297.61827221771068
 20
120.7676594388532
 30
0.0
 11
297.56418723301721
 21
120.7511022055744
 31
0.0
  0
LINE
  5
295
  8
LAYER_1
 10
297.56418723301721
 20
120.7511022055744
 30
0.0
 11
297.50525411554509
 21
120.74953234464959
 31
0.0
  0
LINE
  5
296
  8
LAYER_1
 10
297.50525411554509
 20
120.74953234464959
 30
0.0
 11
297.36876326593159
 21
120.7894547561292
 31
0.0
  0
LINE
  5
297
  8
LAYER_1
 10
297.36876326593159
 20
120.7894547561292
 30
0.0
 11
297.36876326593159
 21
120.7894547561292
 31
0.0
  0
LINE
  5
298
  8
LAYER_1
 10
287.34392830743059
 20
121.1090980446381
 30
0.0
 11
287.16747939307498
 21
121.273720334774
 31
0.0
  0
LINE
  5
299
  8
LAYER_1
 10
287.16747939307498
 20
121.273720334774
 30
0.0
 11
287.00745464711088
 21
121.4533092757087
 31
0.0
  0
LINE
  5
29A
  8
LAYER_1
 10
287.00745464711088
 20
121.4533092757087
 30
0.0
 11
286.86369622005031
 21
121.646124967878
 31
0.0
  0
LINE
  5
29B
  8
LAYER_1
 10
286.86369622005031
 20
121.646124967878
 30
0.0
 11
286.73604636397732
 21
121.8504274101405
 31
0.0
  0
LINE
  5
29C
  8
LAYER_1
 10
286.73604636397732
 20
121.8504274101405
 30
0.0
 11
286.57064945336771
 21
122.1834038002159
 31
0.0
  0
LINE
  5
29D
  8
LAYER_1
 10
286.57064945336771
 20
122.1834038002159
 30
0.0
 11
286.44248358995111
 21
122.5331336688822
 31
0.0
  0
LINE
  5
29E
  8
LAYER_1
 10
286.44248358995111
 20
122.5331336688822
 30
0.0
 11
286.35097314112619
 21
122.893268195864
 31
0.0
  0
LINE
  5
29F
  8
LAYER_1
 10
286.35097314112619
 20
122.893268195864
 30
0.0
 11
286.29554237271088
 21
123.2574584593069
 31
0.0
  0
LINE
  5
2A0
  8
LAYER_1
 10
286.29554237271088
 20
123.2574584593069
 30
0.0
 11
286.28953393444328
 21
123.7530324201507
 31
0.0
  0
LINE
  5
2A1
  8
LAYER_1
 10
286.28953393444328
 20
123.7530324201507
 30
0.0
 11
286.32884495848322
 21
124.2486083109433
 31
0.0
  0
LINE
  5
2A2
  8
LAYER_1
 10
286.32884495848322
 20
124.2486083109433
 30
0.0
 11
286.38643930099539
 21
124.5025948453452
 31
0.0
  0
LINE
  5
2A3
  8
LAYER_1
 10
286.38643930099539
 20
124.5025948453452
 30
0.0
 11
286.46620946541037
 21
124.7496639356293
 31
0.0
  0
LINE
  5
2A4
  8
LAYER_1
 10
286.46620946541037
 20
124.7496639356293
 30
0.0
 11
286.56496687170687
 21
124.9906441392568
 31
0.0
  0
LINE
  5
2A5
  8
LAYER_1
 10
286.56496687170687
 20
124.9906441392568
 30
0.0
 11
286.67952263512592
 21
125.2263638105362
 31
0.0
  0
LINE
  5
2A6
  8
LAYER_1
 10
286.67952263512592
 20
125.2263638105362
 30
0.0
 11
286.94327471008478
 21
125.6853355827439
 31
0.0
  0
LINE
  5
2A7
  8
LAYER_1
 10
286.94327471008478
 20
125.6853355827439
 30
0.0
 11
287.23195633905289
 21
126.13320669618111
 31
0.0
  0
LINE
  5
2A8
  8
LAYER_1
 10
287.23195633905289
 20
126.13320669618111
 30
0.0
 11
287.74989312367308
 21
126.91780053490039
 31
0.0
  0
LINE
  5
2A9
  8
LAYER_1
 10
287.74989312367308
 20
126.91780053490039
 30
0.0
 11
288.06967140701738
 21
127.4454662926304
 31
0.0
  0
LINE
  5
2AA
  8
LAYER_1
 10
288.06967140701738
 20
127.4454662926304
 30
0.0
 11
288.26261071748161
 21
127.8452078368387
 31
0.0
  0
LINE
  5
2AB
  8
LAYER_1
 10
288.26261071748161
 20
127.8452078368387
 30
0.0
 11
288.4000307866188
 21
128.24602862869071
 31
0.0
  0
LINE
  5
2AC
  8
LAYER_1
 10
288.4000307866188
 20
128.24602862869071
 30
0.0
 11
288.44187877904682
 21
128.51226231298381
 31
0.0
  0
LINE
  5
2AD
  8
LAYER_1
 10
288.44187877904682
 20
128.51226231298381
 30
0.0
 11
288.45555439572541
 21
128.8783097965584
 31
0.0
  0
LINE
  5
2AE
  8
LAYER_1
 10
288.45555439572541
 20
128.8783097965584
 30
0.0
 11
288.44114621114102
 21
129.25430464217581
 31
0.0
  0
LINE
  5
2AF
  8
LAYER_1
 10
288.44114621114102
 20
129.25430464217581
 30
0.0
 11
288.39874300293678
 21
129.55038051417279
 31
0.0
  0
LINE
  5
2B0
  8
LAYER_1
 10
288.39874300293678
 20
129.55038051417279
 30
0.0
 11
288.30175850848752
 21
129.9002811325139
 31
0.0
  0
LINE
  5
2B1
  8
LAYER_1
 10
288.30175850848752
 20
129.9002811325139
 30
0.0
 11
288.1985586649534
 21
130.17852011364869
 31
0.0
  0
LINE
  5
2B2
  8
LAYER_1
 10
288.1985586649534
 20
130.17852011364869
 30
0.0
 11
288.07338158107979
 21
130.42103858798799
 31
0.0
  0
LINE
  5
2B3
  8
LAYER_1
 10
288.07338158107979
 20
130.42103858798799
 30
0.0
 11
287.91046536561822
 21
130.66377758436289
 31
0.0
  0
LINE
  5
2B4
  8
LAYER_1
 10
287.91046536561822
 20
130.66377758436289
 30
0.0
 11
287.69838025275118
 21
130.92585121338689
 31
0.0
  0
LINE
  5
2B5
  8
LAYER_1
 10
287.69838025275118
 20
130.92585121338689
 30
0.0
 11
287.50053013696458
 21
131.1157917898349
 31
0.0
  0
LINE
  5
2B6
  8
LAYER_1
 10
287.50053013696458
 20
131.1157917898349
 30
0.0
 11
287.31966316366658
 21
131.2313821073482
 31
0.0
  0
LINE
  5
2B7
  8
LAYER_1
 10
287.31966316366658
 20
131.2313821073482
 30
0.0
 11
287.23645718263509
 21
131.26060305471421
 31
0.0
  0
LINE
  5
2B8
  8
LAYER_1
 10
287.23645718263509
 20
131.26060305471421
 30
0.0
 11
287.1585276814244
 21
131.2704049595684
 31
0.0
  0
LINE
  5
2B9
  8
LAYER_1
 10
287.1585276814244
 20
131.2704049595684
 30
0.0
 11
287.0669903148908
 21
131.2515507825758
 31
0.0
  0
LINE
  5
2BA
  8
LAYER_1
 10
287.0669903148908
 20
131.2515507825758
 30
0.0
 11
286.96219064543652
 21
131.2062202484592
 31
0.0
  0
LINE
  5
2BB
  8
LAYER_1
 10
286.96219064543652
 20
131.2062202484592
 30
0.0
 11
286.89171765349528
 21
131.17266402679491
 31
0.0
  0
LINE
  5
2BC
  8
LAYER_1
 10
286.89171765349528
 20
131.17266402679491
 30
0.0
 11
286.8129953496595
 21
131.15332573740051
 31
0.0
  0
LINE
  5
2BD
  8
LAYER_1
 10
286.8129953496595
 20
131.15332573740051
 30
0.0
 11
286.53260904662659
 21
131.14280843102611
 31
0.0
  0
LINE
  5
2BE
  8
LAYER_1
 10
286.53260904662659
 20
131.14280843102611
 30
0.0
 11
286.25079143266959
 21
131.1552352693013
 31
0.0
  0
LINE
  5
2BF
  8
LAYER_1
 10
286.25079143266959
 20
131.1552352693013
 30
0.0
 11
286.07950188071811
 21
131.2060892150983
 31
0.0
  0
LINE
  5
2C0
  8
LAYER_1
 10
286.07950188071811
 20
131.2060892150983
 30
0.0
 11
285.92850777115018
 21
131.30093238064691
 31
0.0
  0
LINE
  5
2C1
  8
LAYER_1
 10
285.92850777115018
 20
131.30093238064691
 30
0.0
 11
285.77471868952279
 21
131.44219386036031
 31
0.0
  0
LINE
  5
2C2
  8
LAYER_1
 10
285.77471868952279
 20
131.44219386036031
 30
0.0
 11
285.63674482667773
 21
131.6101500861333
 31
0.0
  0
LINE
  5
2C3
  8
LAYER_1
 10
285.63674482667773
 20
131.6101500861333
 30
0.0
 11
285.53319627187938
 21
131.78507759143619
 31
0.0
  0
LINE
  5
2C4
  8
LAYER_1
 10
285.53319627187938
 20
131.78507759143619
 30
0.0
 11
285.48454348339459
 21
131.89794099297501
 31
0.0
  0
LINE
  5
2C5
  8
LAYER_1
 10
285.48454348339459
 20
131.89794099297501
 30
0.0
 11
285.45798677945731
 21
131.999649087721
 31
0.0
  0
LINE
  5
2C6
  8
LAYER_1
 10
285.45798677945731
 20
131.999649087721
 30
0.0
 11
285.44279605145181
 21
132.34542022524411
 31
0.0
  0
LINE
  5
2C7
  8
LAYER_1
 10
285.44279605145181
 20
132.34542022524411
 30
0.0
 11
285.43991159071629
 21
132.7180922070356
 31
0.0
  0
LINE
  5
2C8
  8
LAYER_1
 10
285.43991159071629
 20
132.7180922070356
 30
0.0
 11
285.30742721308201
 21
132.89768490629211
 31
0.0
  0
LINE
  5
2C9
  8
LAYER_1
 10
285.30742721308201
 20
132.89768490629211
 30
0.0
 11
285.21508282325323
 21
133.04587703503569
 31
0.0
  0
LINE
  5
2CA
  8
LAYER_1
 10
285.21508282325323
 20
133.04587703503569
 30
0.0
 11
285.16174523659828
 21
133.19728882613759
 31
0.0
  0
LINE
  5
2CB
  8
LAYER_1
 10
285.16174523659828
 20
133.19728882613759
 30
0.0
 11
285.14264453404991
 21
133.37349436380211
 31
0.0
  0
LINE
  5
2CC
  8
LAYER_1
 10
285.14264453404991
 20
133.37349436380211
 30
0.0
 11
285.15301028866111
 21
133.59606752908351
 31
0.0
  0
LINE
  5
2CD
  8
LAYER_1
 10
285.15301028866111
 20
133.59606752908351
 30
0.0
 11
285.17985668806131
 21
133.7774050035656
 31
0.0
  0
LINE
  5
2CE
  8
LAYER_1
 10
285.17985668806131
 20
133.7774050035656
 30
0.0
 11
285.22944956472941
 21
133.9311982498194
 31
0.0
  0
LINE
  5
2CF
  8
LAYER_1
 10
285.22944956472941
 20
133.9311982498194
 30
0.0
 11
285.3119363859185
 21
134.08075312551691
 31
0.0
  0
LINE
  5
2D0
  8
LAYER_1
 10
285.3119363859185
 20
134.08075312551691
 30
0.0
 11
285.43746451730681
 21
134.24937498044849
 31
0.0
  0
LINE
  5
2D1
  8
LAYER_1
 10
285.43746451730681
 20
134.24937498044849
 30
0.0
 11
285.5334869831039
 21
134.3721257124665
 31
0.0
  0
LINE
  5
2D2
  8
LAYER_1
 10
285.5334869831039
 20
134.3721257124665
 30
0.0
 11
285.58777705024511
 21
134.46058765491441
 31
0.0
  0
LINE
  5
2D3
  8
LAYER_1
 10
285.58777705024511
 20
134.46058765491441
 30
0.0
 11
285.615613411764
 21
134.54736140010809
 31
0.0
  0
LINE
  5
2D4
  8
LAYER_1
 10
285.615613411764
 20
134.54736140010809
 30
0.0
 11
285.63227476069699
 21
134.6650475403622
 31
0.0
  0
LINE
  5
2D5
  8
LAYER_1
 10
285.63227476069699
 20
134.6650475403622
 30
0.0
 11
285.65952969976797
 21
134.86073855140569
 31
0.0
  0
LINE
  5
2D6
  8
LAYER_1
 10
285.65952969976797
 20
134.86073855140569
 30
0.0
 11
285.69607013004543
 21
135.0206520713771
 31
0.0
  0
LINE
  5
2D7
  8
LAYER_1
 10
285.69607013004543
 20
135.0206520713771
 30
0.0
 11
285.74857692456209
 21
135.1678278281758
 31
0.0
  0
LINE
  5
2D8
  8
LAYER_1
 10
285.74857692456209
 20
135.1678278281758
 30
0.0
 11
285.82373095635359
 21
135.32530595600619
 31
0.0
  0
LINE
  5
2D9
  8
LAYER_1
 10
285.82373095635359
 20
135.32530595600619
 30
0.0
 11
285.90319618887128
 21
135.45501151220191
 31
0.0
  0
LINE
  5
2DA
  8
LAYER_1
 10
285.90319618887128
 20
135.45501151220191
 30
0.0
 11
286.0062648974698
 21
135.58999039935281
 31
0.0
  0
LINE
  5
2DB
  8
LAYER_1
 10
286.0062648974698
 20
135.58999039935281
 30
0.0
 11
286.24931004465708
 21
135.84477552622189
 31
0.0
  0
LINE
  5
2DC
  8
LAYER_1
 10
286.24931004465708
 20
135.84477552622189
 30
0.0
 11
286.48505988408232
 21
136.02767656390151
 31
0.0
  0
LINE
  5
2DD
  8
LAYER_1
 10
286.48505988408232
 20
136.02767656390151
 30
0.0
 11
286.57900958494798
 21
136.07280039035189
 31
0.0
  0
LINE
  5
2DE
  8
LAYER_1
 10
286.57900958494798
 20
136.07280039035189
 30
0.0
 11
286.64570810506262
 21
136.0767089428287
 31
0.0
  0
LINE
  5
2DF
  8
LAYER_1
 10
286.64570810506262
 20
136.0767089428287
 30
0.0
 11
286.66694983178229
 21
136.0595480419029
 31
0.0
  0
LINE
  5
2E0
  8
LAYER_1
 10
286.66694983178229
 20
136.0595480419029
 30
0.0
 11
286.68068436268311
 21
136.0240841167107
 31
0.0
  0
LINE
  5
2E1
  8
LAYER_1
 10
286.68068436268311
 20
136.0240841167107
 30
0.0
 11
286.69027793465079
 21
135.8774767806008
 31
0.0
  0
LINE
  5
2E2
  8
LAYER_1
 10
286.69027793465079
 20
135.8774767806008
 30
0.0
 11
286.7016259315883
 21
135.7196419169841
 31
0.0
  0
LINE
  5
2E3
  8
LAYER_1
 10
286.7016259315883
 20
135.7196419169841
 30
0.0
 11
286.7362500243558
 21
135.56689256983901
 31
0.0
  0
LINE
  5
2E4
  8
LAYER_1
 10
286.7362500243558
 20
135.56689256983901
 30
0.0
 11
286.7950201119499
 21
135.4164039036863
 31
0.0
  0
LINE
  5
2E5
  8
LAYER_1
 10
286.7950201119499
 20
135.4164039036863
 30
0.0
 11
286.8788063980893
 21
135.26535098147181
 31
0.0
  0
LINE
  5
2E6
  8
LAYER_1
 10
286.8788063980893
 20
135.26535098147181
 30
0.0
 11
286.93988511066271
 21
135.17966653997041
 31
0.0
  0
LINE
  5
2E7
  8
LAYER_1
 10
286.93988511066271
 20
135.17966653997041
 30
0.0
 11
287.0162929996705
 21
135.1110740291212
 31
0.0
  0
LINE
  5
2E8
  8
LAYER_1
 10
287.0162929996705
 20
135.1110740291212
 30
0.0
 11
287.35447659456202
 21
134.92561611410861
 31
0.0
  0
LINE
  5
2E9
  8
LAYER_1
 10
287.35447659456202
 20
134.92561611410861
 30
0.0
 11
287.85997414860719
 21
134.6547404968226
 31
0.0
  0
LINE
  5
2EA
  8
LAYER_1
 10
287.85997414860719
 20
134.6547404968226
 30
0.0
 11
288.22682164671733
 21
134.41540440635831
 31
0.0
  0
LINE
  5
2EB
  8
LAYER_1
 10
288.22682164671733
 20
134.41540440635831
 30
0.0
 11
288.3680376202704
 21
134.30021023621529
 31
0.0
  0
LINE
  5
2EC
  8
LAYER_1
 10
288.3680376202704
 20
134.30021023621529
 30
0.0
 11
288.48633433535679
 21
134.1840767904994
 31
0.0
  0
LINE
  5
2ED
  8
LAYER_1
 10
288.48633433535679
 20
134.1840767904994
 30
0.0
 11
288.5856261342978
 21
134.06406272577581
 31
0.0
  0
LINE
  5
2EE
  8
LAYER_1
 10
288.5856261342978
 20
134.06406272577581
 30
0.0
 11
288.6698274609904
 21
133.93722669860779
 31
0.0
  0
LINE
  5
2EF
  8
LAYER_1
 10
288.6698274609904
 20
133.93722669860779
 30
0.0
 11
288.77601811559521
 21
133.74097325987481
 31
0.0
  0
LINE
  5
2F0
  8
LAYER_1
 10
288.77601811559521
 20
133.74097325987481
 30
0.0
 11
288.84936155075218
 21
133.5576800362995
 31
0.0
  0
LINE
  5
2F1
  8
LAYER_1
 10
288.84936155075218
 20
133.5576800362995
 30
0.0
 11
288.89756679428513
 21
133.3633996146221
 31
0.0
  0
LINE
  5
2F2
  8
LAYER_1
 10
288.89756679428513
 20
133.3633996146221
 30
0.0
 11
288.92834317874951
 21
133.13418417528081
 31
0.0
  0
LINE
  5
2F3
  8
LAYER_1
 10
288.92834317874951
 20
133.13418417528081
 30
0.0
 11
288.9433653917564
 21
132.8150953915146
 31
0.0
  0
LINE
  5
2F4
  8
LAYER_1
 10
288.9433653917564
 20
132.8150953915146
 30
0.0
 11
288.91584950330071
 21
132.5528669602875
 31
0.0
  0
LINE
  5
2F5
  8
LAYER_1
 10
288.91584950330071
 20
132.5528669602875
 30
0.0
 11
288.84030470768249
 21
132.32118524962479
 31
0.0
  0
LINE
  5
2F6
  8
LAYER_1
 10
288.84030470768249
 20
132.32118524962479
 30
0.0
 11
288.71124050392069
 21
132.09373683070729
 31
0.0
  0
LINE
  5
2F7
  8
LAYER_1
 10
288.71124050392069
 20
132.09373683070729
 30
0.0
 11
288.61097194777312
 21
131.91481097952419
 31
0.0
  0
LINE
  5
2F8
  8
LAYER_1
 10
288.61097194777312
 20
131.91481097952419
 30
0.0
 11
288.63412960569673
 21
131.87986224906581
 31
0.0
  0
LINE
  5
2F9
  8
LAYER_1
 10
288.63412960569673
 20
131.87986224906581
 30
0.0
 11
288.68980639178471
 21
131.83801476451879
 31
0.0
  0
LINE
  5
2FA
  8
LAYER_1
 10
288.68980639178471
 20
131.83801476451879
 30
0.0
 11
288.8166419110712
 21
131.742968141744
 31
0.0
  0
LINE
  5
2FB
  8
LAYER_1
 10
288.8166419110712
 20
131.742968141744
 30
0.0
 11
288.95657700812973
 21
131.60305447727529
 31
0.0
  0
LINE
  5
2FC
  8
LAYER_1
 10
288.95657700812973
 20
131.60305447727529
 30
0.0
 11
289.10523049619411
 21
131.4246696211934
 31
0.0
  0
LINE
  5
2FD
  8
LAYER_1
 10
289.10523049619411
 20
131.4246696211934
 30
0.0
 11
289.25822078220119
 21
131.21420942357781
 31
0.0
  0
LINE
  5
2FE
  8
LAYER_1
 10
289.25822078220119
 20
131.21420942357781
 30
0.0
 11
289.55968618838227
 21
130.72264731825521
 31
0.0
  0
LINE
  5
2FF
  8
LAYER_1
 10
289.55968618838227
 20
130.72264731825521
 30
0.0
 11
289.82592159947279
 21
130.17953567298451
 31
0.0
  0
LINE
  5
300
  8
LAYER_1
 10
289.82592159947279
 20
130.17953567298451
 30
0.0
 11
289.95216391346491
 21
129.89286484743789
 31
0.0
  0
LINE
  5
301
  8
LAYER_1
 10
289.95216391346491
 20
129.89286484743789
 30
0.0
 11
290.08801686423573
 21
129.58621427848681
 31
0.0
  0
LINE
  5
302
  8
LAYER_1
 10
290.08801686423573
 20
129.58621427848681
 30
0.0
 11
290.13499283200719
 21
129.500168327116
 31
0.0
  0
LINE
  5
303
  8
LAYER_1
 10
290.13499283200719
 20
129.500168327116
 30
0.0
 11
290.1730265347183
 21
129.46437925635149
 31
0.0
  0
LINE
  5
304
  8
LAYER_1
 10
290.1730265347183
 20
129.46437925635149
 30
0.0
 11
290.22867802831922
 21
129.49857022799389
 31
0.0
  0
LINE
  5
305
  8
LAYER_1
 10
290.22867802831922
 20
129.49857022799389
 30
0.0
 11
290.31801169813519
 21
129.5807741593311
 31
0.0
  0
LINE
  5
306
  8
LAYER_1
 10
290.31801169813519
 20
129.5807741593311
 30
0.0
 11
290.51731283063651
 21
129.74950439611939
 31
0.0
  0
LINE
  5
307
  8
LAYER_1
 10
290.51731283063651
 20
129.74950439611939
 30
0.0
 11
290.899912570254
 21
129.9970579035342
 31
0.0
  0
LINE
  5
308
  8
LAYER_1
 10
290.899912570254
 20
129.9970579035342
 30
0.0
 11
291.33843673885599
 21
130.29825677363741
 31
0.0
  0
LINE
  5
309
  8
LAYER_1
 10
291.33843673885599
 20
130.29825677363741
 30
0.0
 11
291.50592053349629
 21
130.43534590735649
 31
0.0
  0
LINE
  5
30A
  8
LAYER_1
 10
291.50592053349629
 20
130.43534590735649
 30
0.0
 11
291.61295995923518
 21
130.5435578277353
 31
0.0
  0
LINE
  5
30B
  8
LAYER_1
 10
291.61295995923518
 20
130.5435578277353
 30
0.0
 11
291.70544665738731
 21
130.683173873795
 31
0.0
  0
LINE
  5
30C
  8
LAYER_1
 10
291.70544665738731
 20
130.683173873795
 30
0.0
 11
291.77514045792537
 21
130.84971077464419
 31
0.0
  0
LINE
  5
30D
  8
LAYER_1
 10
291.77514045792537
 20
130.84971077464419
 30
0.0
 11
291.83027330320192
 21
131.0685849392504
 31
0.0
  0
LINE
  5
30E
  8
LAYER_1
 10
291.83027330320192
 20
131.0685849392504
 30
0.0
 11
291.87907693241658
 21
131.36521247185419
 31
0.0
  0
LINE
  5
30F
  8
LAYER_1
 10
291.87907693241658
 20
131.36521247185419
 30
0.0
 11
291.92837097176118
 21
131.6099943697443
 31
0.0
  0
LINE
  5
310
  8
LAYER_1
 10
291.92837097176118
 20
131.6099943697443
 30
0.0
 11
292.0068762071528
 21
131.8455749831391
 31
0.0
  0
LINE
  5
311
  8
LAYER_1
 10
292.0068762071528
 20
131.8455749831391
 30
0.0
 11
292.11638606883719
 21
132.0764026407013
 31
0.0
  0
LINE
  5
312
  8
LAYER_1
 10
292.11638606883719
 20
132.0764026407013
 30
0.0
 11
292.25869378391337
 21
132.3069260773988
 31
0.0
  0
LINE
  5
313
  8
LAYER_1
 10
292.25869378391337
 20
132.3069260773988
 30
0.0
 11
292.66259578969698
 21
132.87675369816449
 31
0.0
  0
LINE
  5
314
  8
LAYER_1
 10
292.66259578969698
 20
132.87675369816449
 30
0.0
 11
292.74988919897908
 21
132.96945980101529
 31
0.0
  0
LINE
  5
315
  8
LAYER_1
 10
292.74988919897908
 20
132.96945980101529
 30
0.0
 11
292.81166391201049
 21
132.9976303483927
 31
0.0
  0
LINE
  5
316
  8
LAYER_1
 10
292.81166391201049
 20
132.9976303483927
 30
0.0
 11
292.8762962696465
 21
132.99598247690921
 31
0.0
  0
LINE
  5
317
  8
LAYER_1
 10
292.8762962696465
 20
132.99598247690921
 30
0.0
 11
292.93249962700929
 21
132.97305915539039
 31
0.0
  0
LINE
  5
318
  8
LAYER_1
 10
292.93249962700929
 20
132.97305915539039
 30
0.0
 11
292.95697615094832
 21
132.9465136248408
 31
0.0
  0
LINE
  5
319
  8
LAYER_1
 10
292.95697615094832
 20
132.9465136248408
 30
0.0
 11
292.95665923305091
 21
132.90710640809459
 31
0.0
  0
LINE
  5
31A
  8
LAYER_1
 10
292.95665923305091
 20
132.90710640809459
 30
0.0
 11
292.86005707160223
 21
132.71187066179829
 31
0.0
  0
LINE
  5
31B
  8
LAYER_1
 10
292.86005707160223
 20
132.71187066179829
 30
0.0
 11
292.59928219649549
 21
132.2090971795931
 31
0.0
  0
LINE
  5
31C
  8
LAYER_1
 10
292.59928219649549
 20
132.2090971795931
 30
0.0
 11
292.39253349343397
 21
131.75182782531479
 31
0.0
  0
LINE
  5
31D
  8
LAYER_1
 10
292.39253349343397
 20
131.75182782531479
 30
0.0
 11
292.24973150833171
 21
131.36404617336561
 31
0.0
  0
LINE
  5
31E
  8
LAYER_1
 10
292.24973150833171
 20
131.36404617336561
 30
0.0
 11
292.18079709182979
 21
131.06973539184361
 31
0.0
  0
LINE
  5
31F
  8
LAYER_1
 10
292.18079709182979
 20
131.06973539184361
 30
0.0
 11
292.15137878181082
 21
130.92198674500199
 31
0.0
  0
LINE
  5
320
  8
LAYER_1
 10
292.15137878181082
 20
130.92198674500199
 30
0.0
 11
292.10716680534631
 21
130.78816856964639
 31
0.0
  0
LINE
  5
321
  8
LAYER_1
 10
292.10716680534631
 20
130.78816856964639
 30
0.0
 11
292.00453284309401
 21
130.62843402702541
 31
0.0
  0
LINE
  5
322
  8
LAYER_1
 10
292.00453284309401
 20
130.62843402702541
 30
0.0
 11
291.83476053556791
 21
130.4410553051479
 31
0.0
  0
LINE
  5
323
  8
LAYER_1
 10
291.83476053556791
 20
130.4410553051479
 30
0.0
 11
291.6223192963721
 21
130.25024422024831
 31
0.0
  0
LINE
  5
324
  8
LAYER_1
 10
291.6223192963721
 20
130.25024422024831
 30
0.0
 11
291.39167823437953
 21
130.0802122838312
 31
0.0
  0
LINE
  5
325
  8
LAYER_1
 10
291.39167823437953
 20
130.0802122838312
 30
0.0
 11
291.11624031988009
 21
129.88960851605501
 31
0.0
  0
LINE
  5
326
  8
LAYER_1
 10
291.11624031988009
 20
129.88960851605501
 30
0.0
 11
290.90182606362811
 21
129.71117409076371
 31
0.0
  0
LINE
  5
327
  8
LAYER_1
 10
290.90182606362811
 20
129.71117409076371
 30
0.0
 11
290.71070578062859
 21
129.50954980787631
 31
0.0
  0
LINE
  5
328
  8
LAYER_1
 10
290.71070578062859
 20
129.50954980787631
 30
0.0
 11
290.50514978588052
 21
129.2493761625858
 31
0.0
  0
LINE
  5
329
  8
LAYER_1
 10
290.50514978588052
 20
129.2493761625858
 30
0.0
 11
290.2353437664944
 21
128.8761683660818
 31
0.0
  0
LINE
  5
32A
  8
LAYER_1
 10
290.2353437664944
 20
128.8761683660818
 30
0.0
 11
290.05123590140261
 21
128.57436725039901
 31
0.0
  0
LINE
  5
32B
  8
LAYER_1
 10
290.05123590140261
 20
128.57436725039901
 30
0.0
 11
289.90331752065049
 21
128.2507105827253
 31
0.0
  0
LINE
  5
32C
  8
LAYER_1
 10
289.90331752065049
 20
128.2507105827253
 30
0.0
 11
289.7420801574271
 21
127.81193592709511
 31
0.0
  0
LINE
  5
32D
  8
LAYER_1
 10
289.7420801574271
 20
127.81193592709511
 30
0.0
 11
289.54072637209163
 21
127.2815950572774
 31
0.0
  0
LINE
  5
32E
  8
LAYER_1
 10
289.54072637209163
 20
127.2815950572774
 30
0.0
 11
289.43855559753189
 21
127.148291975079
 31
0.0
  0
LINE
  5
32F
  8
LAYER_1
 10
289.43855559753189
 20
127.148291975079
 30
0.0
 11
289.2422642708587
 21
126.94603588792479
 31
0.0
  0
LINE
  5
330
  8
LAYER_1
 10
289.2422642708587
 20
126.94603588792479
 30
0.0
 11
288.6683061535133
 21
126.4329046756325
 31
0.0
  0
LINE
  5
331
  8
LAYER_1
 10
288.6683061535133
 20
126.4329046756325
 30
0.0
 11
288.34530729362598
 21
126.1646639462401
 31
0.0
  0
LINE
  5
332
  8
LAYER_1
 10
288.34530729362598
 20
126.1646639462401
 30
0.0
 11
288.05315642945811
 21
125.86840340862329
 31
0.0
  0
LINE
  5
333
  8
LAYER_1
 10
288.05315642945811
 20
125.86840340862329
 30
0.0
 11
287.79123384431563
 21
125.5471387600322
 31
0.0
  0
LINE
  5
334
  8
LAYER_1
 10
287.79123384431563
 20
125.5471387600322
 30
0.0
 11
287.55891982150479
 21
125.2038857992918
 31
0.0
  0
LINE
  5
335
  8
LAYER_1
 10
287.55891982150479
 20
125.2038857992918
 30
0.0
 11
287.39856332751418
 21
124.92412601855951
 31
0.0
  0
LINE
  5
336
  8
LAYER_1
 10
287.39856332751418
 20
124.92412601855951
 30
0.0
 11
287.2553936363891
 21
124.6343398494637
 31
0.0
  0
LINE
  5
337
  8
LAYER_1
 10
287.2553936363891
 20
124.6343398494637
 30
0.0
 11
287.12912074794548
 21
124.33593889713239
 31
0.0
  0
LINE
  5
338
  8
LAYER_1
 10
287.12912074794548
 20
124.33593889713239
 30
0.0
 11
287.01945456041221
 21
124.0303348682724
 31
0.0
  0
LINE
  5
339
  8
LAYER_1
 10
287.01945456041221
 20
124.0303348682724
 30
0.0
 11
286.9452390931599
 21
123.6785586444979
 31
0.0
  0
LINE
  5
33A
  8
LAYER_1
 10
286.9452390931599
 20
123.6785586444979
 30
0.0
 11
286.91016227505293
 21
123.318247577996
 31
0.0
  0
LINE
  5
33B
  8
LAYER_1
 10
286.91016227505293
 20
123.318247577996
 30
0.0
 11
286.91193833576318
 21
122.9551161453704
 31
0.0
  0
LINE
  5
33C
  8
LAYER_1
 10
286.91193833576318
 20
122.9551161453704
 30
0.0
 11
286.948281606541
 21
122.5948787216492
 31
0.0
  0
LINE
  5
33D
  8
LAYER_1
 10
286.948281606541
 20
122.5948787216492
 30
0.0
 11
287.09550530732832
 21
122.3027116052822
 31
0.0
  0
LINE
  5
33E
  8
LAYER_1
 10
287.09550530732832
 20
122.3027116052822
 30
0.0
 11
287.2347314021693
 21
122.00684020627379
 31
0.0
  0
LINE
  5
33F
  8
LAYER_1
 10
287.2347314021693
 20
122.00684020627379
 30
0.0
 11
287.18855189376433
 21
121.9706012543033
 31
0.0
  0
LINE
  5
340
  8
LAYER_1
 10
287.18855189376433
 20
121.9706012543033
 30
0.0
 11
287.11429772596051
 21
121.9939220436836
 31
0.0
  0
LINE
  5
341
  8
LAYER_1
 10
287.11429772596051
 20
121.9939220436836
 30
0.0
 11
287.0535730066145
 21
122.0453576150809
 31
0.0
  0
LINE
  5
342
  8
LAYER_1
 10
287.0535730066145
 20
122.0453576150809
 30
0.0
 11
286.99530135367343
 21
122.1027537823323
 31
0.0
  0
LINE
  5
343
  8
LAYER_1
 10
286.99530135367343
 20
122.1027537823323
 30
0.0
 11
286.92840648667192
 21
122.1439559529704
 31
0.0
  0
LINE
  5
344
  8
LAYER_1
 10
286.92840648667192
 20
122.1439559529704
 30
0.0
 11
286.9430068535188
 21
122.0699929026956
 31
0.0
  0
LINE
  5
345
  8
LAYER_1
 10
286.9430068535188
 20
122.0699929026956
 30
0.0
 11
287.01278618125838
 21
121.9234865333768
 31
0.0
  0
LINE
  5
346
  8
LAYER_1
 10
287.01278618125838
 20
121.9234865333768
 30
0.0
 11
287.11198778048902
 21
121.75278663154781
 31
0.0
  0
LINE
  5
347
  8
LAYER_1
 10
287.11198778048902
 20
121.75278663154781
 30
0.0
 11
287.21485475865552
 21
121.6062432884746
 31
0.0
  0
LINE
  5
348
  8
LAYER_1
 10
287.21485475865552
 20
121.6062432884746
 30
0.0
 11
287.49545244186311
 21
121.244836925282
 31
0.0
  0
LINE
  5
349
  8
LAYER_1
 10
287.49545244186311
 20
121.244836925282
 30
0.0
 11
287.55902119460148
 21
121.1450812276139
 31
0.0
  0
LINE
  5
34A
  8
LAYER_1
 10
287.55902119460148
 20
121.1450812276139
 30
0.0
 11
287.5789572602194
 21
121.0885979261104
 31
0.0
  0
LINE
  5
34B
  8
LAYER_1
 10
287.5789572602194
 20
121.0885979261104
 30
0.0
 11
287.56054209577468
 21
121.0486123342036
 31
0.0
  0
LINE
  5
34C
  8
LAYER_1
 10
287.56054209577468
 20
121.0486123342036
 30
0.0
 11
287.51026439203758
 21
121.0391337465493
 31
0.0
  0
LINE
  5
34D
  8
LAYER_1
 10
287.51026439203758
 20
121.0391337465493
 30
0.0
 11
287.43557588419372
 21
121.0595123798831
 31
0.0
  0
LINE
  5
34E
  8
LAYER_1
 10
287.43557588419372
 20
121.0595123798831
 30
0.0
 11
287.34392830743059
 21
121.1090980446381
 31
0.0
  0
LINE
  5
34F
  8
LAYER_1
 10
287.34392830743059
 20
121.1090980446381
 30
0.0
 11
287.34392830743059
 21
121.1090980446381
 31
0.0
  0
LINE
  5
350
  8
LAYER_1
 10
287.7973439604072
 20
126.25366688378941
 30
0.0
 11
288.00461151494829
 21
126.50052307025609
 31
0.0
  0
LINE
  5
351
  8
LAYER_1
 10
288.00461151494829
 20
126.50052307025609
 30
0.0
 11
288.19862550212468
 21
126.75572455816879
 31
0.0
  0
LINE
  5
352
  8
LAYER_1
 10
288.19862550212468
 20
126.75572455816879
 30
0.0
 11
288.37765485950467
 21
127.0163008517099
 31
0.0
  0
LINE
  5
353
  8
LAYER_1
 10
288.37765485950467
 20
127.0163008517099
 30
0.0
 11
288.5399682199303
 21
127.2792813534835
 31
0.0
  0
LINE
  5
354
  8
LAYER_1
 10
288.5399682199303
 20
127.2792813534835
 30
0.0
 11
288.68383462254297
 21
127.5416954660933
 31
0.0
  0
LINE
  5
355
  8
LAYER_1
 10
288.68383462254297
 20
127.5416954660933
 30
0.0
 11
288.80752280176182
 21
127.800572490568
 31
0.0
  0
LINE
  5
356
  8
LAYER_1
 10
288.80752280176182
 20
127.800572490568
 30
0.0
 11
288.90930169515258
 21
128.05294193108989
 31
0.0
  0
LINE
  5
357
  8
LAYER_1
 10
288.90930169515258
 20
128.05294193108989
 30
0.0
 11
288.98744003713313
 21
128.29583308868499
 31
0.0
  0
LINE
  5
358
  8
LAYER_1
 10
288.98744003713313
 20
128.29583308868499
 30
0.0
 11
289.0295819912252
 21
128.56199688851851
 31
0.0
  0
LINE
  5
359
  8
LAYER_1
 10
289.0295819912252
 20
128.56199688851851
 30
0.0
 11
289.04338366402737
 21
128.911707254546
 31
0.0
  0
LINE
  5
35A
  8
LAYER_1
 10
289.04338366402737
 20
128.911707254546
 30
0.0
 11
289.0289046807975
 21
129.28145089466099
 31
0.0
  0
LINE
  5
35B
  8
LAYER_1
 10
289.0289046807975
 20
129.28145089466099
 30
0.0
 11
288.98620476837232
 21
129.60771461833619
 31
0.0
  0
LINE
  5
35C
  8
LAYER_1
 10
288.98620476837232
 20
129.60771461833619
 30
0.0
 11
288.9114985862613
 21
129.91928361082921
 31
0.0
  0
LINE
  5
35D
  8
LAYER_1
 10
288.9114985862613
 20
129.91928361082921
 30
0.0
 11
288.81737549474002
 21
130.2090532229972
 31
0.0
  0
LINE
  5
35E
  8
LAYER_1
 10
288.81737549474002
 20
130.2090532229972
 30
0.0
 11
288.70548245110672
 21
130.47430710279431
 31
0.0
  0
LINE
  5
35F
  8
LAYER_1
 10
288.70548245110672
 20
130.47430710279431
 30
0.0
 11
288.5774666158095
 21
130.71232910132809
 31
0.0
  0
LINE
  5
360
  8
LAYER_1
 10
288.5774666158095
 20
130.71232910132809
 30
0.0
 11
288.4349750477225
 21
130.92040296813161
 31
0.0
  0
LINE
  5
361
  8
LAYER_1
 10
288.4349750477225
 20
130.92040296813161
 30
0.0
 11
288.2796548057201
 21
131.0958125543107
 31
0.0
  0
LINE
  5
362
  8
LAYER_1
 10
288.2796548057201
 20
131.0958125543107
 30
0.0
 11
288.11315305025579
 21
131.2358415078217
 31
0.0
  0
LINE
  5
363
  8
LAYER_1
 10
288.11315305025579
 20
131.2358415078217
 30
0.0
 11
287.93711684019678
 21
131.3377737813488
 31
0.0
  0
LINE
  5
364
  8
LAYER_1
 10
287.93711684019678
 20
131.3377737813488
 30
0.0
 11
287.71505196246392
 21
131.44888722727339
 31
0.0
  0
LINE
  5
365
  8
LAYER_1
 10
287.71505196246392
 20
131.44888722727339
 30
0.0
 11
287.68776878519429
 21
131.4832971973087
 31
0.0
  0
LINE
  5
366
  8
LAYER_1
 10
287.68776878519429
 20
131.4832971973087
 30
0.0
 11
287.68826082054449
 21
131.5246828146519
 31
0.0
  0
LINE
  5
367
  8
LAYER_1
 10
287.68826082054449
 20
131.5246828146519
 30
0.0
 11
287.68921360575757
 21
131.55690107396691
 31
0.0
  0
LINE
  5
368
  8
LAYER_1
 10
287.68921360575757
 20
131.55690107396691
 30
0.0
 11
287.675921439418
 21
131.5753706832819
 31
0.0
  0
LINE
  5
369
  8
LAYER_1
 10
287.675921439418
 20
131.5753706832819
 30
0.0
 11
287.58075932444882
 21
131.58574273562041
 31
0.0
  0
LINE
  5
36A
  8
LAYER_1
 10
287.58075932444882
 20
131.58574273562041
 30
0.0
 11
287.4972390665032
 21
131.5773218614442
 31
0.0
  0
LINE
  5
36B
  8
LAYER_1
 10
287.4972390665032
 20
131.5773218614442
 30
0.0
 11
287.45998892297621
 21
131.55707568353881
 31
0.0
  0
LINE
  5
36C
  8
LAYER_1
 10
287.45998892297621
 20
131.55707568353881
 30
0.0
 11
287.4528221091694
 21
131.50355312653451
 31
0.0
  0
LINE
  5
36D
  8
LAYER_1
 10
287.4528221091694
 20
131.50355312653451
 30
0.0
 11
287.53500704574731
 21
131.42332018072841
 31
0.0
  0
LINE
  5
36E
  8
LAYER_1
 10
287.53500704574731
 20
131.42332018072841
 30
0.0
 11
287.7366261482461
 21
131.26532370929999
 31
0.0
  0
LINE
  5
36F
  8
LAYER_1
 10
287.7366261482461
 20
131.26532370929999
 30
0.0
 11
287.93356228094569
 21
131.10746974934841
 31
0.0
  0
LINE
  5
370
  8
LAYER_1
 10
287.93356228094569
 20
131.10746974934841
 30
0.0
 11
288.11056529374122
 21
130.94165932183159
 31
0.0
  0
LINE
  5
371
  8
LAYER_1
 10
288.11056529374122
 20
130.94165932183159
 30
0.0
 11
288.26816094529158
 21
130.76712471345849
 31
0.0
  0
LINE
  5
372
  8
LAYER_1
 10
288.26816094529158
 20
130.76712471345849
 30
0.0
 11
288.40687499426241
 21
130.58309800779051
 31
0.0
  0
LINE
  5
373
  8
LAYER_1
 10
288.40687499426241
 20
130.58309800779051
 30
0.0
 11
288.52723319931653
 21
130.3888116946919
 31
0.0
  0
LINE
  5
374
  8
LAYER_1
 10
288.52723319931653
 20
130.3888116946919
 30
0.0
 11
288.6297612175423
 21
130.1834977561445
 31
0.0
  0
LINE
  5
375
  8
LAYER_1
 10
288.6297612175423
 20
130.1834977561445
 30
0.0
 11
288.71498501075632
 21
129.9663885804365
 31
0.0
  0
LINE
  5
376
  8
LAYER_1
 10
288.71498501075632
 20
129.9663885804365
 30
0.0
 11
288.78343023604248
 21
129.73671645427979
 31
0.0
  0
LINE
  5
377
  8
LAYER_1
 10
288.78343023604248
 20
129.73671645427979
 30
0.0
 11
288.81779023056481
 21
129.58292828683841
 31
0.0
  0
LINE
  5
378
  8
LAYER_1
 10
288.81779023056481
 20
129.58292828683841
 30
0.0
 11
288.83812274828142
 21
129.4257629122778
 31
0.0
  0
LINE
  5
379
  8
LAYER_1
 10
288.83812274828142
 20
129.4257629122778
 30
0.0
 11
288.85193051565818
 21
128.919704860493
 31
0.0
  0
LINE
  5
37A
  8
LAYER_1
 10
288.85193051565818
 20
128.919704860493
 30
0.0
 11
288.84398786246311
 21
128.41783154700511
 31
0.0
  0
LINE
  5
37B
  8
LAYER_1
 10
288.84398786246311
 20
128.41783154700511
 30
0.0
 11
288.82426998262548
 21
128.29082091026521
 31
0.0
  0
LINE
  5
37C
  8
LAYER_1
 10
288.82426998262548
 20
128.29082091026521
 30
0.0
 11
288.78785926521999
 21
128.17436089691029
 31
0.0
  0
LINE
  5
37D
  8
LAYER_1
 10
288.78785926521999
 20
128.17436089691029
 30
0.0
 11
288.66022982597133
 21
127.8771330486763
 31
0.0
  0
LINE
  5
37E
  8
LAYER_1
 10
288.66022982597133
 20
127.8771330486763
 30
0.0
 11
288.4685064847821
 21
127.5323040308603
 31
0.0
  0
LINE
  5
37F
  8
LAYER_1
 10
288.4685064847821
 20
127.5323040308603
 30
0.0
 11
288.19500877820991
 21
127.11074776831229
 31
0.0
  0
LINE
  5
380
  8
LAYER_1
 10
288.19500877820991
 20
127.11074776831229
 30
0.0
 11
287.82205634439629
 21
126.5833382874585
 31
0.0
  0
LINE
  5
381
  8
LAYER_1
 10
287.82205634439629
 20
126.5833382874585
 30
0.0
 11
287.57118251256247
 21
126.20144948000561
 31
0.0
  0
LINE
  5
382
  8
LAYER_1
 10
287.57118251256247
 20
126.20144948000561
 30
0.0
 11
287.3259194479823
 21
125.76422304955889
 31
0.0
  0
LINE
  5
383
  8
LAYER_1
 10
287.3259194479823
 20
125.76422304955889
 30
0.0
 11
287.11380721425633
 21
125.32446513584
 31
0.0
  0
LINE
  5
384
  8
LAYER_1
 10
287.11380721425633
 20
125.32446513584
 30
0.0
 11
286.96238587498772
 21
124.9349814722664
 31
0.0
  0
LINE
  5
385
  8
LAYER_1
 10
286.96238587498772
 20
124.9349814722664
 30
0.0
 11
286.87255925563812
 21
124.6692307830367
 31
0.0
  0
LINE
  5
386
  8
LAYER_1
 10
286.87255925563812
 20
124.6692307830367
 30
0.0
 11
286.83488716437267
 21
124.49515154098719
 31
0.0
  0
LINE
  5
387
  8
LAYER_1
 10
286.83488716437267
 20
124.49515154098719
 30
0.0
 11
286.83918739486381
 21
124.4414015547619
 31
0.0
  0
LINE
  5
388
  8
LAYER_1
 10
286.83918739486381
 20
124.4414015547619
 30
0.0
 11
286.86007472205358
 21
124.4319445012725
 31
0.0
  0
LINE
  5
389
  8
LAYER_1
 10
286.86007472205358
 20
124.4319445012725
 30
0.0
 11
286.93352725010112
 21
124.68134029711069
 31
0.0
  0
LINE
  5
38A
  8
LAYER_1
 10
286.93352725010112
 20
124.68134029711069
 30
0.0
 11
287.02065661374019
 21
124.9239249991633
 31
0.0
  0
LINE
  5
38B
  8
LAYER_1
 10
287.02065661374019
 20
124.9239249991633
 30
0.0
 11
287.23356703362867
 21
125.3898945623021
 31
0.0
  0
LINE
  5
38C
  8
LAYER_1
 10
287.23356703362867
 20
125.3898945623021
 30
0.0
 11
287.49404865810669
 21
125.8323197667373
 31
0.0
  0
LINE
  5
38D
  8
LAYER_1
 10
287.49404865810669
 20
125.8323197667373
 30
0.0
 11
287.7973439604072
 21
126.25366688378941
 31
0.0
  0
LINE
  5
38E
  8
LAYER_1
 10
287.7973439604072
 20
126.25366688378941
 30
0.0
 11
287.7973439604072
 21
126.25366688378941
 31
0.0
  0
LINE
  5
38F
  8
LAYER_1
 10
288.17545230303477
 20
131.83796550003831
 30
0.0
 11
288.33067533656617
 21
131.96468644131591
 31
0.0
  0
LINE
  5
390
  8
LAYER_1
 10
288.33067533656617
 20
131.96468644131591
 30
0.0
 11
288.45681312859841
 21
132.1079739608879
 31
0.0
  0
LINE
  5
391
  8
LAYER_1
 10
288.45681312859841
 20
132.1079739608879
 30
0.0
 11
288.52248329077071
 21
132.22520392220929
 31
0.0
  0
LINE
  5
392
  8
LAYER_1
 10
288.52248329077071
 20
132.22520392220929
 30
0.0
 11
288.52283606508399
 21
132.26072737108311
 31
0.0
  0
LINE
  5
393
  8
LAYER_1
 10
288.52283606508399
 20
132.26072737108311
 30
0.0
 11
288.49630363787071
 21
132.27375259503961
 31
0.0
  0
LINE
  5
394
  8
LAYER_1
 10
288.49630363787071
 20
132.27375259503961
 30
0.0
 11
288.47605756154042
 21
132.26612523451951
 31
0.0
  0
LINE
  5
395
  8
LAYER_1
 10
288.47605756154042
 20
132.26612523451951
 30
0.0
 11
288.46763658578789
 21
132.24778706487061
 31
0.0
  0
LINE
  5
396
  8
LAYER_1
 10
288.46763658578789
 20
132.24778706487061
 30
0.0
 11
288.42124082154868
 21
132.19167654819941
 31
0.0
  0
LINE
  5
397
  8
LAYER_1
 10
288.42124082154868
 20
132.19167654819941
 30
0.0
 11
288.30134265532519
 21
132.11643688763081
 31
0.0
  0
LINE
  5
398
  8
LAYER_1
 10
288.30134265532519
 20
132.11643688763081
 30
0.0
 11
288.13687567527512
 21
132.03773154703029
 31
0.0
  0
LINE
  5
399
  8
LAYER_1
 10
288.13687567527512
 20
132.03773154703029
 30
0.0
 11
287.95677357113038
 21
131.97122439656869
 31
0.0
  0
LINE
  5
39A
  8
LAYER_1
 10
287.95677357113038
 20
131.97122439656869
 30
0.0
 11
287.65943429375187
 21
131.86774338997679
 31
0.0
  0
LINE
  5
39B
  8
LAYER_1
 10
287.65943429375187
 20
131.86774338997679
 30
0.0
 11
287.62211223424049
 21
131.83771724768619
 31
0.0
  0
LINE
  5
39C
  8
LAYER_1
 10
287.62211223424049
 20
131.83771724768619
 30
0.0
 11
287.63958527897768
 21
131.81243715404401
 31
0.0
  0
LINE
  5
39D
  8
LAYER_1
 10
287.63958527897768
 20
131.81243715404401
 30
0.0
 11
287.75095967428751
 21
131.78593956748369
 31
0.0
  0
LINE
  5
39E
  8
LAYER_1
 10
287.75095967428751
 20
131.78593956748369
 30
0.0
 11
287.81713020105917
 21
131.77320048381929
 31
0.0
  0
LINE
  5
39F
  8
LAYER_1
 10
287.81713020105917
 20
131.77320048381929
 30
0.0
 11
287.87558123765342
 21
131.74446893081949
 31
0.0
  0
LINE
  5
3A0
  8
LAYER_1
 10
287.87558123765342
 20
131.74446893081949
 30
0.0
 11
287.92134133772799
 21
131.72052080652719
 31
0.0
  0
LINE
  5
3A1
  8
LAYER_1
 10
287.92134133772799
 20
131.72052080652719
 30
0.0
 11
287.9749513518837
 21
131.72449731351421
 31
0.0
  0
LINE
  5
3A2
  8
LAYER_1
 10
287.9749513518837
 20
131.72449731351421
 30
0.0
 11
288.17545230303477
 21
131.83796550003831
 31
0.0
  0
LINE
  5
3A3
  8
LAYER_1
 10
288.17545230303477
 20
131.83796550003831
 30
0.0
 11
288.17545230303477
 21
131.83796550003831
 31
0.0
  0
LINE
  5
3A4
  8
LAYER_1
 10
286.82378142678959
 20
131.97423816386959
 30
0.0
 11
286.9031205016056
 21
132.05709309738509
 31
0.0
  0
LINE
  5
3A5
  8
LAYER_1
 10
286.9031205016056
 20
132.05709309738509
 30
0.0
 11
286.91961455445789
 21
132.17713194671381
 31
0.0
  0
LINE
  5
3A6
  8
LAYER_1
 10
286.91961455445789
 20
132.17713194671381
 30
0.0
 11
286.91196251090798
 21
132.25970429510531
 31
0.0
  0
LINE
  5
3A7
  8
LAYER_1
 10
286.91196251090798
 20
132.25970429510531
 30
0.0
 11
286.86023886926989
 21
132.3511301309168
 31
0.0
  0
LINE
  5
3A8
  8
LAYER_1
 10
286.86023886926989
 20
132.3511301309168
 30
0.0
 11
286.45197060843452
 21
132.78484842245899
 31
0.0
  0
LINE
  5
3A9
  8
LAYER_1
 10
286.45197060843452
 20
132.78484842245899
 30
0.0
 11
286.17899805107072
 21
133.06829846830911
 31
0.0
  0
LINE
  5
3AA
  8
LAYER_1
 10
286.17899805107072
 20
133.06829846830911
 30
0.0
 11
286.00718903818051
 21
133.2691694617352
 31
0.0
  0
LINE
  5
3AB
  8
LAYER_1
 10
286.00718903818051
 20
133.2691694617352
 30
0.0
 11
285.87618899427042
 21
133.4669105862078
 31
0.0
  0
LINE
  5
3AC
  8
LAYER_1
 10
285.87618899427042
 20
133.4669105862078
 30
0.0
 11
285.72564375014861
 21
133.74097132992611
 31
0.0
  0
LINE
  5
3AD
  8
LAYER_1
 10
285.72564375014861
 20
133.74097132992611
 30
0.0
 11
285.69163338107512
 21
133.8382398315668
 31
0.0
  0
LINE
  5
3AE
  8
LAYER_1
 10
285.69163338107512
 20
133.8382398315668
 30
0.0
 11
285.66736559632773
 21
133.96415882836061
 31
0.0
  0
LINE
  5
3AF
  8
LAYER_1
 10
285.66736559632773
 20
133.96415882836061
 30
0.0
 11
285.64608496590358
 21
134.0674087489864
 31
0.0
  0
LINE
  5
3B0
  8
LAYER_1
 10
285.64608496590358
 20
134.0674087489864
 30
0.0
 11
285.6183159494376
 21
134.09992838503209
 31
0.0
  0
LINE
  5
3B1
  8
LAYER_1
 10
285.6183159494376
 20
134.09992838503209
 30
0.0
 11
285.57180499773528
 21
134.0468049211085
 31
0.0
  0
LINE
  5
3B2
  8
LAYER_1
 10
285.57180499773528
 20
134.0468049211085
 30
0.0
 11
285.53024121564982
 21
133.93427661961491
 31
0.0
  0
LINE
  5
3B3
  8
LAYER_1
 10
285.53024121564982
 20
133.93427661961491
 30
0.0
 11
285.50009074403249
 21
133.78587158705341
 31
0.0
  0
LINE
  5
3B4
  8
LAYER_1
 10
285.50009074403249
 20
133.78587158705341
 30
0.0
 11
285.48781992687441
 21
133.62511792992851
 31
0.0
  0
LINE
  5
3B5
  8
LAYER_1
 10
285.48781992687441
 20
133.62511792992851
 30
0.0
 11
285.5065112771415
 21
133.42636195715411
 31
0.0
  0
LINE
  5
3B6
  8
LAYER_1
 10
285.5065112771415
 20
133.42636195715411
 30
0.0
 11
285.57664317603911
 21
133.24368255884971
 31
0.0
  0
LINE
  5
3B7
  8
LAYER_1
 10
285.57664317603911
 20
133.24368255884971
 30
0.0
 11
285.71449931201272
 21
133.0474113442738
 31
0.0
  0
LINE
  5
3B8
  8
LAYER_1
 10
285.71449931201272
 20
133.0474113442738
 30
0.0
 11
285.93636337350188
 21
132.80787982110641
 31
0.0
  0
LINE
  5
3B9
  8
LAYER_1
 10
285.93636337350188
 20
132.80787982110641
 30
0.0
 11
286.15336264370831
 21
132.57489366825769
 31
0.0
  0
LINE
  5
3BA
  8
LAYER_1
 10
286.15336264370831
 20
132.57489366825769
 30
0.0
 11
286.18247917069061
 21
132.52146456140201
 31
0.0
  0
LINE
  5
3BB
  8
LAYER_1
 10
286.18247917069061
 20
132.52146456140201
 30
0.0
 11
286.17443920744881
 21
132.488958841303
 31
0.0
  0
LINE
  5
3BC
  8
LAYER_1
 10
286.17443920744881
 20
132.488958841303
 30
0.0
 11
286.12177334452662
 21
132.45806889459311
 31
0.0
  0
LINE
  5
3BD
  8
LAYER_1
 10
286.12177334452662
 20
132.45806889459311
 30
0.0
 11
286.04049223340951
 21
132.4474001380317
 31
0.0
  0
LINE
  5
3BE
  8
LAYER_1
 10
286.04049223340951
 20
132.4474001380317
 30
0.0
 11
285.94365085989358
 21
132.45702895695811
 31
0.0
  0
LINE
  5
3BF
  8
LAYER_1
 10
285.94365085989358
 20
132.45702895695811
 30
0.0
 11
285.8443045145101
 21
132.4870313304065
 31
0.0
  0
LINE
  5
3C0
  8
LAYER_1
 10
285.8443045145101
 20
132.4870313304065
 30
0.0
 11
285.76333798503418
 21
132.51072917082149
 31
0.0
  0
LINE
  5
3C1
  8
LAYER_1
 10
285.76333798503418
 20
132.51072917082149
 30
0.0
 11
285.740934124452
 21
132.50676078993439
 31
0.0
  0
LINE
  5
3C2
  8
LAYER_1
 10
285.740934124452
 20
132.50676078993439
 30
0.0
 11
285.73046486364251
 21
132.49170668198491
 31
0.0
  0
LINE
  5
3C3
  8
LAYER_1
 10
285.73046486364251
 20
132.49170668198491
 30
0.0
 11
285.7449756402379
 21
132.42671809644261
 31
0.0
  0
LINE
  5
3C4
  8
LAYER_1
 10
285.7449756402379
 20
132.42671809644261
 30
0.0
 11
285.80616090629798
 21
132.3125176467407
 31
0.0
  0
LINE
  5
3C5
  8
LAYER_1
 10
285.80616090629798
 20
132.3125176467407
 30
0.0
 11
285.96064040168829
 21
132.10021079292329
 31
0.0
  0
LINE
  5
3C6
  8
LAYER_1
 10
285.96064040168829
 20
132.10021079292329
 30
0.0
 11
286.04204279484549
 21
132.0229990294844
 31
0.0
  0
LINE
  5
3C7
  8
LAYER_1
 10
286.04204279484549
 20
132.0229990294844
 30
0.0
 11
286.12848469043581
 21
131.96380435317181
 31
0.0
  0
LINE
  5
3C8
  8
LAYER_1
 10
286.12848469043581
 20
131.96380435317181
 30
0.0
 11
286.22166424018019
 21
131.92166879838359
 31
0.0
  0
LINE
  5
3C9
  8
LAYER_1
 10
286.22166424018019
 20
131.92166879838359
 30
0.0
 11
286.32327959581249
 21
131.89563419636531
 31
0.0
  0
LINE
  5
3CA
  8
LAYER_1
 10
286.32327959581249
 20
131.89563419636531
 30
0.0
 11
286.55861094109292
 21
131.88803619138099
 31
0.0
  0
LINE
  5
3CB
  8
LAYER_1
 10
286.55861094109292
 20
131.88803619138099
 30
0.0
 11
286.71130523391111
 21
131.91472535074661
 31
0.0
  0
LINE
  5
3CC
  8
LAYER_1
 10
286.71130523391111
 20
131.91472535074661
 30
0.0
 11
286.82378142678959
 21
131.97423816386959
 31
0.0
  0
LINE
  5
3CD
  8
LAYER_1
 10
286.82378142678959
 20
131.97423816386959
 30
0.0
 11
286.82378142678959
 21
131.97423816386959
 31
0.0
  0
LINE
  5
3CE
  8
LAYER_1
 10
286.62977810512029
 20
133.88962786527949
 30
0.0
 11
286.63857542087169
 21
133.9290506231911
 31
0.0
  0
LINE
  5
3CF
  8
LAYER_1
 10
286.63857542087169
 20
133.9290506231911
 30
0.0
 11
286.62546741227459
 21
134.01101595192031
 31
0.0
  0
LINE
  5
3D0
  8
LAYER_1
 10
286.62546741227459
 20
134.01101595192031
 30
0.0
 11
286.52120762058189
 21
134.35546781712469
 31
0.0
  0
LINE
  5
3D1
  8
LAYER_1
 10
286.52120762058189
 20
134.35546781712469
 30
0.0
 11
286.42225488316001
 21
134.68854466610989
 31
0.0
  0
LINE
  5
3D2
  8
LAYER_1
 10
286.42225488316001
 20
134.68854466610989
 30
0.0
 11
286.36680390107159
 21
134.96506314874381
 31
0.0
  0
LINE
  5
3D3
  8
LAYER_1
 10
286.36680390107159
 20
134.96506314874381
 30
0.0
 11
286.35233700541812
 21
135.20356814234071
 31
0.0
  0
LINE
  5
3D4
  8
LAYER_1
 10
286.35233700541812
 20
135.20356814234071
 30
0.0
 11
286.37633683202029
 21
135.42260421948811
 31
0.0
  0
LINE
  5
3D5
  8
LAYER_1
 10
286.37633683202029
 20
135.42260421948811
 30
0.0
 11
286.39595486240461
 21
135.55366815485809
 31
0.0
  0
LINE
  5
3D6
  8
LAYER_1
 10
286.39595486240461
 20
135.55366815485809
 30
0.0
 11
286.3938684862548
 21
135.61842758438331
 31
0.0
  0
LINE
  5
3D7
  8
LAYER_1
 10
286.3938684862548
 20
135.61842758438331
 30
0.0
 11
286.3611237572419
 21
135.6202423456439
 31
0.0
  0
LINE
  5
3D8
  8
LAYER_1
 10
286.3611237572419
 20
135.6202423456439
 30
0.0
 11
286.31459767067651
 21
135.57766381683521
 31
0.0
  0
LINE
  5
3D9
  8
LAYER_1
 10
286.31459767067651
 20
135.57766381683521
 30
0.0
 11
286.19019632461561
 21
135.37144676386001
 31
0.0
  0
LINE
  5
3DA
  8
LAYER_1
 10
286.19019632461561
 20
135.37144676386001
 30
0.0
 11
286.09217057204131
 21
135.15823649088509
 31
0.0
  0
LINE
  5
3DB
  8
LAYER_1
 10
286.09217057204131
 20
135.15823649088509
 30
0.0
 11
286.03130608377398
 21
134.97554683337981
 31
0.0
  0
LINE
  5
3DC
  8
LAYER_1
 10
286.03130608377398
 20
134.97554683337981
 30
0.0
 11
286.00000871473088
 21
134.7933084791477
 31
0.0
  0
LINE
  5
3DD
  8
LAYER_1
 10
286.00000871473088
 20
134.7933084791477
 30
0.0
 11
285.99068462455222
 21
134.5814521159933
 31
0.0
  0
LINE
  5
3DE
  8
LAYER_1
 10
285.99068462455222
 20
134.5814521159933
 30
0.0
 11
286.00173276840172
 21
134.32115891545729
 31
0.0
  0
LINE
  5
3DF
  8
LAYER_1
 10
286.00173276840172
 20
134.32115891545729
 30
0.0
 11
286.02450738229157
 21
134.24851097287601
 31
0.0
  0
LINE
  5
3E0
  8
LAYER_1
 10
286.02450738229157
 20
134.24851097287601
 30
0.0
 11
286.06578756348767
 21
134.17641560508861
 31
0.0
  0
LINE
  5
3E1
  8
LAYER_1
 10
286.06578756348767
 20
134.17641560508861
 30
0.0
 11
286.12343736663303
 21
134.09985037447279
 31
0.0
  0
LINE
  5
3E2
  8
LAYER_1
 10
286.12343736663303
 20
134.09985037447279
 30
0.0
 11
286.1950102261975
 21
134.0326143128498
 31
0.0
  0
LINE
  5
3E3
  8
LAYER_1
 10
286.1950102261975
 20
134.0326143128498
 30
0.0
 11
286.41867746925487
 21
133.8952545800044
 31
0.0
  0
LINE
  5
3E4
  8
LAYER_1
 10
286.41867746925487
 20
133.8952545800044
 30
0.0
 11
286.54786742441098
 21
133.85270977450941
 31
0.0
  0
LINE
  5
3E5
  8
LAYER_1
 10
286.54786742441098
 20
133.85270977450941
 30
0.0
 11
286.59375266642343
 21
133.86126208835171
 31
0.0
  0
LINE
  5
3E6
  8
LAYER_1
 10
286.59375266642343
 20
133.86126208835171
 30
0.0
 11
286.62977810512029
 21
133.88962786527949
 31
0.0
  0
LINE
  5
3E7
  8
LAYER_1
 10
286.62977810512029
 20
133.88962786527949
 30
0.0
 11
286.62977810512029
 21
133.88962786527949
 31
0.0
  0
LINE
  5
3E8
  8
LAYER_1
 10
287.49181306644641
 20
134.09273465351731
 30
0.0
 11
287.51919233484728
 21
134.14595563063881
 31
0.0
  0
LINE
  5
3E9
  8
LAYER_1
 10
287.51919233484728
 20
134.14595563063881
 30
0.0
 11
287.51155461354801
 21
134.1934887441347
 31
0.0
  0
LINE
  5
3EA
  8
LAYER_1
 10
287.51155461354801
 20
134.1934887441347
 30
0.0
 11
287.47089069545251
 21
134.2317962964118
 31
0.0
  0
LINE
  5
3EB
  8
LAYER_1
 10
287.47089069545251
 20
134.2317962964118
 30
0.0
 11
287.39919117030757
 21
134.25734038672431
 31
0.0
  0
LINE
  5
3EC
  8
LAYER_1
 10
287.39919117030757
 20
134.25734038672431
 30
0.0
 11
287.27530359691212
 21
134.2939960044674
 31
0.0
  0
LINE
  5
3ED
  8
LAYER_1
 10
287.27530359691212
 20
134.2939960044674
 30
0.0
 11
287.15975411304993
 21
134.35064294530821
 31
0.0
  0
LINE
  5
3EE
  8
LAYER_1
 10
287.15975411304993
 20
134.35064294530821
 30
0.0
 11
287.05295674351368
 21
134.4270333631992
 31
0.0
  0
LINE
  5
3EF
  8
LAYER_1
 10
287.05295674351368
 20
134.4270333631992
 30
0.0
 11
286.95532571623937
 21
134.52291941209381
 31
0.0
  0
LINE
  5
3F0
  8
LAYER_1
 10
286.95532571623937
 20
134.52291941209381
 30
0.0
 11
286.82483345199819
 21
134.6531197461974
 31
0.0
  0
LINE
  5
3F1
  8
LAYER_1
 10
286.82483345199819
 20
134.6531197461974
 30
0.0
 11
286.81591140060942
 21
134.64001488646161
 31
0.0
  0
LINE
  5
3F2
  8
LAYER_1
 10
286.81591140060942
 20
134.64001488646161
 30
0.0
 11
286.82098604842241
 21
134.6043493324155
 31
0.0
  0
LINE
  5
3F3
  8
LAYER_1
 10
286.82098604842241
 20
134.6043493324155
 30
0.0
 11
286.86359708163178
 21
134.48723140969651
 31
0.0
  0
LINE
  5
3F4
  8
LAYER_1
 10
286.86359708163178
 20
134.48723140969651
 30
0.0
 11
286.93360973001489
 21
134.3455561083459
 31
0.0
  0
LINE
  5
3F5
  8
LAYER_1
 10
286.93360973001489
 20
134.3455561083459
 30
0.0
 11
287.01196696881021
 21
134.2231136602426
 31
0.0
  0
LINE
  5
3F6
  8
LAYER_1
 10
287.01196696881021
 20
134.2231136602426
 30
0.0
 11
287.12468003750058
 21
134.12600290651631
 31
0.0
  0
LINE
  5
3F7
  8
LAYER_1
 10
287.12468003750058
 20
134.12600290651631
 30
0.0
 11
287.26542307204181
 21
134.06559977757209
 31
0.0
  0
LINE
  5
3F8
  8
LAYER_1
 10
287.26542307204181
 20
134.06559977757209
 30
0.0
 11
287.39939960476948
 21
134.05135888907009
 31
0.0
  0
LINE
  5
3F9
  8
LAYER_1
 10
287.39939960476948
 20
134.05135888907009
 30
0.0
 11
287.45297650506723
 21
134.0645037698481
 31
0.0
  0
LINE
  5
3FA
  8
LAYER_1
 10
287.45297650506723
 20
134.0645037698481
 30
0.0
 11
287.49181306644641
 21
134.09273465351731
 31
0.0
  0
LINE
  5
3FB
  8
LAYER_1
 10
287.49181306644641
 20
134.09273465351731
 30
0.0
 11
287.49181306644641
 21
134.09273465351731
 31
0.0
  0
LINE
  5
3FC
  8
LAYER_1
 10
299.9989673767451
 20
121.45658399239311
 30
0.0
 11
299.96866890853022
 21
121.48117052340869
 31
0.0
  0
LINE
  5
3FD
  8
LAYER_1
 10
299.96866890853022
 20
121.48117052340869
 30
0.0
 11
299.96998025790299
 21
121.51934145563111
 31
0.0
  0
LINE
  5
3FE
  8
LAYER_1
 10
299.96998025790299
 20
121.51934145563111
 30
0.0
 11
300.07063500694971
 21
121.6448498812274
 31
0.0
  0
LINE
  5
3FF
  8
LAYER_1
 10
300.07063500694971
 20
121.6448498812274
 30
0.0
 11
300.2291524629569
 21
121.77292849064661
 31
0.0
  0
LINE
  5
400
  8
LAYER_1
 10
300.2291524629569
 20
121.77292849064661
 30
0.0
 11
300.42257629212742
 21
121.86303241315591
 31
0.0
  0
LINE
  5
401
  8
LAYER_1
 10
300.42257629212742
 20
121.86303241315591
 30
0.0
 11
300.6998249048375
 21
121.9316588504721
 31
0.0
  0
LINE
  5
402
  8
LAYER_1
 10
300.6998249048375
 20
121.9316588504721
 30
0.0
 11
301.10981650831008
 21
121.9953051058871
 31
0.0
  0
LINE
  5
403
  8
LAYER_1
 10
301.10981650831008
 20
121.9953051058871
 30
0.0
 11
301.48927114253809
 21
122.0603521993481
 31
0.0
  0
LINE
  5
404
  8
LAYER_1
 10
301.48927114253809
 20
122.0603521993481
 30
0.0
 11
301.76872964811662
 21
122.15089462652389
 31
0.0
  0
LINE
  5
405
  8
LAYER_1
 10
301.76872964811662
 20
122.15089462652389
 30
0.0
 11
301.88824019937402
 21
122.213505007354
 31
0.0
  0
LINE
  5
406
  8
LAYER_1
 10
301.88824019937402
 20
122.213505007354
 30
0.0
 11
302.00348759547131
 21
122.2918233424469
 31
0.0
  0
LINE
  5
407
  8
LAYER_1
 10
302.00348759547131
 20
122.2918233424469
 30
0.0
 11
302.2488407581863
 21
122.5080295053029
 31
0.0
  0
LINE
  5
408
  8
LAYER_1
 10
302.2488407581863
 20
122.5080295053029
 30
0.0
 11
302.44273072076089
 21
122.71116128129751
 31
0.0
  0
LINE
  5
409
  8
LAYER_1
 10
302.44273072076089
 20
122.71116128129751
 30
0.0
 11
302.58520563034227
 21
122.8962334097185
 31
0.0
  0
LINE
  5
40A
  8
LAYER_1
 10
302.58520563034227
 20
122.8962334097185
 30
0.0
 11
302.68623011693512
 21
123.07826901775751
 31
0.0
  0
LINE
  5
40B
  8
LAYER_1
 10
302.68623011693512
 20
123.07826901775751
 30
0.0
 11
302.75576870896532
 21
123.2722911310336
 31
0.0
  0
LINE
  5
40C
  8
LAYER_1
 10
302.75576870896532
 20
123.2722911310336
 30
0.0
 11
302.84414045170348
 21
123.5302948029223
 31
0.0
  0
LINE
  5
40D
  8
LAYER_1
 10
302.84414045170348
 20
123.5302948029223
 30
0.0
 11
302.88998750104628
 21
123.70482585612601
 31
0.0
  0
LINE
  5
40E
  8
LAYER_1
 10
302.88998750104628
 20
123.70482585612601
 30
0.0
 11
302.93245825745601
 21
124.0187574105896
 31
0.0
  0
LINE
  5
40F
  8
LAYER_1
 10
302.93245825745601
 20
124.0187574105896
 30
0.0
 11
302.96695893507962
 21
124.4288792348129
 31
0.0
  0
LINE
  5
410
  8
LAYER_1
 10
302.96695893507962
 20
124.4288792348129
 30
0.0
 11
302.98889625595228
 21
124.8919808941439
 31
0.0
  0
LINE
  5
411
  8
LAYER_1
 10
302.98889625595228
 20
124.8919808941439
 30
0.0
 11
303.02782616590463
 21
125.67072444881551
 31
0.0
  0
LINE
  5
412
  8
LAYER_1
 10
303.02782616590463
 20
125.67072444881551
 30
0.0
 11
303.09177562642168
 21
126.2033507842298
 31
0.0
  0
LINE
  5
413
  8
LAYER_1
 10
303.09177562642168
 20
126.2033507842298
 30
0.0
 11
303.1335615557611
 21
126.3796664305487
 31
0.0
  0
LINE
  5
414
  8
LAYER_1
 10
303.1335615557611
 20
126.3796664305487
 30
0.0
 11
303.18211672947371
 21
126.4972084341059
 31
0.0
  0
LINE
  5
415
  8
LAYER_1
 10
303.18211672947371
 20
126.4972084341059
 30
0.0
 11
303.23761270983942
 21
126.55689534891999
 31
0.0
  0
LINE
  5
416
  8
LAYER_1
 10
303.23761270983942
 20
126.55689534891999
 30
0.0
 11
303.30022095756829
 21
126.5596457290077
 31
0.0
  0
LINE
  5
417
  8
LAYER_1
 10
303.30022095756829
 20
126.5596457290077
 30
0.0
 11
303.3216596406329
 21
126.5452780733475
 31
0.0
  0
LINE
  5
418
  8
LAYER_1
 10
303.3216596406329
 20
126.5452780733475
 30
0.0
 11
303.33211955642793
 21
126.5189193415185
 31
0.0
  0
LINE
  5
419
  8
LAYER_1
 10
303.33211955642793
 20
126.5189193415185
 30
0.0
 11
303.32394409046839
 21
126.40522372577379
 31
0.0
  0
LINE
  5
41A
  8
LAYER_1
 10
303.32394409046839
 20
126.40522372577379
 30
0.0
 11
303.30562166513818
 21
126.1525639803338
 31
0.0
  0
LINE
  5
41B
  8
LAYER_1
 10
303.30562166513818
 20
126.1525639803338
 30
0.0
 11
303.30673372190859
 21
125.80427710385661
 31
0.0
  0
LINE
  5
41C
  8
LAYER_1
 10
303.30673372190859
 20
125.80427710385661
 30
0.0
 11
303.32571618970428
 21
125.4175701286195
 31
0.0
  0
LINE
  5
41D
  8
LAYER_1
 10
303.32571618970428
 20
125.4175701286195
 30
0.0
 11
303.36100520059642
 21
125.04964978216999
 31
0.0
  0
LINE
  5
41E
  8
LAYER_1
 10
303.36100520059642
 20
125.04964978216999
 30
0.0
 11
303.3987130466993
 21
124.66924703523679
 31
0.0
  0
LINE
  5
41F
  8
LAYER_1
 10
303.3987130466993
 20
124.66924703523679
 30
0.0
 11
303.41488378235249
 21
124.3022757156785
 31
0.0
  0
LINE
  5
420
  8
LAYER_1
 10
303.41488378235249
 20
124.3022757156785
 30
0.0
 11
303.40932745996793
 21
123.96140309275221
 31
0.0
  0
LINE
  5
421
  8
LAYER_1
 10
303.40932745996793
 20
123.96140309275221
 30
0.0
 11
303.38185392881002
 21
123.6592966388661
 31
0.0
  0
LINE
  5
422
  8
LAYER_1
 10
303.38185392881002
 20
123.6592966388661
 30
0.0
 11
303.33668022842051
 21
123.4219294008316
 31
0.0
  0
LINE
  5
423
  8
LAYER_1
 10
303.33668022842051
 20
123.4219294008316
 30
0.0
 11
303.26858219074978
 21
123.1931642490013
 31
0.0
  0
LINE
  5
424
  8
LAYER_1
 10
303.26858219074978
 20
123.1931642490013
 30
0.0
 11
303.17875404775788
 21
122.9749755209214
 31
0.0
  0
LINE
  5
425
  8
LAYER_1
 10
303.17875404775788
 20
122.9749755209214
 30
0.0
 11
303.06839043769969
 21
122.7693370462587
 31
0.0
  0
LINE
  5
426
  8
LAYER_1
 10
303.06839043769969
 20
122.7693370462587
 30
0.0
 11
302.93868579568988
 21
122.5782231625609
 31
0.0
  0
LINE
  5
427
  8
LAYER_1
 10
302.93868579568988
 20
122.5782231625609
 30
0.0
 11
302.79083455683832
 21
122.4036075979181
 31
0.0
  0
LINE
  5
428
  8
LAYER_1
 10
302.79083455683832
 20
122.4036075979181
 30
0.0
 11
302.62603115625012
 21
122.24746479145399
 31
0.0
  0
LINE
  5
429
  8
LAYER_1
 10
302.62603115625012
 20
122.24746479145399
 30
0.0
 11
302.44547023219133
 21
122.11176857283439
 31
0.0
  0
LINE
  5
42A
  8
LAYER_1
 10
302.44547023219133
 20
122.11176857283439
 30
0.0
 11
302.24754566101183
 21
121.9969631349953
 31
0.0
  0
LINE
  5
42B
  8
LAYER_1
 10
302.24754566101183
 20
121.9969631349953
 30
0.0
 11
302.00959456269982
 21
121.9150402651391
 31
0.0
  0
LINE
  5
42C
  8
LAYER_1
 10
302.00959456269982
 20
121.9150402651391
 30
0.0
 11
301.63533656936102
 21
121.84156041307961
 31
0.0
  0
LINE
  5
42D
  8
LAYER_1
 10
301.63533656936102
 20
121.84156041307961
 30
0.0
 11
301.02849141467738
 21
121.7520836223304
 31
0.0
  0
LINE
  5
42E
  8
LAYER_1
 10
301.02849141467738
 20
121.7520836223304
 30
0.0
 11
300.74883889846308
 21
121.70947004971561
 31
0.0
  0
LINE
  5
42F
  8
LAYER_1
 10
300.74883889846308
 20
121.70947004971561
 30
0.0
 11
300.55553025675943
 21
121.6668720182669
 31
0.0
  0
LINE
  5
430
  8
LAYER_1
 10
300.55553025675943
 20
121.6668720182669
 30
0.0
 11
300.39586041820849
 21
121.609338418351
 31
0.0
  0
LINE
  5
431
  8
LAYER_1
 10
300.39586041820849
 20
121.609338418351
 30
0.0
 11
300.2171244130339
 21
121.5219179371816
 31
0.0
  0
LINE
  5
432
  8
LAYER_1
 10
300.2171244130339
 20
121.5219179371816
 30
0.0
 11
300.04512189739143
 21
121.4398615961338
 31
0.0
  0
LINE
  5
433
  8
LAYER_1
 10
300.04512189739143
 20
121.4398615961338
 30
0.0
 11
299.9989673767451
 21
121.45658399239311
 31
0.0
  0
LINE
  5
434
  8
LAYER_1
 10
299.9989673767451
 20
121.45658399239311
 30
0.0
 11
299.9989673767451
 21
121.45658399239311
 31
0.0
  0
LINE
  5
435
  8
LAYER_1
 10
300.45091271351993
 20
122.3016695345452
 30
0.0
 11
300.45900437907301
 21
122.34364195787811
 31
0.0
  0
LINE
  5
436
  8
LAYER_1
 10
300.45900437907301
 20
122.34364195787811
 30
0.0
 11
300.49509198243408
 21
122.3940937633059
 31
0.0
  0
LINE
  5
437
  8
LAYER_1
 10
300.49509198243408
 20
122.3940937633059
 30
0.0
 11
300.72818153990289
 21
122.6044363356251
 31
0.0
  0
LINE
  5
438
  8
LAYER_1
 10
300.72818153990289
 20
122.6044363356251
 30
0.0
 11
300.92379911131889
 21
122.7810342623393
 31
0.0
  0
LINE
  5
439
  8
LAYER_1
 10
300.92379911131889
 20
122.7810342623393
 30
0.0
 11
301.08292389171947
 21
122.94802845945959
 31
0.0
  0
LINE
  5
43A
  8
LAYER_1
 10
301.08292389171947
 20
122.94802845945959
 30
0.0
 11
301.22858331827553
 21
123.13193022634169
 31
0.0
  0
LINE
  5
43B
  8
LAYER_1
 10
301.22858331827553
 20
123.13193022634169
 30
0.0
 11
301.38380523446818
 21
123.3592512686439
 31
0.0
  0
LINE
  5
43C
  8
LAYER_1
 10
301.38380523446818
 20
123.3592512686439
 30
0.0
 11
301.624097868467
 21
123.7610574516855
 31
0.0
  0
LINE
  5
43D
  8
LAYER_1
 10
301.624097868467
 20
123.7610574516855
 30
0.0
 11
301.81288331981438
 21
124.15507253329309
 31
0.0
  0
LINE
  5
43E
  8
LAYER_1
 10
301.81288331981438
 20
124.15507253329309
 30
0.0
 11
301.96223758242019
 21
124.5701932294473
 31
0.0
  0
LINE
  5
43F
  8
LAYER_1
 10
301.96223758242019
 20
124.5701932294473
 30
0.0
 11
302.08423644704533
 21
125.0353162561284
 31
0.0
  0
LINE
  5
440
  8
LAYER_1
 10
302.08423644704533
 20
125.0353162561284
 30
0.0
 11
302.1706349695761
 21
125.3936546103031
 31
0.0
  0
LINE
  5
441
  8
LAYER_1
 10
302.1706349695761
 20
125.3936546103031
 30
0.0
 11
302.25684984224739
 21
125.7233260139716
 31
0.0
  0
LINE
  5
442
  8
LAYER_1
 10
302.25684984224739
 20
125.7233260139716
 30
0.0
 11
302.33980218738537
 21
126.0098390916036
 31
0.0
  0
LINE
  5
443
  8
LAYER_1
 10
302.33980218738537
 20
126.0098390916036
 30
0.0
 11
302.43594623995239
 21
126.23805166864121
 31
0.0
  0
LINE
  5
444
  8
LAYER_1
 10
302.43594623995239
 20
126.23805166864121
 30
0.0
 11
302.5641824957105
 21
126.4445845221739
 31
0.0
  0
LINE
  5
445
  8
LAYER_1
 10
302.5641824957105
 20
126.4445845221739
 30
0.0
 11
302.74341175514928
 21
126.6660582261392
 31
0.0
  0
LINE
  5
446
  8
LAYER_1
 10
302.74341175514928
 20
126.6660582261392
 30
0.0
 11
303.01273792833462
 21
127.01541297371961
 31
0.0
  0
LINE
  5
447
  8
LAYER_1
 10
303.01273792833462
 20
127.01541297371961
 30
0.0
 11
303.1145001632209
 21
127.1785941000376
 31
0.0
  0
LINE
  5
448
  8
LAYER_1
 10
303.1145001632209
 20
127.1785941000376
 30
0.0
 11
303.1809894362641
 21
127.3143486234241
 31
0.0
  0
LINE
  5
449
  8
LAYER_1
 10
303.1809894362641
 20
127.3143486234241
 30
0.0
 11
303.22042590696901
 21
127.5202251928133
 31
0.0
  0
LINE
  5
44A
  8
LAYER_1
 10
303.22042590696901
 20
127.5202251928133
 30
0.0
 11
303.23502078869899
 21
127.8046675370378
 31
0.0
  0
LINE
  5
44B
  8
LAYER_1
 10
303.23502078869899
 20
127.8046675370378
 30
0.0
 11
303.2240937237371
 21
128.066372241126
 31
0.0
  0
LINE
  5
44C
  8
LAYER_1
 10
303.2240937237371
 20
128.066372241126
 30
0.0
 11
303.20884692564312
 21
128.1570408260032
 31
0.0
  0
LINE
  5
44D
  8
LAYER_1
 10
303.20884692564312
 20
128.1570408260032
 30
0.0
 11
303.18696455752149
 21
128.20403619483699
 31
0.0
  0
LINE
  5
44E
  8
LAYER_1
 10
303.18696455752149
 20
128.20403619483699
 30
0.0
 11
303.14935270097158
 21
128.2241576371093
 31
0.0
  0
LINE
  5
44F
  8
LAYER_1
 10
303.14935270097158
 20
128.2241576371093
 30
0.0
 11
303.11750814067608
 21
128.20962644368859
 31
0.0
  0
LINE
  5
450
  8
LAYER_1
 10
303.11750814067608
 20
128.20962644368859
 30
0.0
 11
303.04724916989068
 21
128.0503462516283
 31
0.0
  0
LINE
  5
451
  8
LAYER_1
 10
303.04724916989068
 20
128.0503462516283
 30
0.0
 11
302.91524423214969
 21
127.73651871124321
 31
0.0
  0
LINE
  5
452
  8
LAYER_1
 10
302.91524423214969
 20
127.73651871124321
 30
0.0
 11
302.73713251460168
 21
127.3859151852609
 31
0.0
  0
LINE
  5
453
  8
LAYER_1
 10
302.73713251460168
 20
127.3859151852609
 30
0.0
 11
302.57941415894339
 21
127.1452035492356
 31
0.0
  0
LINE
  5
454
  8
LAYER_1
 10
302.57941415894339
 20
127.1452035492356
 30
0.0
 11
302.3720246113287
 21
126.9147781336183
 31
0.0
  0
LINE
  5
455
  8
LAYER_1
 10
302.3720246113287
 20
126.9147781336183
 30
0.0
 11
302.16184151371971
 21
126.6882616767824
 31
0.0
  0
LINE
  5
456
  8
LAYER_1
 10
302.16184151371971
 20
126.6882616767824
 30
0.0
 11
302.00492083634322
 21
126.4798597186961
 31
0.0
  0
LINE
  5
457
  8
LAYER_1
 10
302.00492083634322
 20
126.4798597186961
 30
0.0
 11
301.89522569957802
 21
126.2803355247527
 31
0.0
  0
LINE
  5
458
  8
LAYER_1
 10
301.89522569957802
 20
126.2803355247527
 30
0.0
 11
301.82671932538869
 21
126.0804526650746
 31
0.0
  0
LINE
  5
459
  8
LAYER_1
 10
301.82671932538869
 20
126.0804526650746
 30
0.0
 11
301.79780209100738
 21
125.8542664326238
 31
0.0
  0
LINE
  5
45A
  8
LAYER_1
 10
301.79780209100738
 20
125.8542664326238
 30
0.0
 11
301.77237999376717
 21
125.489906943151
 31
0.0
  0
LINE
  5
45B
  8
LAYER_1
 10
301.77237999376717
 20
125.489906943151
 30
0.0
 11
301.73984471498022
 21
125.0670178986427
 31
0.0
  0
LINE
  5
45C
  8
LAYER_1
 10
301.73984471498022
 20
125.0670178986427
 30
0.0
 11
301.70918057227101
 21
124.96338341033881
 31
0.0
  0
LINE
  5
45D
  8
LAYER_1
 10
301.70918057227101
 20
124.96338341033881
 30
0.0
 11
301.65550321306472
 21
124.8592312894712
 31
0.0
  0
LINE
  5
45E
  8
LAYER_1
 10
301.65550321306472
 20
124.8592312894712
 30
0.0
 11
301.56380870807521
 21
124.70871926078139
 31
0.0
  0
LINE
  5
45F
  8
LAYER_1
 10
301.56380870807521
 20
124.70871926078139
 30
0.0
 11
301.45542806954791
 21
124.56074034058391
 31
0.0
  0
LINE
  5
460
  8
LAYER_1
 10
301.45542806954791
 20
124.56074034058391
 30
0.0
 11
301.12546900194172
 21
124.1930205056492
 31
0.0
  0
LINE
  5
461
  8
LAYER_1
 10
301.12546900194172
 20
124.1930205056492
 30
0.0
 11
300.9027850169731
 21
123.97421480343399
 31
0.0
  0
LINE
  5
462
  8
LAYER_1
 10
300.9027850169731
 20
123.97421480343399
 30
0.0
 11
300.73553941863702
 21
123.837926395284
 31
0.0
  0
LINE
  5
463
  8
LAYER_1
 10
300.73553941863702
 20
123.837926395284
 30
0.0
 11
300.63034360181251
 21
123.7886582578835
 31
0.0
  0
LINE
  5
464
  8
LAYER_1
 10
300.63034360181251
 20
123.7886582578835
 30
0.0
 11
300.6030805366413
 21
123.798063913791
 31
0.0
  0
LINE
  5
465
  8
LAYER_1
 10
300.6030805366413
 20
123.798063913791
 30
0.0
 11
300.59380916453409
 21
123.83091326634
 31
0.0
  0
LINE
  5
466
  8
LAYER_1
 10
300.59380916453409
 20
123.83091326634
 30
0.0
 11
300.63814039151561
 21
123.9137540807575
 31
0.0
  0
LINE
  5
467
  8
LAYER_1
 10
300.63814039151561
 20
123.9137540807575
 30
0.0
 11
300.74472414620209
 21
124.0530830723378
 31
0.0
  0
LINE
  5
468
  8
LAYER_1
 10
300.74472414620209
 20
124.0530830723378
 30
0.0
 11
300.9942888633426
 21
124.36807325446669
 31
0.0
  0
LINE
  5
469
  8
LAYER_1
 10
300.9942888633426
 20
124.36807325446669
 30
0.0
 11
301.0854394275193
 21
124.50836813459659
 31
0.0
  0
LINE
  5
46A
  8
LAYER_1
 10
301.0854394275193
 20
124.50836813459659
 30
0.0
 11
301.16283626288322
 21
124.6557456218255
 31
0.0
  0
LINE
  5
46B
  8
LAYER_1
 10
301.16283626288322
 20
124.6557456218255
 30
0.0
 11
301.3023721652828
 21
125.02739696546961
 31
0.0
  0
LINE
  5
46C
  8
LAYER_1
 10
301.3023721652828
 20
125.02739696546961
 30
0.0
 11
301.46490269572712
 21
125.5943241780279
 31
0.0
  0
LINE
  5
46D
  8
LAYER_1
 10
301.46490269572712
 20
125.5943241780279
 30
0.0
 11
301.58906868962089
 21
126.022131239773
 31
0.0
  0
LINE
  5
46E
  8
LAYER_1
 10
301.58906868962089
 20
126.022131239773
 30
0.0
 11
301.70552829667128
 21
126.3533730122483
 31
0.0
  0
LINE
  5
46F
  8
LAYER_1
 10
301.70552829667128
 20
126.3533730122483
 30
0.0
 11
301.83166293984061
 21
126.63172626666309
 31
0.0
  0
LINE
  5
470
  8
LAYER_1
 10
301.83166293984061
 20
126.63172626666309
 30
0.0
 11
301.98485434682078
 21
126.9008676726534
 31
0.0
  0
LINE
  5
471
  8
LAYER_1
 10
301.98485434682078
 20
126.9008676726534
 30
0.0
 11
302.17585141783258
 21
127.2344770859111
 31
0.0
  0
LINE
  5
472
  8
LAYER_1
 10
302.17585141783258
 20
127.2344770859111
 30
0.0
 11
302.32560243726653
 21
127.5646551519088
 31
0.0
  0
LINE
  5
473
  8
LAYER_1
 10
302.32560243726653
 20
127.5646551519088
 30
0.0
 11
302.45690710834418
 21
127.94939713461309
 31
0.0
  0
LINE
  5
474
  8
LAYER_1
 10
302.45690710834418
 20
127.94939713461309
 30
0.0
 11
302.59256472798972
 21
128.44669809483929
 31
0.0
  0
LINE
  5
475
  8
LAYER_1
 10
302.59256472798972
 20
128.44669809483929
 30
0.0
 11
302.61742033448911
 21
128.59697995174881
 31
0.0
  0
LINE
  5
476
  8
LAYER_1
 10
302.61742033448911
 20
128.59697995174881
 30
0.0
 11
302.63501730224971
 21
128.80956989857239
 31
0.0
  0
LINE
  5
477
  8
LAYER_1
 10
302.63501730224971
 20
128.80956989857239
 30
0.0
 11
302.6485583303994
 21
129.3391606277925
 31
0.0
  0
LINE
  5
478
  8
LAYER_1
 10
302.6485583303994
 20
129.3391606277925
 30
0.0
 11
302.63343413483659
 21
129.87044310943631
 31
0.0
  0
LINE
  5
479
  8
LAYER_1
 10
302.63343413483659
 20
129.87044310943631
 30
0.0
 11
302.58989093639542
 21
130.23839027201601
 31
0.0
  0
LINE
  5
47A
  8
LAYER_1
 10
302.58989093639542
 20
130.23839027201601
 30
0.0
 11
302.48972141708822
 21
130.61651771097661
 31
0.0
  0
LINE
  5
47B
  8
LAYER_1
 10
302.48972141708822
 20
130.61651771097661
 30
0.0
 11
302.46227165477131
 21
130.6905986912754
 31
0.0
  0
LINE
  5
47C
  8
LAYER_1
 10
302.46227165477131
 20
130.6905986912754
 30
0.0
 11
302.44263564539381
 21
130.71139703766971
 31
0.0
  0
LINE
  5
47D
  8
LAYER_1
 10
302.44263564539381
 20
130.71139703766971
 30
0.0
 11
302.42566723145887
 21
130.6019246576204
 31
0.0
  0
LINE
  5
47E
  8
LAYER_1
 10
302.42566723145887
 20
130.6019246576204
 30
0.0
 11
302.41697199983508
 21
130.338725055878
 31
0.0
  0
LINE
  5
47F
  8
LAYER_1
 10
302.41697199983508
 20
130.338725055878
 30
0.0
 11
302.41088291002529
 21
130.09744520231709
 31
0.0
  0
LINE
  5
480
  8
LAYER_1
 10
302.41088291002529
 20
130.09744520231709
 30
0.0
 11
302.38906514439901
 21
129.94519428982451
 31
0.0
  0
LINE
  5
481
  8
LAYER_1
 10
302.38906514439901
 20
129.94519428982451
 30
0.0
 11
302.3394122361679
 21
129.8380291126895
 31
0.0
  0
LINE
  5
482
  8
LAYER_1
 10
302.3394122361679
 20
129.8380291126895
 30
0.0
 11
302.24981751539411
 21
129.73200676992991
 31
0.0
  0
LINE
  5
483
  8
LAYER_1
 10
302.24981751539411
 20
129.73200676992991
 30
0.0
 11
302.17927799100909
 21
129.62885294043471
 31
0.0
  0
LINE
  5
484
  8
LAYER_1
 10
302.17927799100909
 20
129.62885294043471
 30
0.0
 11
302.13698793874602
 21
129.5026701501229
 31
0.0
  0
LINE
  5
485
  8
LAYER_1
 10
302.13698793874602
 20
129.5026701501229
 30
0.0
 11
302.07062472182849
 21
129.16337500634029
 31
0.0
  0
LINE
  5
486
  8
LAYER_1
 10
302.07062472182849
 20
129.16337500634029
 30
0.0
 11
301.9409655859784
 21
128.61870050890599
 31
0.0
  0
LINE
  5
487
  8
LAYER_1
 10
301.9409655859784
 20
128.61870050890599
 30
0.0
 11
301.82296933343753
 21
128.1600273708695
 31
0.0
  0
LINE
  5
488
  8
LAYER_1
 10
301.82296933343753
 20
128.1600273708695
 30
0.0
 11
301.72751325680281
 21
127.8335669955767
 31
0.0
  0
LINE
  5
489
  8
LAYER_1
 10
301.72751325680281
 20
127.8335669955767
 30
0.0
 11
301.6157251414333
 21
127.55417136569601
 31
0.0
  0
LINE
  5
48A
  8
LAYER_1
 10
301.6157251414333
 20
127.55417136569601
 30
0.0
 11
301.50506442084878
 21
127.3590816860459
 31
0.0
  0
LINE
  5
48B
  8
LAYER_1
 10
301.50506442084878
 20
127.3590816860459
 30
0.0
 11
301.45561293831912
 21
127.30478948580399
 31
0.0
  0
LINE
  5
48C
  8
LAYER_1
 10
301.45561293831912
 20
127.30478948580399
 30
0.0
 11
301.41299063014861
 21
127.2855390598649
 31
0.0
  0
LINE
  5
48D
  8
LAYER_1
 10
301.41299063014861
 20
127.2855390598649
 30
0.0
 11
301.34441559041318
 21
127.2554059577848
 31
0.0
  0
LINE
  5
48E
  8
LAYER_1
 10
301.34441559041318
 20
127.2554059577848
 30
0.0
 11
301.26159529439781
 21
127.1656293139485
 31
0.0
  0
LINE
  5
48F
  8
LAYER_1
 10
301.26159529439781
 20
127.1656293139485
 30
0.0
 11
301.16459241464759
 21
127.0162926240338
 31
0.0
  0
LINE
  5
490
  8
LAYER_1
 10
301.16459241464759
 20
127.0162926240338
 30
0.0
 11
301.05346962370919
 21
126.80747928214009
 31
0.0
  0
LINE
  5
491
  8
LAYER_1
 10
301.05346962370919
 20
126.80747928214009
 30
0.0
 11
300.88047988850309
 21
126.43258379626241
 31
0.0
  0
LINE
  5
492
  8
LAYER_1
 10
300.88047988850309
 20
126.43258379626241
 30
0.0
 11
300.75688830829893
 21
126.122888174525
 31
0.0
  0
LINE
  5
493
  8
LAYER_1
 10
300.75688830829893
 20
126.122888174525
 30
0.0
 11
300.56987536249352
 21
125.7305219801641
 31
0.0
  0
LINE
  5
494
  8
LAYER_1
 10
300.56987536249352
 20
125.7305219801641
 30
0.0
 11
300.49949968059661
 21
125.6300700788865
 31
0.0
  0
LINE
  5
495
  8
LAYER_1
 10
300.49949968059661
 20
125.6300700788865
 30
0.0
 11
300.4400532983388
 21
125.5943534319875
 31
0.0
  0
LINE
  5
496
  8
LAYER_1
 10
300.4400532983388
 20
125.5943534319875
 30
0.0
 11
300.40540188156228
 21
125.6103662165733
 31
0.0
  0
LINE
  5
497
  8
LAYER_1
 10
300.40540188156228
 20
125.6103662165733
 30
0.0
 11
300.3994794783768
 21
125.6633566156102
 31
0.0
  0
LINE
  5
498
  8
LAYER_1
 10
300.3994794783768
 20
125.6633566156102
 30
0.0
 11
300.47729328424259
 21
125.9096619540793
 31
0.0
  0
LINE
  5
499
  8
LAYER_1
 10
300.47729328424259
 20
125.9096619540793
 30
0.0
 11
300.69181815702791
 21
126.4830035035958
 31
0.0
  0
LINE
  5
49A
  8
LAYER_1
 10
300.69181815702791
 20
126.4830035035958
 30
0.0
 11
300.79328815704707
 21
126.7553407015247
 31
0.0
  0
LINE
  5
49B
  8
LAYER_1
 10
300.79328815704707
 20
126.7553407015247
 30
0.0
 11
300.97344937856877
 21
127.2835588308955
 31
0.0
  0
LINE
  5
49C
  8
LAYER_1
 10
300.97344937856877
 20
127.2835588308955
 30
0.0
 11
301.18210832456458
 21
128.05969258700671
 31
0.0
  0
LINE
  5
49D
  8
LAYER_1
 10
301.18210832456458
 20
128.05969258700671
 30
0.0
 11
301.26684038715689
 21
128.40369751671619
 31
0.0
  0
LINE
  5
49E
  8
LAYER_1
 10
301.26684038715689
 20
128.40369751671619
 30
0.0
 11
301.44246866699882
 21
129.1347078526824
 31
0.0
  0
LINE
  5
49F
  8
LAYER_1
 10
301.44246866699882
 20
129.1347078526824
 30
0.0
 11
301.54125431149151
 21
129.73671645427979
 31
0.0
  0
LINE
  5
4A0
  8
LAYER_1
 10
301.54125431149151
 20
129.73671645427979
 30
0.0
 11
301.59055800058002
 21
130.3349661252162
 31
0.0
  0
LINE
  5
4A1
  8
LAYER_1
 10
301.59055800058002
 20
130.3349661252162
 30
0.0
 11
301.5918123656748
 21
130.98410793461781
 31
0.0
  0
LINE
  5
4A2
  8
LAYER_1
 10
301.5918123656748
 20
130.98410793461781
 30
0.0
 11
301.54845291866621
 21
131.58236684899251
 31
0.0
  0
LINE
  5
4A3
  8
LAYER_1
 10
301.54845291866621
 20
131.58236684899251
 30
0.0
 11
301.51111653690299
 21
131.8306106685931
 31
0.0
  0
LINE
  5
4A4
  8
LAYER_1
 10
301.51111653690299
 20
131.8306106685931
 30
0.0
 11
301.4639147651327
 21
132.02796824115049
 31
0.0
  0
LINE
  5
4A5
  8
LAYER_1
 10
301.4639147651327
 20
132.02796824115049
 30
0.0
 11
301.22618977554907
 21
132.68992186281031
 31
0.0
  0
LINE
  5
4A6
  8
LAYER_1
 10
301.22618977554907
 20
132.68992186281031
 30
0.0
 11
301.11229435932262
 21
132.96425432299441
 31
0.0
  0
LINE
  5
4A7
  8
LAYER_1
 10
301.11229435932262
 20
132.96425432299441
 30
0.0
 11
301.05073194065187
 21
133.07643066278649
 31
0.0
  0
LINE
  5
4A8
  8
LAYER_1
 10
301.05073194065187
 20
133.07643066278649
 30
0.0
 11
301.02412180760831
 21
133.05615492619191
 31
0.0
  0
LINE
  5
4A9
  8
LAYER_1
 10
301.02412180760831
 20
133.05615492619191
 30
0.0
 11
301.0022366969277
 21
132.99011157288251
 31
0.0
  0
LINE
  5
4AA
  8
LAYER_1
 10
301.0022366969277
 20
132.99011157288251
 30
0.0
 11
300.9657713314997
 21
132.68942515495399
 31
0.0
  0
LINE
  5
4AB
  8
LAYER_1
 10
300.9657713314997
 20
132.68942515495399
 30
0.0
 11
300.93022878628881
 21
132.4281435159416
 31
0.0
  0
LINE
  5
4AC
  8
LAYER_1
 10
300.93022878628881
 20
132.4281435159416
 30
0.0
 11
300.8710312658431
 21
132.2164183892996
 31
0.0
  0
LINE
  5
4AD
  8
LAYER_1
 10
300.8710312658431
 20
132.2164183892996
 30
0.0
 11
300.75082471412759
 21
131.8007458293861
 31
0.0
  0
LINE
  5
4AE
  8
LAYER_1
 10
300.75082471412759
 20
131.8007458293861
 30
0.0
 11
300.65442844773412
 21
131.3961852032065
 31
0.0
  0
LINE
  5
4AF
  8
LAYER_1
 10
300.65442844773412
 20
131.3961852032065
 30
0.0
 11
300.54748582416107
 21
131.02097858927951
 31
0.0
  0
LINE
  5
4B0
  8
LAYER_1
 10
300.54748582416107
 20
131.02097858927951
 30
0.0
 11
300.44666733420291
 21
130.72868460417729
 31
0.0
  0
LINE
  5
4B1
  8
LAYER_1
 10
300.44666733420291
 20
130.72868460417729
 30
0.0
 11
300.36864306234929
 21
130.57286196604929
 31
0.0
  0
LINE
  5
4B2
  8
LAYER_1
 10
300.36864306234929
 20
130.57286196604929
 30
0.0
 11
300.30928931763162
 21
130.524536354661
 31
0.0
  0
LINE
  5
4B3
  8
LAYER_1
 10
300.30928931763162
 20
130.524536354661
 30
0.0
 11
300.23119333294687
 21
130.4821206525786
 31
0.0
  0
LINE
  5
4B4
  8
LAYER_1
 10
300.23119333294687
 20
130.4821206525786
 30
0.0
 11
300.1635075932715
 21
130.44571470925521
 31
0.0
  0
LINE
  5
4B5
  8
LAYER_1
 10
300.1635075932715
 20
130.44571470925521
 30
0.0
 11
300.11654147839658
 21
130.39120879258641
 31
0.0
  0
LINE
  5
4B6
  8
LAYER_1
 10
300.11654147839658
 20
130.39120879258641
 30
0.0
 11
300.07834027645242
 21
130.29784742135499
 31
0.0
  0
LINE
  5
4B7
  8
LAYER_1
 10
300.07834027645242
 20
130.29784742135499
 30
0.0
 11
300.03694947872032
 21
130.14487511434371
 31
0.0
  0
LINE
  5
4B8
  8
LAYER_1
 10
300.03694947872032
 20
130.14487511434371
 30
0.0
 11
299.95702766096429
 21
129.88410389598101
 31
0.0
  0
LINE
  5
4B9
  8
LAYER_1
 10
299.95702766096429
 20
129.88410389598101
 30
0.0
 11
299.85861114455861
 21
129.64747532042759
 31
0.0
  0
LINE
  5
4BA
  8
LAYER_1
 10
299.85861114455861
 20
129.64747532042759
 30
0.0
 11
299.76103385112259
 21
129.47531424426009
 31
0.0
  0
LINE
  5
4BB
  8
LAYER_1
 10
299.76103385112259
 20
129.47531424426009
 30
0.0
 11
299.71860169368779
 21
129.4260106567485
 31
0.0
  0
LINE
  5
4BC
  8
LAYER_1
 10
299.71860169368779
 20
129.4260106567485
 30
0.0
 11
299.68362949911619
 21
129.40794582878561
 31
0.0
  0
LINE
  5
4BD
  8
LAYER_1
 10
299.68362949911619
 20
129.40794582878561
 30
0.0
 11
299.65568963139901
 21
129.4269560268967
 31
0.0
  0
LINE
  5
4BE
  8
LAYER_1
 10
299.65568963139901
 20
129.4269560268967
 30
0.0
 11
299.65034611125742
 21
129.48347650530681
 31
0.0
  0
LINE
  5
4BF
  8
LAYER_1
 10
299.65034611125742
 20
129.48347650530681
 30
0.0
 11
299.70626739137663
 21
129.69412065750879
 31
0.0
  0
LINE
  5
4C0
  8
LAYER_1
 10
299.70626739137663
 20
129.69412065750879
 30
0.0
 11
299.8306403976631
 21
130.05542889804451
 31
0.0
  0
LINE
  5
4C1
  8
LAYER_1
 10
299.8306403976631
 20
130.05542889804451
 30
0.0
 11
299.95201802195032
 21
130.45772975741789
 31
0.0
  0
LINE
  5
4C2
  8
LAYER_1
 10
299.95201802195032
 20
130.45772975741789
 30
0.0
 11
300.15320745691588
 21
131.2704049595684
 31
0.0
  0
LINE
  5
4C3
  8
LAYER_1
 10
300.15320745691588
 20
131.2704049595684
 30
0.0
 11
300.2012138141551
 21
131.5526461464822
 31
0.0
  0
LINE
  5
4C4
  8
LAYER_1
 10
300.2012138141551
 20
131.5526461464822
 30
0.0
 11
300.24100834113869
 21
131.8852168410196
 31
0.0
  0
LINE
  5
4C5
  8
LAYER_1
 10
300.24100834113869
 20
131.8852168410196
 30
0.0
 11
300.2928501159538
 21
132.62730091805071
 31
0.0
  0
LINE
  5
4C6
  8
LAYER_1
 10
300.2928501159538
 20
132.62730091805071
 30
0.0
 11
300.30250879829731
 21
133.3485652160993
 31
0.0
  0
LINE
  5
4C7
  8
LAYER_1
 10
300.30250879829731
 20
133.3485652160993
 30
0.0
 11
300.28957458665963
 21
133.65511126309059
 31
0.0
  0
LINE
  5
4C8
  8
LAYER_1
 10
300.28957458665963
 20
133.65511126309059
 30
0.0
 11
300.26376050667739
 21
133.90091776060211
 31
0.0
  0
LINE
  5
4C9
  8
LAYER_1
 10
300.26376050667739
 20
133.90091776060211
 30
0.0
 11
300.20247813372339
 21
134.23882212238649
 31
0.0
  0
LINE
  5
4CA
  8
LAYER_1
 10
300.20247813372339
 20
134.23882212238649
 30
0.0
 11
300.12452912987197
 21
134.573050338152
 31
0.0
  0
LINE
  5
4CB
  8
LAYER_1
 10
300.12452912987197
 20
134.573050338152
 30
0.0
 11
300.03113972359517
 21
134.8988780965671
 31
0.0
  0
LINE
  5
4CC
  8
LAYER_1
 10
300.03113972359517
 20
134.8988780965671
 30
0.0
 11
299.92353624494751
 21
135.211581086302
 31
0.0
  0
LINE
  5
4CD
  8
LAYER_1
 10
299.92353624494751
 20
135.211581086302
 30
0.0
 11
299.73594218142262
 21
135.61088696997911
 31
0.0
  0
LINE
  5
4CE
  8
LAYER_1
 10
299.73594218142262
 20
135.61088696997911
 30
0.0
 11
299.53268302881071
 21
135.9678961989384
 31
0.0
  0
LINE
  5
4CF
  8
LAYER_1
 10
299.53268302881071
 20
135.9678961989384
 30
0.0
 11
299.43980607470951
 21
136.07199580488501
 31
0.0
  0
LINE
  5
4D0
  8
LAYER_1
 10
299.43980607470951
 20
136.07199580488501
 30
0.0
 11
299.39689041432968
 21
136.08239233710029
 31
0.0
  0
LINE
  5
4D1
  8
LAYER_1
 10
299.39689041432968
 20
136.08239233710029
 30
0.0
 11
299.33625396474417
 21
136.07607226290139
 31
0.0
  0
LINE
  5
4D2
  8
LAYER_1
 10
299.33625396474417
 20
136.07607226290139
 30
0.0
 11
299.22893103969392
 21
136.04224838782159
 31
0.0
  0
LINE
  5
4D3
  8
LAYER_1
 10
299.22893103969392
 20
136.04224838782159
 30
0.0
 11
299.08691027752133
 21
135.97988595461479
 31
0.0
  0
LINE
  5
4D4
  8
LAYER_1
 10
299.08691027752133
 20
135.97988595461479
 30
0.0
 11
298.95849199712688
 21
135.9122096615302
 31
0.0
  0
LINE
  5
4D5
  8
LAYER_1
 10
298.95849199712688
 20
135.9122096615302
 30
0.0
 11
298.89197651741267
 21
135.8624446131204
 31
0.0
  0
LINE
  5
4D6
  8
LAYER_1
 10
298.89197651741267
 20
135.8624446131204
 30
0.0
 11
298.9521392153747
 21
135.62780032958671
 31
0.0
  0
LINE
  5
4D7
  8
LAYER_1
 10
298.9521392153747
 20
135.62780032958671
 30
0.0
 11
299.0083338371802
 21
135.41041273338101
 31
0.0
  0
LINE
  5
4D8
  8
LAYER_1
 10
299.0083338371802
 20
135.41041273338101
 30
0.0
 11
298.99667816578449
 21
135.18260635976219
 31
0.0
  0
LINE
  5
4D9
  8
LAYER_1
 10
298.99667816578449
 20
135.18260635976219
 30
0.0
 11
298.9538219275114
 21
134.97217765078389
 31
0.0
  0
LINE
  5
4DA
  8
LAYER_1
 10
298.9538219275114
 20
134.97217765078389
 30
0.0
 11
298.87159514151989
 21
134.7535760152534
 31
0.0
  0
LINE
  5
4DB
  8
LAYER_1
 10
298.87159514151989
 20
134.7535760152534
 30
0.0
 11
298.74515668378962
 21
134.51622330262219
 31
0.0
  0
LINE
  5
4DC
  8
LAYER_1
 10
298.74515668378962
 20
134.51622330262219
 30
0.0
 11
298.56966543030518
 21
134.24954126076759
 31
0.0
  0
LINE
  5
4DD
  8
LAYER_1
 10
298.56966543030518
 20
134.24954126076759
 30
0.0
 11
298.42425110723718
 21
134.03842325536479
 31
0.0
  0
LINE
  5
4DE
  8
LAYER_1
 10
298.42425110723718
 20
134.03842325536479
 30
0.0
 11
298.34318909608868
 21
133.89774035396391
 31
0.0
  0
LINE
  5
4DF
  8
LAYER_1
 10
298.34318909608868
 20
133.89774035396391
 30
0.0
 11
298.30805976306021
 21
133.78775389651901
 31
0.0
  0
LINE
  5
4E0
  8
LAYER_1
 10
298.30805976306021
 20
133.78775389651901
 30
0.0
 11
298.30044316962187
 21
133.66872573086661
 31
0.0
  0
LINE
  5
4E1
  8
LAYER_1
 10
298.30044316962187
 20
133.66872573086661
 30
0.0
 11
298.32717387367211
 21
133.4834773676543
 31
0.0
  0
LINE
  5
4E2
  8
LAYER_1
 10
298.32717387367211
 20
133.4834773676543
 30
0.0
 11
298.42897663748198
 21
133.2157956123587
 31
0.0
  0
LINE
  5
4E3
  8
LAYER_1
 10
298.42897663748198
 20
133.2157956123587
 30
0.0
 11
298.52264476898659
 21
132.97114596674459
 31
0.0
  0
LINE
  5
4E4
  8
LAYER_1
 10
298.52264476898659
 20
132.97114596674459
 30
0.0
 11
298.55999283201709
 21
132.7868613589813
 31
0.0
  0
LINE
  5
4E5
  8
LAYER_1
 10
298.55999283201709
 20
132.7868613589813
 30
0.0
 11
298.54241211645461
 21
132.6396071853186
 31
0.0
  0
LINE
  5
4E6
  8
LAYER_1
 10
298.54241211645461
 20
132.6396071853186
 30
0.0
 11
298.47129381060279
 21
132.50604874043071
 31
0.0
  0
LINE
  5
4E7
  8
LAYER_1
 10
298.47129381060279
 20
132.50604874043071
 30
0.0
 11
298.39744909665808
 21
132.41636168684639
 31
0.0
  0
LINE
  5
4E8
  8
LAYER_1
 10
298.39744909665808
 20
132.41636168684639
 30
0.0
 11
298.34229197465908
 21
132.36967866497639
 31
0.0
  0
LINE
  5
4E9
  8
LAYER_1
 10
298.34229197465908
 20
132.36967866497639
 30
0.0
 11
298.31033568048912
 21
132.32142425853871
 31
0.0
  0
LINE
  5
4EA
  8
LAYER_1
 10
298.31033568048912
 20
132.32142425853871
 30
0.0
 11
298.30044316962187
 21
132.2013624529782
 31
0.0
  0
LINE
  5
4EB
  8
LAYER_1
 10
298.30044316962187
 20
132.2013624529782
 30
0.0
 11
298.28167837972711
 21
132.01223377548669
 31
0.0
  0
LINE
  5
4EC
  8
LAYER_1
 10
298.28167837972711
 20
132.01223377548669
 30
0.0
 11
298.2527147250002
 21
131.96978282644591
 31
0.0
  0
LINE
  5
4ED
  8
LAYER_1
 10
298.2527147250002
 20
131.96978282644591
 30
0.0
 11
298.2058011250453
 21
131.96304872745731
 31
0.0
  0
LINE
  5
4EE
  8
LAYER_1
 10
298.2058011250453
 20
131.96304872745731
 30
0.0
 11
298.1372659032013
 21
131.9927622180538
 31
0.0
  0
LINE
  5
4EF
  8
LAYER_1
 10
298.1372659032013
 20
131.9927622180538
 30
0.0
 11
298.04343717964849
 21
132.05965424092241
 31
0.0
  0
LINE
  5
4F0
  8
LAYER_1
 10
298.04343717964849
 20
132.05965424092241
 30
0.0
 11
297.76521231761228
 21
132.30789704476021
 31
0.0
  0
LINE
  5
4F1
  8
LAYER_1
 10
297.76521231761228
 20
132.30789704476021
 30
0.0
 11
297.55846788075343
 21
132.4779035871147
 31
0.0
  0
LINE
  5
4F2
  8
LAYER_1
 10
297.55846788075343
 20
132.4779035871147
 30
0.0
 11
297.34953965612118
 21
132.60422838102261
 31
0.0
  0
LINE
  5
4F3
  8
LAYER_1
 10
297.34953965612118
 20
132.60422838102261
 30
0.0
 11
296.76961301997409
 21
132.82080631294909
 31
0.0
  0
LINE
  5
4F4
  8
LAYER_1
 10
296.76961301997409
 20
132.82080631294909
 30
0.0
 11
296.04212555146808
 21
133.04642453101681
 31
0.0
  0
LINE
  5
4F5
  8
LAYER_1
 10
296.04212555146808
 20
133.04642453101681
 30
0.0
 11
295.64612861567042
 21
133.19072314056871
 31
0.0
  0
LINE
  5
4F6
  8
LAYER_1
 10
295.64612861567042
 20
133.19072314056871
 30
0.0
 11
295.45604827030371
 21
133.26060688869239
 31
0.0
  0
LINE
  5
4F7
  8
LAYER_1
 10
295.45604827030371
 20
133.26060688869239
 30
0.0
 11
295.38293714002759
 21
133.27182689955589
 31
0.0
  0
LINE
  5
4F8
  8
LAYER_1
 10
295.38293714002759
 20
133.27182689955589
 30
0.0
 11
295.44344550196632
 21
133.21572511844221
 31
0.0
  0
LINE
  5
4F9
  8
LAYER_1
 10
295.44344550196632
 20
133.21572511844221
 30
0.0
 11
295.58148599883128
 21
133.13973775510621
 31
0.0
  0
LINE
  5
4FA
  8
LAYER_1
 10
295.58148599883128
 20
133.13973775510621
 30
0.0
 11
295.99914356179852
 21
132.9723425349552
 31
0.0
  0
LINE
  5
4FB
  8
LAYER_1
 10
295.99914356179852
 20
132.9723425349552
 30
0.0
 11
296.53408918770288
 21
132.7833718085308
 31
0.0
  0
LINE
  5
4FC
  8
LAYER_1
 10
296.53408918770288
 20
132.7833718085308
 30
0.0
 11
296.9579801803286
 21
132.60867955382039
 31
0.0
  0
LINE
  5
4FD
  8
LAYER_1
 10
296.9579801803286
 20
132.60867955382039
 30
0.0
 11
297.28991256971818
 21
132.43957988421499
 31
0.0
  0
LINE
  5
4FE
  8
LAYER_1
 10
297.28991256971818
 20
132.43957988421499
 30
0.0
 11
297.54898258906741
 21
132.26738681152929
 31
0.0
  0
LINE
  5
4FF
  8
LAYER_1
 10
297.54898258906741
 20
132.26738681152929
 30
0.0
 11
297.70937290794922
 21
132.12967399964259
 31
0.0
  0
LINE
  5
500
  8
LAYER_1
 10
297.70937290794922
 20
132.12967399964259
 30
0.0
 11
297.86406337720808
 21
131.96935559674341
 31
0.0
  0
LINE
  5
501
  8
LAYER_1
 10
297.86406337720808
 20
131.96935559674341
 30
0.0
 11
298.01111338261188
 21
131.7894278990187
 31
0.0
  0
LINE
  5
502
  8
LAYER_1
 10
298.01111338261188
 20
131.7894278990187
 30
0.0
 11
298.14858220834878
 21
131.59288730423049
 31
0.0
  0
LINE
  5
503
  8
LAYER_1
 10
298.14858220834878
 20
131.59288730423049
 30
0.0
 11
298.27452903703522
 21
131.38273021014149
 31
0.0
  0
LINE
  5
504
  8
LAYER_1
 10
298.27452903703522
 20
131.38273021014149
 30
0.0
 11
298.387013254436
 21
131.1619530145141
 31
0.0
  0
LINE
  5
505
  8
LAYER_1
 10
298.387013254436
 20
131.1619530145141
 30
0.0
 11
298.48409394159319
 21
130.9335520135354
 31
0.0
  0
LINE
  5
506
  8
LAYER_1
 10
298.48409394159319
 20
130.9335520135354
 30
0.0
 11
298.56383058584669
 21
130.700523604967
 31
0.0
  0
LINE
  5
507
  8
LAYER_1
 10
298.56383058584669
 20
130.700523604967
 30
0.0
 11
298.61165227746488
 21
130.44907017905729
 31
0.0
  0
LINE
  5
508
  8
LAYER_1
 10
298.61165227746488
 20
130.44907017905729
 30
0.0
 11
298.63558963467472
 21
130.03772070429099
 31
0.0
  0
LINE
  5
509
  8
LAYER_1
 10
298.63558963467472
 20
130.03772070429099
 30
0.0
 11
298.63951433777459
 21
129.6199602445835
 31
0.0
  0
LINE
  5
50A
  8
LAYER_1
 10
298.63951433777459
 20
129.6199602445835
 30
0.0
 11
298.62263652985632
 21
129.5401907912007
 31
0.0
  0
LINE
  5
50B
  8
LAYER_1
 10
298.62263652985632
 20
129.5401907912007
 30
0.0
 11
298.58796794669081
 21
129.48587959620019
 31
0.0
  0
LINE
  5
50C
  8
LAYER_1
 10
298.58796794669081
 20
129.48587959620019
 30
0.0
 11
298.53216215876643
 21
129.42590054809469
 31
0.0
  0
LINE
  5
50D
  8
LAYER_1
 10
298.53216215876643
 20
129.42590054809469
 30
0.0
 11
298.4953934866582
 21
129.40970066005971
 31
0.0
  0
LINE
  5
50E
  8
LAYER_1
 10
298.4953934866582
 20
129.40970066005971
 30
0.0
 11
298.4791430136525
 21
129.43697063241589
 31
0.0
  0
LINE
  5
50F
  8
LAYER_1
 10
298.4791430136525
 20
129.43697063241589
 30
0.0
 11
298.48489172145099
 21
129.50740136863851
 31
0.0
  0
LINE
  5
510
  8
LAYER_1
 10
298.48489172145099
 20
129.50740136863851
 30
0.0
 11
298.5037188791614
 21
129.87455288446179
 31
0.0
  0
LINE
  5
511
  8
LAYER_1
 10
298.5037188791614
 20
129.87455288446179
 30
0.0
 11
298.48715971593322
 21
130.1404244494272
 31
0.0
  0
LINE
  5
512
  8
LAYER_1
 10
298.48715971593322
 20
130.1404244494272
 30
0.0
 11
298.4159740650295
 21
130.40324832062521
 31
0.0
  0
LINE
  5
513
  8
LAYER_1
 10
298.4159740650295
 20
130.40324832062521
 30
0.0
 11
298.30229236522922
 21
130.6827454251777
 31
0.0
  0
LINE
  5
514
  8
LAYER_1
 10
298.30229236522922
 20
130.6827454251777
 30
0.0
 11
298.15091338325698
 21
130.96237051580411
 31
0.0
  0
LINE
  5
515
  8
LAYER_1
 10
298.15091338325698
 20
130.96237051580411
 30
0.0
 11
297.96773158882712
 21
131.2354055425624
 31
0.0
  0
LINE
  5
516
  8
LAYER_1
 10
297.96773158882712
 20
131.2354055425624
 30
0.0
 11
297.75864155323109
 21
131.4951322523583
 31
0.0
  0
LINE
  5
517
  8
LAYER_1
 10
297.75864155323109
 20
131.4951322523583
 30
0.0
 11
297.52953774618823
 21
131.73483259525111
 31
0.0
  0
LINE
  5
518
  8
LAYER_1
 10
297.52953774618823
 20
131.73483259525111
 30
0.0
 11
297.2863146374097
 21
131.9477882165699
 31
0.0
  0
LINE
  5
519
  8
LAYER_1
 10
297.2863146374097
 20
131.9477882165699
 30
0.0
 11
297.03486659504142
 21
132.1272811679502
 31
0.0
  0
LINE
  5
51A
  8
LAYER_1
 10
297.03486659504142
 20
132.1272811679502
 30
0.0
 11
296.78108819037362
 21
132.2665932978739
 31
0.0
  0
LINE
  5
51B
  8
LAYER_1
 10
296.78108819037362
 20
132.2665932978739
 30
0.0
 11
296.56226725172178
 21
132.34899895964131
 31
0.0
  0
LINE
  5
51C
  8
LAYER_1
 10
296.56226725172178
 20
132.34899895964131
 30
0.0
 11
296.33215865242369
 21
132.38109786686371
 31
0.0
  0
LINE
  5
51D
  8
LAYER_1
 10
296.33215865242369
 20
132.38109786686371
 30
0.0
 11
296.11982112257988
 21
132.38330938495241
 31
0.0
  0
LINE
  5
51E
  8
LAYER_1
 10
296.11982112257988
 20
132.38330938495241
 30
0.0
 11
296.06901298767161
 21
132.361820523219
 31
0.0
  0
LINE
  5
51F
  8
LAYER_1
 10
296.06901298767161
 20
132.361820523219
 30
0.0
 11
296.02030595746982
 21
132.3182544701192
 31
0.0
  0
LINE
  5
520
  8
LAYER_1
 10
296.02030595746982
 20
132.3182544701192
 30
0.0
 11
295.9776115301604
 21
132.27047198693279
 31
0.0
  0
LINE
  5
521
  8
LAYER_1
 10
295.9776115301604
 20
132.27047198693279
 30
0.0
 11
295.95598665782978
 21
132.22288381911071
 31
0.0
  0
LINE
  5
522
  8
LAYER_1
 10
295.95598665782978
 20
132.22288381911071
 30
0.0
 11
295.95638808716569
 21
132.0445407108665
 31
0.0
  0
LINE
  5
523
  8
LAYER_1
 10
295.95638808716569
 20
132.0445407108665
 30
0.0
 11
295.97157617418651
 21
131.92840330367741
 31
0.0
  0
LINE
  5
524
  8
LAYER_1
 10
295.97157617418651
 20
131.92840330367741
 30
0.0
 11
296.00281422270001
 21
131.812632282018
 31
0.0
  0
LINE
  5
525
  8
LAYER_1
 10
296.00281422270001
 20
131.812632282018
 30
0.0
 11
296.05403384299342
 21
131.69089995346999
 31
0.0
  0
LINE
  5
526
  8
LAYER_1
 10
296.05403384299342
 20
131.69089995346999
 30
0.0
 11
296.1291665437713
 21
131.5568785240402
 31
0.0
  0
LINE
  5
527
  8
LAYER_1
 10
296.1291665437713
 20
131.5568785240402
 30
0.0
 11
296.36689762792838
 21
131.22665799917019
 31
0.0
  0
LINE
  5
528
  8
LAYER_1
 10
296.36689762792838
 20
131.22665799917019
 30
0.0
 11
296.74745974799691
 21
130.77134957437389
 31
0.0
  0
LINE
  5
529
  8
LAYER_1
 10
296.74745974799691
 20
130.77134957437389
 30
0.0
 11
296.98232353780509
 21
130.49375763394369
 31
0.0
  0
LINE
  5
52A
  8
LAYER_1
 10
296.98232353780509
 20
130.49375763394369
 30
0.0
 11
297.11638224571749
 21
130.31478119778839
 31
0.0
  0
LINE
  5
52B
  8
LAYER_1
 10
297.11638224571749
 20
130.31478119778839
 30
0.0
 11
297.17204978836781
 21
130.1996788525739
 31
0.0
  0
LINE
  5
52C
  8
LAYER_1
 10
297.17204978836781
 20
130.1996788525739
 30
0.0
 11
297.17173967608102
 21
130.1137091849655
 31
0.0
  0
LINE
  5
52D
  8
LAYER_1
 10
297.17173967608102
 20
130.1137091849655
 30
0.0
 11
297.14768560775951
 21
130.0631844477916
 31
0.0
  0
LINE
  5
52E
  8
LAYER_1
 10
297.14768560775951
 20
130.0631844477916
 30
0.0
 11
297.10687856872931
 21
130.03824646295499
 31
0.0
  0
LINE
  5
52F
  8
LAYER_1
 10
297.10687856872931
 20
130.03824646295499
 30
0.0
 11
297.04874424687898
 21
130.03916633746351
 31
0.0
  0
LINE
  5
530
  8
LAYER_1
 10
297.04874424687898
 20
130.03916633746351
 30
0.0
 11
296.97270802536599
 21
130.0662150767503
 31
0.0
  0
LINE
  5
531
  8
LAYER_1
 10
296.97270802536599
 20
130.0662150767503
 30
0.0
 11
296.76463263492042
 21
130.1997839839913
 31
0.0
  0
LINE
  5
532
  8
LAYER_1
 10
296.76463263492042
 20
130.1997839839913
 30
0.0
 11
296.47805688474392
 21
130.4411221423195
 31
0.0
  0
LINE
  5
533
  8
LAYER_1
 10
296.47805688474392
 20
130.4411221423195
 30
0.0
 11
296.11256096019849
 21
130.73246171698801
 31
0.0
  0
LINE
  5
534
  8
LAYER_1
 10
296.11256096019849
 20
130.73246171698801
 30
0.0
 11
295.53407051063232
 21
131.13151355846799
 31
0.0
  0
LINE
  5
535
  8
LAYER_1
 10
295.53407051063232
 20
131.13151355846799
 30
0.0
 11
294.93547344892443
 21
131.55426181829489
 31
0.0
  0
LINE
  5
536
  8
LAYER_1
 10
294.93547344892443
 20
131.55426181829489
 30
0.0
 11
294.45491418444601
 21
131.96067316372731
 31
0.0
  0
LINE
  5
537
  8
LAYER_1
 10
294.45491418444601
 20
131.96067316372731
 30
0.0
 11
294.26669563014298
 21
132.14598409790841
 31
0.0
  0
LINE
  5
538
  8
LAYER_1
 10
294.26669563014298
 20
132.14598409790841
 30
0.0
 11
294.10634949692991
 21
132.3264573616658
 31
0.0
  0
LINE
  5
539
  8
LAYER_1
 10
294.10634949692991
 20
132.3264573616658
 30
0.0
 11
293.97536824462441
 21
132.49932124389801
 31
0.0
  0
LINE
  5
53A
  8
LAYER_1
 10
293.97536824462441
 20
132.49932124389801
 30
0.0
 11
293.87524433305521
 21
132.66180383035291
 31
0.0
  0
LINE
  5
53B
  8
LAYER_1
 10
293.87524433305521
 20
132.66180383035291
 30
0.0
 11
293.8074703236195
 21
132.8111334099309
 31
0.0
  0
LINE
  5
53C
  8
LAYER_1
 10
293.8074703236195
 20
132.8111334099309
 30
0.0
 11
293.7735387777152
 21
132.94453806837811
 31
0.0
  0
LINE
  5
53D
  8
LAYER_1
 10
293.7735387777152
 20
132.94453806837811
 30
0.0
 11
293.77494215516879
 21
133.05924619617059
 31
0.0
  0
LINE
  5
53E
  8
LAYER_1
 10
293.77494215516879
 20
133.05924619617059
 30
0.0
 11
293.81317281422599
 21
133.15248587905609
 31
0.0
  0
LINE
  5
53F
  8
LAYER_1
 10
293.81317281422599
 20
133.15248587905609
 30
0.0
 11
293.88563284074581
 21
133.21776080804409
 31
0.0
  0
LINE
  5
540
  8
LAYER_1
 10
293.88563284074581
 20
133.21776080804409
 30
0.0
 11
294.00469208873159
 21
133.28030404697321
 31
0.0
  0
LINE
  5
541
  8
LAYER_1
 10
294.00469208873159
 20
133.28030404697321
 30
0.0
 11
294.1596922639734
 21
133.3355353196348
 31
0.0
  0
LINE
  5
542
  8
LAYER_1
 10
294.1596922639734
 20
133.3355353196348
 30
0.0
 11
294.33997527541737
 21
133.3788743498186
 31
0.0
  0
LINE
  5
543
  8
LAYER_1
 10
294.33997527541737
 20
133.3788743498186
 30
0.0
 11
294.67405823714671
 21
133.44193329136311
 31
0.0
  0
LINE
  5
544
  8
LAYER_1
 10
294.67405823714671
 20
133.44193329136311
 30
0.0
 11
294.72420886899522
 21
133.45330393980331
 31
0.0
  0
LINE
  5
545
  8
LAYER_1
 10
294.72420886899522
 20
133.45330393980331
 30
0.0
 11
294.724347317423
 21
133.46105278551741
 31
0.0
  0
LINE
  5
546
  8
LAYER_1
 10
294.724347317423
 20
133.46105278551741
 30
0.0
 11
294.5489146734335
 21
133.4718158048376
 31
0.0
  0
LINE
  5
547
  8
LAYER_1
 10
294.5489146734335
 20
133.4718158048376
 30
0.0
 11
294.32680144540728
 21
133.46651007105851
 31
0.0
  0
LINE
  5
548
  8
LAYER_1
 10
294.32680144540728
 20
133.46651007105851
 30
0.0
 11
294.08879610537878
 21
133.4335925608475
 31
0.0
  0
LINE
  5
549
  8
LAYER_1
 10
294.08879610537878
 20
133.4335925608475
 30
0.0
 11
293.82133812255938
 21
133.37048719895679
 31
0.0
  0
LINE
  5
54A
  8
LAYER_1
 10
293.82133812255938
 20
133.37048719895679
 30
0.0
 11
293.51086737246732
 21
133.27461791014321
 31
0.0
  0
LINE
  5
54B
  8
LAYER_1
 10
293.51086737246732
 20
133.27461791014321
 30
0.0
 11
293.18257740578179
 21
133.18174826953251
 31
0.0
  0
LINE
  5
54C
  8
LAYER_1
 10
293.18257740578179
 20
133.18174826953251
 30
0.0
 11
292.85954563519061
 21
133.11649375737039
 31
0.0
  0
LINE
  5
54D
  8
LAYER_1
 10
292.85954563519061
 20
133.11649375737039
 30
0.0
 11
292.53793308794741
 21
133.08426889559891
 31
0.0
  0
LINE
  5
54E
  8
LAYER_1
 10
292.53793308794741
 20
133.08426889559891
 30
0.0
 11
292.20688095832799
 21
133.1154545307694
 31
0.0
  0
LINE
  5
54F
  8
LAYER_1
 10
292.20688095832799
 20
133.1154545307694
 30
0.0
 11
291.9000804628335
 21
133.17208288315629
 31
0.0
  0
LINE
  5
550
  8
LAYER_1
 10
291.9000804628335
 20
133.17208288315629
 30
0.0
 11
291.66851901845013
 21
133.26032999183829
 31
0.0
  0
LINE
  5
551
  8
LAYER_1
 10
291.66851901845013
 20
133.26032999183829
 30
0.0
 11
291.49998492539748
 21
133.35864747139979
 31
0.0
  0
LINE
  5
552
  8
LAYER_1
 10
291.49998492539748
 20
133.35864747139979
 30
0.0
 11
291.34000995179571
 21
133.4843342648889
 31
0.0
  0
LINE
  5
553
  8
LAYER_1
 10
291.34000995179571
 20
133.4843342648889
 30
0.0
 11
291.19562683080471
 21
133.63109498113499
 31
0.0
  0
LINE
  5
554
  8
LAYER_1
 10
291.19562683080471
 20
133.63109498113499
 30
0.0
 11
291.07386809243371
 21
133.79263422896821
 31
0.0
  0
LINE
  5
555
  8
LAYER_1
 10
291.07386809243371
 20
133.79263422896821
 30
0.0
 11
290.98068326072132
 21
133.9364429362721
 31
0.0
  0
LINE
  5
556
  8
LAYER_1
 10
290.98068326072132
 20
133.9364429362721
 30
0.0
 11
290.79200862906202
 21
133.93655009921531
 31
0.0
  0
LINE
  5
557
  8
LAYER_1
 10
290.79200862906202
 20
133.93655009921531
 30
0.0
 11
290.65112359092632
 21
133.9476517737487
 31
0.0
  0
LINE
  5
558
  8
LAYER_1
 10
290.65112359092632
 20
133.9476517737487
 30
0.0
 11
290.53602073783139
 21
133.98043418754921
 31
0.0
  0
LINE
  5
559
  8
LAYER_1
 10
290.53602073783139
 20
133.98043418754921
 30
0.0
 11
290.44792477460669
 21
134.03437462924131
 31
0.0
  0
LINE
  5
55A
  8
LAYER_1
 10
290.44792477460669
 20
134.03437462924131
 30
0.0
 11
290.38806030450979
 21
134.10895048902441
 31
0.0
  0
LINE
  5
55B
  8
LAYER_1
 10
290.38806030450979
 20
134.10895048902441
 30
0.0
 11
290.33284193203349
 21
134.2423275187318
 31
0.0
  0
LINE
  5
55C
  8
LAYER_1
 10
290.33284193203349
 20
134.2423275187318
 30
0.0
 11
290.30033966552628
 21
134.3954248661052
 31
0.0
  0
LINE
  5
55D
  8
LAYER_1
 10
290.30033966552628
 20
134.3954248661052
 30
0.0
 11
290.29010006861552
 21
134.5717363477975
 31
0.0
  0
LINE
  5
55E
  8
LAYER_1
 10
290.29010006861552
 20
134.5717363477975
 30
0.0
 11
290.30167000965611
 21
134.77475527258019
 31
0.0
  0
LINE
  5
55F
  8
LAYER_1
 10
290.30167000965611
 20
134.77475527258019
 30
0.0
 11
290.32445803161198
 21
135.02514285891141
 31
0.0
  0
LINE
  5
560
  8
LAYER_1
 10
290.32445803161198
 20
135.02514285891141
 30
0.0
 11
290.3252085785137
 21
135.17827271068481
 31
0.0
  0
LINE
  5
561
  8
LAYER_1
 10
290.3252085785137
 20
135.17827271068481
 30
0.0
 11
290.2993408662727
 21
135.28076639613849
 31
0.0
  0
LINE
  5
562
  8
LAYER_1
 10
290.2993408662727
 20
135.28076639613849
 30
0.0
 11
290.24227411079562
 21
135.379244975631
 31
0.0
  0
LINE
  5
563
  8
LAYER_1
 10
290.24227411079562
 20
135.379244975631
 30
0.0
 11
290.18101835081831
 21
135.5027097886782
 31
0.0
  0
LINE
  5
564
  8
LAYER_1
 10
290.18101835081831
 20
135.5027097886782
 30
0.0
 11
290.14251861627878
 21
135.6478301500824
 31
0.0
  0
LINE
  5
565
  8
LAYER_1
 10
290.14251861627878
 20
135.6478301500824
 30
0.0
 11
290.1288832237953
 21
135.8024835440113
 31
0.0
  0
LINE
  5
566
  8
LAYER_1
 10
290.1288832237953
 20
135.8024835440113
 30
0.0
 11
290.14222028683707
 21
135.95454735305319
 31
0.0
  0
LINE
  5
567
  8
LAYER_1
 10
290.14222028683707
 20
135.95454735305319
 30
0.0
 11
290.1773520576952
 21
136.04560710806359
 31
0.0
  0
LINE
  5
568
  8
LAYER_1
 10
290.1773520576952
 20
136.04560710806359
 30
0.0
 11
290.24741458001557
 21
136.1405370197287
 31
0.0
  0
LINE
  5
569
  8
LAYER_1
 10
290.24741458001557
 20
136.1405370197287
 30
0.0
 11
290.34916391472012
 21
136.2371811321679
 31
0.0
  0
LINE
  5
56A
  8
LAYER_1
 10
290.34916391472012
 20
136.2371811321679
 30
0.0
 11
290.47935612272352
 21
136.3333833879251
 31
0.0
  0
LINE
  5
56B
  8
LAYER_1
 10
290.47935612272352
 20
136.3333833879251
 30
0.0
 11
290.812093605462
 21
136.51583840429569
 31
0.0
  0
LINE
  5
56C
  8
LAYER_1
 10
290.812093605462
 20
136.51583840429569
 30
0.0
 11
291.21967571873603
 21
136.67065401549351
 31
0.0
  0
LINE
  5
56D
  8
LAYER_1
 10
291.21967571873603
 20
136.67065401549351
 30
0.0
 11
291.4057360824807
 21
136.7307959919022
 31
0.0
  0
LINE
  5
56E
  8
LAYER_1
 10
291.4057360824807
 20
136.7307959919022
 30
0.0
 11
291.50058625679088
 21
136.77543824535721
 31
0.0
  0
LINE
  5
56F
  8
LAYER_1
 10
291.50058625679088
 20
136.77543824535721
 30
0.0
 11
291.53094821015992
 21
136.82460003242539
 31
0.0
  0
LINE
  5
570
  8
LAYER_1
 10
291.53094821015992
 20
136.82460003242539
 30
0.0
 11
291.52354421581049
 21
136.89830040652109
 31
0.0
  0
LINE
  5
571
  8
LAYER_1
 10
291.52354421581049
 20
136.89830040652109
 30
0.0
 11
291.49489179070912
 21
136.99126603668671
 31
0.0
  0
LINE
  5
572
  8
LAYER_1
 10
291.49489179070912
 20
136.99126603668671
 30
0.0
 11
291.44538444124208
 21
137.06046698926619
 31
0.0
  0
LINE
  5
573
  8
LAYER_1
 10
291.44538444124208
 20
137.06046698926619
 30
0.0
 11
291.36973999932098
 21
137.1109547526861
 31
0.0
  0
LINE
  5
574
  8
LAYER_1
 10
291.36973999932098
 20
137.1109547526861
 30
0.0
 11
291.26267639843599
 21
137.14778081537449
 31
0.0
  0
LINE
  5
575
  8
LAYER_1
 10
291.26267639843599
 20
137.14778081537449
 30
0.0
 11
291.13459839847451
 21
137.1915028895915
 31
0.0
  0
LINE
  5
576
  8
LAYER_1
 10
291.13459839847451
 20
137.1915028895915
 30
0.0
 11
291.0041830274522
 21
137.2567611600748
 31
0.0
  0
LINE
  5
577
  8
LAYER_1
 10
291.0041830274522
 20
137.2567611600748
 30
0.0
 11
290.87467767804372
 21
137.34071687539881
 31
0.0
  0
LINE
  5
578
  8
LAYER_1
 10
290.87467767804372
 20
137.34071687539881
 30
0.0
 11
290.74932994607252
 21
137.44053179201961
 31
0.0
  0
LINE
  5
579
  8
LAYER_1
 10
290.74932994607252
 20
137.44053179201961
 30
0.0
 11
290.52409710829272
 21
137.67638473133749
 31
0.0
  0
LINE
  5
57A
  8
LAYER_1
 10
290.52409710829272
 20
137.67638473133749
 30
0.0
 11
290.4307070925592
 21
137.8067457590665
 31
0.0
  0
LINE
  5
57B
  8
LAYER_1
 10
290.4307070925592
 20
137.8067457590665
 30
0.0
 11
290.35446446811011
 21
137.94161189658101
 31
0.0
  0
LINE
  5
57C
  8
LAYER_1
 10
290.35446446811011
 20
137.94161189658101
 30
0.0
 11
290.29957997676138
 21
138.06074692044791
 31
0.0
  0
LINE
  5
57D
  8
LAYER_1
 10
290.29957997676138
 20
138.06074692044791
 30
0.0
 11
290.27132369902893
 21
138.16585538169801
 31
0.0
  0
LINE
  5
57E
  8
LAYER_1
 10
290.27132369902893
 20
138.16585538169801
 30
0.0
 11
290.25932876296281
 21
138.5661755042193
 31
0.0
  0
LINE
  5
57F
  8
LAYER_1
 10
290.25932876296281
 20
138.5661755042193
 30
0.0
 11
290.26405246483682
 21
138.8518918177555
 31
0.0
  0
LINE
  5
580
  8
LAYER_1
 10
290.26405246483682
 20
138.8518918177555
 30
0.0
 11
290.28997096520322
 21
139.03914814025359
 31
0.0
  0
LINE
  5
581
  8
LAYER_1
 10
290.28997096520322
 20
139.03914814025359
 30
0.0
 11
290.35470479751308
 21
139.1945495416781
 31
0.0
  0
LINE
  5
582
  8
LAYER_1
 10
290.35470479751308
 20
139.1945495416781
 30
0.0
 11
290.47587500310118
 21
139.3847007872663
 31
0.0
  0
LINE
  5
583
  8
LAYER_1
 10
290.47587500310118
 20
139.3847007872663
 30
0.0
 11
290.59832659306591
 21
139.5418022703663
 31
0.0
  0
LINE
  5
584
  8
LAYER_1
 10
290.59832659306591
 20
139.5418022703663
 30
0.0
 11
290.74885324873583
 21
139.6958011069473
 31
0.0
  0
LINE
  5
585
  8
LAYER_1
 10
290.74885324873583
 20
139.6958011069473
 30
0.0
 11
290.9209971585168
 21
139.84241849910629
 31
0.0
  0
LINE
  5
586
  8
LAYER_1
 10
290.9209971585168
 20
139.84241849910629
 30
0.0
 11
291.1083005108182
 21
139.97737554736401
 31
0.0
  0
LINE
  5
587
  8
LAYER_1
 10
291.1083005108182
 20
139.97737554736401
 30
0.0
 11
291.304305798776
 21
140.09639365696859
 31
0.0
  0
LINE
  5
588
  8
LAYER_1
 10
291.304305798776
 20
140.09639365696859
 30
0.0
 11
291.50255510922142
 21
140.19519382686451
 31
0.0
  0
LINE
  5
589
  8
LAYER_1
 10
291.50255510922142
 20
140.19519382686451
 30
0.0
 11
291.69659073213722
 21
140.2694972591481
 31
0.0
  0
LINE
  5
58A
  8
LAYER_1
 10
291.69659073213722
 20
140.2694972591481
 30
0.0
 11
291.87995505908702
 21
140.31502535906901
 31
0.0
  0
LINE
  5
58B
  8
LAYER_1
 10
291.87995505908702
 20
140.31502535906901
 30
0.0
 11
291.97924492808011
 21
140.32090377973839
 31
0.0
  0
LINE
  5
58C
  8
LAYER_1
 10
291.97924492808011
 20
140.32090377973839
 30
0.0
 11
292.0411742401609
 21
140.3020485869832
 31
0.0
  0
LINE
  5
58D
  8
LAYER_1
 10
292.0411742401609
 20
140.3020485869832
 30
0.0
 11
292.060066101941
 21
140.26255807771321
 31
0.0
  0
LINE
  5
58E
  8
LAYER_1
 10
292.060066101941
 20
140.26255807771321
 30
0.0
 11
292.03024392475879
 21
140.20653014253219
 31
0.0
  0
LINE
  5
58F
  8
LAYER_1
 10
292.03024392475879
 20
140.20653014253219
 30
0.0
 11
291.74929194359561
 21
140.0004374188857
 31
0.0
  0
LINE
  5
590
  8
LAYER_1
 10
291.74929194359561
 20
140.0004374188857
 30
0.0
 11
291.56930837893327
 21
139.87400688410321
 31
0.0
  0
LINE
  5
591
  8
LAYER_1
 10
291.56930837893327
 20
139.87400688410321
 30
0.0
 11
291.4657267102794
 21
139.7654225851964
 31
0.0
  0
LINE
  5
592
  8
LAYER_1
 10
291.4657267102794
 20
139.7654225851964
 30
0.0
 11
291.41824794007653
 21
139.64374226368801
 31
0.0
  0
LINE
  5
593
  8
LAYER_1
 10
291.41824794007653
 20
139.64374226368801
 30
0.0
 11
291.40657307077072
 21
139.4780238642517
 31
0.0
  0
LINE
  5
594
  8
LAYER_1
 10
291.40657307077072
 20
139.4780238642517
 30
0.0
 11
291.41982348927041
 21
139.2878865346097
 31
0.0
  0
LINE
  5
595
  8
LAYER_1
 10
291.41982348927041
 20
139.2878865346097
 30
0.0
 11
291.44782582637993
 21
139.23357950423579
 31
0.0
  0
LINE
  5
596
  8
LAYER_1
 10
291.44782582637993
 20
139.23357950423579
 30
0.0
 11
291.49971869404959
 21
139.17509890895249
 31
0.0
  0
LINE
  5
597
  8
LAYER_1
 10
291.49971869404959
 20
139.17509890895249
 30
0.0
 11
291.6039150005858
 21
139.09037954339061
 31
0.0
  0
LINE
  5
598
  8
LAYER_1
 10
291.6039150005858
 20
139.09037954339061
 30
0.0
 11
291.7516350029249
 21
139.0019814924029
 31
0.0
  0
LINE
  5
599
  8
LAYER_1
 10
291.7516350029249
 20
139.0019814924029
 30
0.0
 11
291.92945164147119
 21
138.91705348922659
 31
0.0
  0
LINE
  5
59A
  8
LAYER_1
 10
291.92945164147119
 20
138.91705348922659
 30
0.0
 11
292.12393765347628
 21
138.84274457182491
 31
0.0
  0
LINE
  5
59B
  8
LAYER_1
 10
292.12393765347628
 20
138.84274457182491
 30
0.0
 11
292.37429070388299
 21
138.76697905101619
 31
0.0
  0
LINE
  5
59C
  8
LAYER_1
 10
292.37429070388299
 20
138.76697905101619
 30
0.0
 11
292.6038836005643
 21
138.7180339260866
 31
0.0
  0
LINE
  5
59D
  8
LAYER_1
 10
292.6038836005643
 20
138.7180339260866
 30
0.0
 11
292.840444627914
 21
138.6914144480275
 31
0.0
  0
LINE
  5
59E
  8
LAYER_1
 10
292.840444627914
 20
138.6914144480275
 30
0.0
 11
293.11170267977542
 21
138.68262576625531
 31
0.0
  0
LINE
  5
59F
  8
LAYER_1
 10
293.11170267977542
 20
138.68262576625531
 30
0.0
 11
293.49870818760797
 21
138.68084381412291
 31
0.0
  0
LINE
  5
5A0
  8
LAYER_1
 10
293.49870818760797
 20
138.68084381412291
 30
0.0
 11
293.69719935110248
 21
138.7918344543624
 31
0.0
  0
LINE
  5
5A1
  8
LAYER_1
 10
293.69719935110248
 20
138.7918344543624
 30
0.0
 11
293.93220392558879
 21
138.91122636456259
 31
0.0
  0
LINE
  5
5A2
  8
LAYER_1
 10
293.93220392558879
 20
138.91122636456259
 30
0.0
 11
294.14177898777308
 21
138.98728066664711
 31
0.0
  0
LINE
  5
5A3
  8
LAYER_1
 10
294.14177898777308
 20
138.98728066664711
 30
0.0
 11
294.35289689159839
 21
139.0274487910724
 31
0.0
  0
LINE
  5
5A4
  8
LAYER_1
 10
294.35289689159839
 20
139.0274487910724
 30
0.0
 11
294.59253019416872
 21
139.03918226987309
 31
0.0
  0
LINE
  5
5A5
  8
LAYER_1
 10
294.59253019416872
 20
139.03918226987309
 30
0.0
 11
294.88240016366939
 21
139.025185367521
 31
0.0
  0
LINE
  5
5A6
  8
LAYER_1
 10
294.88240016366939
 20
139.025185367521
 30
0.0
 11
295.11624270587049
 21
138.9641857828442
 31
0.0
  0
LINE
  5
5A7
  8
LAYER_1
 10
295.11624270587049
 20
138.9641857828442
 30
0.0
 11
295.30395033164268
 21
138.90995757563931
 31
0.0
  0
LINE
  5
5A8
  8
LAYER_1
 10
295.30395033164268
 20
138.90995757563931
 30
0.0
 11
295.47959780939732
 21
138.8776191516221
 31
0.0
  0
LINE
  5
5A9
  8
LAYER_1
 10
295.47959780939732
 20
138.8776191516221
 30
0.0
 11
295.61944199570962
 21
138.87016548648671
 31
0.0
  0
LINE
  5
5AA
  8
LAYER_1
 10
295.61944199570962
 20
138.87016548648671
 30
0.0
 11
295.69973984874019
 21
138.89059104804809
 31
0.0
  0
LINE
  5
5AB
  8
LAYER_1
 10
295.69973984874019
 20
138.89059104804809
 30
0.0
 11
296.02871870554389
 21
139.07207347183609
 31
0.0
  0
LINE
  5
5AC
  8
LAYER_1
 10
296.02871870554389
 20
139.07207347183609
 30
0.0
 11
296.42274983619973
 21
139.24569876963
 31
0.0
  0
LINE
  5
5AD
  8
LAYER_1
 10
296.42274983619973
 20
139.24569876963
 30
0.0
 11
296.63215485974291
 21
139.2915877699632
 31
0.0
  0
LINE
  5
5AE
  8
LAYER_1
 10
296.63215485974291
 20
139.2915877699632
 30
0.0
 11
296.91009002631858
 21
139.31743638586931
 31
0.0
  0
LINE
  5
5AF
  8
LAYER_1
 10
296.91009002631858
 20
139.31743638586931
 30
0.0
 11
297.1217341966879
 21
139.32239411942021
 31
0.0
  0
LINE
  5
5B0
  8
LAYER_1
 10
297.1217341966879
 20
139.32239411942021
 30
0.0
 11
297.28784122685238
 21
139.30220208165429
 31
0.0
  0
LINE
  5
5B1
  8
LAYER_1
 10
297.28784122685238
 20
139.30220208165429
 30
0.0
 11
297.47853133444153
 21
139.24083093106029
 31
0.0
  0
LINE
  5
5B2
  8
LAYER_1
 10
297.47853133444153
 20
139.24083093106029
 30
0.0
 11
297.76392422920082
 21
139.12225142769779
 31
0.0
  0
LINE
  5
5B3
  8
LAYER_1
 10
297.76392422920082
 20
139.12225142769779
 30
0.0
 11
297.98708308313388
 21
139.0266716311927
 31
0.0
  0
LINE
  5
5B4
  8
LAYER_1
 10
297.98708308313388
 20
139.0266716311927
 30
0.0
 11
298.2260243467195
 21
139.0758552571547
 31
0.0
  0
LINE
  5
5B5
  8
LAYER_1
 10
298.2260243467195
 20
139.0758552571547
 30
0.0
 11
298.5007114095871
 21
139.15570333055439
 31
0.0
  0
LINE
  5
5B6
  8
LAYER_1
 10
298.5007114095871
 20
139.15570333055439
 30
0.0
 11
298.60733427113058
 21
139.20704565495461
 31
0.0
  0
LINE
  5
5B7
  8
LAYER_1
 10
298.60733427113058
 20
139.20704565495461
 30
0.0
 11
298.69385153629491
 21
139.26631021572629
 31
0.0
  0
LINE
  5
5B8
  8
LAYER_1
 10
298.69385153629491
 20
139.26631021572629
 30
0.0
 11
298.76054436813979
 21
139.33372952090181
 31
0.0
  0
LINE
  5
5B9
  8
LAYER_1
 10
298.76054436813979
 20
139.33372952090181
 30
0.0
 11
298.80769392972041
 21
139.4095359769392
 31
0.0
  0
LINE
  5
5BA
  8
LAYER_1
 10
298.80769392972041
 20
139.4095359769392
 30
0.0
 11
298.83558148566863
 21
139.493962193447
 31
0.0
  0
LINE
  5
5BB
  8
LAYER_1
 10
298.83558148566863
 20
139.493962193447
 30
0.0
 11
298.8444880974659
 21
139.58724057688309
 31
0.0
  0
LINE
  5
5BC
  8
LAYER_1
 10
298.8444880974659
 20
139.58724057688309
 30
0.0
 11
298.82626968621452
 21
139.73035145535829
 31
0.0
  0
LINE
  5
5BD
  8
LAYER_1
 10
298.82626968621452
 20
139.73035145535829
 30
0.0
 11
298.77212274000931
 21
139.86834766497881
 31
0.0
  0
LINE
  5
5BE
  8
LAYER_1
 10
298.77212274000931
 20
139.86834766497881
 30
0.0
 11
298.68061320536782
 21
140.00247635892771
 31
0.0
  0
LINE
  5
5BF
  8
LAYER_1
 10
298.68061320536782
 20
140.00247635892771
 30
0.0
 11
298.55030702881442
 21
140.13398489353929
 31
0.0
  0
LINE
  5
5C0
  8
LAYER_1
 10
298.55030702881442
 20
140.13398489353929
 30
0.0
 11
298.37976995371179
 21
140.26412042199539
 31
0.0
  0
LINE
  5
5C1
  8
LAYER_1
 10
298.37976995371179
 20
140.26412042199539
 30
0.0
 11
298.16756812973568
 21
140.39413019905601
 31
0.0
  0
LINE
  5
5C2
  8
LAYER_1
 10
298.16756812973568
 20
140.39413019905601
 30
0.0
 11
297.91226730025119
 21
140.52526137790329
 31
0.0
  0
LINE
  5
5C3
  8
LAYER_1
 10
297.91226730025119
 20
140.52526137790329
 30
0.0
 11
297.6124334117776
 21
140.65876121329589
 31
0.0
  0
LINE
  5
5C4
  8
LAYER_1
 10
297.6124334117776
 20
140.65876121329589
 30
0.0
 11
297.07859679535858
 21
140.891224146887
 31
0.0
  0
LINE
  5
5C5
  8
LAYER_1
 10
297.07859679535858
 20
140.891224146887
 30
0.0
 11
296.98128227967783
 21
140.94991622392081
 31
0.0
  0
LINE
  5
5C6
  8
LAYER_1
 10
296.98128227967783
 20
140.94991622392081
 30
0.0
 11
296.92754174004449
 21
141.00542419028309
 31
0.0
  0
LINE
  5
5C7
  8
LAYER_1
 10
296.92754174004449
 20
141.00542419028309
 30
0.0
 11
296.88246270871821
 21
141.078256290604
 31
0.0
  0
LINE
  5
5C8
  8
LAYER_1
 10
296.88246270871821
 20
141.078256290604
 30
0.0
 11
296.87141994840857
 21
141.1439030902383
 31
0.0
  0
LINE
  5
5C9
  8
LAYER_1
 10
296.87141994840857
 20
141.1439030902383
 30
0.0
 11
296.89506182031272
 21
141.20909696137949
 31
0.0
  0
LINE
  5
5CA
  8
LAYER_1
 10
296.89506182031272
 20
141.20909696137949
 30
0.0
 11
296.95403638089419
 21
141.28057027621989
 31
0.0
  0
LINE
  5
5CB
  8
LAYER_1
 10
296.95403638089419
 20
141.28057027621989
 30
0.0
 11
297.04098361832001
 21
141.36751741206999
 31
0.0
  0
LINE
  5
5CC
  8
LAYER_1
 10
297.04098361832001
 20
141.36751741206999
 30
0.0
 11
297.76388126244768
 21
141.35343701404111
 31
0.0
  0
LINE
  5
5CD
  8
LAYER_1
 10
297.76388126244768
 20
141.35343701404111
 30
0.0
 11
298.32916415869067
 21
141.33338931612539
 31
0.0
  0
LINE
  5
5CE
  8
LAYER_1
 10
298.32916415869067
 20
141.33338931612539
 30
0.0
 11
298.67311515141432
 21
141.3049617808378
 31
0.0
  0
LINE
  5
5CF
  8
LAYER_1
 10
298.67311515141432
 20
141.3049617808378
 30
0.0
 11
299.10083851433052
 21
141.21578565578471
 31
0.0
  0
LINE
  5
5D0
  8
LAYER_1
 10
299.10083851433052
 20
141.21578565578471
 30
0.0
 11
299.46324966977397
 21
141.11452337919511
 31
0.0
  0
LINE
  5
5D1
  8
LAYER_1
 10
299.46324966977397
 20
141.11452337919511
 30
0.0
 11
299.79968209013919
 21
140.98837542953621
 31
0.0
  0
LINE
  5
5D2
  8
LAYER_1
 10
299.79968209013919
 20
140.98837542953621
 30
0.0
 11
300.1494695525393
 21
140.82454248843041
 31
0.0
  0
LINE
  5
5D3
  8
LAYER_1
 10
300.1494695525393
 20
140.82454248843041
 30
0.0
 11
300.51254938442833
 21
140.62068576274709
 31
0.0
  0
LINE
  5
5D4
  8
LAYER_1
 10
300.51254938442833
 20
140.62068576274709
 30
0.0
 11
300.78426391995231
 21
140.41622994034969
 31
0.0
  0
LINE
  5
5D5
  8
LAYER_1
 10
300.78426391995231
 20
140.41622994034969
 30
0.0
 11
300.89337326649041
 21
140.30697066726941
 31
0.0
  0
LINE
  5
5D6
  8
LAYER_1
 10
300.89337326649041
 20
140.30697066726941
 30
0.0
 11
300.98865808556752
 21
140.1893935183306
 31
0.0
  0
LINE
  5
5D7
  8
LAYER_1
 10
300.98865808556752
 20
140.1893935183306
 30
0.0
 11
301.14977670615377
 21
139.91839529851279
 31
0.0
  0
LINE
  5
5D8
  8
LAYER_1
 10
301.14977670615377
 20
139.91839529851279
 30
0.0
 11
301.30380185098528
 21
139.53910217052109
 31
0.0
  0
LINE
  5
5D9
  8
LAYER_1
 10
301.30380185098528
 20
139.53910217052109
 30
0.0
 11
301.3506270796014
 21
139.37251996666529
 31
0.0
  0
LINE
  5
5DA
  8
LAYER_1
 10
301.3506270796014
 20
139.37251996666529
 30
0.0
 11
301.36794775996742
 21
139.25004755356889
 31
0.0
  0
LINE
  5
5DB
  8
LAYER_1
 10
301.36794775996742
 20
139.25004755356889
 30
0.0
 11
301.29223455092779
 21
138.95823158629321
 31
0.0
  0
LINE
  5
5DC
  8
LAYER_1
 10
301.29223455092779
 20
138.95823158629321
 30
0.0
 11
301.20342653819841
 21
138.73642156336851
 31
0.0
  0
LINE
  5
5DD
  8
LAYER_1
 10
301.20342653819841
 20
138.73642156336851
 30
0.0
 11
301.07544584828372
 21
138.56539224976569
 31
0.0
  0
LINE
  5
5DE
  8
LAYER_1
 10
301.07544584828372
 20
138.56539224976569
 30
0.0
 11
300.84828570275982
 21
138.35521098052871
 31
0.0
  0
LINE
  5
5DF
  8
LAYER_1
 10
300.84828570275982
 20
138.35521098052871
 30
0.0
 11
300.57138854387051
 21
138.16823561793541
 31
0.0
  0
LINE
  5
5E0
  8
LAYER_1
 10
300.57138854387051
 20
138.16823561793541
 30
0.0
 11
300.2421513786644
 21
138.00295348848721
 31
0.0
  0
LINE
  5
5E1
  8
LAYER_1
 10
300.2421513786644
 20
138.00295348848721
 30
0.0
 11
299.85797121419142
 21
137.85785191868871
 31
0.0
  0
LINE
  5
5E2
  8
LAYER_1
 10
299.85797121419142
 20
137.85785191868871
 30
0.0
 11
299.67450917089138
 21
137.78862526731839
 31
0.0
  0
LINE
  5
5E3
  8
LAYER_1
 10
299.67450917089138
 20
137.78862526731839
 30
0.0
 11
299.60735223716779
 21
137.74502630351469
 31
0.0
  0
LINE
  5
5E4
  8
LAYER_1
 10
299.60735223716779
 20
137.74502630351469
 30
0.0
 11
299.70641985732601
 21
137.67667940403479
 31
0.0
  0
LINE
  5
5E5
  8
LAYER_1
 10
299.70641985732601
 20
137.67667940403479
 30
0.0
 11
299.91157574322892
 21
137.57324979502511
 31
0.0
  0
LINE
  5
5E6
  8
LAYER_1
 10
299.91157574322892
 20
137.57324979502511
 30
0.0
 11
300.16106671601369
 21
137.46366984572811
 31
0.0
  0
LINE
  5
5E7
  8
LAYER_1
 10
300.16106671601369
 20
137.46366984572811
 30
0.0
 11
300.39313959680982
 21
137.3768720269635
 31
0.0
  0
LINE
  5
5E8
  8
LAYER_1
 10
300.39313959680982
 20
137.3768720269635
 30
0.0
 11
300.75025446506743
 21
137.28085575731779
 31
0.0
  0
LINE
  5
5E9
  8
LAYER_1
 10
300.75025446506743
 20
137.28085575731779
 30
0.0
 11
301.05248240414687
 21
137.2265479143343
 31
0.0
  0
LINE
  5
5EA
  8
LAYER_1
 10
301.05248240414687
 20
137.2265479143343
 30
0.0
 11
301.13072171291782
 21
137.20743939041481
 31
0.0
  0
LINE
  5
5EB
  8
LAYER_1
 10
301.13072171291782
 20
137.20743939041481
 30
0.0
 11
301.14727112482609
 21
137.1894748182084
 31
0.0
  0
LINE
  5
5EC
  8
LAYER_1
 10
301.14727112482609
 20
137.1894748182084
 30
0.0
 11
301.14870700668013
 21
137.16561120535519
 31
0.0
  0
LINE
  5
5ED
  8
LAYER_1
 10
301.14870700668013
 20
137.16561120535519
 30
0.0
 11
301.10603817658478
 21
137.09931035625539
 31
0.0
  0
LINE
  5
5EE
  8
LAYER_1
 10
301.10603817658478
 20
137.09931035625539
 30
0.0
 11
301.00231501221469
 21
137.00678353548381
 31
0.0
  0
LINE
  5
5EF
  8
LAYER_1
 10
301.00231501221469
 20
137.00678353548381
 30
0.0
 11
300.88150794171719
 21
136.89437712548769
 31
0.0
  0
LINE
  5
5F0
  8
LAYER_1
 10
300.88150794171719
 20
136.89437712548769
 30
0.0
 11
300.85824535552848
 21
136.84976524333101
 31
0.0
  0
LINE
  5
5F1
  8
LAYER_1
 10
300.85824535552848
 20
136.84976524333101
 30
0.0
 11
300.85181283642271
 21
136.80209510347581
 31
0.0
  0
LINE
  5
5F2
  8
LAYER_1
 10
300.85181283642271
 20
136.80209510347581
 30
0.0
 11
300.84686576837839
 21
136.75438666937541
 31
0.0
  0
LINE
  5
5F3
  8
LAYER_1
 10
300.84686576837839
 20
136.75438666937541
 30
0.0
 11
300.82558229381948
 21
136.71874529047639
 31
0.0
  0
LINE
  5
5F4
  8
LAYER_1
 10
300.82558229381948
 20
136.71874529047639
 30
0.0
 11
300.6953525026052
 21
136.64480550116349
 31
0.0
  0
LINE
  5
5F5
  8
LAYER_1
 10
300.6953525026052
 20
136.64480550116349
 30
0.0
 11
300.56357062630758
 21
136.5675214154351
 31
0.0
  0
LINE
  5
5F6
  8
LAYER_1
 10
300.56357062630758
 20
136.5675214154351
 30
0.0
 11
300.49279818758401
 21
136.4761028931141
 31
0.0
  0
LINE
  5
5F7
  8
LAYER_1
 10
300.49279818758401
 20
136.4761028931141
 30
0.0
 11
300.41464196818367
 21
136.376757665067
 31
0.0
  0
LINE
  5
5F8
  8
LAYER_1
 10
300.41464196818367
 20
136.376757665067
 30
0.0
 11
300.27534954405257
 21
136.27320078101761
 31
0.0
  0
LINE
  5
5F9
  8
LAYER_1
 10
300.27534954405257
 20
136.27320078101761
 30
0.0
 11
300.10841923839098
 21
136.18690921827709
 31
0.0
  0
LINE
  5
5FA
  8
LAYER_1
 10
300.10841923839098
 20
136.18690921827709
 30
0.0
 11
300.04348093309352
 21
136.1792471186796
 31
0.0
  0
LINE
  5
5FB
  8
LAYER_1
 10
300.04348093309352
 20
136.1792471186796
 30
0.0
 11
299.9611311382622
 21
136.18708372627259
 31
0.0
  0
LINE
  5
5FC
  8
LAYER_1
 10
299.9611311382622
 20
136.18708372627259
 30
0.0
 11
299.83462076454782
 21
136.1926386265892
 31
0.0
  0
LINE
  5
5FD
  8
LAYER_1
 10
299.83462076454782
 20
136.1926386265892
 30
0.0
 11
299.75005975635821
 21
136.16204132105199
 31
0.0
  0
LINE
  5
5FE
  8
LAYER_1
 10
299.75005975635821
 20
136.16204132105199
 30
0.0
 11
299.68185252422109
 21
136.1173505141499
 31
0.0
  0
LINE
  5
5FF
  8
LAYER_1
 10
299.68185252422109
 20
136.1173505141499
 30
0.0
 11
299.7891791060153
 21
135.90840908460569
 31
0.0
  0
LINE
  5
600
  8
LAYER_1
 10
299.7891791060153
 20
135.90840908460569
 30
0.0
 11
300.06887743311609
 21
135.3697966576986
 31
0.0
  0
LINE
  5
601
  8
LAYER_1
 10
300.06887743311609
 20
135.3697966576986
 30
0.0
 11
300.31599558472908
 21
134.84954952129851
 31
0.0
  0
LINE
  5
602
  8
LAYER_1
 10
300.31599558472908
 20
134.84954952129851
 30
0.0
 11
300.40112745143648
 21
134.632226629163
 31
0.0
  0
LINE
  5
603
  8
LAYER_1
 10
300.40112745143648
 20
134.632226629163
 30
0.0
 11
300.45076796736578
 21
134.46678380608981
 31
0.0
  0
LINE
  5
604
  8
LAYER_1
 10
300.45076796736578
 20
134.46678380608981
 30
0.0
 11
300.50277236575482
 21
134.24570929678271
 31
0.0
  0
LINE
  5
605
  8
LAYER_1
 10
300.50277236575482
 20
134.24570929678271
 30
0.0
 11
300.56087326902161
 21
134.09791605796781
 31
0.0
  0
LINE
  5
606
  8
LAYER_1
 10
300.56087326902161
 20
134.09791605796781
 30
0.0
 11
300.66397976398332
 21
133.95267817284289
 31
0.0
  0
LINE
  5
607
  8
LAYER_1
 10
300.66397976398332
 20
133.95267817284289
 30
0.0
 11
300.85100073431209
 21
133.73926962303071
 31
0.0
  0
LINE
  5
608
  8
LAYER_1
 10
300.85100073431209
 20
133.73926962303071
 30
0.0
 11
301.15101634269519
 21
133.37939817853359
 31
0.0
  0
LINE
  5
609
  8
LAYER_1
 10
301.15101634269519
 20
133.37939817853359
 30
0.0
 11
301.38308526201689
 21
133.04487691529039
 31
0.0
  0
LINE
  5
60A
  8
LAYER_1
 10
301.38308526201689
 20
133.04487691529039
 30
0.0
 11
301.55697293126019
 21
132.7198398263958
 31
0.0
  0
LINE
  5
60B
  8
LAYER_1
 10
301.55697293126019
 20
132.7198398263958
 30
0.0
 11
301.6824450941358
 21
132.38842090494279
 31
0.0
  0
LINE
  5
60C
  8
LAYER_1
 10
301.6824450941358
 20
132.38842090494279
 30
0.0
 11
301.7679364391887
 21
132.1197864660104
 31
0.0
  0
LINE
  5
60D
  8
LAYER_1
 10
301.7679364391887
 20
132.1197864660104
 30
0.0
 11
301.83737568964892
 21
131.95588689088481
 31
0.0
  0
LINE
  5
60E
  8
LAYER_1
 10
301.83737568964892
 20
131.95588689088481
 30
0.0
 11
301.92603286164598
 21
131.83266850181721
 31
0.0
  0
LINE
  5
60F
  8
LAYER_1
 10
301.92603286164598
 20
131.83266850181721
 30
0.0
 11
302.06917827604468
 21
131.68607751948321
 31
0.0
  0
LINE
  5
610
  8
LAYER_1
 10
302.06917827604468
 20
131.68607751948321
 30
0.0
 11
302.33516909152797
 21
131.3889363157891
 31
0.0
  0
LINE
  5
611
  8
LAYER_1
 10
302.33516909152797
 20
131.3889363157891
 30
0.0
 11
302.55888082498223
 21
131.0593412974597
 31
0.0
  0
LINE
  5
612
  8
LAYER_1
 10
302.55888082498223
 20
131.0593412974597
 30
0.0
 11
302.74966458587028
 21
130.68132874123631
 31
0.0
  0
LINE
  5
613
  8
LAYER_1
 10
302.74966458587028
 20
130.68132874123631
 30
0.0
 11
302.91687168680983
 21
130.2389346191332
 31
0.0
  0
LINE
  5
614
  8
LAYER_1
 10
302.91687168680983
 20
130.2389346191332
 30
0.0
 11
303.01579019303517
 21
129.98842503972659
 31
0.0
  0
LINE
  5
615
  8
LAYER_1
 10
303.01579019303517
 20
129.98842503972659
 30
0.0
 11
303.20247342233728
 21
129.722382928239
 31
0.0
  0
LINE
  5
616
  8
LAYER_1
 10
303.20247342233728
 20
129.722382928239
 30
0.0
 11
303.3396624055078
 21
129.53010376181589
 31
0.0
  0
LINE
  5
617
  8
LAYER_1
 10
303.3396624055078
 20
129.53010376181589
 30
0.0
 11
303.44949162291908
 21
129.34860762523391
 31
0.0
  0
LINE
  5
618
  8
LAYER_1
 10
303.44949162291908
 20
129.34860762523391
 30
0.0
 11
303.53379645581123
 21
129.17104858405409
 31
0.0
  0
LINE
  5
619
  8
LAYER_1
 10
303.53379645581123
 20
129.17104858405409
 30
0.0
 11
303.59441238699708
 21
128.99058039910969
 31
0.0
  0
LINE
  5
61A
  8
LAYER_1
 10
303.59441238699708
 20
128.99058039910969
 30
0.0
 11
303.63317469613952
 21
128.80035693280831
 31
0.0
  0
LINE
  5
61B
  8
LAYER_1
 10
303.63317469613952
 20
128.80035693280831
 30
0.0
 11
303.65191866290132
 21
128.59353204756059
 31
0.0
  0
LINE
  5
61C
  8
LAYER_1
 10
303.65191866290132
 20
128.59353204756059
 30
0.0
 11
303.65247987167533
 21
128.36325950419811
 31
0.0
  0
LINE
  5
61D
  8
LAYER_1
 10
303.65247987167533
 20
128.36325950419811
 30
0.0
 11
303.63669360212401
 21
128.10269316512981
 31
0.0
  0
LINE
  5
61E
  8
LAYER_1
 10
303.63669360212401
 20
128.10269316512981
 30
0.0
 11
303.61047138877359
 21
127.8422966615487
 31
0.0
  0
LINE
  5
61F
  8
LAYER_1
 10
303.61047138877359
 20
127.8422966615487
 30
0.0
 11
303.57692461370181
 21
127.6385259709492
 31
0.0
  0
LINE
  5
620
  8
LAYER_1
 10
303.57692461370181
 20
127.6385259709492
 30
0.0
 11
303.52766683707802
 21
127.4518359360379
 31
0.0
  0
LINE
  5
621
  8
LAYER_1
 10
303.52766683707802
 20
127.4518359360379
 30
0.0
 11
303.45431192380647
 21
127.2426809932193
 31
0.0
  0
LINE
  5
622
  8
LAYER_1
 10
303.45431192380647
 20
127.2426809932193
 30
0.0
 11
303.3514746059019
 21
126.9979453125224
 31
0.0
  0
LINE
  5
623
  8
LAYER_1
 10
303.3514746059019
 20
126.9979453125224
 30
0.0
 11
303.23209579903858
 21
126.7818949676323
 31
0.0
  0
LINE
  5
624
  8
LAYER_1
 10
303.23209579903858
 20
126.7818949676323
 30
0.0
 11
303.0718879110982
 21
126.5561508965924
 31
0.0
  0
LINE
  5
625
  8
LAYER_1
 10
303.0718879110982
 20
126.5561508965924
 30
0.0
 11
302.84656274050923
 21
126.28233393587099
 31
0.0
  0
LINE
  5
626
  8
LAYER_1
 10
302.84656274050923
 20
126.28233393587099
 30
0.0
 11
302.60901246207311
 21
125.9921693952481
 31
0.0
  0
LINE
  5
627
  8
LAYER_1
 10
302.60901246207311
 20
125.9921693952481
 30
0.0
 11
302.50319428757462
 21
125.83799432387519
 31
0.0
  0
LINE
  5
628
  8
LAYER_1
 10
302.50319428757462
 20
125.83799432387519
 30
0.0
 11
302.45328621980639
 21
125.41242884678751
 31
0.0
  0
LINE
  5
629
  8
LAYER_1
 10
302.45328621980639
 20
125.41242884678751
 30
0.0
 11
302.45116957393338
 21
124.9493149983073
 31
0.0
  0
LINE
  5
62A
  8
LAYER_1
 10
302.45116957393338
 20
124.9493149983073
 30
0.0
 11
302.47150259953332
 21
124.6339772222552
 31
0.0
  0
LINE
  5
62B
  8
LAYER_1
 10
302.47150259953332
 20
124.6339772222552
 30
0.0
 11
302.5203386315701
 21
124.79164611028111
 31
0.0
  0
LINE
  5
62C
  8
LAYER_1
 10
302.5203386315701
 20
124.79164611028111
 30
0.0
 11
302.60067548987928
 21
125.07262643121869
 31
0.0
  0
LINE
  5
62D
  8
LAYER_1
 10
302.60067548987928
 20
125.07262643121869
 30
0.0
 11
302.63015322200249
 21
125.1537303933581
 31
0.0
  0
LINE
  5
62E
  8
LAYER_1
 10
302.63015322200249
 20
125.1537303933581
 30
0.0
 11
302.66731275951543
 21
125.2035858446296
 31
0.0
  0
LINE
  5
62F
  8
LAYER_1
 10
302.66731275951543
 20
125.2035858446296
 30
0.0
 11
302.7086203662999
 21
125.2192424013104
 31
0.0
  0
LINE
  5
630
  8
LAYER_1
 10
302.7086203662999
 20
125.2192424013104
 30
0.0
 11
302.75054210308389
 21
125.1977495781036
 31
0.0
  0
LINE
  5
631
  8
LAYER_1
 10
302.75054210308389
 20
125.1977495781036
 30
0.0
 11
302.77390240562409
 21
125.0234226931597
 31
0.0
  0
LINE
  5
632
  8
LAYER_1
 10
302.77390240562409
 20
125.0234226931597
 30
0.0
 11
302.77597740523493
 21
124.670581645569
 31
0.0
  0
LINE
  5
633
  8
LAYER_1
 10
302.77597740523493
 20
124.670581645569
 30
0.0
 11
302.75967969927228
 21
124.28951469154519
 31
0.0
  0
LINE
  5
634
  8
LAYER_1
 10
302.75967969927228
 20
124.28951469154519
 30
0.0
 11
302.72792178351642
 21
124.0305099857257
 31
0.0
  0
LINE
  5
635
  8
LAYER_1
 10
302.72792178351642
 20
124.0305099857257
 30
0.0
 11
302.65213249386562
 21
123.8086658331809
 31
0.0
  0
LINE
  5
636
  8
LAYER_1
 10
302.65213249386562
 20
123.8086658331809
 30
0.0
 11
302.54347130173869
 21
123.5926812081233
 31
0.0
  0
LINE
  5
637
  8
LAYER_1
 10
302.54347130173869
 20
123.5926812081233
 30
0.0
 11
302.40629095254798
 21
123.389969348341
 31
0.0
  0
LINE
  5
638
  8
LAYER_1
 10
302.40629095254798
 20
123.389969348341
 30
0.0
 11
302.24494409012982
 21
123.2079432884685
 31
0.0
  0
LINE
  5
639
  8
LAYER_1
 10
302.24494409012982
 20
123.2079432884685
 30
0.0
 11
302.09856398008787
 21
123.0721001905936
 31
0.0
  0
LINE
  5
63A
  8
LAYER_1
 10
302.09856398008787
 20
123.0721001905936
 30
0.0
 11
301.92343423647333
 21
122.9536275454449
 31
0.0
  0
LINE
  5
63B
  8
LAYER_1
 10
301.92343423647333
 20
122.9536275454449
 30
0.0
 11
301.61094404898103
 21
122.7896026252285
 31
0.0
  0
LINE
  5
63C
  8
LAYER_1
 10
301.61094404898103
 20
122.7896026252285
 30
0.0
 11
301.05248240414687
 21
122.5171029053012
 31
0.0
  0
LINE
  5
63D
  8
LAYER_1
 10
301.05248240414687
 20
122.5171029053012
 30
0.0
 11
300.56882922870591
 21
122.2977365021929
 31
0.0
  0
LINE
  5
63E
  8
LAYER_1
 10
300.56882922870591
 20
122.2977365021929
 30
0.0
 11
300.47613643234348
 21
122.276081766445
 31
0.0
  0
LINE
  5
63F
  8
LAYER_1
 10
300.47613643234348
 20
122.276081766445
 30
0.0
 11
300.45658869272512
 21
122.28350678707849
 31
0.0
  0
LINE
  5
640
  8
LAYER_1
 10
300.45658869272512
 20
122.28350678707849
 30
0.0
 11
300.45091271351993
 21
122.3016695345452
 31
0.0
  0
LINE
  5
641
  8
LAYER_1
 10
300.45091271351993
 20
122.3016695345452
 30
0.0
 11
300.45091271351993
 21
122.3016695345452
 31
0.0
  0
LINE
  5
642
  8
LAYER_1
 10
292.95403379174883
 20
133.57766526482209
 30
0.0
 11
293.25503804176037
 21
133.66294756595479
 31
0.0
  0
LINE
  5
643
  8
LAYER_1
 10
293.25503804176037
 20
133.66294756595479
 30
0.0
 11
293.48106926885549
 21
133.7370292572875
 31
0.0
  0
LINE
  5
644
  8
LAYER_1
 10
293.48106926885549
 20
133.7370292572875
 30
0.0
 11
293.67071060167359
 21
133.779456234333
 31
0.0
  0
LINE
  5
645
  8
LAYER_1
 10
293.67071060167359
 20
133.779456234333
 30
0.0
 11
293.88571369543922
 21
133.83121177091411
 31
0.0
  0
LINE
  5
646
  8
LAYER_1
 10
293.88571369543922
 20
133.83121177091411
 30
0.0
 11
294.23466366166969
 21
133.85650649153621
 31
0.0
  0
LINE
  5
647
  8
LAYER_1
 10
294.23466366166969
 20
133.85650649153621
 30
0.0
 11
295.11839795071819
 21
133.86463188040449
 31
0.0
  0
LINE
  5
648
  8
LAYER_1
 10
295.11839795071819
 20
133.86463188040449
 30
0.0
 11
296.12205569847612
 21
133.87349715066921
 31
0.0
  0
LINE
  5
649
  8
LAYER_1
 10
296.12205569847612
 20
133.87349715066921
 30
0.0
 11
296.3082326717556
 21
133.8927291913075
 31
0.0
  0
LINE
  5
64A
  8
LAYER_1
 10
296.3082326717556
 20
133.8927291913075
 30
0.0
 11
296.43445456892232
 21
133.92921162154599
 31
0.0
  0
LINE
  5
64B
  8
LAYER_1
 10
296.43445456892232
 20
133.92921162154599
 30
0.0
 11
296.59551732257268
 21
133.99307525013279
 31
0.0
  0
LINE
  5
64C
  8
LAYER_1
 10
296.59551732257268
 20
133.99307525013279
 30
0.0
 11
296.7504644750133
 21
134.07328656019831
 31
0.0
  0
LINE
  5
64D
  8
LAYER_1
 10
296.7504644750133
 20
134.07328656019831
 30
0.0
 11
297.13942664612563
 21
134.3394377645765
 31
0.0
  0
LINE
  5
64E
  8
LAYER_1
 10
297.13942664612563
 20
134.3394377645765
 30
0.0
 11
297.31619755719061
 21
134.46667166591101
 31
0.0
  0
LINE
  5
64F
  8
LAYER_1
 10
297.31619755719061
 20
134.46667166591101
 30
0.0
 11
297.45772933130161
 21
134.5528634807749
 31
0.0
  0
LINE
  5
650
  8
LAYER_1
 10
297.45772933130161
 20
134.5528634807749
 30
0.0
 11
297.60705626989602
 21
134.62082083534051
 31
0.0
  0
LINE
  5
651
  8
LAYER_1
 10
297.60705626989602
 20
134.62082083534051
 30
0.0
 11
297.80721297914192
 21
134.6933511526255
 31
0.0
  0
LINE
  5
652
  8
LAYER_1
 10
297.80721297914192
 20
134.6933511526255
 30
0.0
 11
297.98688785358303
 21
134.76577461169751
 31
0.0
  0
LINE
  5
653
  8
LAYER_1
 10
297.98688785358303
 20
134.76577461169751
 30
0.0
 11
298.15984843640541
 21
134.854788113176
 31
0.0
  0
LINE
  5
654
  8
LAYER_1
 10
298.15984843640541
 20
134.854788113176
 30
0.0
 11
298.30979204440581
 21
134.95103800819439
 31
0.0
  0
LINE
  5
655
  8
LAYER_1
 10
298.30979204440581
 20
134.95103800819439
 30
0.0
 11
298.42041579123588
 21
135.04517064788209
 31
0.0
  0
LINE
  5
656
  8
LAYER_1
 10
298.42041579123588
 20
135.04517064788209
 30
0.0
 11
298.50371776182288
 21
135.1574765989678
 31
0.0
  0
LINE
  5
657
  8
LAYER_1
 10
298.50371776182288
 20
135.1574765989678
 30
0.0
 11
298.58435741892811
 21
135.30714239592911
 31
0.0
  0
LINE
  5
658
  8
LAYER_1
 10
298.58435741892811
 20
135.30714239592911
 30
0.0
 11
298.64941365425221
 21
135.4667413342577
 31
0.0
  0
LINE
  5
659
  8
LAYER_1
 10
298.64941365425221
 20
135.4667413342577
 30
0.0
 11
298.6859657657983
 21
135.60884650629421
 31
0.0
  0
LINE
  5
65A
  8
LAYER_1
 10
298.6859657657983
 20
135.60884650629421
 30
0.0
 11
298.6901116003915
 21
135.72411431921751
 31
0.0
  0
LINE
  5
65B
  8
LAYER_1
 10
298.6901116003915
 20
135.72411431921751
 30
0.0
 11
298.65008852685042
 21
135.80414980079621
 31
0.0
  0
LINE
  5
65C
  8
LAYER_1
 10
298.65008852685042
 20
135.80414980079621
 30
0.0
 11
298.54761322669651
 21
135.8673281960088
 31
0.0
  0
LINE
  5
65D
  8
LAYER_1
 10
298.54761322669651
 20
135.8673281960088
 30
0.0
 11
298.36440258461141
 21
135.93202444510729
 31
0.0
  0
LINE
  5
65E
  8
LAYER_1
 10
298.36440258461141
 20
135.93202444510729
 30
0.0
 11
298.1480444636876
 21
136.0154950322667
 31
0.0
  0
LINE
  5
65F
  8
LAYER_1
 10
298.1480444636876
 20
136.0154950322667
 30
0.0
 11
298.00831048760318
 21
136.12060247775449
 31
0.0
  0
LINE
  5
660
  8
LAYER_1
 10
298.00831048760318
 20
136.12060247775449
 30
0.0
 11
297.93754668285942
 21
136.20722883581081
 31
0.0
  0
LINE
  5
661
  8
LAYER_1
 10
297.93754668285942
 20
136.20722883581081
 30
0.0
 11
297.90580501930418
 21
136.28239292365029
 31
0.0
  0
LINE
  5
662
  8
LAYER_1
 10
297.90580501930418
 20
136.28239292365029
 30
0.0
 11
297.91442142775782
 21
136.33851217587849
 31
0.0
  0
LINE
  5
663
  8
LAYER_1
 10
297.91442142775782
 20
136.33851217587849
 30
0.0
 11
297.96473143274278
 21
136.36800362079501
 31
0.0
  0
LINE
  5
664
  8
LAYER_1
 10
297.96473143274278
 20
136.36800362079501
 30
0.0
 11
298.05080765383599
 21
136.34896569236861
 31
0.0
  0
LINE
  5
665
  8
LAYER_1
 10
298.05080765383599
 20
136.34896569236861
 30
0.0
 11
298.18572701730483
 21
136.28946191953139
 31
0.0
  0
LINE
  5
666
  8
LAYER_1
 10
298.18572701730483
 20
136.28946191953139
 30
0.0
 11
298.35713074096151
 21
136.22185439356721
 31
0.0
  0
LINE
  5
667
  8
LAYER_1
 10
298.35713074096151
 20
136.22185439356721
 30
0.0
 11
298.53584693876729
 21
136.1989398076052
 31
0.0
  0
LINE
  5
668
  8
LAYER_1
 10
298.53584693876729
 20
136.1989398076052
 30
0.0
 11
298.73724785548319
 21
136.22067021765849
 31
0.0
  0
LINE
  5
669
  8
LAYER_1
 10
298.73724785548319
 20
136.22067021765849
 30
0.0
 11
298.97670604059829
 21
136.28699767973649
 31
0.0
  0
LINE
  5
66A
  8
LAYER_1
 10
298.97670604059829
 20
136.28699767973649
 30
0.0
 11
299.22872900453473
 21
136.35478276098351
 31
0.0
  0
LINE
  5
66B
  8
LAYER_1
 10
299.22872900453473
 20
136.35478276098351
 30
0.0
 11
299.47502063021091
 21
136.3920530166078
 31
0.0
  0
LINE
  5
66C
  8
LAYER_1
 10
299.47502063021091
 20
136.3920530166078
 30
0.0
 11
299.67971017955728
 21
136.41913771388599
 31
0.0
  0
LINE
  5
66D
  8
LAYER_1
 10
299.67971017955728
 20
136.41913771388599
 30
0.0
 11
299.7317843608314
 21
136.4402537907861
 31
0.0
  0
LINE
  5
66E
  8
LAYER_1
 10
299.7317843608314
 20
136.4402537907861
 30
0.0
 11
299.76601728346481
 21
136.4706524131806
 31
0.0
  0
LINE
  5
66F
  8
LAYER_1
 10
299.76601728346481
 20
136.4706524131806
 30
0.0
 11
299.82220256025352
 21
136.5146948588868
 31
0.0
  0
LINE
  5
670
  8
LAYER_1
 10
299.82220256025352
 20
136.5146948588868
 30
0.0
 11
299.91216061927042
 21
136.49459860752469
 31
0.0
  0
LINE
  5
671
  8
LAYER_1
 10
299.91216061927042
 20
136.49459860752469
 30
0.0
 11
300.01209976364419
 21
136.4633136307836
 31
0.0
  0
LINE
  5
672
  8
LAYER_1
 10
300.01209976364419
 20
136.4633136307836
 30
0.0
 11
300.06859281646609
 21
136.461799535219
 31
0.0
  0
LINE
  5
673
  8
LAYER_1
 10
300.06859281646609
 20
136.461799535219
 30
0.0
 11
300.09039138418262
 21
136.4934216435303
 31
0.0
  0
LINE
  5
674
  8
LAYER_1
 10
300.09039138418262
 20
136.4934216435303
 30
0.0
 11
300.08624687007938
 21
136.5615456847195
 31
0.0
  0
LINE
  5
675
  8
LAYER_1
 10
300.08624687007938
 20
136.5615456847195
 30
0.0
 11
300.06962970681508
 21
136.6639462247536
 31
0.0
  0
LINE
  5
676
  8
LAYER_1
 10
300.06962970681508
 20
136.6639462247536
 30
0.0
 11
300.17268236636443
 21
136.64461342047679
 31
0.0
  0
LINE
  5
677
  8
LAYER_1
 10
300.17268236636443
 20
136.64461342047679
 30
0.0
 11
300.26065796173458
 21
136.6391443520904
 31
0.0
  0
LINE
  5
678
  8
LAYER_1
 10
300.26065796173458
 20
136.6391443520904
 30
0.0
 11
300.27106830831872
 21
136.66097816676429
 31
0.0
  0
LINE
  5
679
  8
LAYER_1
 10
300.27106830831872
 20
136.66097816676429
 30
0.0
 11
300.26993654575517
 21
136.7060392190937
 31
0.0
  0
LINE
  5
67A
  8
LAYER_1
 10
300.26993654575517
 20
136.7060392190937
 30
0.0
 11
300.28064207291879
 21
136.77507023460859
 31
0.0
  0
LINE
  5
67B
  8
LAYER_1
 10
300.28064207291879
 20
136.77507023460859
 30
0.0
 11
300.35013901868552
 21
136.8023253768317
 31
0.0
  0
LINE
  5
67C
  8
LAYER_1
 10
300.35013901868552
 20
136.8023253768317
 30
0.0
 11
300.4194979223318
 21
136.83009165073969
 31
0.0
  0
LINE
  5
67D
  8
LAYER_1
 10
300.4194979223318
 20
136.83009165073969
 30
0.0
 11
300.44605391523572
 21
136.88933589626151
 31
0.0
  0
LINE
  5
67E
  8
LAYER_1
 10
300.44605391523572
 20
136.88933589626151
 30
0.0
 11
300.4872111891724
 21
136.99883813972809
 31
0.0
  0
LINE
  5
67F
  8
LAYER_1
 10
300.4872111891724
 20
136.99883813972809
 30
0.0
 11
300.49885589033079
 21
137.03221050838181
 31
0.0
  0
LINE
  5
680
  8
LAYER_1
 10
300.49885589033079
 20
137.03221050838181
 30
0.0
 11
300.4805971533097
 21
137.06102992483679
 31
0.0
  0
LINE
  5
681
  8
LAYER_1
 10
300.4805971533097
 20
137.06102992483679
 30
0.0
 11
300.43732363980638
 21
137.08138946183661
 31
0.0
  0
LINE
  5
682
  8
LAYER_1
 10
300.43732363980638
 20
137.08138946183661
 30
0.0
 11
300.37392350364343
 21
137.08938219212379
 31
0.0
  0
LINE
  5
683
  8
LAYER_1
 10
300.37392350364343
 20
137.08938219212379
 30
0.0
 11
300.19056313816583
 21
137.13252680536689
 31
0.0
  0
LINE
  5
684
  8
LAYER_1
 10
300.19056313816583
 20
137.13252680536689
 30
0.0
 11
299.90444346534559
 21
137.2350276011579
 31
0.0
  0
LINE
  5
685
  8
LAYER_1
 10
299.90444346534559
 20
137.2350276011579
 30
0.0
 11
299.6133481815566
 21
137.35858830218439
 31
0.0
  0
LINE
  5
686
  8
LAYER_1
 10
299.6133481815566
 20
137.35858830218439
 30
0.0
 11
299.41506088159292
 21
137.46491283428429
 31
0.0
  0
LINE
  5
687
  8
LAYER_1
 10
299.41506088159292
 20
137.46491283428429
 30
0.0
 11
299.30495954141179
 21
137.5198271890491
 31
0.0
  0
LINE
  5
688
  8
LAYER_1
 10
299.30495954141179
 20
137.5198271890491
 30
0.0
 11
299.15171602581529
 21
137.5732296829282
 31
0.0
  0
LINE
  5
689
  8
LAYER_1
 10
299.15171602581529
 20
137.5732296829282
 30
0.0
 11
298.8783396012858
 21
137.68914545074199
 31
0.0
  0
LINE
  5
68A
  8
LAYER_1
 10
298.8783396012858
 20
137.68914545074199
 30
0.0
 11
298.67650871230842
 21
137.7553147586008
 31
0.0
  0
LINE
  5
68B
  8
LAYER_1
 10
298.67650871230842
 20
137.7553147586008
 30
0.0
 11
298.49229642683372
 21
137.785148312323
 31
0.0
  0
LINE
  5
68C
  8
LAYER_1
 10
298.49229642683372
 20
137.785148312323
 30
0.0
 11
298.2717761175391
 21
137.7920569193071
 31
0.0
  0
LINE
  5
68D
  8
LAYER_1
 10
298.2717761175391
 20
137.7920569193071
 30
0.0
 11
297.96725184420421
 21
137.77977218620421
 31
0.0
  0
LINE
  5
68E
  8
LAYER_1
 10
297.96725184420421
 20
137.77977218620421
 30
0.0
 11
297.88899861948659
 21
137.7520544657439
 31
0.0
  0
LINE
  5
68F
  8
LAYER_1
 10
297.88899861948659
 20
137.7520544657439
 30
0.0
 11
297.8044546761069
 21
137.69885888268379
 31
0.0
  0
LINE
  5
690
  8
LAYER_1
 10
297.8044546761069
 20
137.69885888268379
 30
0.0
 11
297.57627937755188
 21
137.5605907534453
 31
0.0
  0
LINE
  5
691
  8
LAYER_1
 10
297.57627937755188
 20
137.5605907534453
 30
0.0
 11
297.49779222273418
 21
137.52935707270959
 31
0.0
  0
LINE
  5
692
  8
LAYER_1
 10
297.49779222273418
 20
137.52935707270959
 30
0.0
 11
297.4346877750292
 21
137.51933586473419
 31
0.0
  0
LINE
  5
693
  8
LAYER_1
 10
297.4346877750292
 20
137.51933586473419
 30
0.0
 11
297.27023532038231
 21
137.57851987554059
 31
0.0
  0
LINE
  5
694
  8
LAYER_1
 10
297.27023532038231
 20
137.57851987554059
 30
0.0
 11
296.96742423205751
 21
137.72150358055231
 31
0.0
  0
LINE
  5
695
  8
LAYER_1
 10
296.96742423205751
 20
137.72150358055231
 30
0.0
 11
296.56608519818502
 21
137.92416251910899
 31
0.0
  0
LINE
  5
696
  8
LAYER_1
 10
296.56608519818502
 20
137.92416251910899
 30
0.0
 11
296.19110865446129
 21
137.87796696165719
 31
0.0
  0
LINE
  5
697
  8
LAYER_1
 10
296.19110865446129
 20
137.87796696165719
 30
0.0
 11
295.8504539125891
 21
137.84661900764189
 31
0.0
  0
LINE
  5
698
  8
LAYER_1
 10
295.8504539125891
 20
137.84661900764189
 30
0.0
 11
295.74563088059671
 21
137.85244928116879
 31
0.0
  0
LINE
  5
699
  8
LAYER_1
 10
295.74563088059671
 20
137.85244928116879
 30
0.0
 11
295.64130689271758
 21
137.8721599490907
 31
0.0
  0
LINE
  5
69A
  8
LAYER_1
 10
295.64130689271758
 20
137.8721599490907
 30
0.0
 11
295.49004076195689
 21
137.8912626831642
 31
0.0
  0
LINE
  5
69B
  8
LAYER_1
 10
295.49004076195689
 20
137.8912626831642
 30
0.0
 11
295.32070888904673
 21
137.8900926263548
 31
0.0
  0
LINE
  5
69C
  8
LAYER_1
 10
295.32070888904673
 20
137.8900926263548
 30
0.0
 11
295.17019868872882
 21
137.87098806390949
 31
0.0
  0
LINE
  5
69D
  8
LAYER_1
 10
295.17019868872882
 20
137.87098806390949
 30
0.0
 11
295.0753972710196
 21
137.8362873826502
 31
0.0
  0
LINE
  5
69E
  8
LAYER_1
 10
295.0753972710196
 20
137.8362873826502
 30
0.0
 11
294.96989103717971
 21
137.79607172054011
 31
0.0
  0
LINE
  5
69F
  8
LAYER_1
 10
294.96989103717971
 20
137.79607172054011
 30
0.0
 11
294.66888668559108
 21
137.6737729012527
 31
0.0
  0
LINE
  5
6A0
  8
LAYER_1
 10
294.66888668559108
 20
137.6737729012527
 30
0.0
 11
294.33054016239652
 21
137.52111030022451
 31
0.0
  0
LINE
  5
6A1
  8
LAYER_1
 10
294.33054016239652
 20
137.52111030022451
 30
0.0
 11
294.09995171689991
 21
137.43094360359311
 31
0.0
  0
LINE
  5
6A2
  8
LAYER_1
 10
294.09995171689991
 20
137.43094360359311
 30
0.0
 11
293.93116215958207
 21
137.38794881531629
 31
0.0
  0
LINE
  5
6A3
  8
LAYER_1
 10
293.93116215958207
 20
137.38794881531629
 30
0.0
 11
293.778212199346
 21
137.3768020409284
 31
0.0
  0
LINE
  5
6A4
  8
LAYER_1
 10
293.778212199346
 20
137.3768020409284
 30
0.0
 11
293.674056117004
 21
137.3855812761098
 31
0.0
  0
LINE
  5
6A5
  8
LAYER_1
 10
293.674056117004
 20
137.3855812761098
 30
0.0
 11
293.6290691137612
 21
137.41256500659691
 31
0.0
  0
LINE
  5
6A6
  8
LAYER_1
 10
293.6290691137612
 20
137.41256500659691
 30
0.0
 11
293.64319054859328
 21
137.4578950328326
 31
0.0
  0
LINE
  5
6A7
  8
LAYER_1
 10
293.64319054859328
 20
137.4578950328326
 30
0.0
 11
293.71635978048431
 21
137.5217132568367
 31
0.0
  0
LINE
  5
6A8
  8
LAYER_1
 10
293.71635978048431
 20
137.5217132568367
 30
0.0
 11
293.77362034344418
 21
137.5752550117522
 31
0.0
  0
LINE
  5
6A9
  8
LAYER_1
 10
293.77362034344418
 20
137.5752550117522
 30
0.0
 11
293.77655467811798
 21
137.59468197721131
 31
0.0
  0
LINE
  5
6AA
  8
LAYER_1
 10
293.77655467811798
 20
137.59468197721131
 30
0.0
 11
293.76137400616147
 21
137.60973567885611
 31
0.0
  0
LINE
  5
6AB
  8
LAYER_1
 10
293.76137400616147
 20
137.60973567885611
 30
0.0
 11
293.67371380504619
 21
137.62829101852489
 31
0.0
  0
LINE
  5
6AC
  8
LAYER_1
 10
293.67371380504619
 20
137.62829101852489
 30
0.0
 11
293.5047328780762
 21
137.63405668955809
 31
0.0
  0
LINE
  5
6AD
  8
LAYER_1
 10
293.5047328780762
 20
137.63405668955809
 30
0.0
 11
293.30239664725963
 21
137.62138363045571
 31
0.0
  0
LINE
  5
6AE
  8
LAYER_1
 10
293.30239664725963
 20
137.62138363045571
 30
0.0
 11
293.16072794836441
 21
137.57078697729759
 31
0.0
  0
LINE
  5
6AF
  8
LAYER_1
 10
293.16072794836441
 20
137.57078697729759
 30
0.0
 11
293.08206770761831
 21
137.53684141387211
 31
0.0
  0
LINE
  5
6B0
  8
LAYER_1
 10
293.08206770761831
 20
137.53684141387211
 30
0.0
 11
292.98175882570109
 21
137.5154151231072
 31
0.0
  0
LINE
  5
6B1
  8
LAYER_1
 10
292.98175882570109
 20
137.5154151231072
 30
0.0
 11
292.58136180995763
 21
137.49171860318339
 31
0.0
  0
LINE
  5
6B2
  8
LAYER_1
 10
292.58136180995763
 20
137.49171860318339
 30
0.0
 11
292.18514709468337
 21
137.46832020954909
 31
0.0
  0
LINE
  5
6B3
  8
LAYER_1
 10
292.18514709468337
 20
137.46832020954909
 30
0.0
 11
292.08391193895159
 21
137.44797154120829
 31
0.0
  0
LINE
  5
6B4
  8
LAYER_1
 10
292.08391193895159
 20
137.44797154120829
 30
0.0
 11
292.00802026044238
 21
137.4167240461029
 31
0.0
  0
LINE
  5
6B5
  8
LAYER_1
 10
292.00802026044238
 20
137.4167240461029
 30
0.0
 11
291.91718275426308
 21
137.35021506726869
 31
0.0
  0
LINE
  5
6B6
  8
LAYER_1
 10
291.91718275426308
 20
137.35021506726869
 30
0.0
 11
291.83964614998138
 21
137.2584880578803
 31
0.0
  0
LINE
  5
6B7
  8
LAYER_1
 10
291.83964614998138
 20
137.2584880578803
 30
0.0
 11
291.78549696909801
 21
137.15638930088161
 31
0.0
  0
LINE
  5
6B8
  8
LAYER_1
 10
291.78549696909801
 20
137.15638930088161
 30
0.0
 11
291.76482173311751
 21
137.05876518079401
 31
0.0
  0
LINE
  5
6B9
  8
LAYER_1
 10
291.76482173311751
 20
137.05876518079401
 30
0.0
 11
291.7697834281422
 21
136.99650564432761
 31
0.0
  0
LINE
  5
6BA
  8
LAYER_1
 10
291.7697834281422
 20
136.99650564432761
 30
0.0
 11
291.79009898262461
 21
136.96856465927209
 31
0.0
  0
LINE
  5
6BB
  8
LAYER_1
 10
291.79009898262461
 20
136.96856465927209
 30
0.0
 11
291.83238070563601
 21
136.9723953027659
 31
0.0
  0
LINE
  5
6BC
  8
LAYER_1
 10
291.83238070563601
 20
136.9723953027659
 30
0.0
 11
291.90324100781362
 21
137.00545075352341
 31
0.0
  0
LINE
  5
6BD
  8
LAYER_1
 10
291.90324100781362
 20
137.00545075352341
 30
0.0
 11
292.02709597523329
 21
137.06115405101309
 31
0.0
  0
LINE
  5
6BE
  8
LAYER_1
 10
292.02709597523329
 20
137.06115405101309
 30
0.0
 11
292.23282668113012
 21
137.1471553088343
 31
0.0
  0
LINE
  5
6BF
  8
LAYER_1
 10
292.23282668113012
 20
137.1471553088343
 30
0.0
 11
292.36881564249688
 21
137.20560868168289
 31
0.0
  0
LINE
  5
6C0
  8
LAYER_1
 10
292.36881564249688
 20
137.20560868168289
 30
0.0
 11
292.45368564563609
 21
137.22902139756809
 31
0.0
  0
LINE
  5
6C1
  8
LAYER_1
 10
292.45368564563609
 20
137.22902139756809
 30
0.0
 11
292.49734301578479
 21
137.2183776287641
 31
0.0
  0
LINE
  5
6C2
  8
LAYER_1
 10
292.49734301578479
 20
137.2183776287641
 30
0.0
 11
292.50969407817718
 21
137.17466164912111
 31
0.0
  0
LINE
  5
6C3
  8
LAYER_1
 10
292.50969407817718
 20
137.17466164912111
 30
0.0
 11
292.48857363349742
 21
137.0979699560761
 31
0.0
  0
LINE
  5
6C4
  8
LAYER_1
 10
292.48857363349742
 20
137.0979699560761
 30
0.0
 11
292.42709460892689
 21
137.01088680962951
 31
0.0
  0
LINE
  5
6C5
  8
LAYER_1
 10
292.42709460892689
 20
137.01088680962951
 30
0.0
 11
292.32808092575601
 21
136.91660322763511
 31
0.0
  0
LINE
  5
6C6
  8
LAYER_1
 10
292.32808092575601
 20
136.91660322763511
 30
0.0
 11
292.19435630212638
 21
136.8183103295259
 31
0.0
  0
LINE
  5
6C7
  8
LAYER_1
 10
292.19435630212638
 20
136.8183103295259
 30
0.0
 11
291.94914778399101
 21
136.6739946551634
 31
0.0
  0
LINE
  5
6C8
  8
LAYER_1
 10
291.94914778399101
 20
136.6739946551634
 30
0.0
 11
291.55651383463743
 21
136.50227655301691
 31
0.0
  0
LINE
  5
6C9
  8
LAYER_1
 10
291.55651383463743
 20
136.50227655301691
 30
0.0
 11
291.415803710803
 21
136.43207426177781
 31
0.0
  0
LINE
  5
6CA
  8
LAYER_1
 10
291.415803710803
 20
136.43207426177781
 30
0.0
 11
291.36301108072132
 21
136.37885358938451
 31
0.0
  0
LINE
  5
6CB
  8
LAYER_1
 10
291.36301108072132
 20
136.37885358938451
 30
0.0
 11
291.37303625016989
 21
136.3574035297784
 31
0.0
  0
LINE
  5
6CC
  8
LAYER_1
 10
291.37303625016989
 20
136.3574035297784
 30
0.0
 11
291.41229719711788
 21
136.34690267875581
 31
0.0
  0
LINE
  5
6CD
  8
LAYER_1
 10
291.41229719711788
 20
136.34690267875581
 30
0.0
 11
291.63363946141851
 21
136.35360681275139
 31
0.0
  0
LINE
  5
6CE
  8
LAYER_1
 10
291.63363946141851
 20
136.35360681275139
 30
0.0
 11
291.82551862057261
 21
136.37471049734961
 31
0.0
  0
LINE
  5
6CF
  8
LAYER_1
 10
291.82551862057261
 20
136.37471049734961
 30
0.0
 11
292.01039592574892
 21
136.41292256795271
 31
0.0
  0
LINE
  5
6D0
  8
LAYER_1
 10
292.01039592574892
 20
136.41292256795271
 30
0.0
 11
292.19271411891071
 21
136.46938860149379
 31
0.0
  0
LINE
  5
6D1
  8
LAYER_1
 10
292.19271411891071
 20
136.46938860149379
 30
0.0
 11
292.37691563730419
 21
136.5452538701789
 31
0.0
  0
LINE
  5
6D2
  8
LAYER_1
 10
292.37691563730419
 20
136.5452538701789
 30
0.0
 11
292.58364463457269
 21
136.63540847923591
 31
0.0
  0
LINE
  5
6D3
  8
LAYER_1
 10
292.58364463457269
 20
136.63540847923591
 30
0.0
 11
292.7400757144311
 21
136.68792380615801
 31
0.0
  0
LINE
  5
6D4
  8
LAYER_1
 10
292.7400757144311
 20
136.68792380615801
 30
0.0
 11
292.87838223949132
 21
136.71105789839271
 31
0.0
  0
LINE
  5
6D5
  8
LAYER_1
 10
292.87838223949132
 20
136.71105789839271
 30
0.0
 11
293.03073767394437
 21
136.71306839708461
 31
0.0
  0
LINE
  5
6D6
  8
LAYER_1
 10
293.03073767394437
 20
136.71306839708461
 30
0.0
 11
293.23212782357882
 21
136.71809347568819
 31
0.0
  0
LINE
  5
6D7
  8
LAYER_1
 10
293.23212782357882
 20
136.71809347568819
 30
0.0
 11
293.28416167907949
 21
136.73978609937629
 31
0.0
  0
LINE
  5
6D8
  8
LAYER_1
 10
293.28416167907949
 20
136.73978609937629
 30
0.0
 11
293.33336826127498
 21
136.78090355542241
 31
0.0
  0
LINE
  5
6D9
  8
LAYER_1
 10
293.33336826127498
 20
136.78090355542241
 30
0.0
 11
293.4478350439004
 21
136.86380673765689
 31
0.0
  0
LINE
  5
6DA
  8
LAYER_1
 10
293.4478350439004
 20
136.86380673765689
 30
0.0
 11
293.58832495042878
 21
136.92587277136971
 31
0.0
  0
LINE
  5
6DB
  8
LAYER_1
 10
293.58832495042878
 20
136.92587277136971
 30
0.0
 11
293.73942287092052
 21
136.96191517329871
 31
0.0
  0
LINE
  5
6DC
  8
LAYER_1
 10
293.73942287092052
 20
136.96191517329871
 30
0.0
 11
293.88571369543922
 21
136.96674735860529
 31
0.0
  0
LINE
  5
6DD
  8
LAYER_1
 10
293.88571369543922
 20
136.96674735860529
 30
0.0
 11
294.03762117863602
 21
136.94247236194411
 31
0.0
  0
LINE
  5
6DE
  8
LAYER_1
 10
294.03762117863602
 20
136.94247236194411
 30
0.0
 11
294.16567053409369
 21
136.90255076307469
 31
0.0
  0
LINE
  5
6DF
  8
LAYER_1
 10
294.16567053409369
 20
136.90255076307469
 30
0.0
 11
294.2540763048782
 21
136.85347297956429
 31
0.0
  0
LINE
  5
6E0
  8
LAYER_1
 10
294.2540763048782
 20
136.85347297956429
 30
0.0
 11
294.28705272931302
 21
136.80172963213261
 31
0.0
  0
LINE
  5
6E1
  8
LAYER_1
 10
294.28705272931302
 20
136.80172963213261
 30
0.0
 11
294.26414687891088
 21
136.73504340274431
 31
0.0
  0
LINE
  5
6E2
  8
LAYER_1
 10
294.26414687891088
 20
136.73504340274431
 30
0.0
 11
293.84847431899442
 21
136.7005150963804
 31
0.0
  0
LINE
  5
6E3
  8
LAYER_1
 10
293.84847431899442
 20
136.7005150963804
 30
0.0
 11
293.57108289008022
 21
136.6799528131879
 31
0.0
  0
LINE
  5
6E4
  8
LAYER_1
 10
293.57108289008022
 20
136.6799528131879
 30
0.0
 11
293.45570760948613
 21
136.65912358761389
 31
0.0
  0
LINE
  5
6E5
  8
LAYER_1
 10
293.45570760948613
 20
136.65912358761389
 30
0.0
 11
293.54388148169107
 21
136.60158094741189
 31
0.0
  0
LINE
  5
6E6
  8
LAYER_1
 10
293.54388148169107
 20
136.60158094741189
 30
0.0
 11
293.66587983843658
 21
136.5272684748418
 31
0.0
  0
LINE
  5
6E7
  8
LAYER_1
 10
293.66587983843658
 20
136.5272684748418
 30
0.0
 11
293.75667305736908
 21
136.43059510844299
 31
0.0
  0
LINE
  5
6E8
  8
LAYER_1
 10
293.75667305736908
 20
136.43059510844299
 30
0.0
 11
293.79821774311932
 21
136.33744217167339
 31
0.0
  0
LINE
  5
6E9
  8
LAYER_1
 10
293.79821774311932
 20
136.33744217167339
 30
0.0
 11
293.79488350275233
 21
136.3002736954511
 31
0.0
  0
LINE
  5
6EA
  8
LAYER_1
 10
293.79488350275233
 20
136.3002736954511
 30
0.0
 11
293.77247100818772
 21
136.2736906832653
 31
0.0
  0
LINE
  5
6EB
  8
LAYER_1
 10
293.77247100818772
 20
136.2736906832653
 30
0.0
 11
293.70083537450353
 21
136.28309054932711
 31
0.0
  0
LINE
  5
6EC
  8
LAYER_1
 10
293.70083537450353
 20
136.28309054932711
 30
0.0
 11
293.56685904492701
 21
136.3293329334291
 31
0.0
  0
LINE
  5
6ED
  8
LAYER_1
 10
293.56685904492701
 20
136.3293329334291
 30
0.0
 11
293.447595120801
 21
136.36868641633981
 31
0.0
  0
LINE
  5
6EE
  8
LAYER_1
 10
293.447595120801
 20
136.36868641633981
 30
0.0
 11
293.3221484535627
 21
136.3919675909822
 31
0.0
  0
LINE
  5
6EF
  8
LAYER_1
 10
293.3221484535627
 20
136.3919675909822
 30
0.0
 11
293.18946651012732
 21
136.39904999492859
 31
0.0
  0
LINE
  5
6F0
  8
LAYER_1
 10
293.18946651012732
 20
136.39904999492859
 30
0.0
 11
293.04849696055072
 21
136.38980757205221
 31
0.0
  0
LINE
  5
6F1
  8
LAYER_1
 10
293.04849696055072
 20
136.38980757205221
 30
0.0
 11
292.73748480905363
 21
136.32184310714911
 31
0.0
  0
LINE
  5
6F2
  8
LAYER_1
 10
292.73748480905363
 20
136.32184310714911
 30
0.0
 11
292.38069224223352
 21
136.1870642236328
 31
0.0
  0
LINE
  5
6F3
  8
LAYER_1
 10
292.38069224223352
 20
136.1870642236328
 30
0.0
 11
292.13679436243649
 21
136.10798081623389
 31
0.0
  0
LINE
  5
6F4
  8
LAYER_1
 10
292.13679436243649
 20
136.10798081623389
 30
0.0
 11
291.85221489027617
 21
136.06425406950899
 31
0.0
  0
LINE
  5
6F5
  8
LAYER_1
 10
291.85221489027617
 20
136.06425406950899
 30
0.0
 11
291.5416199124324
 21
136.0571370280623
 31
0.0
  0
LINE
  5
6F6
  8
LAYER_1
 10
291.5416199124324
 20
136.0571370280623
 30
0.0
 11
291.21967571873603
 21
136.0878825333466
 31
0.0
  0
LINE
  5
6F7
  8
LAYER_1
 10
291.21967571873603
 20
136.0878825333466
 30
0.0
 11
290.95464723663548
 21
136.1267165553206
 31
0.0
  0
LINE
  5
6F8
  8
LAYER_1
 10
290.95464723663548
 20
136.1267165553206
 30
0.0
 11
290.79766744188191
 21
136.13844393954651
 31
0.0
  0
LINE
  5
6F9
  8
LAYER_1
 10
290.79766744188191
 20
136.13844393954651
 30
0.0
 11
290.69905589908018
 21
136.12218341049001
 31
0.0
  0
LINE
  5
6FA
  8
LAYER_1
 10
290.69905589908018
 20
136.12218341049001
 30
0.0
 11
290.6091321728353
 21
136.07705379419269
 31
0.0
  0
LINE
  5
6FB
  8
LAYER_1
 10
290.6091321728353
 20
136.07705379419269
 30
0.0
 11
290.51796616906819
 21
136.00872395952391
 31
0.0
  0
LINE
  5
6FC
  8
LAYER_1
 10
290.51796616906819
 20
136.00872395952391
 30
0.0
 11
290.4556992175344
 21
135.929618103774
 31
0.0
  0
LINE
  5
6FD
  8
LAYER_1
 10
290.4556992175344
 20
135.929618103774
 30
0.0
 11
290.42499078758181
 21
135.8444355505176
 31
0.0
  0
LINE
  5
6FE
  8
LAYER_1
 10
290.42499078758181
 20
135.8444355505176
 30
0.0
 11
290.42850034855292
 21
135.75787542017511
 31
0.0
  0
LINE
  5
6FF
  8
LAYER_1
 10
290.42850034855292
 20
135.75787542017511
 30
0.0
 11
290.51094359353351
 21
135.65285451765209
 31
0.0
  0
LINE
  5
700
  8
LAYER_1
 10
290.51094359353351
 20
135.65285451765209
 30
0.0
 11
290.71615636213659
 21
135.48437202533381
 31
0.0
  0
LINE
  5
701
  8
LAYER_1
 10
290.71615636213659
 20
135.48437202533381
 30
0.0
 11
290.93671374676239
 21
135.29594503656909
 31
0.0
  0
LINE
  5
702
  8
LAYER_1
 10
290.93671374676239
 20
135.29594503656909
 30
0.0
 11
291.0659750084447
 21
135.12865403364901
 31
0.0
  0
LINE
  5
703
  8
LAYER_1
 10
291.0659750084447
 20
135.12865403364901
 30
0.0
 11
291.09655006878489
 21
135.05259617639641
 31
0.0
  0
LINE
  5
704
  8
LAYER_1
 10
291.09655006878489
 20
135.05259617639641
 30
0.0
 11
291.10451760816193
 21
134.98141621376291
 31
0.0
  0
LINE
  5
705
  8
LAYER_1
 10
291.10451760816193
 20
134.98141621376291
 30
0.0
 11
291.08995005044329
 21
134.9149789477608
 31
0.0
  0
LINE
  5
706
  8
LAYER_1
 10
291.08995005044329
 20
134.9149789477608
 30
0.0
 11
291.05291941319001
 21
134.85314887567321
 31
0.0
  0
LINE
  5
707
  8
LAYER_1
 10
291.05291941319001
 20
134.85314887567321
 30
0.0
 11
291.00376869793382
 21
134.81393566956311
 31
0.0
  0
LINE
  5
708
  8
LAYER_1
 10
291.00376869793382
 20
134.81393566956311
 30
0.0
 11
290.94942317016069
 21
134.8162395204611
 31
0.0
  0
LINE
  5
709
  8
LAYER_1
 10
290.94942317016069
 20
134.8162395204611
 30
0.0
 11
290.8853443015031
 21
134.8618987553192
 31
0.0
  0
LINE
  5
70A
  8
LAYER_1
 10
290.8853443015031
 20
134.8618987553192
 30
0.0
 11
290.80699376673789
 21
134.95275149793451
 31
0.0
  0
LINE
  5
70B
  8
LAYER_1
 10
290.80699376673789
 20
134.95275149793451
 30
0.0
 11
290.71274746322757
 21
135.04462386293571
 31
0.0
  0
LINE
  5
70C
  8
LAYER_1
 10
290.71274746322757
 20
135.04462386293571
 30
0.0
 11
290.6753309378056
 21
135.0525965827016
 31
0.0
  0
LINE
  5
70D
  8
LAYER_1
 10
290.6753309378056
 20
135.0525965827016
 30
0.0
 11
290.6438397612784
 21
135.03466949213191
 31
0.0
  0
LINE
  5
70E
  8
LAYER_1
 10
290.6438397612784
 20
135.03466949213191
 30
0.0
 11
290.59699594420891
 21
134.9193442886278
 31
0.0
  0
LINE
  5
70F
  8
LAYER_1
 10
290.59699594420891
 20
134.9193442886278
 30
0.0
 11
290.56894149848159
 21
134.6951041555271
 31
0.0
  0
LINE
  5
710
  8
LAYER_1
 10
290.56894149848159
 20
134.6951041555271
 30
0.0
 11
290.56511959054632
 21
134.47677352542789
 31
0.0
  0
LINE
  5
711
  8
LAYER_1
 10
290.56511959054632
 20
134.47677352542789
 30
0.0
 11
290.60369428835622
 21
134.33698185403401
 31
0.0
  0
LINE
  5
712
  8
LAYER_1
 10
290.60369428835622
 20
134.33698185403401
 30
0.0
 11
290.64045026343308
 21
134.2721750899772
 31
0.0
  0
LINE
  5
713
  8
LAYER_1
 10
290.64045026343308
 20
134.2721750899772
 30
0.0
 11
290.68489088803477
 21
134.22681052781621
 31
0.0
  0
LINE
  5
714
  8
LAYER_1
 10
290.68489088803477
 20
134.22681052781621
 30
0.0
 11
290.73905063284838
 21
134.20099177532629
 31
0.0
  0
LINE
  5
715
  8
LAYER_1
 10
290.73905063284838
 20
134.20099177532629
 30
0.0
 11
290.80496386698411
 21
134.194822440281
 31
0.0
  0
LINE
  5
716
  8
LAYER_1
 10
290.80496386698411
 20
134.194822440281
 30
0.0
 11
290.98018909227198
 21
134.24184614888861
 31
0.0
  0
LINE
  5
717
  8
LAYER_1
 10
290.98018909227198
 20
134.24184614888861
 30
0.0
 11
291.22684253254522
 21
134.36871061740649
 31
0.0
  0
LINE
  5
718
  8
LAYER_1
 10
291.22684253254522
 20
134.36871061740649
 30
0.0
 11
291.47767939062362
 21
134.51431925583901
 31
0.0
  0
LINE
  5
719
  8
LAYER_1
 10
291.47767939062362
 20
134.51431925583901
 30
0.0
 11
291.47767939062362
 21
134.712721235386
 31
0.0
  0
LINE
  5
71A
  8
LAYER_1
 10
291.47767939062362
 20
134.712721235386
 30
0.0
 11
291.48623901795662
 21
134.86707934715929
 31
0.0
  0
LINE
  5
71B
  8
LAYER_1
 10
291.48623901795662
 20
134.86707934715929
 30
0.0
 11
291.49815320090369
 21
134.90080692795459
 31
0.0
  0
LINE
  5
71C
  8
LAYER_1
 10
291.49815320090369
 20
134.90080692795459
 30
0.0
 11
291.51623692204907
 21
134.91112341808571
 31
0.0
  0
LINE
  5
71D
  8
LAYER_1
 10
291.51623692204907
 20
134.91112341808571
 30
0.0
 11
291.55500075483633
 21
134.89785705211429
 31
0.0
  0
LINE
  5
71E
  8
LAYER_1
 10
291.55500075483633
 20
134.89785705211429
 30
0.0
 11
291.59747019075468
 21
134.86021837943571
 31
0.0
  0
LINE
  5
71F
  8
LAYER_1
 10
291.59747019075468
 20
134.86021837943571
 30
0.0
 11
291.68199422519029
 21
134.724787477978
 31
0.0
  0
LINE
  5
720
  8
LAYER_1
 10
291.68199422519029
 20
134.724787477978
 30
0.0
 11
291.7087498154209
 21
134.67752851877771
 31
0.0
  0
LINE
  5
721
  8
LAYER_1
 10
291.7087498154209
 20
134.67752851877771
 30
0.0
 11
291.74469206316923
 21
134.64918986270831
 31
0.0
  0
LINE
  5
722
  8
LAYER_1
 10
291.74469206316923
 20
134.64918986270831
 30
0.0
 11
291.90797080426239
 21
134.61954371716479
 31
0.0
  0
LINE
  5
723
  8
LAYER_1
 10
291.90797080426239
 20
134.61954371716479
 30
0.0
 11
292.55142759417191
 21
134.55970870418051
 31
0.0
  0
LINE
  5
724
  8
LAYER_1
 10
292.55142759417191
 20
134.55970870418051
 30
0.0
 11
292.94320789673088
 21
134.53891787442819
 31
0.0
  0
LINE
  5
725
  8
LAYER_1
 10
292.94320789673088
 20
134.53891787442819
 30
0.0
 11
293.14207468919352
 21
134.51991072360531
 31
0.0
  0
LINE
  5
726
  8
LAYER_1
 10
293.14207468919352
 20
134.51991072360531
 30
0.0
 11
293.35888055822198
 21
134.4640437867788
 31
0.0
  0
LINE
  5
727
  8
LAYER_1
 10
293.35888055822198
 20
134.4640437867788
 30
0.0
 11
293.54053484902443
 21
134.41302477957811
 31
0.0
  0
LINE
  5
728
  8
LAYER_1
 10
293.54053484902443
 20
134.41302477957811
 30
0.0
 11
293.71542141909867
 21
134.379819300701
 31
0.0
  0
LINE
  5
729
  8
LAYER_1
 10
293.71542141909867
 20
134.379819300701
 30
0.0
 11
293.86689720323562
 21
134.36678544276339
 31
0.0
  0
LINE
  5
72A
  8
LAYER_1
 10
293.86689720323562
 20
134.36678544276339
 30
0.0
 11
293.97831923780387
 21
134.3762809936517
 31
0.0
  0
LINE
  5
72B
  8
LAYER_1
 10
293.97831923780387
 20
134.3762809936517
 30
0.0
 11
294.05466719682329
 21
134.41648040356159
 31
0.0
  0
LINE
  5
72C
  8
LAYER_1
 10
294.05466719682329
 20
134.41648040356159
 30
0.0
 11
294.1497016304495
 21
134.49469594349031
 31
0.0
  0
LINE
  5
72D
  8
LAYER_1
 10
294.1497016304495
 20
134.49469594349031
 30
0.0
 11
294.24413808469762
 21
134.59296476802911
 31
0.0
  0
LINE
  5
72E
  8
LAYER_1
 10
294.24413808469762
 20
134.59296476802911
 30
0.0
 11
294.31869169928137
 21
134.69332393019101
 31
0.0
  0
LINE
  5
72F
  8
LAYER_1
 10
294.31869169928137
 20
134.69332393019101
 30
0.0
 11
294.35381442985482
 21
134.76618203403109
 31
0.0
  0
LINE
  5
730
  8
LAYER_1
 10
294.35381442985482
 20
134.76618203403109
 30
0.0
 11
294.37026297654722
 21
134.83981353942889
 31
0.0
  0
LINE
  5
731
  8
LAYER_1
 10
294.37026297654722
 20
134.83981353942889
 30
0.0
 11
294.36771920255001
 21
134.91501348368541
 31
0.0
  0
LINE
  5
732
  8
LAYER_1
 10
294.36771920255001
 20
134.91501348368541
 30
0.0
 11
294.34586517420149
 21
134.9925764977917
 31
0.0
  0
LINE
  5
733
  8
LAYER_1
 10
294.34586517420149
 20
134.9925764977917
 30
0.0
 11
294.24295390878831
 21
135.1579712752995
 31
0.0
  0
LINE
  5
734
  8
LAYER_1
 10
294.24295390878831
 20
135.1579712752995
 30
0.0
 11
294.05898500000632
 21
135.3423565451256
 31
0.0
  0
LINE
  5
735
  8
LAYER_1
 10
294.05898500000632
 20
135.3423565451256
 30
0.0
 11
293.91382675066131
 21
135.47887827391929
 31
0.0
  0
LINE
  5
736
  8
LAYER_1
 10
293.91382675066131
 20
135.47887827391929
 30
0.0
 11
293.82597721141701
 21
135.59363424412501
 31
0.0
  0
LINE
  5
737
  8
LAYER_1
 10
293.82597721141701
 20
135.59363424412501
 30
0.0
 11
293.78264671363809
 21
135.70906722002931
 31
0.0
  0
LINE
  5
738
  8
LAYER_1
 10
293.78264671363809
 20
135.70906722002931
 30
0.0
 11
293.77104538553681
 21
135.84762027064539
 31
0.0
  0
LINE
  5
739
  8
LAYER_1
 10
293.77104538553681
 20
135.84762027064539
 30
0.0
 11
293.78049248455437
 21
135.9771667584354
 31
0.0
  0
LINE
  5
73A
  8
LAYER_1
 10
293.78049248455437
 20
135.9771667584354
 30
0.0
 11
293.80320584796709
 21
136.04983298474119
 31
0.0
  0
LINE
  5
73B
  8
LAYER_1
 10
293.80320584796709
 20
136.04983298474119
 30
0.0
 11
293.84271169524931
 21
136.07180209897891
 31
0.0
  0
LINE
  5
73C
  8
LAYER_1
 10
293.84271169524931
 20
136.07180209897891
 30
0.0
 11
293.87846866792
 21
136.06207261799031
 31
0.0
  0
LINE
  5
73D
  8
LAYER_1
 10
293.87846866792
 20
136.06207261799031
 30
0.0
 11
293.90438798089548
 21
136.0252409686079
 31
0.0
  0
LINE
  5
73E
  8
LAYER_1
 10
293.90438798089548
 20
136.0252409686079
 30
0.0
 11
293.91438074752199
 21
135.96590378081899
 31
0.0
  0
LINE
  5
73F
  8
LAYER_1
 10
293.91438074752199
 20
135.96590378081899
 30
0.0
 11
293.93069785454838
 21
135.8539827021398
 31
0.0
  0
LINE
  5
740
  8
LAYER_1
 10
293.93069785454838
 20
135.8539827021398
 30
0.0
 11
293.98722026290858
 21
135.75294521378859
 31
0.0
  0
LINE
  5
741
  8
LAYER_1
 10
293.98722026290858
 20
135.75294521378859
 30
0.0
 11
294.09530460351789
 21
135.64862274955129
 31
0.0
  0
LINE
  5
742
  8
LAYER_1
 10
294.09530460351789
 20
135.64862274955129
 30
0.0
 11
294.26630781202562
 21
135.52684694636929
 31
0.0
  0
LINE
  5
743
  8
LAYER_1
 10
294.26630781202562
 20
135.52684694636929
 30
0.0
 11
294.46871961557019
 21
135.38108767035959
 31
0.0
  0
LINE
  5
744
  8
LAYER_1
 10
294.46871961557019
 20
135.38108767035959
 30
0.0
 11
294.58795621568589
 21
135.25129739957291
 31
0.0
  0
LINE
  5
745
  8
LAYER_1
 10
294.58795621568589
 20
135.25129739957291
 30
0.0
 11
294.62278366410209
 21
135.1823516065304
 31
0.0
  0
LINE
  5
746
  8
LAYER_1
 10
294.62278366410209
 20
135.1823516065304
 30
0.0
 11
294.64449700934568
 21
135.10535112168881
 31
0.0
  0
LINE
  5
747
  8
LAYER_1
 10
294.64449700934568
 20
135.10535112168881
 30
0.0
 11
294.65882139352391
 21
134.91112341808571
 31
0.0
  0
LINE
  5
748
  8
LAYER_1
 10
294.65882139352391
 20
134.91112341808571
 30
0.0
 11
294.6492475273493
 21
134.7427924775306
 31
0.0
  0
LINE
  5
749
  8
LAYER_1
 10
294.6492475273493
 20
134.7427924775306
 30
0.0
 11
294.61974785475599
 21
134.59736880944729
 31
0.0
  0
LINE
  5
74A
  8
LAYER_1
 10
294.61974785475599
 20
134.59736880944729
 30
0.0
 11
294.56925602828733
 21
134.47366691743559
 31
0.0
  0
LINE
  5
74B
  8
LAYER_1
 10
294.56925602828733
 20
134.47366691743559
 30
0.0
 11
294.49670549732758
 21
134.37050171140069
 31
0.0
  0
LINE
  5
74C
  8
LAYER_1
 10
294.49670549732758
 20
134.37050171140069
 30
0.0
 11
294.4010298128436
 21
134.28668769494459
 31
0.0
  0
LINE
  5
74D
  8
LAYER_1
 10
294.4010298128436
 20
134.28668769494459
 30
0.0
 11
294.28116272895198
 21
134.2210396763945
 31
0.0
  0
LINE
  5
74E
  8
LAYER_1
 10
294.28116272895198
 20
134.2210396763945
 30
0.0
 11
294.1360375934637
 21
134.17237226092931
 31
0.0
  0
LINE
  5
74F
  8
LAYER_1
 10
294.1360375934637
 20
134.17237226092931
 30
0.0
 11
293.96458795734333
 21
134.1395001553006
 31
0.0
  0
LINE
  5
750
  8
LAYER_1
 10
293.96458795734333
 20
134.1395001553006
 30
0.0
 11
293.76356602161098
 21
134.1235494338033
 31
0.0
  0
LINE
  5
751
  8
LAYER_1
 10
293.76356602161098
 20
134.1235494338033
 30
0.0
 11
293.60624960316812
 21
134.13765542904679
 31
0.0
  0
LINE
  5
752
  8
LAYER_1
 10
293.60624960316812
 20
134.13765542904679
 30
0.0
 11
293.15954468664449
 21
134.20285509003401
 31
0.0
  0
LINE
  5
753
  8
LAYER_1
 10
293.15954468664449
 20
134.20285509003401
 30
0.0
 11
292.6153540984584
 21
134.24302087820581
 31
0.0
  0
LINE
  5
754
  8
LAYER_1
 10
292.6153540984584
 20
134.24302087820581
 30
0.0
 11
292.29905906783671
 21
134.24332885739199
 31
0.0
  0
LINE
  5
755
  8
LAYER_1
 10
292.29905906783671
 20
134.24332885739199
 30
0.0
 11
292.20260236357871
 21
134.22154085360609
 31
0.0
  0
LINE
  5
756
  8
LAYER_1
 10
292.20260236357871
 20
134.22154085360609
 30
0.0
 11
292.09236318442601
 21
134.17833305993591
 31
0.0
  0
LINE
  5
757
  8
LAYER_1
 10
292.09236318442601
 20
134.17833305993591
 30
0.0
 11
291.98463060236492
 21
134.13598927383819
 31
0.0
  0
LINE
  5
758
  8
LAYER_1
 10
291.98463060236492
 20
134.13598927383819
 30
0.0
 11
291.89494273617169
 21
134.1145012247145
 31
0.0
  0
LINE
  5
759
  8
LAYER_1
 10
291.89494273617169
 20
134.1145012247145
 30
0.0
 11
291.63838652582717
 21
134.11608825202529
 31
0.0
  0
LINE
  5
75A
  8
LAYER_1
 10
291.63838652582717
 20
134.11608825202529
 30
0.0
 11
291.45829041468153
 21
134.11949755723941
 31
0.0
  0
LINE
  5
75B
  8
LAYER_1
 10
291.45829041468153
 20
134.11949755723941
 30
0.0
 11
291.33745195712481
 21
134.10324901418019
 31
0.0
  0
LINE
  5
75C
  8
LAYER_1
 10
291.33745195712481
 20
134.10324901418019
 30
0.0
 11
291.2695698705574
 21
134.06554116807661
 31
0.0
  0
LINE
  5
75D
  8
LAYER_1
 10
291.2695698705574
 20
134.06554116807661
 30
0.0
 11
291.24834287239457
 21
134.00457225942691
 31
0.0
  0
LINE
  5
75E
  8
LAYER_1
 10
291.24834287239457
 20
134.00457225942691
 30
0.0
 11
291.25924088655029
 21
133.95751665587679
 31
0.0
  0
LINE
  5
75F
  8
LAYER_1
 10
291.25924088655029
 20
133.95751665587679
 30
0.0
 11
291.28980274197471
 21
133.903526340247
 31
0.0
  0
LINE
  5
760
  8
LAYER_1
 10
291.28980274197471
 20
133.903526340247
 30
0.0
 11
291.39712526071969
 21
133.7861876923395
 31
0.0
  0
LINE
  5
761
  8
LAYER_1
 10
291.39712526071969
 20
133.7861876923395
 30
0.0
 11
291.54472499678047
 21
133.67544764070519
 31
0.0
  0
LINE
  5
762
  8
LAYER_1
 10
291.54472499678047
 20
133.67544764070519
 30
0.0
 11
291.70701601043049
 21
133.59419761192029
 31
0.0
  0
LINE
  5
763
  8
LAYER_1
 10
291.70701601043049
 20
133.59419761192029
 30
0.0
 11
291.96070035549161
 21
133.53975162523821
 31
0.0
  0
LINE
  5
764
  8
LAYER_1
 10
291.96070035549161
 20
133.53975162523821
 30
0.0
 11
292.29402830096529
 21
133.5183050192245
 31
0.0
  0
LINE
  5
765
  8
LAYER_1
 10
292.29402830096529
 20
133.5183050192245
 30
0.0
 11
292.64560462268258
 21
133.53067162278381
 31
0.0
  0
LINE
  5
766
  8
LAYER_1
 10
292.64560462268258
 20
133.53067162278381
 30
0.0
 11
292.95403379174883
 21
133.57766526482209
 31
0.0
  0
LINE
  5
767
  8
LAYER_1
 10
292.95403379174883
 20
133.57766526482209
 30
0.0
 11
292.95403379174883
 21
133.57766526482209
 31
0.0
  0
LINE
  5
768
  8
LAYER_1
 10
291.6620281945776
 20
133.72602113447891
 30
0.0
 11
291.59591028430088
 21
133.76868102586309
 31
0.0
  0
LINE
  5
769
  8
LAYER_1
 10
291.59591028430088
 20
133.76868102586309
 30
0.0
 11
291.54573811828612
 21
133.81909595911279
 31
0.0
  0
LINE
  5
76A
  8
LAYER_1
 10
291.54573811828612
 20
133.81909595911279
 30
0.0
 11
291.51838251715259
 21
133.86842605802559
 31
0.0
  0
LINE
  5
76B
  8
LAYER_1
 10
291.51838251715259
 20
133.86842605802559
 30
0.0
 11
291.52071440309561
 21
133.90783144639869
 31
0.0
  0
LINE
  5
76C
  8
LAYER_1
 10
291.52071440309561
 20
133.90783144639869
 30
0.0
 11
291.55930636886899
 21
133.93044729661199
 31
0.0
  0
LINE
  5
76D
  8
LAYER_1
 10
291.55930636886899
 20
133.93044729661199
 30
0.0
 11
291.6291871712819
 21
133.9477620855549
 31
0.0
  0
LINE
  5
76E
  8
LAYER_1
 10
291.6291871712819
 20
133.9477620855549
 30
0.0
 11
292.51781581030087
 21
134.08505934900771
 31
0.0
  0
LINE
  5
76F
  8
LAYER_1
 10
292.51781581030087
 20
134.08505934900771
 30
0.0
 11
292.67781201333929
 21
134.10373119663311
 31
0.0
  0
LINE
  5
770
  8
LAYER_1
 10
292.67781201333929
 20
134.10373119663311
 30
0.0
 11
292.74592366222618
 21
134.0843520735875
 31
0.0
  0
LINE
  5
771
  8
LAYER_1
 10
292.74592366222618
 20
134.0843520735875
 30
0.0
 11
292.76075186459872
 21
134.0463844970148
 31
0.0
  0
LINE
  5
772
  8
LAYER_1
 10
292.76075186459872
 20
134.0463844970148
 30
0.0
 11
292.72051487147621
 21
133.99850104703711
 31
0.0
  0
LINE
  5
773
  8
LAYER_1
 10
292.72051487147621
 20
133.99850104703711
 30
0.0
 11
292.41179438172787
 21
133.8238240287647
 31
0.0
  0
LINE
  5
774
  8
LAYER_1
 10
292.41179438172787
 20
133.8238240287647
 30
0.0
 11
292.14264261495828
 21
133.70170053008209
 31
0.0
  0
LINE
  5
775
  8
LAYER_1
 10
292.14264261495828
 20
133.70170053008209
 30
0.0
 11
292.048870672531
 21
133.68335179650319
 31
0.0
  0
LINE
  5
776
  8
LAYER_1
 10
292.048870672531
 20
133.68335179650319
 30
0.0
 11
291.93878761607363
 21
133.6802725125219
 31
0.0
  0
LINE
  5
777
  8
LAYER_1
 10
291.93878761607363
 20
133.6802725125219
 30
0.0
 11
291.77867388931679
 21
133.69407174749429
 31
0.0
  0
LINE
  5
778
  8
LAYER_1
 10
291.77867388931679
 20
133.69407174749429
 30
0.0
 11
291.6620281945776
 21
133.72602113447891
 31
0.0
  0
LINE
  5
779
  8
LAYER_1
 10
291.6620281945776
 20
133.72602113447891
 30
0.0
 11
291.6620281945776
 21
133.72602113447891
 31
0.0
  0
LINE
  5
77A
  8
LAYER_1
 10
294.92134531005848
 20
134.04749431910929
 30
0.0
 11
294.87352991616871
 21
134.10762471582541
 31
0.0
  0
LINE
  5
77B
  8
LAYER_1
 10
294.87352991616871
 20
134.10762471582541
 30
0.0
 11
294.86788146412613
 21
134.1554164424501
 31
0.0
  0
LINE
  5
77C
  8
LAYER_1
 10
294.86788146412613
 20
134.1554164424501
 30
0.0
 11
294.90650908316258
 21
134.19655736260981
 31
0.0
  0
LINE
  5
77D
  8
LAYER_1
 10
294.90650908316258
 20
134.19655736260981
 30
0.0
 11
294.99152200408503
 21
134.2367353399317
 31
0.0
  0
LINE
  5
77E
  8
LAYER_1
 10
294.99152200408503
 20
134.2367353399317
 30
0.0
 11
295.11026778776579
 21
134.30264156530549
 31
0.0
  0
LINE
  5
77F
  8
LAYER_1
 10
295.11026778776579
 20
134.30264156530549
 30
0.0
 11
295.20453014032302
 21
134.39984617548581
 31
0.0
  0
LINE
  5
780
  8
LAYER_1
 10
295.20453014032302
 20
134.39984617548581
 30
0.0
 11
295.30090629461819
 21
134.51430645723141
 31
0.0
  0
LINE
  5
781
  8
LAYER_1
 10
295.30090629461819
 20
134.51430645723141
 30
0.0
 11
295.41139819547828
 21
134.60687075963861
 31
0.0
  0
LINE
  5
782
  8
LAYER_1
 10
295.41139819547828
 20
134.60687075963861
 30
0.0
 11
295.5452222622572
 21
134.68393787849911
 31
0.0
  0
LINE
  5
783
  8
LAYER_1
 10
295.5452222622572
 20
134.68393787849911
 30
0.0
 11
295.71159481273492
 21
134.7519071174859
 31
0.0
  0
LINE
  5
784
  8
LAYER_1
 10
295.71159481273492
 20
134.7519071174859
 30
0.0
 11
296.08928984160463
 21
134.8894870676385
 31
0.0
  0
LINE
  5
785
  8
LAYER_1
 10
296.08928984160463
 20
134.8894870676385
 30
0.0
 11
296.31965766348839
 21
134.9864939088626
 31
0.0
  0
LINE
  5
786
  8
LAYER_1
 10
296.31965766348839
 20
134.9864939088626
 30
0.0
 11
296.43453298578589
 21
135.05851370392159
 31
0.0
  0
LINE
  5
787
  8
LAYER_1
 10
296.43453298578589
 20
135.05851370392159
 30
0.0
 11
296.45860929930569
 21
135.09002397678299
 31
0.0
  0
LINE
  5
788
  8
LAYER_1
 10
296.45860929930569
 20
135.09002397678299
 30
0.0
 11
296.46575041432271
 21
135.12113210927521
 31
0.0
  0
LINE
  5
789
  8
LAYER_1
 10
296.46575041432271
 20
135.12113210927521
 30
0.0
 11
296.36541563045938
 21
135.29609994034851
 31
0.0
  0
LINE
  5
78A
  8
LAYER_1
 10
296.36541563045938
 20
135.29609994034851
 30
0.0
 11
296.29875977237009
 21
135.3991483336967
 31
0.0
  0
LINE
  5
78B
  8
LAYER_1
 10
296.29875977237009
 20
135.3991483336967
 30
0.0
 11
296.27084651762971
 21
135.4747911503967
 31
0.0
  0
LINE
  5
78C
  8
LAYER_1
 10
296.27084651762971
 20
135.4747911503967
 30
0.0
 11
296.27949553206042
 21
135.53883781938481
 31
0.0
  0
LINE
  5
78D
  8
LAYER_1
 10
296.27949553206042
 20
135.53883781938481
 30
0.0
 11
296.32252658305919
 21
135.60709756644289
 31
0.0
  0
LINE
  5
78E
  8
LAYER_1
 10
296.32252658305919
 20
135.60709756644289
 30
0.0
 11
296.39990229056309
 21
135.6779560402492
 31
0.0
  0
LINE
  5
78F
  8
LAYER_1
 10
296.39990229056309
 20
135.6779560402492
 30
0.0
 11
296.51924544416318
 21
135.74493308243771
 31
0.0
  0
LINE
  5
790
  8
LAYER_1
 10
296.51924544416318
 20
135.74493308243771
 30
0.0
 11
296.68467262449462
 21
135.809936599689
 31
0.0
  0
LINE
  5
791
  8
LAYER_1
 10
296.68467262449462
 20
135.809936599689
 30
0.0
 11
296.90030051376641
 21
135.87487439710691
 31
0.0
  0
LINE
  5
792
  8
LAYER_1
 10
296.90030051376641
 20
135.87487439710691
 30
0.0
 11
297.0943991139581
 21
135.93559068562581
 31
0.0
  0
LINE
  5
793
  8
LAYER_1
 10
297.0943991139581
 20
135.93559068562581
 30
0.0
 11
297.25040570667318
 21
136.0071377448227
 31
0.0
  0
LINE
  5
794
  8
LAYER_1
 10
297.25040570667318
 20
136.0071377448227
 30
0.0
 11
297.39305746050212
 21
136.1034163859193
 31
0.0
  0
LINE
  5
795
  8
LAYER_1
 10
297.39305746050212
 20
136.1034163859193
 30
0.0
 11
297.54709195034832
 21
136.23832731855941
 31
0.0
  0
LINE
  5
796
  8
LAYER_1
 10
297.54709195034832
 20
136.23832731855941
 30
0.0
 11
297.65560839632008
 21
136.33047028268641
 31
0.0
  0
LINE
  5
797
  8
LAYER_1
 10
297.65560839632008
 20
136.33047028268641
 30
0.0
 11
297.73002102307078
 21
136.3585018737563
 31
0.0
  0
LINE
  5
798
  8
LAYER_1
 10
297.73002102307078
 20
136.3585018737563
 30
0.0
 11
297.75945954676268
 21
136.3481237268426
 31
0.0
  0
LINE
  5
799
  8
LAYER_1
 10
297.75945954676268
 20
136.3481237268426
 30
0.0
 11
297.78639777108998
 21
136.32129510328741
 31
0.0
  0
LINE
  5
79A
  8
LAYER_1
 10
297.78639777108998
 20
136.32129510328741
 30
0.0
 11
297.84080678401727
 21
136.21772257649519
 31
0.0
  0
LINE
  5
79B
  8
LAYER_1
 10
297.84080678401727
 20
136.21772257649519
 30
0.0
 11
297.90713769968698
 21
136.106048429677
 31
0.0
  0
LINE
  5
79C
  8
LAYER_1
 10
297.90713769968698
 20
136.106048429677
 30
0.0
 11
298.00304203230712
 21
135.98824517200799
 31
0.0
  0
LINE
  5
79D
  8
LAYER_1
 10
298.00304203230712
 20
135.98824517200799
 30
0.0
 11
298.10038498933932
 21
135.89503423520139
 31
0.0
  0
LINE
  5
79E
  8
LAYER_1
 10
298.10038498933932
 20
135.89503423520139
 30
0.0
 11
298.17103198139449
 21
135.85713694939321
 31
0.0
  0
LINE
  5
79F
  8
LAYER_1
 10
298.17103198139449
 20
135.85713694939321
 30
0.0
 11
298.28224365155228
 21
135.79772205577319
 31
0.0
  0
LINE
  5
7A0
  8
LAYER_1
 10
298.28224365155228
 20
135.79772205577319
 30
0.0
 11
298.32946705906579
 21
135.7406645437357
 31
0.0
  0
LINE
  5
7A1
  8
LAYER_1
 10
298.32946705906579
 20
135.7406645437357
 30
0.0
 11
298.35247174315941
 21
135.66647518157899
 31
0.0
  0
LINE
  5
7A2
  8
LAYER_1
 10
298.35247174315941
 20
135.66647518157899
 30
0.0
 11
298.3526568150844
 21
135.579515145545
 31
0.0
  0
LINE
  5
7A3
  8
LAYER_1
 10
298.3526568150844
 20
135.579515145545
 30
0.0
 11
298.33142138609168
 21
135.4841453071468
 31
0.0
  0
LINE
  5
7A4
  8
LAYER_1
 10
298.33142138609168
 20
135.4841453071468
 30
0.0
 11
298.29016456743238
 21
135.3847268426245
 31
0.0
  0
LINE
  5
7A5
  8
LAYER_1
 10
298.29016456743238
 20
135.3847268426245
 30
0.0
 11
298.23028557193089
 21
135.28562072506719
 31
0.0
  0
LINE
  5
7A6
  8
LAYER_1
 10
298.23028557193089
 20
135.28562072506719
 30
0.0
 11
298.1531834092649
 21
135.19118802913991
 31
0.0
  0
LINE
  5
7A7
  8
LAYER_1
 10
298.1531834092649
 20
135.19118802913991
 30
0.0
 11
298.06025729226019
 21
135.1057898295079
 31
0.0
  0
LINE
  5
7A8
  8
LAYER_1
 10
298.06025729226019
 20
135.1057898295079
 30
0.0
 11
297.92250293568748
 21
135.01100425769209
 31
0.0
  0
LINE
  5
7A9
  8
LAYER_1
 10
297.92250293568748
 20
135.01100425769209
 30
0.0
 11
297.75097955521011
 21
134.91265528949319
 31
0.0
  0
LINE
  5
7AA
  8
LAYER_1
 10
297.75097955521011
 20
134.91265528949319
 30
0.0
 11
297.57620878205898
 21
134.82696404238339
 31
0.0
  0
LINE
  5
7AB
  8
LAYER_1
 10
297.57620878205898
 20
134.82696404238339
 30
0.0
 11
297.42871184116058
 21
134.7701511259518
 31
0.0
  0
LINE
  5
7AC
  8
LAYER_1
 10
297.42871184116058
 20
134.7701511259518
 30
0.0
 11
296.9798279109487
 21
134.602046802008
 31
0.0
  0
LINE
  5
7AD
  8
LAYER_1
 10
296.9798279109487
 20
134.602046802008
 30
0.0
 11
296.72080512455642
 21
134.43039899062609
 31
0.0
  0
LINE
  5
7AE
  8
LAYER_1
 10
296.72080512455642
 20
134.43039899062609
 30
0.0
 11
296.573290103087
 21
134.32212622607429
 31
0.0
  0
LINE
  5
7AF
  8
LAYER_1
 10
296.573290103087
 20
134.32212622607429
 30
0.0
 11
296.45243884692047
 21
134.24916593652819
 31
0.0
  0
LINE
  5
7B0
  8
LAYER_1
 10
296.45243884692047
 20
134.24916593652819
 30
0.0
 11
296.32675601490388
 21
134.19531792922291
 31
0.0
  0
LINE
  5
7B1
  8
LAYER_1
 10
296.32675601490388
 20
134.19531792922291
 30
0.0
 11
296.164746164311
 21
134.14438211296971
 31
0.0
  0
LINE
  5
7B2
  8
LAYER_1
 10
296.164746164311
 20
134.14438211296971
 30
0.0
 11
295.84940828668329
 21
134.0520548895268
 31
0.0
  0
LINE
  5
7B3
  8
LAYER_1
 10
295.84940828668329
 20
134.0520548895268
 30
0.0
 11
295.65790871796821
 21
134.02309539942499
 31
0.0
  0
LINE
  5
7B4
  8
LAYER_1
 10
295.65790871796821
 20
134.02309539942499
 30
0.0
 11
295.35851820982339
 21
134.00201396002529
 31
0.0
  0
LINE
  5
7B5
  8
LAYER_1
 10
295.35851820982339
 20
134.00201396002529
 30
0.0
 11
295.0279752819385
 21
133.9976158100296
 31
0.0
  0
LINE
  5
7B6
  8
LAYER_1
 10
295.0279752819385
 20
133.9976158100296
 30
0.0
 11
294.96390321888998
 21
134.0139777121818
 31
0.0
  0
LINE
  5
7B7
  8
LAYER_1
 10
294.96390321888998
 20
134.0139777121818
 30
0.0
 11
294.92134531005848
 21
134.04749431910929
 31
0.0
  0
LINE
  5
7B8
  8
LAYER_1
 10
294.92134531005848
 20
134.04749431910929
 30
0.0
 11
294.92134531005848
 21
134.04749431910929
 31
0.0
  0
LINE
  5
7B9
  8
LAYER_1
 10
292.37546512847018
 20
135.00647243335351
 30
0.0
 11
292.28117799130922
 21
135.05250810978919
 31
0.0
  0
LINE
  5
7BA
  8
LAYER_1
 10
292.28117799130922
 20
135.05250810978919
 30
0.0
 11
292.20398258164698
 21
135.11413452149731
 31
0.0
  0
LINE
  5
7BB
  8
LAYER_1
 10
292.20398258164698
 20
135.11413452149731
 30
0.0
 11
292.14531081986348
 21
135.1899039022029
 31
0.0
  0
LINE
  5
7BC
  8
LAYER_1
 10
292.14531081986348
 20
135.1899039022029
 30
0.0
 11
292.10659401687849
 21
135.27836848563311
 31
0.0
  0
LINE
  5
7BD
  8
LAYER_1
 10
292.10659401687849
 20
135.27836848563311
 30
0.0
 11
292.09182625237497
 21
135.3765202943334
 31
0.0
  0
LINE
  5
7BE
  8
LAYER_1
 10
292.09182625237497
 20
135.3765202943334
 30
0.0
 11
292.10743608398138
 21
135.46421939915359
 31
0.0
  0
LINE
  5
7BF
  8
LAYER_1
 10
292.10743608398138
 20
135.46421939915359
 30
0.0
 11
292.15173236873289
 21
135.53693651515999
 31
0.0
  0
LINE
  5
7C0
  8
LAYER_1
 10
292.15173236873289
 20
135.53693651515999
 30
0.0
 11
292.22302335420682
 21
135.59014235742131
 31
0.0
  0
LINE
  5
7C1
  8
LAYER_1
 10
292.22302335420682
 20
135.59014235742131
 30
0.0
 11
292.4254731472696
 21
135.73843403088841
 31
0.0
  0
LINE
  5
7C2
  8
LAYER_1
 10
292.4254731472696
 20
135.73843403088841
 30
0.0
 11
292.7009800320393
 21
135.93749645920479
 31
0.0
  0
LINE
  5
7C3
  8
LAYER_1
 10
292.7009800320393
 20
135.93749645920479
 30
0.0
 11
292.82978420060363
 21
136.0060789140056
 31
0.0
  0
LINE
  5
7C4
  8
LAYER_1
 10
292.82978420060363
 20
136.0060789140056
 30
0.0
 11
292.93442693475339
 21
136.04313575793131
 31
0.0
  0
LINE
  5
7C5
  8
LAYER_1
 10
292.93442693475339
 20
136.04313575793131
 30
0.0
 11
293.06399475355562
 21
136.04122449923409
 31
0.0
  0
LINE
  5
7C6
  8
LAYER_1
 10
293.06399475355562
 20
136.04122449923409
 30
0.0
 11
293.17572659568413
 21
135.98726516435971
 31
0.0
  0
LINE
  5
7C7
  8
LAYER_1
 10
293.17572659568413
 20
135.98726516435971
 30
0.0
 11
293.2541281217238
 21
135.8933115020217
 31
0.0
  0
LINE
  5
7C8
  8
LAYER_1
 10
293.2541281217238
 20
135.8933115020217
 30
0.0
 11
293.27598804149551
 21
135.8351035373903
 31
0.0
  0
LINE
  5
7C9
  8
LAYER_1
 10
293.27598804149551
 20
135.8351035373903
 30
0.0
 11
293.28370509384331
 21
135.7714171593569
 31
0.0
  0
LINE
  5
7CA
  8
LAYER_1
 10
293.28370509384331
 20
135.7714171593569
 30
0.0
 11
293.23423400709748
 21
135.6214252010609
 31
0.0
  0
LINE
  5
7CB
  8
LAYER_1
 10
293.23423400709748
 20
135.6214252010609
 30
0.0
 11
293.1306882964339
 21
135.4486311017113
 31
0.0
  0
LINE
  5
7CC
  8
LAYER_1
 10
293.1306882964339
 20
135.4486311017113
 30
0.0
 11
293.08887148791382
 21
135.41577697507881
 31
0.0
  0
LINE
  5
7CD
  8
LAYER_1
 10
293.08887148791382
 20
135.41577697507881
 30
0.0
 11
293.03681884080618
 21
135.4001868492644
 31
0.0
  0
LINE
  5
7CE
  8
LAYER_1
 10
293.03681884080618
 20
135.4001868492644
 30
0.0
 11
292.98753729534019
 21
135.4034437901056
 31
0.0
  0
LINE
  5
7CF
  8
LAYER_1
 10
292.98753729534019
 20
135.4034437901056
 30
0.0
 11
292.95403379174883
 21
135.4271307618618
 31
0.0
  0
LINE
  5
7D0
  8
LAYER_1
 10
292.95403379174883
 20
135.4271307618618
 30
0.0
 11
292.90681576777899
 21
135.4555856211598
 31
0.0
  0
LINE
  5
7D1
  8
LAYER_1
 10
292.90681576777899
 20
135.4555856211598
 30
0.0
 11
292.83160089181439
 21
135.4533543972791
 31
0.0
  0
LINE
  5
7D2
  8
LAYER_1
 10
292.83160089181439
 20
135.4533543972791
 30
0.0
 11
292.74483984365202
 21
135.42367788043671
 31
0.0
  0
LINE
  5
7D3
  8
LAYER_1
 10
292.74483984365202
 20
135.42367788043671
 30
0.0
 11
292.66298330308479
 21
135.3697966576986
 31
0.0
  0
LINE
  5
7D4
  8
LAYER_1
 10
292.66298330308479
 20
135.3697966576986
 30
0.0
 11
292.54293297564033
 21
135.2837953998766
 31
0.0
  0
LINE
  5
7D5
  8
LAYER_1
 10
292.54293297564033
 20
135.2837953998766
 30
0.0
 11
292.42498375290279
 21
135.35451075274909
 31
0.0
  0
LINE
  5
7D6
  8
LAYER_1
 10
292.42498375290279
 20
135.35451075274909
 30
0.0
 11
292.3569670778075
 21
135.3977568406651
 31
0.0
  0
LINE
  5
7D7
  8
LAYER_1
 10
292.3569670778075
 20
135.3977568406651
 30
0.0
 11
292.31229831294962
 21
135.40794686836551
 31
0.0
  0
LINE
  5
7D8
  8
LAYER_1
 10
292.31229831294962
 20
135.40794686836551
 30
0.0
 11
292.287815796014
 21
135.38447371461231
 31
0.0
  0
LINE
  5
7D9
  8
LAYER_1
 10
292.287815796014
 20
135.38447371461231
 30
0.0
 11
292.28035755994819
 21
135.32672985186139
 31
0.0
  0
LINE
  5
7DA
  8
LAYER_1
 10
292.28035755994819
 20
135.32672985186139
 30
0.0
 11
292.29816560315419
 21
135.264307285516
 31
0.0
  0
LINE
  5
7DB
  8
LAYER_1
 10
292.29816560315419
 20
135.264307285516
 30
0.0
 11
292.34729326060273
 21
135.21433095850841
 31
0.0
  0
LINE
  5
7DC
  8
LAYER_1
 10
292.34729326060273
 20
135.21433095850841
 30
0.0
 11
292.42129572246188
 21
135.18115351467659
 31
0.0
  0
LINE
  5
7DD
  8
LAYER_1
 10
292.42129572246188
 20
135.18115351467659
 30
0.0
 11
292.51372817889632
 21
135.16912708997381
 31
0.0
  0
LINE
  5
7DE
  8
LAYER_1
 10
292.51372817889632
 20
135.16912708997381
 30
0.0
 11
292.66545607528508
 21
135.1490161100551
 31
0.0
  0
LINE
  5
7DF
  8
LAYER_1
 10
292.66545607528508
 20
135.1490161100551
 30
0.0
 11
292.69966817478678
 21
135.12173537061679
 31
0.0
  0
LINE
  5
7E0
  8
LAYER_1
 10
292.69966817478678
 20
135.12173537061679
 30
0.0
 11
292.71036364590259
 21
135.081067287895
 31
0.0
  0
LINE
  5
7E1
  8
LAYER_1
 10
292.71036364590259
 20
135.081067287895
 30
0.0
 11
292.70319673051898
 21
135.04528319436591
 31
0.0
  0
LINE
  5
7E2
  8
LAYER_1
 10
292.70319673051898
 20
135.04528319436591
 30
0.0
 11
292.68280123552557
 21
135.01632045382411
 31
0.0
  0
LINE
  5
7E3
  8
LAYER_1
 10
292.68280123552557
 20
135.01632045382411
 30
0.0
 11
292.60895570897083
 21
134.98033635666201
 31
0.0
  0
LINE
  5
7E4
  8
LAYER_1
 10
292.60895570897083
 20
134.98033635666201
 30
0.0
 11
292.50208947073691
 21
134.9760689352984
 31
0.0
  0
LINE
  5
7E5
  8
LAYER_1
 10
292.50208947073691
 20
134.9760689352984
 30
0.0
 11
292.37546512847018
 21
135.00647243335351
 31
0.0
  0
LINE
  5
7E6
  8
LAYER_1
 10
292.37546512847018
 20
135.00647243335351
 30
0.0
 11
292.37546512847018
 21
135.00647243335351
 31
0.0
  0
LINE
  5
7E7
  8
LAYER_1
 10
295.11706943496011
 20
136.27206840899649
 30
0.0
 11
294.96255337211937
 21
136.35545925880041
 31
0.0
  0
LINE
  5
7E8
  8
LAYER_1
 10
294.96255337211937
 20
136.35545925880041
 30
0.0
 11
294.81059926542667
 21
136.41609641942111
 31
0.0
  0
LINE
  5
7E9
  8
LAYER_1
 10
294.81059926542667
 20
136.41609641942111
 30
0.0
 11
294.68706619314042
 21
136.4663104348509
 31
0.0
  0
LINE
  5
7EA
  8
LAYER_1
 10
294.68706619314042
 20
136.4663104348509
 30
0.0
 11
294.65781741388162
 21
136.4956990846041
 31
0.0
  0
LINE
  5
7EB
  8
LAYER_1
 10
294.65781741388162
 20
136.4956990846041
 30
0.0
 11
294.64212886068327
 21
136.53360449651191
 31
0.0
  0
LINE
  5
7EC
  8
LAYER_1
 10
294.64212886068327
 20
136.53360449651191
 30
0.0
 11
294.63577496159382
 21
136.5993565291399
 31
0.0
  0
LINE
  5
7ED
  8
LAYER_1
 10
294.63577496159382
 20
136.5993565291399
 30
0.0
 11
294.65778003382098
 21
136.63732075369589
 31
0.0
  0
LINE
  5
7EE
  8
LAYER_1
 10
294.65778003382098
 20
136.63732075369589
 30
0.0
 11
294.70954136024761
 21
136.64842679600821
 31
0.0
  0
LINE
  5
7EF
  8
LAYER_1
 10
294.70954136024761
 20
136.64842679600821
 30
0.0
 11
294.79245642690438
 21
136.63360407875331
 31
0.0
  0
LINE
  5
7F0
  8
LAYER_1
 10
294.79245642690438
 20
136.63360407875331
 30
0.0
 11
294.95372842762691
 21
136.61061077119919
 31
0.0
  0
LINE
  5
7F1
  8
LAYER_1
 10
294.95372842762691
 20
136.61061077119919
 30
0.0
 11
295.1685242042692
 21
136.6050900005022
 31
0.0
  0
LINE
  5
7F2
  8
LAYER_1
 10
295.1685242042692
 20
136.6050900005022
 30
0.0
 11
295.37891248590017
 21
136.6162705997809
 31
0.0
  0
LINE
  5
7F3
  8
LAYER_1
 10
295.37891248590017
 20
136.6162705997809
 30
0.0
 11
295.52696190001302
 21
136.6433816053075
 31
0.0
  0
LINE
  5
7F4
  8
LAYER_1
 10
295.52696190001302
 20
136.6433816053075
 30
0.0
 11
295.6339847688244
 21
136.69325767655761
 31
0.0
  0
LINE
  5
7F5
  8
LAYER_1
 10
295.6339847688244
 20
136.69325767655761
 30
0.0
 11
295.73335630511917
 21
136.7587118876242
 31
0.0
  0
LINE
  5
7F6
  8
LAYER_1
 10
295.73335630511917
 20
136.7587118876242
 30
0.0
 11
295.80655885401939
 21
136.8255489577422
 31
0.0
  0
LINE
  5
7F7
  8
LAYER_1
 10
295.80655885401939
 20
136.8255489577422
 30
0.0
 11
295.83507476064301
 21
136.87957391087269
 31
0.0
  0
LINE
  5
7F8
  8
LAYER_1
 10
295.83507476064301
 20
136.87957391087269
 30
0.0
 11
295.8323913193023
 21
136.90125353280121
 31
0.0
  0
LINE
  5
7F9
  8
LAYER_1
 10
295.8323913193023
 20
136.90125353280121
 30
0.0
 11
295.82134947318008
 21
136.9075743180336
 31
0.0
  0
LINE
  5
7FA
  8
LAYER_1
 10
295.82134947318008
 20
136.9075743180336
 30
0.0
 11
295.75624031662909
 21
136.87253640362891
 31
0.0
  0
LINE
  5
7FB
  8
LAYER_1
 10
295.75624031662909
 20
136.87253640362891
 30
0.0
 11
295.6340601384008
 21
136.79891607161809
 31
0.0
  0
LINE
  5
7FC
  8
LAYER_1
 10
295.6340601384008
 20
136.79891607161809
 30
0.0
 11
295.52586619701799
 21
136.7568736622502
 31
0.0
  0
LINE
  5
7FD
  8
LAYER_1
 10
295.52586619701799
 20
136.7568736622502
 30
0.0
 11
295.39848236914139
 21
136.7378026199664
 31
0.0
  0
LINE
  5
7FE
  8
LAYER_1
 10
295.39848236914139
 20
136.7378026199664
 30
0.0
 11
295.21873263300353
 21
136.73309659236111
 31
0.0
  0
LINE
  5
7FF
  8
LAYER_1
 10
295.21873263300353
 20
136.73309659236111
 30
0.0
 11
294.94838978314323
 21
136.74651583058639
 31
0.0
  0
LINE
  5
800
  8
LAYER_1
 10
294.94838978314323
 20
136.74651583058639
 30
0.0
 11
294.85935881054991
 21
136.7742331447418
 31
0.0
  0
LINE
  5
801
  8
LAYER_1
 10
294.85935881054991
 20
136.7742331447418
 30
0.0
 11
294.75450063317652
 21
136.82519821495461
 31
0.0
  0
LINE
  5
802
  8
LAYER_1
 10
294.75450063317652
 20
136.82519821495461
 30
0.0
 11
294.6124297939117
 21
136.89061149079359
 31
0.0
  0
LINE
  5
803
  8
LAYER_1
 10
294.6124297939117
 20
136.89061149079359
 30
0.0
 11
294.52019663007661
 21
136.9178186890278
 31
0.0
  0
LINE
  5
804
  8
LAYER_1
 10
294.52019663007661
 20
136.9178186890278
 30
0.0
 11
294.45331324118843
 21
136.94037694550801
 31
0.0
  0
LINE
  5
805
  8
LAYER_1
 10
294.45331324118843
 20
136.94037694550801
 30
0.0
 11
294.37218967483471
 21
136.9946125677794
 31
0.0
  0
LINE
  5
806
  8
LAYER_1
 10
294.37218967483471
 20
136.9946125677794
 30
0.0
 11
294.31861815807702
 21
137.03639412934029
 31
0.0
  0
LINE
  5
807
  8
LAYER_1
 10
294.31861815807702
 20
137.03639412934029
 30
0.0
 11
294.2758006203556
 21
137.05525348672151
 31
0.0
  0
LINE
  5
808
  8
LAYER_1
 10
294.2758006203556
 20
137.05525348672151
 30
0.0
 11
294.15457586832161
 21
137.03761324747819
 31
0.0
  0
LINE
  5
809
  8
LAYER_1
 10
294.15457586832161
 20
137.03761324747819
 30
0.0
 11
294.03249767264788
 21
137.0123564147965
 31
0.0
  0
LINE
  5
80A
  8
LAYER_1
 10
294.03249767264788
 20
137.0123564147965
 30
0.0
 11
293.92863209837782
 21
137.0055765049195
 31
0.0
  0
LINE
  5
80B
  8
LAYER_1
 10
293.92863209837782
 20
137.0055765049195
 30
0.0
 11
293.84902252601108
 21
137.01711678569549
 31
0.0
  0
LINE
  5
80C
  8
LAYER_1
 10
293.84902252601108
 20
137.01711678569549
 30
0.0
 11
293.79971243761707
 21
137.0468205249723
 31
0.0
  0
LINE
  5
80D
  8
LAYER_1
 10
293.79971243761707
 20
137.0468205249723
 30
0.0
 11
293.78108477566172
 21
137.09445551944509
 31
0.0
  0
LINE
  5
80E
  8
LAYER_1
 10
293.78108477566172
 20
137.09445551944509
 30
0.0
 11
293.80224097517907
 21
137.13580761662581
 31
0.0
  0
LINE
  5
80F
  8
LAYER_1
 10
293.80224097517907
 20
137.13580761662581
 30
0.0
 11
293.85705253477971
 21
137.1651718880791
 31
0.0
  0
LINE
  5
810
  8
LAYER_1
 10
293.85705253477971
 20
137.1651718880791
 30
0.0
 11
293.93939105464892
 21
137.176843506945
 31
0.0
  0
LINE
  5
811
  8
LAYER_1
 10
293.93939105464892
 20
137.176843506945
 30
0.0
 11
294.09676496524838
 21
137.19269488687121
 31
0.0
  0
LINE
  5
812
  8
LAYER_1
 10
294.09676496524838
 20
137.19269488687121
 30
0.0
 11
294.28007891037782
 21
137.2392211765885
 31
0.0
  0
LINE
  5
813
  8
LAYER_1
 10
294.28007891037782
 20
137.2392211765885
 30
0.0
 11
294.49821603772341
 21
137.31922212224251
 31
0.0
  0
LINE
  5
814
  8
LAYER_1
 10
294.49821603772341
 20
137.31922212224251
 30
0.0
 11
294.76005949496738
 21
137.43549757155381
 31
0.0
  0
LINE
  5
815
  8
LAYER_1
 10
294.76005949496738
 20
137.43549757155381
 30
0.0
 11
294.90878835260952
 21
137.48781573897679
 31
0.0
  0
LINE
  5
816
  8
LAYER_1
 10
294.90878835260952
 20
137.48781573897679
 30
0.0
 11
295.09161737272871
 21
137.5247551607587
 31
0.0
  0
LINE
  5
817
  8
LAYER_1
 10
295.09161737272871
 20
137.5247551607587
 30
0.0
 11
295.29495260595041
 21
137.54639222223929
 31
0.0
  0
LINE
  5
818
  8
LAYER_1
 10
295.29495260595041
 20
137.54639222223929
 30
0.0
 11
295.5052003060519
 21
137.55280341033321
 31
0.0
  0
LINE
  5
819
  8
LAYER_1
 10
295.5052003060519
 20
137.55280341033321
 30
0.0
 11
295.70876662524029
 21
137.54406511037999
 31
0.0
  0
LINE
  5
81A
  8
LAYER_1
 10
295.70876662524029
 20
137.54406511037999
 30
0.0
 11
295.89205761413922
 21
137.52025391087079
 31
0.0
  0
LINE
  5
81B
  8
LAYER_1
 10
295.89205761413922
 20
137.52025391087079
 30
0.0
 11
296.04147952652511
 21
137.4814460955686
 31
0.0
  0
LINE
  5
81C
  8
LAYER_1
 10
296.04147952652511
 20
137.4814460955686
 30
0.0
 11
296.14343851460592
 21
137.42771825296549
 31
0.0
  0
LINE
  5
81D
  8
LAYER_1
 10
296.14343851460592
 20
137.42771825296549
 30
0.0
 11
296.23013038934221
 21
137.40261967607941
 31
0.0
  0
LINE
  5
81E
  8
LAYER_1
 10
296.23013038934221
 20
137.40261967607941
 30
0.0
 11
296.3873344644544
 21
137.384789286098
 31
0.0
  0
LINE
  5
81F
  8
LAYER_1
 10
296.3873344644544
 20
137.384789286098
 30
0.0
 11
296.56598250459569
 21
137.37068237666799
 31
0.0
  0
LINE
  5
820
  8
LAYER_1
 10
296.56598250459569
 20
137.37068237666799
 30
0.0
 11
296.63932929177042
 21
137.345700104587
 31
0.0
  0
LINE
  5
821
  8
LAYER_1
 10
296.63932929177042
 20
137.345700104587
 30
0.0
 11
296.64013621349
 21
137.32380798514581
 31
0.0
  0
LINE
  5
822
  8
LAYER_1
 10
296.64013621349
 20
137.32380798514581
 30
0.0
 11
296.61896345704361
 21
137.29280965657861
 31
0.0
  0
LINE
  5
823
  8
LAYER_1
 10
296.61896345704361
 20
137.29280965657861
 30
0.0
 11
296.51647332675708
 21
137.194978016215
 31
0.0
  0
LINE
  5
824
  8
LAYER_1
 10
296.51647332675708
 20
137.194978016215
 30
0.0
 11
296.42194210186858
 21
137.10754209545581
 31
0.0
  0
LINE
  5
825
  8
LAYER_1
 10
296.42194210186858
 20
137.10754209545581
 30
0.0
 11
296.3761710315614
 21
137.0510091231661
 31
0.0
  0
LINE
  5
826
  8
LAYER_1
 10
296.3761710315614
 20
137.0510091231661
 30
0.0
 11
296.36633794279828
 21
137.00075417250869
 31
0.0
  0
LINE
  5
827
  8
LAYER_1
 10
296.36633794279828
 20
137.00075417250869
 30
0.0
 11
296.37962076412089
 21
136.9321522150687
 31
0.0
  0
LINE
  5
828
  8
LAYER_1
 10
296.37962076412089
 20
136.9321522150687
 30
0.0
 11
296.40377234564141
 21
136.80388914318181
 31
0.0
  0
LINE
  5
829
  8
LAYER_1
 10
296.40377234564141
 20
136.80388914318181
 30
0.0
 11
296.40147834763872
 21
136.70877751160791
 31
0.0
  0
LINE
  5
82A
  8
LAYER_1
 10
296.40147834763872
 20
136.70877751160791
 30
0.0
 11
296.36903377644188
 21
136.6280658369414
 31
0.0
  0
LINE
  5
82B
  8
LAYER_1
 10
296.36903377644188
 20
136.6280658369414
 30
0.0
 11
296.3027339431041
 21
136.54300243262429
 31
0.0
  0
LINE
  5
82C
  8
LAYER_1
 10
296.3027339431041
 20
136.54300243262429
 30
0.0
 11
296.13225334439522
 21
136.3995437570739
 31
0.0
  0
LINE
  5
82D
  8
LAYER_1
 10
296.13225334439522
 20
136.3995437570739
 30
0.0
 11
295.91471947839199
 21
136.28231166265101
 31
0.0
  0
LINE
  5
82E
  8
LAYER_1
 10
295.91471947839199
 20
136.28231166265101
 30
0.0
 11
295.67719459401962
 21
136.2029948330329
 31
0.0
  0
LINE
  5
82F
  8
LAYER_1
 10
295.67719459401962
 20
136.2029948330329
 30
0.0
 11
295.44674083862941
 21
136.1732819518935
 31
0.0
  0
LINE
  5
830
  8
LAYER_1
 10
295.44674083862941
 20
136.1732819518935
 30
0.0
 11
295.27641036961671
 21
136.190204250211
 31
0.0
  0
LINE
  5
831
  8
LAYER_1
 10
295.27641036961671
 20
136.190204250211
 30
0.0
 11
295.11706943496011
 21
136.27206840899649
 31
0.0
  0
LINE
  5
832
  8
LAYER_1
 10
295.11706943496011
 20
136.27206840899649
 30
0.0
 11
295.11706943496011
 21
136.27206840899649
 31
0.0
  0
LINE
  5
849
  8
LAYER_1
 10
298.2287755394172
 20
136.3650154507088
 30
0.0
 11
298.14044716973598
 21
136.40929670217579
 31
0.0
  0
LINE
  5
84A
  8
LAYER_1
 10
298.14044716973598
 20
136.40929670217579
 30
0.0
 11
298.01988032706709
 21
136.49332230195861
 31
0.0
  0
LINE
  5
84B
  8
LAYER_1
 10
298.01988032706709
 20
136.49332230195861
 30
0.0
 11
297.90715161563378
 21
136.58662932989731
 31
0.0
  0
LINE
  5
84C
  8
LAYER_1
 10
297.90715161563378
 20
136.58662932989731
 30
0.0
 11
297.84233763966267
 21
136.65875456110211
 31
0.0
  0
LINE
  5
84D
  8
LAYER_1
 10
297.84233763966267
 20
136.65875456110211
 30
0.0
 11
297.82347025775812
 21
136.7255120970172
 31
0.0
  0
LINE
  5
84E
  8
LAYER_1
 10
297.82347025775812
 20
136.7255120970172
 30
0.0
 11
297.81997867578372
 21
136.80777951350959
 31
0.0
  0
LINE
  5
84F
  8
LAYER_1
 10
297.81997867578372
 20
136.80777951350959
 30
0.0
 11
297.82140592365408
 21
136.85999051799041
 31
0.0
  0
LINE
  5
850
  8
LAYER_1
 10
297.82140592365408
 20
136.85999051799041
 30
0.0
 11
297.8095743221977
 21
136.8905220021185
 31
0.0
  0
LINE
  5
851
  8
LAYER_1
 10
297.8095743221977
 20
136.8905220021185
 30
0.0
 11
297.71276819564099
 21
136.92213679693921
 31
0.0
  0
LINE
  5
852
  8
LAYER_1
 10
297.71276819564099
 20
136.92213679693921
 30
0.0
 11
297.42113567507039
 21
136.94483370499981
 31
0.0
  0
LINE
  5
853
  8
LAYER_1
 10
297.42113567507039
 20
136.94483370499981
 30
0.0
 11
297.2584714702827
 21
136.96083074526629
 31
0.0
  0
LINE
  5
854
  8
LAYER_1
 10
297.2584714702827
 20
136.96083074526629
 30
0.0
 11
297.20788578735988
 21
136.98803489621321
 31
0.0
  0
LINE
  5
855
  8
LAYER_1
 10
297.20788578735988
 20
136.98803489621321
 30
0.0
 11
297.15472484180032
 21
137.03593246528951
 31
0.0
  0
LINE
  5
856
  8
LAYER_1
 10
297.15472484180032
 20
137.03593246528951
 30
0.0
 11
297.09468241011439
 21
137.10861839738789
 31
0.0
  0
LINE
  5
857
  8
LAYER_1
 10
297.09468241011439
 20
137.10861839738789
 30
0.0
 11
297.0759308251354
 21
137.15776748742519
 31
0.0
  0
LINE
  5
858
  8
LAYER_1
 10
297.0759308251354
 20
137.15776748742519
 30
0.0
 11
297.105865853529
 21
137.18851085960819
 31
0.0
  0
LINE
  5
859
  8
LAYER_1
 10
297.105865853529
 20
137.18851085960819
 30
0.0
 11
297.15872603181509
 21
137.19851124445239
 31
0.0
  0
LINE
  5
85A
  8
LAYER_1
 10
297.15872603181509
 20
137.19851124445239
 30
0.0
 11
297.21969036953323
 21
137.18785447388839
 31
0.0
  0
LINE
  5
85B
  8
LAYER_1
 10
297.21969036953323
 20
137.18785447388839
 30
0.0
 11
297.27393807938012
 21
137.1566257703889
 31
0.0
  0
LINE
  5
85C
  8
LAYER_1
 10
297.27393807938012
 20
137.1566257703889
 30
0.0
 11
297.35661941908432
 21
137.11628811520421
 31
0.0
  0
LINE
  5
85D
  8
LAYER_1
 10
297.35661941908432
 20
137.11628811520421
 30
0.0
 11
297.50294549056349
 21
137.1073857696083
 31
0.0
  0
LINE
  5
85E
  8
LAYER_1
 10
297.50294549056349
 20
137.1073857696083
 30
0.0
 11
297.60087352678721
 21
137.11432840463641
 31
0.0
  0
LINE
  5
85F
  8
LAYER_1
 10
297.60087352678721
 20
137.11432840463641
 30
0.0
 11
297.69344778366718
 21
137.13580202993199
 31
0.0
  0
LINE
  5
860
  8
LAYER_1
 10
297.69344778366718
 20
137.13580202993199
 30
0.0
 11
297.95130630309558
 21
137.25072113159359
 31
0.0
  0
LINE
  5
861
  8
LAYER_1
 10
297.95130630309558
 20
137.25072113159359
 30
0.0
 11
298.2193742512876
 21
137.36973954592719
 31
0.0
  0
LINE
  5
862
  8
LAYER_1
 10
298.2193742512876
 20
137.36973954592719
 30
0.0
 11
298.31865924461908
 21
137.38729649264681
 31
0.0
  0
LINE
  5
863
  8
LAYER_1
 10
298.31865924461908
 20
137.38729649264681
 30
0.0
 11
298.44377853160688
 21
137.39082535310541
 31
0.0
  0
LINE
  5
864
  8
LAYER_1
 10
298.44377853160688
 20
137.39082535310541
 30
0.0
 11
298.65168073454879
 21
137.3746626419763
 31
0.0
  0
LINE
  5
865
  8
LAYER_1
 10
298.65168073454879
 20
137.3746626419763
 30
0.0
 11
298.83078403943858
 21
137.292949425497
 31
0.0
  0
LINE
  5
866
  8
LAYER_1
 10
298.83078403943858
 20
137.292949425497
 30
0.0
 11
299.3093045670293
 21
137.0421964693987
 31
0.0
  0
LINE
  5
867
  8
LAYER_1
 10
299.3093045670293
 20
137.0421964693987
 30
0.0
 11
299.4862301787216
 21
136.97241785269321
 31
0.0
  0
LINE
  5
868
  8
LAYER_1
 10
299.4862301787216
 20
136.97241785269321
 30
0.0
 11
299.65043966298202
 21
136.92682189983779
 31
0.0
  0
LINE
  5
869
  8
LAYER_1
 10
299.65043966298202
 20
136.92682189983779
 30
0.0
 11
299.84528789588933
 21
136.86623359739249
 31
0.0
  0
LINE
  5
86A
  8
LAYER_1
 10
299.84528789588933
 20
136.86623359739249
 30
0.0
 11
299.89411773177602
 21
136.83606321682871
 31
0.0
  0
LINE
  5
86B
  8
LAYER_1
 10
299.89411773177602
 20
136.83606321682871
 30
0.0
 11
299.91053570401698
 21
136.80796895321379
 31
0.0
  0
LINE
  5
86C
  8
LAYER_1
 10
299.91053570401698
 20
136.80796895321379
 30
0.0
 11
299.8945300297712
 21
136.78344590735341
 31
0.0
  0
LINE
  5
86D
  8
LAYER_1
 10
299.8945300297712
 20
136.78344590735341
 30
0.0
 11
299.8460891293393
 21
136.76398918005319
 31
0.0
  0
LINE
  5
86E
  8
LAYER_1
 10
299.8460891293393
 20
136.76398918005319
 30
0.0
 11
299.65185472170299
 21
136.74625508435571
 31
0.0
  0
LINE
  5
86F
  8
LAYER_1
 10
299.65185472170299
 20
136.74625508435571
 30
0.0
 11
299.4963860768018
 21
136.73668264024781
 31
0.0
  0
LINE
  5
870
  8
LAYER_1
 10
299.4963860768018
 20
136.73668264024781
 30
0.0
 11
299.48049254273269
 21
136.71624905416209
 31
0.0
  0
LINE
  5
871
  8
LAYER_1
 10
299.48049254273269
 20
136.71624905416209
 30
0.0
 11
299.48674212301631
 21
136.67742864340559
 31
0.0
  0
LINE
  5
872
  8
LAYER_1
 10
299.48674212301631
 20
136.67742864340559
 30
0.0
 11
299.48805062825062
 21
136.60543414083301
 31
0.0
  0
LINE
  5
873
  8
LAYER_1
 10
299.48805062825062
 20
136.60543414083301
 30
0.0
 11
299.4639256597095
 21
136.576841239413
 31
0.0
  0
LINE
  5
874
  8
LAYER_1
 10
299.4639256597095
 20
136.576841239413
 30
0.0
 11
299.4149831757627
 21
136.54958924605239
 31
0.0
  0
LINE
  5
875
  8
LAYER_1
 10
299.4149831757627
 20
136.54958924605239
 30
0.0
 11
299.21775216721261
 21
136.488322211113
 31
0.0
  0
LINE
  5
876
  8
LAYER_1
 10
299.21775216721261
 20
136.488322211113
 30
0.0
 11
298.84656990268462
 21
136.40006179594249
 31
0.0
  0
LINE
  5
877
  8
LAYER_1
 10
298.84656990268462
 20
136.40006179594249
 30
0.0
 11
298.50173174300591
 21
136.35108223666469
 31
0.0
  0
LINE
  5
878
  8
LAYER_1
 10
298.50173174300591
 20
136.35108223666469
 30
0.0
 11
298.34872926784828
 21
136.3497570729227
 31
0.0
  0
LINE
  5
879
  8
LAYER_1
 10
298.34872926784828
 20
136.3497570729227
 30
0.0
 11
298.2287755394172
 21
136.3650154507088
 31
0.0
  0
LINE
  5
87A
  8
LAYER_1
 10
298.2287755394172
 20
136.3650154507088
 30
0.0
 11
298.2287755394172
 21
136.3650154507088
 31
0.0
  0
LINE
  5
87B
  8
LAYER_1
 10
293.01871988322438
 20
137.91061620899589
 30
0.0
 11
293.0516175860659
 21
137.9267050741922
 31
0.0
  0
LINE
  5
87C
  8
LAYER_1
 10
293.0516175860659
 20
137.9267050741922
 30
0.0
 11
293.07917227664899
 21
137.9581836552637
 31
0.0
  0
LINE
  5
87D
  8
LAYER_1
 10
293.07917227664899
 20
137.9581836552637
 30
0.0
 11
293.12870085555028
 21
138.08375851172701
 31
0.0
  0
LINE
  5
87E
  8
LAYER_1
 10
293.12870085555028
 20
138.08375851172701
 30
0.0
 11
293.1550056503915
 21
138.19463244085699
 31
0.0
  0
LINE
  5
87F
  8
LAYER_1
 10
293.1550056503915
 20
138.19463244085699
 30
0.0
 11
293.15738273776338
 21
138.26852723189219
 31
0.0
  0
LINE
  5
880
  8
LAYER_1
 10
293.15738273776338
 20
138.26852723189219
 30
0.0
 11
293.13509122051448
 21
138.30972442529381
 31
0.0
  0
LINE
  5
881
  8
LAYER_1
 10
293.13509122051448
 20
138.30972442529381
 30
0.0
 11
293.08739009990148
 21
138.32250535837201
 31
0.0
  0
LINE
  5
882
  8
LAYER_1
 10
293.08739009990148
 20
138.32250535837201
 30
0.0
 11
292.83119448524349
 21
138.3693066149948
 31
0.0
  0
LINE
  5
883
  8
LAYER_1
 10
292.83119448524349
 20
138.3693066149948
 30
0.0
 11
292.41627846522852
 21
138.48093149733259
 31
0.0
  0
LINE
  5
884
  8
LAYER_1
 10
292.41627846522852
 20
138.48093149733259
 30
0.0
 11
291.99077911427997
 21
138.6142116232987
 31
0.0
  0
LINE
  5
885
  8
LAYER_1
 10
291.99077911427997
 20
138.6142116232987
 30
0.0
 11
291.70283320208301
 21
138.72597840765621
 31
0.0
  0
LINE
  5
886
  8
LAYER_1
 10
291.70283320208301
 20
138.72597840765621
 30
0.0
 11
291.57888153407561
 21
138.8079586680937
 31
0.0
  0
LINE
  5
887
  8
LAYER_1
 10
291.57888153407561
 20
138.8079586680937
 30
0.0
 11
291.44974013236549
 21
138.92324496789419
 31
0.0
  0
LINE
  5
888
  8
LAYER_1
 10
291.44974013236549
 20
138.92324496789419
 30
0.0
 11
291.33626249925112
 21
139.0509517066659
 31
0.0
  0
LINE
  5
889
  8
LAYER_1
 10
291.33626249925112
 20
139.0509517066659
 30
0.0
 11
291.25930193387489
 21
139.17019338559459
 31
0.0
  0
LINE
  5
88A
  8
LAYER_1
 10
291.25930193387489
 20
139.17019338559459
 30
0.0
 11
291.2198934982149
 21
139.29966541799399
 31
0.0
  0
LINE
  5
88B
  8
LAYER_1
 10
291.2198934982149
 20
139.29966541799399
 30
0.0
 11
291.2067117452583
 21
139.4518438050448
 31
0.0
  0
LINE
  5
88C
  8
LAYER_1
 10
291.2067117452583
 20
139.4518438050448
 30
0.0
 11
291.21976744208882
 21
139.6013210764882
 31
0.0
  0
LINE
  5
88D
  8
LAYER_1
 10
291.21976744208882
 20
139.6013210764882
 30
0.0
 11
291.2590711526376
 21
139.72268935576091
 31
0.0
  0
LINE
  5
88E
  8
LAYER_1
 10
291.2590711526376
 20
139.72268935576091
 30
0.0
 11
291.29135990586968
 21
139.7956161251449
 31
0.0
  0
LINE
  5
88F
  8
LAYER_1
 10
291.29135990586968
 20
139.7956161251449
 30
0.0
 11
291.28928449995499
 21
139.83115308365981
 31
0.0
  0
LINE
  5
890
  8
LAYER_1
 10
291.28928449995499
 20
139.83115308365981
 30
0.0
 11
291.25106064650601
 21
139.83086064564009
 31
0.0
  0
LINE
  5
891
  8
LAYER_1
 10
291.25106064650601
 20
139.83086064564009
 30
0.0
 11
291.1749038539877
 21
139.79629953014671
 31
0.0
  0
LINE
  5
892
  8
LAYER_1
 10
291.1749038539877
 20
139.79629953014671
 30
0.0
 11
290.97771946893602
 21
139.6604227089563
 31
0.0
  0
LINE
  5
893
  8
LAYER_1
 10
290.97771946893602
 20
139.6604227089563
 30
0.0
 11
290.7965566040246
 21
139.47756636482731
 31
0.0
  0
LINE
  5
894
  8
LAYER_1
 10
290.7965566040246
 20
139.47756636482731
 30
0.0
 11
290.64365275940469
 21
139.26231369821849
 31
0.0
  0
LINE
  5
895
  8
LAYER_1
 10
290.64365275940469
 20
139.26231369821849
 30
0.0
 11
290.53124513049471
 21
139.02924831589581
 31
0.0
  0
LINE
  5
896
  8
LAYER_1
 10
290.53124513049471
 20
139.02924831589581
 30
0.0
 11
290.48519492865432
 21
138.87136276573111
 31
0.0
  0
LINE
  5
897
  8
LAYER_1
 10
290.48519492865432
 20
138.87136276573111
 30
0.0
 11
290.44736397213808
 21
138.6862129314805
 31
0.0
  0
LINE
  5
898
  8
LAYER_1
 10
290.44736397213808
 20
138.6862129314805
 30
0.0
 11
290.42639193035723
 21
138.52472894112671
 31
0.0
  0
LINE
  5
899
  8
LAYER_1
 10
290.42639193035723
 20
138.52472894112671
 30
0.0
 11
290.43091867588419
 21
138.4378410242299
 31
0.0
  0
LINE
  5
89A
  8
LAYER_1
 10
290.43091867588419
 20
138.4378410242299
 30
0.0
 11
290.4583064766905
 21
138.41319171909211
 31
0.0
  0
LINE
  5
89B
  8
LAYER_1
 10
290.4583064766905
 20
138.41319171909211
 30
0.0
 11
290.49399752637368
 21
138.41233797072121
 31
0.0
  0
LINE
  5
89C
  8
LAYER_1
 10
290.49399752637368
 20
138.41233797072121
 30
0.0
 11
290.53632963120299
 21
138.43481902925231
 31
0.0
  0
LINE
  5
89D
  8
LAYER_1
 10
290.53632963120299
 20
138.43481902925231
 30
0.0
 11
290.5836408005959
 21
138.48017424639809
 31
0.0
  0
LINE
  5
89E
  8
LAYER_1
 10
290.5836408005959
 20
138.48017424639809
 30
0.0
 11
290.67545232142402
 21
138.5518418766022
 31
0.0
  0
LINE
  5
89F
  8
LAYER_1
 10
290.67545232142402
 20
138.5518418766022
 30
0.0
 11
290.82614393692052
 21
138.44226863133761
 31
0.0
  0
LINE
  5
8A0
  8
LAYER_1
 10
290.82614393692052
 20
138.44226863133761
 30
0.0
 11
291.07916427804378
 21
138.24112724193711
 31
0.0
  0
LINE
  5
8A1
  8
LAYER_1
 10
291.07916427804378
 20
138.24112724193711
 30
0.0
 11
291.3436938176107
 21
138.08202186260129
 31
0.0
  0
LINE
  5
8A2
  8
LAYER_1
 10
291.3436938176107
 20
138.08202186260129
 30
0.0
 11
291.60908370800541
 21
137.97039312036631
 31
0.0
  0
LINE
  5
8A3
  8
LAYER_1
 10
291.60908370800541
 20
137.97039312036631
 30
0.0
 11
291.86468489845743
 21
137.91168154069339
 31
0.0
  0
LINE
  5
8A4
  8
LAYER_1
 10
291.86468489845743
 20
137.91168154069339
 30
0.0
 11
292.47216663149129
 21
137.8974657415252
 31
0.0
  0
LINE
  5
8A5
  8
LAYER_1
 10
292.47216663149129
 20
137.8974657415252
 30
0.0
 11
293.01871988322438
 21
137.91061620899589
 31
0.0
  0
LINE
  5
8A6
  8
LAYER_1
 10
293.01871988322438
 20
137.91061620899589
 30
0.0
 11
293.01871988322438
 21
137.91061620899589
 31
0.0
  0
LINE
  5
8A7
  8
LAYER_1
 10
293.68550975323848
 20
138.24393176216651
 30
0.0
 11
293.80767835177619
 21
138.29482816683461
 31
0.0
  0
LINE
  5
8A8
  8
LAYER_1
 10
293.80767835177619
 20
138.29482816683461
 30
0.0
 11
293.95118324451909
 21
138.3145201447274
 31
0.0
  0
LINE
  5
8A9
  8
LAYER_1
 10
293.95118324451909
 20
138.3145201447274
 30
0.0
 11
294.17315436737601
 21
138.30452331505131
 31
0.0
  0
LINE
  5
8AA
  8
LAYER_1
 10
294.17315436737601
 20
138.30452331505131
 30
0.0
 11
294.53072206255013
 21
138.2663530938629
 31
0.0
  0
LINE
  5
8AB
  8
LAYER_1
 10
294.53072206255013
 20
138.2663530938629
 30
0.0
 11
294.79362678844268
 21
138.24709362763809
 31
0.0
  0
LINE
  5
8AC
  8
LAYER_1
 10
294.79362678844268
 20
138.24709362763809
 30
0.0
 11
294.97506167454708
 21
138.27625098827249
 31
0.0
  0
LINE
  5
8AD
  8
LAYER_1
 10
294.97506167454708
 20
138.27625098827249
 30
0.0
 11
295.40506867468872
 21
138.35169390291551
 31
0.0
  0
LINE
  5
8AE
  8
LAYER_1
 10
295.40506867468872
 20
138.35169390291551
 30
0.0
 11
296.00707717470982
 21
138.4270974059734
 31
0.0
  0
LINE
  5
8AF
  8
LAYER_1
 10
296.00707717470982
 20
138.4270974059734
 30
0.0
 11
296.60129437014388
 21
138.48778291688859
 31
0.0
  0
LINE
  5
8B0
  8
LAYER_1
 10
296.60129437014388
 20
138.48778291688859
 30
0.0
 11
296.76028882821839
 21
138.48145146614999
 31
0.0
  0
LINE
  5
8B1
  8
LAYER_1
 10
296.76028882821839
 20
138.48145146614999
 30
0.0
 11
296.87595421057938
 21
138.45207185668269
 31
0.0
  0
LINE
  5
8B2
  8
LAYER_1
 10
296.87595421057938
 20
138.45207185668269
 30
0.0
 11
296.99418845627071
 21
138.41657248138051
 31
0.0
  0
LINE
  5
8B3
  8
LAYER_1
 10
296.99418845627071
 20
138.41657248138051
 30
0.0
 11
297.0798791955005
 21
138.4175450739618
 31
0.0
  0
LINE
  5
8B4
  8
LAYER_1
 10
297.0798791955005
 20
138.4175450739618
 30
0.0
 11
297.14380905180252
 21
138.4579733351602
 31
0.0
  0
LINE
  5
8B5
  8
LAYER_1
 10
297.14380905180252
 20
138.4579733351602
 30
0.0
 11
297.19676085186478
 21
138.54084096570801
 31
0.0
  0
LINE
  5
8B6
  8
LAYER_1
 10
297.19676085186478
 20
138.54084096570801
 30
0.0
 11
297.29610313419909
 21
138.7057072419926
 31
0.0
  0
LINE
  5
8B7
  8
LAYER_1
 10
297.29610313419909
 20
138.7057072419926
 30
0.0
 11
297.34040358357788
 21
138.7415746280453
 31
0.0
  0
LINE
  5
8B8
  8
LAYER_1
 10
297.34040358357788
 20
138.7415746280453
 30
0.0
 11
297.38660675924939
 21
138.7525115459033
 31
0.0
  0
LINE
  5
8B9
  8
LAYER_1
 10
297.38660675924939
 20
138.7525115459033
 30
0.0
 11
297.4158940359049
 21
138.7436179358655
 31
0.0
  0
LINE
  5
8BA
  8
LAYER_1
 10
297.4158940359049
 20
138.7436179358655
 30
0.0
 11
297.43255640060192
 21
138.70191976840511
 31
0.0
  0
LINE
  5
8BB
  8
LAYER_1
 10
297.43255640060192
 20
138.70191976840511
 30
0.0
 11
297.44405737137032
 21
138.43000685446711
 31
0.0
  0
LINE
  5
8BC
  8
LAYER_1
 10
297.44405737137032
 20
138.43000685446711
 30
0.0
 11
297.44768344029808
 21
138.10750226460641
 31
0.0
  0
LINE
  5
8BD
  8
LAYER_1
 10
297.44768344029808
 20
138.10750226460641
 30
0.0
 11
297.47306064083489
 21
138.30524978838321
 31
0.0
  0
LINE
  5
8BE
  8
LAYER_1
 10
297.47306064083489
 20
138.30524978838321
 30
0.0
 11
297.51667798993958
 21
138.50069275022719
 31
0.0
  0
LINE
  5
8BF
  8
LAYER_1
 10
297.51667798993958
 20
138.50069275022719
 30
0.0
 11
297.59843610312168
 21
138.69131703640511
 31
0.0
  0
LINE
  5
8C0
  8
LAYER_1
 10
297.59843610312168
 20
138.69131703640511
 30
0.0
 11
297.69843466959952
 21
138.91237580139361
 31
0.0
  0
LINE
  5
8C1
  8
LAYER_1
 10
297.69843466959952
 20
138.91237580139361
 30
0.0
 11
297.68257668721782
 21
138.93576891306299
 31
0.0
  0
LINE
  5
8C2
  8
LAYER_1
 10
297.68257668721782
 20
138.93576891306299
 30
0.0
 11
297.63893668660859
 21
138.9612258509548
 31
0.0
  0
LINE
  5
8C3
  8
LAYER_1
 10
297.63893668660859
 20
138.9612258509548
 30
0.0
 11
297.49191461467501
 21
139.01194124674819
 31
0.0
  0
LINE
  5
8C4
  8
LAYER_1
 10
297.49191461467501
 20
139.01194124674819
 30
0.0
 11
297.30457601541423
 21
139.05174237618661
 31
0.0
  0
LINE
  5
8C5
  8
LAYER_1
 10
297.30457601541423
 20
139.05174237618661
 30
0.0
 11
297.1241282472962
 21
139.06784932195461
 31
0.0
  0
LINE
  5
8C6
  8
LAYER_1
 10
297.1241282472962
 20
139.06784932195461
 30
0.0
 11
296.92030747960661
 21
139.0524503626406
 31
0.0
  0
LINE
  5
8C7
  8
LAYER_1
 10
296.92030747960661
 20
139.0524503626406
 30
0.0
 11
296.69731013190892
 21
139.0014847845469
 31
0.0
  0
LINE
  5
8C8
  8
LAYER_1
 10
296.69731013190892
 20
139.0014847845469
 30
0.0
 11
296.43093779603669
 21
138.90780019769139
 31
0.0
  0
LINE
  5
8C9
  8
LAYER_1
 10
296.43093779603669
 20
138.90780019769139
 30
0.0
 11
296.09699206381981
 21
138.76424380578931
 31
0.0
  0
LINE
  5
8CA
  8
LAYER_1
 10
296.09699206381981
 20
138.76424380578931
 30
0.0
 11
295.57696819201487
 21
138.5394855322441
 31
0.0
  0
LINE
  5
8CB
  8
LAYER_1
 10
295.57696819201487
 20
138.5394855322441
 30
0.0
 11
295.41825479542229
 21
138.48899431523179
 31
0.0
  0
LINE
  5
8CC
  8
LAYER_1
 10
295.41825479542229
 20
138.48899431523179
 30
0.0
 11
295.25348887647158
 21
138.45257242443711
 31
0.0
  0
LINE
  5
8CD
  8
LAYER_1
 10
295.25348887647158
 20
138.45257242443711
 30
0.0
 11
295.0859280870344
 21
138.42886991151411
 31
0.0
  0
LINE
  5
8CE
  8
LAYER_1
 10
295.0859280870344
 20
138.42886991151411
 30
0.0
 11
295.04560444937209
 21
138.43622342246769
 31
0.0
  0
LINE
  5
8CF
  8
LAYER_1
 10
295.04560444937209
 20
138.43622342246769
 30
0.0
 11
295.01698554443237
 21
138.45667986320879
 31
0.0
  0
LINE
  5
8D0
  8
LAYER_1
 10
295.01698554443237
 20
138.45667986320879
 30
0.0
 11
294.98156306234961
 21
138.5175124565325
 31
0.0
  0
LINE
  5
8D1
  8
LAYER_1
 10
294.98156306234961
 20
138.5175124565325
 30
0.0
 11
294.98772264607419
 21
138.57603053345201
 31
0.0
  0
LINE
  5
8D2
  8
LAYER_1
 10
294.98772264607419
 20
138.57603053345201
 30
0.0
 11
295.02992493645888
 21
138.62044464665249
 31
0.0
  0
LINE
  5
8D3
  8
LAYER_1
 10
295.02992493645888
 20
138.62044464665249
 30
0.0
 11
295.10263098065502
 21
138.63896524724419
 31
0.0
  0
LINE
  5
8D4
  8
LAYER_1
 10
295.10263098065502
 20
138.63896524724419
 30
0.0
 11
295.12623912924232
 21
138.65051152101799
 31
0.0
  0
LINE
  5
8D5
  8
LAYER_1
 10
295.12623912924232
 20
138.65051152101799
 30
0.0
 11
295.06106374497813
 21
138.68838016232431
 31
0.0
  0
LINE
  5
8D6
  8
LAYER_1
 10
295.06106374497813
 20
138.68838016232431
 30
0.0
 11
294.992808873581
 21
138.71227790479759
 31
0.0
  0
LINE
  5
8D7
  8
LAYER_1
 10
294.992808873581
 20
138.71227790479759
 30
0.0
 11
294.89546398660161
 21
138.72684962714141
 31
0.0
  0
LINE
  5
8D8
  8
LAYER_1
 10
294.89546398660161
 20
138.72684962714141
 30
0.0
 11
294.53072287516159
 21
138.73534597247041
 31
0.0
  0
LINE
  5
8D9
  8
LAYER_1
 10
294.53072287516159
 20
138.73534597247041
 30
0.0
 11
294.13778744750209
 21
138.72257854903361
 31
0.0
  0
LINE
  5
8DA
  8
LAYER_1
 10
294.13778744750209
 20
138.72257854903361
 30
0.0
 11
294.02813517591528
 21
138.69932083850361
 31
0.0
  0
LINE
  5
8DB
  8
LAYER_1
 10
294.02813517591528
 20
138.69932083850361
 30
0.0
 11
293.91567391474649
 21
138.65709264617661
 31
0.0
  0
LINE
  5
8DC
  8
LAYER_1
 10
293.91567391474649
 20
138.65709264617661
 30
0.0
 11
293.760937431446
 21
138.5856038917465
 31
0.0
  0
LINE
  5
8DD
  8
LAYER_1
 10
293.760937431446
 20
138.5856038917465
 30
0.0
 11
293.6344364027463
 21
138.51116627723781
 31
0.0
  0
LINE
  5
8DE
  8
LAYER_1
 10
293.6344364027463
 20
138.51116627723781
 30
0.0
 11
293.53406301990918
 21
138.43235610994839
 31
0.0
  0
LINE
  5
8DF
  8
LAYER_1
 10
293.53406301990918
 20
138.43235610994839
 30
0.0
 11
293.45770967734751
 21
138.3477495955986
 31
0.0
  0
LINE
  5
8E0
  8
LAYER_1
 10
293.45770967734751
 20
138.3477495955986
 30
0.0
 11
293.4119035632358
 21
138.26351038096519
 31
0.0
  0
LINE
  5
8E1
  8
LAYER_1
 10
293.4119035632358
 20
138.26351038096519
 30
0.0
 11
293.38158843651632
 21
138.1639106028386
 31
0.0
  0
LINE
  5
8E2
  8
LAYER_1
 10
293.38158843651632
 20
138.1639106028386
 30
0.0
 11
293.37040407891578
 21
138.0662520484027
 31
0.0
  0
LINE
  5
8E3
  8
LAYER_1
 10
293.37040407891578
 20
138.0662520484027
 30
0.0
 11
293.38199078003828
 21
137.98783670799199
 31
0.0
  0
LINE
  5
8E4
  8
LAYER_1
 10
293.38199078003828
 20
137.98783670799199
 30
0.0
 11
293.39436246240979
 21
137.96694785716031
 31
0.0
  0
LINE
  5
8E5
  8
LAYER_1
 10
293.39436246240979
 20
137.96694785716031
 30
0.0
 11
293.40990119064259
 21
137.9685695219722
 31
0.0
  0
LINE
  5
8E6
  8
LAYER_1
 10
293.40990119064259
 20
137.9685695219722
 30
0.0
 11
293.4648821794259
 21
138.05017557550951
 31
0.0
  0
LINE
  5
8E7
  8
LAYER_1
 10
293.4648821794259
 20
138.05017557550951
 30
0.0
 11
293.5503099377479
 21
138.15564686711991
 31
0.0
  0
LINE
  5
8E8
  8
LAYER_1
 10
293.5503099377479
 20
138.15564686711991
 30
0.0
 11
293.68550975323848
 21
138.24393176216651
 31
0.0
  0
LINE
  5
8E9
  8
LAYER_1
 10
293.68550975323848
 20
138.24393176216651
 30
0.0
 11
293.68550975323848
 21
138.24393176216651
 31
0.0
  0
LINE
  5
8EA
  8
LAYER_1
 10
297.91343766178937
 20
138.43845048172241
 30
0.0
 11
298.2717761175391
 21
138.5102944482947
 31
0.0
  0
LINE
  5
8EB
  8
LAYER_1
 10
298.2717761175391
 20
138.5102944482947
 30
0.0
 11
299.03694979640852
 21
138.65897932342131
 31
0.0
  0
LINE
  5
8EC
  8
LAYER_1
 10
299.03694979640852
 20
138.65897932342131
 30
0.0
 11
299.25702124025861
 21
138.72060421148569
 31
0.0
  0
LINE
  5
8ED
  8
LAYER_1
 10
299.25702124025861
 20
138.72060421148569
 30
0.0
 11
299.46145969311942
 21
138.7960166532535
 31
0.0
  0
LINE
  5
8EE
  8
LAYER_1
 10
299.46145969311942
 20
138.7960166532535
 30
0.0
 11
299.64304927984989
 21
138.87557960212311
 31
0.0
  0
LINE
  5
8EF
  8
LAYER_1
 10
299.64304927984989
 20
138.87557960212311
 30
0.0
 11
299.77828251392782
 21
138.95266673150451
 31
0.0
  0
LINE
  5
8F0
  8
LAYER_1
 10
299.77828251392782
 20
138.95266673150451
 30
0.0
 11
299.87865874089817
 21
139.035061727765
 31
0.0
  0
LINE
  5
8F1
  8
LAYER_1
 10
299.87865874089817
 20
139.035061727765
 30
0.0
 11
299.95567690000792
 21
139.1305482772741
 31
0.0
  0
LINE
  5
8F2
  8
LAYER_1
 10
299.95567690000792
 20
139.1305482772741
 30
0.0
 11
299.99795984193332
 21
139.201923063153
 31
0.0
  0
LINE
  5
8F3
  8
LAYER_1
 10
299.99795984193332
 20
139.201923063153
 30
0.0
 11
300.02183442502098
 21
139.27087149717781
 31
0.0
  0
LINE
  5
8F4
  8
LAYER_1
 10
300.02183442502098
 20
139.27087149717781
 30
0.0
 11
300.03480124263473
 21
139.49587660100769
 31
0.0
  0
LINE
  5
8F5
  8
LAYER_1
 10
300.03480124263473
 20
139.49587660100769
 30
0.0
 11
300.02026304045307
 21
139.72818747495489
 31
0.0
  0
LINE
  5
8F6
  8
LAYER_1
 10
300.02026304045307
 20
139.72818747495489
 30
0.0
 11
299.94983311683978
 21
139.9092195096562
 31
0.0
  0
LINE
  5
8F7
  8
LAYER_1
 10
299.94983311683978
 20
139.9092195096562
 30
0.0
 11
299.8644646790475
 21
140.04556155006549
 31
0.0
  0
LINE
  5
8F8
  8
LAYER_1
 10
299.8644646790475
 20
140.04556155006549
 30
0.0
 11
299.7466891516948
 21
140.17854629230021
 31
0.0
  0
LINE
  5
8F9
  8
LAYER_1
 10
299.7466891516948
 20
140.17854629230021
 30
0.0
 11
299.59192778221461
 21
140.3126611718786
 31
0.0
  0
LINE
  5
8FA
  8
LAYER_1
 10
299.59192778221461
 20
140.3126611718786
 30
0.0
 11
299.39560141173479
 21
140.4523940306245
 31
0.0
  0
LINE
  5
8FB
  8
LAYER_1
 10
299.39560141173479
 20
140.4523940306245
 30
0.0
 11
299.17588375795691
 21
140.6172119566159
 31
0.0
  0
LINE
  5
8FC
  8
LAYER_1
 10
299.17588375795691
 20
140.6172119566159
 30
0.0
 11
299.14057686964742
 21
140.670893480449
 31
0.0
  0
LINE
  5
8FD
  8
LAYER_1
 10
299.14057686964742
 20
140.670893480449
 30
0.0
 11
299.14289169077921
 21
140.7181253187911
 31
0.0
  0
LINE
  5
8FE
  8
LAYER_1
 10
299.14289169077921
 20
140.7181253187911
 30
0.0
 11
299.16768117113992
 21
140.74162620286009
 31
0.0
  0
LINE
  5
8FF
  8
LAYER_1
 10
299.16768117113992
 20
140.74162620286009
 30
0.0
 11
299.2165785552333
 21
140.7532837026273
 31
0.0
  0
LINE
  5
900
  8
LAYER_1
 10
299.2165785552333
 20
140.7532837026273
 30
0.0
 11
299.37038449851912
 21
140.743751177984
 31
0.0
  0
LINE
  5
901
  8
LAYER_1
 10
299.37038449851912
 20
140.743751177984
 30
0.0
 11
299.57168485474739
 21
140.69489239286659
 31
0.0
  0
LINE
  5
902
  8
LAYER_1
 10
299.57168485474739
 20
140.69489239286659
 30
0.0
 11
299.78785475488422
 21
140.6120718936987
 31
0.0
  0
LINE
  5
903
  8
LAYER_1
 10
299.78785475488422
 20
140.6120718936987
 30
0.0
 11
300.17435857762382
 21
140.4044708643336
 31
0.0
  0
LINE
  5
904
  8
LAYER_1
 10
300.17435857762382
 20
140.4044708643336
 30
0.0
 11
300.50582564621698
 21
140.1688664820966
 31
0.0
  0
LINE
  5
905
  8
LAYER_1
 10
300.50582564621698
 20
140.1688664820966
 30
0.0
 11
300.64352748787041
 21
140.04663419525201
 31
0.0
  0
LINE
  5
906
  8
LAYER_1
 10
300.64352748787041
 20
140.04663419525201
 30
0.0
 11
300.7585986491755
 21
139.92468642348101
 31
0.0
  0
LINE
  5
907
  8
LAYER_1
 10
300.7585986491755
 20
139.92468642348101
 30
0.0
 11
300.8480819408033
 21
139.80545165173709
 31
0.0
  0
LINE
  5
908
  8
LAYER_1
 10
300.8480819408033
 20
139.80545165173709
 30
0.0
 11
300.90902027500482
 21
139.69135826340229
 31
0.0
  0
LINE
  5
909
  8
LAYER_1
 10
300.90902027500482
 20
139.69135826340229
 30
0.0
 11
300.96392457371962
 21
139.57494304517249
 31
0.0
  0
LINE
  5
90A
  8
LAYER_1
 10
300.96392457371962
 20
139.57494304517249
 30
0.0
 11
301.00042325615919
 21
139.5265225615677
 31
0.0
  0
LINE
  5
90B
  8
LAYER_1
 10
301.00042325615919
 20
139.5265225615677
 30
0.0
 11
301.02055363713993
 21
139.5398831902983
 31
0.0
  0
LINE
  5
90C
  8
LAYER_1
 10
301.02055363713993
 20
139.5398831902983
 30
0.0
 11
301.01806806633351
 21
139.5824568434472
 31
0.0
  0
LINE
  5
90D
  8
LAYER_1
 10
301.01806806633351
 20
139.5824568434472
 30
0.0
 11
300.94164280778779
 21
139.77019270741559
 31
0.0
  0
LINE
  5
90E
  8
LAYER_1
 10
300.94164280778779
 20
139.77019270741559
 30
0.0
 11
300.82422939976158
 21
139.96850844872679
 31
0.0
  0
LINE
  5
90F
  8
LAYER_1
 10
300.82422939976158
 20
139.96850844872679
 30
0.0
 11
300.66887909119231
 21
140.15171340254241
 31
0.0
  0
LINE
  5
910
  8
LAYER_1
 10
300.66887909119231
 20
140.15171340254241
 30
0.0
 11
300.47619951119498
 21
140.31945459139669
 31
0.0
  0
LINE
  5
911
  8
LAYER_1
 10
300.47619951119498
 20
140.31945459139669
 30
0.0
 11
300.2467978825901
 21
140.47137873309711
 31
0.0
  0
LINE
  5
912
  8
LAYER_1
 10
300.2467978825901
 20
140.47137873309711
 30
0.0
 11
299.98128163134197
 21
140.60713295175461
 31
0.0
  0
LINE
  5
913
  8
LAYER_1
 10
299.98128163134197
 20
140.60713295175461
 30
0.0
 11
299.680258284996
 21
140.72636416832901
 31
0.0
  0
LINE
  5
914
  8
LAYER_1
 10
299.680258284996
 20
140.72636416832901
 30
0.0
 11
299.3443350663664
 21
140.82871930377951
 31
0.0
  0
LINE
  5
915
  8
LAYER_1
 10
299.3443350663664
 20
140.82871930377951
 30
0.0
 11
298.97411940142371
 21
140.91384527906561
 31
0.0
  0
LINE
  5
916
  8
LAYER_1
 10
298.97411940142371
 20
140.91384527906561
 30
0.0
 11
298.5006830698141
 21
140.98910515330809
 31
0.0
  0
LINE
  5
917
  8
LAYER_1
 10
298.5006830698141
 20
140.98910515330809
 30
0.0
 11
297.98910312999362
 21
141.04568739007789
 31
0.0
  0
LINE
  5
918
  8
LAYER_1
 10
297.98910312999362
 20
141.04568739007789
 30
0.0
 11
297.57944246193841
 21
141.07112218434699
 31
0.0
  0
LINE
  5
919
  8
LAYER_1
 10
297.57944246193841
 20
141.07112218434699
 30
0.0
 11
297.4566015302114
 21
141.0682626097921
 31
0.0
  0
LINE
  5
91A
  8
LAYER_1
 10
297.4566015302114
 20
141.0682626097921
 30
0.0
 11
297.41176384405458
 21
141.0529400358167
 31
0.0
  0
LINE
  5
91B
  8
LAYER_1
 10
297.41176384405458
 20
141.0529400358167
 30
0.0
 11
297.4412877933708
 21
141.0245968088162
 31
0.0
  0
LINE
  5
91C
  8
LAYER_1
 10
297.4412877933708
 20
141.0245968088162
 30
0.0
 11
297.51739227412162
 21
140.9868500590083
 31
0.0
  0
LINE
  5
91D
  8
LAYER_1
 10
297.51739227412162
 20
140.9868500590083
 30
0.0
 11
297.73453933776909
 21
140.91509253382449
 31
0.0
  0
LINE
  5
91E
  8
LAYER_1
 10
297.73453933776909
 20
140.91509253382449
 30
0.0
 11
297.82939926339873
 21
140.870699446907
 31
0.0
  0
LINE
  5
91F
  8
LAYER_1
 10
297.82939926339873
 20
140.870699446907
 30
0.0
 11
297.88803527034378
 21
140.8452080746668
 31
0.0
  0
LINE
  5
920
  8
LAYER_1
 10
297.88803527034378
 20
140.8452080746668
 30
0.0
 11
298.06551254264269
 21
140.78639634081301
 31
0.0
  0
LINE
  5
921
  8
LAYER_1
 10
298.06551254264269
 20
140.78639634081301
 30
0.0
 11
298.28475451484678
 21
140.68110280763739
 31
0.0
  0
LINE
  5
922
  8
LAYER_1
 10
298.28475451484678
 20
140.68110280763739
 30
0.0
 11
298.47583355789038
 21
140.5687769476072
 31
0.0
  0
LINE
  5
923
  8
LAYER_1
 10
298.47583355789038
 20
140.5687769476072
 30
0.0
 11
298.63956370383318
 21
140.4485423608474
 31
0.0
  0
LINE
  5
924
  8
LAYER_1
 10
298.63956370383318
 20
140.4485423608474
 30
0.0
 11
298.77675898473211
 21
140.31952254590749
 31
0.0
  0
LINE
  5
925
  8
LAYER_1
 10
298.77675898473211
 20
140.31952254590749
 30
0.0
 11
298.88823353422089
 21
140.18084120448879
 31
0.0
  0
LINE
  5
926
  8
LAYER_1
 10
298.88823353422089
 20
140.18084120448879
 30
0.0
 11
298.9748013843593
 21
140.03162203829359
 31
0.0
  0
LINE
  5
927
  8
LAYER_1
 10
298.9748013843593
 20
140.03162203829359
 30
0.0
 11
299.037276668777
 21
139.8709885458708
 31
0.0
  0
LINE
  5
928
  8
LAYER_1
 10
299.037276668777
 20
139.8709885458708
 30
0.0
 11
299.07647352111309
 21
139.6980643273466
 31
0.0
  0
LINE
  5
929
  8
LAYER_1
 10
299.07647352111309
 20
139.6980643273466
 30
0.0
 11
299.09113270060641
 21
139.52689565112991
 31
0.0
  0
LINE
  5
92A
  8
LAYER_1
 10
299.09113270060641
 20
139.52689565112991
 30
0.0
 11
299.07435250746062
 21
139.38673068702121
 31
0.0
  0
LINE
  5
92B
  8
LAYER_1
 10
299.07435250746062
 20
139.38673068702121
 30
0.0
 11
299.02347012031538
 21
139.2673550290211
 31
0.0
  0
LINE
  5
92C
  8
LAYER_1
 10
299.02347012031538
 20
139.2673550290211
 30
0.0
 11
298.9358228193816
 21
139.15855457585701
 31
0.0
  0
LINE
  5
92D
  8
LAYER_1
 10
298.9358228193816
 20
139.15855457585701
 30
0.0
 11
298.8348277899039
 21
139.0712175903644
 31
0.0
  0
LINE
  5
92E
  8
LAYER_1
 10
298.8348277899039
 20
139.0712175903644
 30
0.0
 11
298.71716054283149
 21
139.0016605114572
 31
0.0
  0
LINE
  5
92F
  8
LAYER_1
 10
298.71716054283149
 20
139.0016605114572
 30
0.0
 11
298.56217712766988
 21
138.9399441031928
 31
0.0
  0
LINE
  5
930
  8
LAYER_1
 10
298.56217712766988
 20
138.9399441031928
 30
0.0
 11
298.34923369550029
 21
138.87612882489961
 31
0.0
  0
LINE
  5
931
  8
LAYER_1
 10
298.34923369550029
 20
138.87612882489961
 30
0.0
 11
298.08732837832031
 21
138.78351292175779
 31
0.0
  0
LINE
  5
932
  8
LAYER_1
 10
298.08732837832031
 20
138.78351292175779
 30
0.0
 11
297.8836682026789
 21
138.67133708984741
 31
0.0
  0
LINE
  5
933
  8
LAYER_1
 10
297.8836682026789
 20
138.67133708984741
 30
0.0
 11
297.76006433174751
 21
138.55484172795761
 31
0.0
  0
LINE
  5
934
  8
LAYER_1
 10
297.76006433174751
 20
138.55484172795761
 30
0.0
 11
297.73509953078002
 21
138.49973681614929
 31
0.0
  0
LINE
  5
935
  8
LAYER_1
 10
297.73509953078002
 20
138.49973681614929
 30
0.0
 11
297.73832803027199
 21
138.4492671333021
 31
0.0
  0
LINE
  5
936
  8
LAYER_1
 10
297.73832803027199
 20
138.4492671333021
 30
0.0
 11
297.75231518130551
 21
138.42213530464431
 31
0.0
  0
LINE
  5
937
  8
LAYER_1
 10
297.75231518130551
 20
138.42213530464431
 30
0.0
 11
297.7764534563359
 21
138.41188829266781
 31
0.0
  0
LINE
  5
938
  8
LAYER_1
 10
297.7764534563359
 20
138.41188829266781
 30
0.0
 11
297.91343766178937
 21
138.43845048172241
 31
0.0
  0
LINE
  5
939
  8
LAYER_1
 10
297.91343766178937
 20
138.43845048172241
 30
0.0
 11
297.91343766178937
 21
138.43845048172241
 31
0.0
  0
LINE
  5
93A
  8
LAYER_1
 10
294.0253524945806
 20
122.5557859849696
 30
0.0
 11
293.9328166335215
 21
122.6181081939818
 31
0.0
  0
LINE
  5
93B
  8
LAYER_1
 10
293.9328166335215
 20
122.6181081939818
 30
0.0
 11
293.85126522800772
 21
122.6964291700568
 31
0.0
  0
LINE
  5
93C
  8
LAYER_1
 10
293.85126522800772
 20
122.6964291700568
 30
0.0
 11
293.79318078009402
 21
122.7765824800836
 31
0.0
  0
LINE
  5
93D
  8
LAYER_1
 10
293.79318078009402
 20
122.7765824800836
 30
0.0
 11
293.77104538553681
 21
122.84440179252709
 31
0.0
  0
LINE
  5
93E
  8
LAYER_1
 10
293.77104538553681
 20
122.84440179252709
 30
0.0
 11
293.80176559833473
 21
122.91728589988701
 31
0.0
  0
LINE
  5
93F
  8
LAYER_1
 10
293.80176559833473
 20
122.91728589988701
 30
0.0
 11
293.87562463453122
 21
123.0152105840945
 31
0.0
  0
LINE
  5
940
  8
LAYER_1
 10
293.87562463453122
 20
123.0152105840945
 30
0.0
 11
293.9802037819473
 21
123.1309672835031
 31
0.0
  0
LINE
  5
941
  8
LAYER_1
 10
293.9802037819473
 20
123.1309672835031
 30
0.0
 11
293.96063278136768
 21
123.47726326550411
 31
0.0
  0
LINE
  5
942
  8
LAYER_1
 10
293.96063278136768
 20
123.47726326550411
 30
0.0
 11
293.93206832129692
 21
123.7676952563903
 31
0.0
  0
LINE
  5
943
  8
LAYER_1
 10
293.93206832129692
 20
123.7676952563903
 30
0.0
 11
293.87623185734549
 21
123.96042389771419
 31
0.0
  0
LINE
  5
944
  8
LAYER_1
 10
293.87623185734549
 20
123.96042389771419
 30
0.0
 11
293.83357826368922
 21
124.0294859955613
 31
0.0
  0
LINE
  5
945
  8
LAYER_1
 10
293.83357826368922
 20
124.0294859955613
 30
0.0
 11
293.7786968196279
 21
124.08532621783399
 31
0.0
  0
LINE
  5
946
  8
LAYER_1
 10
293.7786968196279
 20
124.08532621783399
 30
0.0
 11
293.62503684141399
 21
124.1722796514114
 31
0.0
  0
LINE
  5
947
  8
LAYER_1
 10
293.62503684141399
 20
124.1722796514114
 30
0.0
 11
293.53425083439322
 21
124.2181914048243
 31
0.0
  0
LINE
  5
948
  8
LAYER_1
 10
293.53425083439322
 20
124.2181914048243
 30
0.0
 11
293.48209691576329
 21
124.2691434732769
 31
0.0
  0
LINE
  5
949
  8
LAYER_1
 10
293.48209691576329
 20
124.2691434732769
 30
0.0
 11
293.46210264695679
 21
124.3356751036148
 31
0.0
  0
LINE
  5
94A
  8
LAYER_1
 10
293.46210264695679
 20
124.3356751036148
 30
0.0
 11
293.46779558939488
 21
124.42832584740989
 31
0.0
  0
LINE
  5
94B
  8
LAYER_1
 10
293.46779558939488
 20
124.42832584740989
 30
0.0
 11
293.48647160164609
 21
124.5528668608124
 31
0.0
  0
LINE
  5
94C
  8
LAYER_1
 10
293.48647160164609
 20
124.5528668608124
 30
0.0
 11
293.33379477994163
 21
124.5402057877079
 31
0.0
  0
LINE
  5
94D
  8
LAYER_1
 10
293.33379477994163
 20
124.5402057877079
 30
0.0
 11
293.22226355090658
 21
124.54079492995039
 31
0.0
  0
LINE
  5
94E
  8
LAYER_1
 10
293.22226355090658
 20
124.54079492995039
 30
0.0
 11
293.15075956003989
 21
124.56323393591541
 31
0.0
  0
LINE
  5
94F
  8
LAYER_1
 10
293.15075956003989
 20
124.56323393591541
 30
0.0
 11
293.12163490695701
 21
124.60599855241141
 31
0.0
  0
LINE
  5
950
  8
LAYER_1
 10
293.12163490695701
 20
124.60599855241141
 30
0.0
 11
293.13724189442843
 21
124.6675646278282
 31
0.0
  0
LINE
  5
951
  8
LAYER_1
 10
293.13724189442843
 20
124.6675646278282
 30
0.0
 11
293.26402977445389
 21
124.9349814722664
 31
0.0
  0
LINE
  5
952
  8
LAYER_1
 10
293.26402977445389
 20
124.9349814722664
 30
0.0
 11
293.32589367143157
 21
125.05726861028521
 31
0.0
  0
LINE
  5
953
  8
LAYER_1
 10
293.32589367143157
 20
125.05726861028521
 30
0.0
 11
293.39997546434171
 21
125.1655090735896
 31
0.0
  0
LINE
  5
954
  8
LAYER_1
 10
293.39997546434171
 20
125.1655090735896
 30
0.0
 11
293.67401741645381
 21
125.45247061036019
 31
0.0
  0
LINE
  5
955
  8
LAYER_1
 10
293.67401741645381
 20
125.45247061036019
 30
0.0
 11
293.9879920392471
 21
125.7309260504816
 31
0.0
  0
LINE
  5
956
  8
LAYER_1
 10
293.9879920392471
 20
125.7309260504816
 30
0.0
 11
294.30694399980581
 21
125.9478376603853
 31
0.0
  0
LINE
  5
957
  8
LAYER_1
 10
294.30694399980581
 20
125.9478376603853
 30
0.0
 11
294.91677387098241
 21
126.2754996827009
 31
0.0
  0
LINE
  5
958
  8
LAYER_1
 10
294.91677387098241
 20
126.2754996827009
 30
0.0
 11
295.21538010891368
 21
126.4219135160573
 31
0.0
  0
LINE
  5
959
  8
LAYER_1
 10
295.21538010891368
 20
126.4219135160573
 30
0.0
 11
295.36416188778099
 21
126.4830035035958
 31
0.0
  0
LINE
  5
95A
  8
LAYER_1
 10
295.36416188778099
 20
126.4830035035958
 30
0.0
 11
295.6425885818249
 21
126.61025863436581
 31
0.0
  0
LINE
  5
95B
  8
LAYER_1
 10
295.6425885818249
 20
126.61025863436581
 30
0.0
 11
295.88203549197669
 21
126.7447384774066
 31
0.0
  0
LINE
  5
95C
  8
LAYER_1
 10
295.88203549197669
 20
126.7447384774066
 30
0.0
 11
296.06091431335648
 21
126.89692935833619
 31
0.0
  0
LINE
  5
95D
  8
LAYER_1
 10
296.06091431335648
 20
126.89692935833619
 30
0.0
 11
296.1618729785389
 21
126.989881885166
 31
0.0
  0
LINE
  5
95E
  8
LAYER_1
 10
296.1618729785389
 20
126.989881885166
 30
0.0
 11
296.24508617148342
 21
127.04488847116551
 31
0.0
  0
LINE
  5
95F
  8
LAYER_1
 10
296.24508617148342
 20
127.04488847116551
 30
0.0
 11
296.3015885693224
 21
127.05760368441091
 31
0.0
  0
LINE
  5
960
  8
LAYER_1
 10
296.3015885693224
 20
127.05760368441091
 30
0.0
 11
296.31702165825658
 21
127.0467438629254
 31
0.0
  0
LINE
  5
961
  8
LAYER_1
 10
296.31702165825658
 20
127.0467438629254
 30
0.0
 11
296.3224150523377
 21
127.02368168667471
 31
0.0
  0
LINE
  5
962
  8
LAYER_1
 10
296.3224150523377
 20
127.02368168667471
 30
0.0
 11
296.23641379451601
 21
126.85124869088931
 31
0.0
  0
LINE
  5
963
  8
LAYER_1
 10
296.23641379451601
 20
126.85124869088931
 30
0.0
 11
296.1801329344753
 21
126.7511240682859
 31
0.0
  0
LINE
  5
964
  8
LAYER_1
 10
296.1801329344753
 20
126.7511240682859
 30
0.0
 11
296.15533370279371
 21
126.6795493803488
 31
0.0
  0
LINE
  5
965
  8
LAYER_1
 10
296.15533370279371
 20
126.6795493803488
 30
0.0
 11
296.16032434705022
 21
126.6258228582371
 31
0.0
  0
LINE
  5
966
  8
LAYER_1
 10
296.16032434705022
 20
126.6258228582371
 30
0.0
 11
296.19341321639382
 21
126.5792428346835
 31
0.0
  0
LINE
  5
967
  8
LAYER_1
 10
296.19341321639382
 20
126.5792428346835
 30
0.0
 11
296.21418596557243
 21
126.54263058999879
 31
0.0
  0
LINE
  5
968
  8
LAYER_1
 10
296.21418596557243
 20
126.54263058999879
 30
0.0
 11
296.2274099742487
 21
126.475110216456
 31
0.0
  0
LINE
  5
969
  8
LAYER_1
 10
296.2274099742487
 20
126.475110216456
 30
0.0
 11
296.23643786808611
 21
126.2014518162589
 31
0.0
  0
LINE
  5
96A
  8
LAYER_1
 10
296.23643786808611
 20
126.2014518162589
 30
0.0
 11
296.2655088889087
 21
125.5603523063543
 31
0.0
  0
LINE
  5
96B
  8
LAYER_1
 10
296.2655088889087
 20
125.5603523063543
 30
0.0
 11
296.27872680301061
 21
125.24522326949359
 31
0.0
  0
LINE
  5
96C
  8
LAYER_1
 10
296.27872680301061
 20
125.24522326949359
 30
0.0
 11
296.24682810257411
 21
124.9691152564811
 31
0.0
  0
LINE
  5
96D
  8
LAYER_1
 10
296.24682810257411
 20
124.9691152564811
 30
0.0
 11
296.16143030924712
 21
124.69253095243791
 31
0.0
  0
LINE
  5
96E
  8
LAYER_1
 10
296.16143030924712
 20
124.69253095243791
 30
0.0
 11
296.01415114782782
 21
124.3759735503677
 31
0.0
  0
LINE
  5
96F
  8
LAYER_1
 10
296.01415114782782
 20
124.3759735503677
 30
0.0
 11
295.64444702087189
 21
123.6299664970322
 31
0.0
  0
LINE
  5
970
  8
LAYER_1
 10
295.64444702087189
 20
123.6299664970322
 30
0.0
 11
295.55310915009221
 21
123.394608538775
 31
0.0
  0
LINE
  5
971
  8
LAYER_1
 10
295.55310915009221
 20
123.394608538775
 30
0.0
 11
295.47718872550359
 21
123.1432892950897
 31
0.0
  0
LINE
  5
972
  8
LAYER_1
 10
295.47718872550359
 20
123.1432892950897
 30
0.0
 11
295.41784584944531
 21
122.9440215811745
 31
0.0
  0
LINE
  5
973
  8
LAYER_1
 10
295.41784584944531
 20
122.9440215811745
 30
0.0
 11
295.3594333102476
 21
122.7903888253939
 31
0.0
  0
LINE
  5
974
  8
LAYER_1
 10
295.3594333102476
 20
122.7903888253939
 30
0.0
 11
295.2936597434566
 21
122.6765449083252
 31
0.0
  0
LINE
  5
975
  8
LAYER_1
 10
295.2936597434566
 20
122.6765449083252
 30
0.0
 11
295.21223388618313
 21
122.5966438121244
 31
0.0
  0
LINE
  5
976
  8
LAYER_1
 10
295.21223388618313
 20
122.5966438121244
 30
0.0
 11
295.1068642723971
 21
122.54483962052009
 31
0.0
  0
LINE
  5
977
  8
LAYER_1
 10
295.1068642723971
 20
122.54483962052009
 30
0.0
 11
294.96925963921569
 21
122.5152861125154
 31
0.0
  0
LINE
  5
978
  8
LAYER_1
 10
294.96925963921569
 20
122.5152861125154
 30
0.0
 11
294.56417995840633
 21
122.4995471774964
 31
0.0
  0
LINE
  5
979
  8
LAYER_1
 10
294.56417995840633
 20
122.4995471774964
 30
0.0
 11
294.18872885044868
 21
122.51044966100611
 31
0.0
  0
LINE
  5
97A
  8
LAYER_1
 10
294.18872885044868
 20
122.51044966100611
 30
0.0
 11
294.09479316710622
 21
122.5273250310965
 31
0.0
  0
LINE
  5
97B
  8
LAYER_1
 10
294.09479316710622
 20
122.5273250310965
 30
0.0
 11
294.0253524945806
 21
122.5557859849696
 31
0.0
  0
LINE
  5
97C
  8
LAYER_1
 10
294.0253524945806
 20
122.5557859849696
 30
0.0
 11
294.0253524945806
 21
122.5557859849696
 31
0.0
  0
LINE
  5
97D
  8
LAYER_1
 10
296.81692205626553
 20
123.47649758374089
 30
0.0
 11
296.78921124298847
 21
123.51660313719739
 31
0.0
  0
LINE
  5
97E
  8
LAYER_1
 10
296.78921124298847
 20
123.51660313719739
 30
0.0
 11
296.78627731461859
 21
123.5656500415282
 31
0.0
  0
LINE
  5
97F
  8
LAYER_1
 10
296.78627731461859
 20
123.5656500415282
 30
0.0
 11
296.86429102254209
 21
123.74463074388569
 31
0.0
  0
LINE
  5
980
  8
LAYER_1
 10
296.86429102254209
 20
123.74463074388569
 30
0.0
 11
296.94741604730319
 21
123.9255842601473
 31
0.0
  0
LINE
  5
981
  8
LAYER_1
 10
296.94741604730319
 20
123.9255842601473
 30
0.0
 11
297.03191773496428
 21
124.1527395300112
 31
0.0
  0
LINE
  5
982
  8
LAYER_1
 10
297.03191773496428
 20
124.1527395300112
 30
0.0
 11
297.16703446108431
 21
124.6339772222552
 31
0.0
  0
LINE
  5
983
  8
LAYER_1
 10
297.16703446108431
 20
124.6339772222552
 30
0.0
 11
297.35104572716301
 21
125.4099503863183
 31
0.0
  0
LINE
  5
984
  8
LAYER_1
 10
297.35104572716301
 20
125.4099503863183
 30
0.0
 11
297.42209099969108
 21
125.6112435306338
 31
0.0
  0
LINE
  5
985
  8
LAYER_1
 10
297.42209099969108
 20
125.6112435306338
 30
0.0
 11
297.48896087893633
 21
125.7211639635166
 31
0.0
  0
LINE
  5
986
  8
LAYER_1
 10
297.48896087893633
 20
125.7211639635166
 30
0.0
 11
297.54306953089639
 21
125.7701915683607
 31
0.0
  0
LINE
  5
987
  8
LAYER_1
 10
297.54306953089639
 20
125.7701915683607
 30
0.0
 11
297.59399915099749
 21
125.79090103553681
 31
0.0
  0
LINE
  5
988
  8
LAYER_1
 10
297.59399915099749
 20
125.79090103553681
 30
0.0
 11
297.6516422501104
 21
125.78460564436671
 31
0.0
  0
LINE
  5
989
  8
LAYER_1
 10
297.6516422501104
 20
125.78460564436671
 30
0.0
 11
297.72589164383072
 21
125.75261887732231
 31
0.0
  0
LINE
  5
98A
  8
LAYER_1
 10
297.72589164383072
 20
125.75261887732231
 30
0.0
 11
297.8078356415466
 21
125.71024411046881
 31
0.0
  0
LINE
  5
98B
  8
LAYER_1
 10
297.8078356415466
 20
125.71024411046881
 30
0.0
 11
298.05604949615378
 21
126.05362312733349
 31
0.0
  0
LINE
  5
98C
  8
LAYER_1
 10
298.05604949615378
 20
126.05362312733349
 30
0.0
 11
298.32751039578449
 21
126.3970022457745
 31
0.0
  0
LINE
  5
98D
  8
LAYER_1
 10
298.32751039578449
 20
126.3970022457745
 30
0.0
 11
298.37839989326852
 21
126.36116837988369
 31
0.0
  0
LINE
  5
98E
  8
LAYER_1
 10
298.37839989326852
 20
126.36116837988369
 30
0.0
 11
298.39124278785857
 21
126.3132457214748
 31
0.0
  0
LINE
  5
98F
  8
LAYER_1
 10
298.39124278785857
 20
126.3132457214748
 30
0.0
 11
298.38658399320792
 21
126.1651704054166
 31
0.0
  0
LINE
  5
990
  8
LAYER_1
 10
298.38658399320792
 20
126.1651704054166
 30
0.0
 11
298.30225498517098
 21
125.2359857222776
 31
0.0
  0
LINE
  5
991
  8
LAYER_1
 10
298.30225498517098
 20
125.2359857222776
 30
0.0
 11
298.28772277598853
 21
125.0001158197263
 31
0.0
  0
LINE
  5
992
  8
LAYER_1
 10
298.28772277598853
 20
125.0001158197263
 30
0.0
 11
298.29001809448221
 21
124.7795852512305
 31
0.0
  0
LINE
  5
993
  8
LAYER_1
 10
298.29001809448221
 20
124.7795852512305
 30
0.0
 11
298.3087078195278
 21
124.5830018928412
 31
0.0
  0
LINE
  5
994
  8
LAYER_1
 10
298.3087078195278
 20
124.5830018928412
 30
0.0
 11
298.3433589315772
 21
124.41897412849021
 31
0.0
  0
LINE
  5
995
  8
LAYER_1
 10
298.3433589315772
 20
124.41897412849021
 30
0.0
 11
298.39928691572879
 21
124.1663793918492
 31
0.0
  0
LINE
  5
996
  8
LAYER_1
 10
298.39928691572879
 20
124.1663793918492
 30
0.0
 11
298.39089123246328
 21
124.0961432757188
 31
0.0
  0
LINE
  5
997
  8
LAYER_1
 10
298.39089123246328
 20
124.0961432757188
 30
0.0
 11
298.35919009783038
 21
124.0409723393491
 31
0.0
  0
LINE
  5
998
  8
LAYER_1
 10
298.35919009783038
 20
124.0409723393491
 30
0.0
 11
298.3229731879058
 21
124.0051765645522
 31
0.0
  0
LINE
  5
999
  8
LAYER_1
 10
298.3229731879058
 20
124.0051765645522
 30
0.0
 11
298.27365426237952
 21
123.9851985479433
 31
0.0
  0
LINE
  5
99A
  8
LAYER_1
 10
298.27365426237952
 20
123.9851985479433
 30
0.0
 11
298.05210315731313
 21
123.9746344149181
 31
0.0
  0
LINE
  5
99B
  8
LAYER_1
 10
298.05210315731313
 20
123.9746344149181
 30
0.0
 11
297.85874870471901
 21
123.9643761279781
 31
0.0
  0
LINE
  5
99C
  8
LAYER_1
 10
297.85874870471901
 20
123.9643761279781
 30
0.0
 11
297.69763577240468
 21
123.92047781896871
 31
0.0
  0
LINE
  5
99D
  8
LAYER_1
 10
297.69763577240468
 20
123.92047781896871
 30
0.0
 11
297.52175710710679
 21
123.8232543156068
 31
0.0
  0
LINE
  5
99E
  8
LAYER_1
 10
297.52175710710679
 20
123.8232543156068
 30
0.0
 11
297.28410565872878
 21
123.6530205471832
 31
0.0
  0
LINE
  5
99F
  8
LAYER_1
 10
297.28410565872878
 20
123.6530205471832
 30
0.0
 11
297.11487079113579
 21
123.53659730443
 31
0.0
  0
LINE
  5
9A0
  8
LAYER_1
 10
297.11487079113579
 20
123.53659730443
 30
0.0
 11
296.98163972649769
 21
123.4687637713121
 31
0.0
  0
LINE
  5
9A1
  8
LAYER_1
 10
296.98163972649769
 20
123.4687637713121
 30
0.0
 11
296.88284565117641
 21
123.4489278598744
 31
0.0
  0
LINE
  5
9A2
  8
LAYER_1
 10
296.88284565117641
 20
123.4489278598744
 30
0.0
 11
296.81692205626553
 21
123.47649758374089
 31
0.0
  0
LINE
  5
9A3
  8
LAYER_1
 10
296.81692205626553
 20
123.47649758374089
 30
0.0
 11
296.81692205626553
 21
123.47649758374089
 31
0.0
  0
LINE
  5
9A4
  8
LAYER_1
 10
298.20172497175918
 20
126.65239032925651
 30
0.0
 11
298.21568185306961
 21
126.8945468874212
 31
0.0
  0
LINE
  5
9A5
  8
LAYER_1
 10
298.21568185306961
 20
126.8945468874212
 30
0.0
 11
298.23152124699777
 21
127.0953543956913
 31
0.0
  0
LINE
  5
9A6
  8
LAYER_1
 10
298.23152124699777
 20
127.0953543956913
 30
0.0
 11
298.21448630062122
 21
127.15421833973789
 31
0.0
  0
LINE
  5
9A7
  8
LAYER_1
 10
298.21448630062122
 20
127.15421833973789
 30
0.0
 11
298.17665534410389
 21
127.2200878960857
 31
0.0
  0
LINE
  5
9A8
  8
LAYER_1
 10
298.17665534410389
 20
127.2200878960857
 30
0.0
 11
298.06067202808379
 21
127.3684469146061
 31
0.0
  0
LINE
  5
9A9
  8
LAYER_1
 10
298.06067202808379
 20
127.3684469146061
 30
0.0
 11
298.03107250603858
 21
127.4107439756304
 31
0.0
  0
LINE
  5
9AA
  8
LAYER_1
 10
298.03107250603858
 20
127.4107439756304
 30
0.0
 11
298.01541645723779
 21
127.4669146254397
 31
0.0
  0
LINE
  5
9AB
  8
LAYER_1
 10
298.01541645723779
 20
127.4669146254397
 30
0.0
 11
298.01603840861048
 21
127.51999471630501
 31
0.0
  0
LINE
  5
9AC
  8
LAYER_1
 10
298.01603840861048
 20
127.51999471630501
 30
0.0
 11
298.03527278550098
 21
127.553020100493
 31
0.0
  0
LINE
  5
9AD
  8
LAYER_1
 10
298.03527278550098
 20
127.553020100493
 30
0.0
 11
298.17902125809042
 21
127.5859685914606
 31
0.0
  0
LINE
  5
9AE
  8
LAYER_1
 10
298.17902125809042
 20
127.5859685914606
 30
0.0
 11
298.2942902899274
 21
127.5895058827478
 31
0.0
  0
LINE
  5
9AF
  8
LAYER_1
 10
298.2942902899274
 20
127.5895058827478
 30
0.0
 11
298.33389425986769
 21
127.5666746908869
 31
0.0
  0
LINE
  5
9B0
  8
LAYER_1
 10
298.33389425986769
 20
127.5666746908869
 30
0.0
 11
298.37969072423891
 21
127.5216015509845
 31
0.0
  0
LINE
  5
9B1
  8
LAYER_1
 10
298.37969072423891
 20
127.5216015509845
 30
0.0
 11
298.43837101842678
 21
127.4395422642249
 31
0.0
  0
LINE
  5
9B2
  8
LAYER_1
 10
298.43837101842678
 20
127.4395422642249
 30
0.0
 11
298.48604979226189
 21
127.33680753833301
 31
0.0
  0
LINE
  5
9B3
  8
LAYER_1
 10
298.48604979226189
 20
127.33680753833301
 30
0.0
 11
298.51807129838443
 21
127.22587885960451
 31
0.0
  0
LINE
  5
9B4
  8
LAYER_1
 10
298.51807129838443
 20
127.22587885960451
 30
0.0
 11
298.52977978942903
 21
127.1192374096082
 31
0.0
  0
LINE
  5
9B5
  8
LAYER_1
 10
298.52977978942903
 20
127.1192374096082
 30
0.0
 11
298.5191050398679
 21
127.02080839932511
 31
0.0
  0
LINE
  5
9B6
  8
LAYER_1
 10
298.5191050398679
 20
127.02080839932511
 30
0.0
 11
298.49025159536899
 21
126.92029199713051
 31
0.0
  0
LINE
  5
9B7
  8
LAYER_1
 10
298.49025159536899
 20
126.92029199713051
 30
0.0
 11
298.39703334507288
 21
126.7400708456227
 31
0.0
  0
LINE
  5
9B8
  8
LAYER_1
 10
298.39703334507288
 20
126.7400708456227
 30
0.0
 11
298.34218095181927
 21
126.6739028582557
 31
0.0
  0
LINE
  5
9B9
  8
LAYER_1
 10
298.34218095181927
 20
126.6739028582557
 30
0.0
 11
298.28817468871898
 21
126.63272120602041
 31
0.0
  0
LINE
  5
9BA
  8
LAYER_1
 10
298.28817468871898
 20
126.63272120602041
 30
0.0
 11
298.23977055888889
 21
126.6232942190999
 31
0.0
  0
LINE
  5
9BB
  8
LAYER_1
 10
298.23977055888889
 20
126.6232942190999
 30
0.0
 11
298.20172497175918
 21
126.65239032925651
 31
0.0
  0
LINE
  5
9BC
  8
LAYER_1
 10
298.20172497175918
 20
126.65239032925651
 30
0.0
 11
298.20172497175918
 21
126.65239032925651
 31
0.0
  0
LINE
  5
9BD
  8
LAYER_1
 10
295.84351980996598
 20
127.9665246169527
 30
0.0
 11
295.73415459285741
 21
128.14251003888691
 31
0.0
  0
LINE
  5
9BE
  8
LAYER_1
 10
295.73415459285741
 20
128.14251003888691
 30
0.0
 11
295.52667149351799
 21
128.38317200412689
 31
0.0
  0
LINE
  5
9BF
  8
LAYER_1
 10
295.52667149351799
 20
128.38317200412689
 30
0.0
 11
295.25827707926288
 21
128.64891700508659
 31
0.0
  0
LINE
  5
9C0
  8
LAYER_1
 10
295.25827707926288
 20
128.64891700508659
 30
0.0
 11
294.96617801898151
 21
128.9001513310275
 31
0.0
  0
LINE
  5
9C1
  8
LAYER_1
 10
294.96617801898151
 20
128.9001513310275
 30
0.0
 11
294.66410833569762
 21
129.12460203169169
 31
0.0
  0
LINE
  5
9C2
  8
LAYER_1
 10
294.66410833569762
 20
129.12460203169169
 30
0.0
 11
294.31142168400481
 21
129.3378878773959
 31
0.0
  0
LINE
  5
9C3
  8
LAYER_1
 10
294.31142168400481
 20
129.3378878773959
 30
0.0
 11
293.77232697306721
 21
129.61462403793061
 31
0.0
  0
LINE
  5
9C4
  8
LAYER_1
 10
293.77232697306721
 20
129.61462403793061
 30
0.0
 11
292.9110331120512
 21
130.02942619096851
 31
0.0
  0
LINE
  5
9C5
  8
LAYER_1
 10
292.9110331120512
 20
130.02942619096851
 30
0.0
 11
292.67667273413338
 21
130.14542037564689
 31
0.0
  0
LINE
  5
9C6
  8
LAYER_1
 10
292.67667273413338
 20
130.14542037564689
 30
0.0
 11
292.54512925729227
 21
130.2242485219324
 31
0.0
  0
LINE
  5
9C7
  8
LAYER_1
 10
292.54512925729227
 20
130.2242485219324
 30
0.0
 11
292.49915137774121
 21
130.27887988526899
 31
0.0
  0
LINE
  5
9C8
  8
LAYER_1
 10
292.49915137774121
 20
130.27887988526899
 30
0.0
 11
292.5214879948474
 21
130.32228392425131
 31
0.0
  0
LINE
  5
9C9
  8
LAYER_1
 10
292.5214879948474
 20
130.32228392425131
 30
0.0
 11
292.58608703547441
 21
130.34212349243339
 31
0.0
  0
LINE
  5
9CA
  8
LAYER_1
 10
292.58608703547441
 20
130.34212349243339
 30
0.0
 11
292.71534423410878
 21
130.3224280609486
 31
0.0
  0
LINE
  5
9CB
  8
LAYER_1
 10
292.71534423410878
 20
130.3224280609486
 30
0.0
 11
293.09736915373401
 21
130.2766934565135
 31
0.0
  0
LINE
  5
9CC
  8
LAYER_1
 10
293.09736915373401
 20
130.2766934565135
 30
0.0
 11
293.30213681521701
 21
130.27752181082289
 31
0.0
  0
LINE
  5
9CD
  8
LAYER_1
 10
293.30213681521701
 20
130.27752181082289
 30
0.0
 11
293.3560904618202
 21
130.29573016602561
 31
0.0
  0
LINE
  5
9CE
  8
LAYER_1
 10
293.3560904618202
 20
130.29573016602561
 30
0.0
 11
293.40469825202752
 21
130.3305199296544
 31
0.0
  0
LINE
  5
9CF
  8
LAYER_1
 10
293.40469825202752
 20
130.3305199296544
 30
0.0
 11
293.44938692582872
 21
130.372372188285
 31
0.0
  0
LINE
  5
9D0
  8
LAYER_1
 10
293.44938692582872
 20
130.372372188285
 30
0.0
 11
293.46991101635132
 21
130.4195707096172
 31
0.0
  0
LINE
  5
9D1
  8
LAYER_1
 10
293.46991101635132
 20
130.4195707096172
 30
0.0
 11
293.45865768847722
 21
130.64929697591359
 31
0.0
  0
LINE
  5
9D2
  8
LAYER_1
 10
293.45865768847722
 20
130.64929697591359
 30
0.0
 11
293.44865374846631
 21
131.02700256871319
 31
0.0
  0
LINE
  5
9D3
  8
LAYER_1
 10
293.44865374846631
 20
131.02700256871319
 30
0.0
 11
293.4390754129339
 21
131.17495893898331
 31
0.0
  0
LINE
  5
9D4
  8
LAYER_1
 10
293.4390754129339
 20
131.17495893898331
 30
0.0
 11
293.3588607508529
 21
131.39319459529051
 31
0.0
  0
LINE
  5
9D5
  8
LAYER_1
 10
293.3588607508529
 20
131.39319459529051
 30
0.0
 11
293.29589759571098
 21
131.5548844807002
 31
0.0
  0
LINE
  5
9D6
  8
LAYER_1
 10
293.29589759571098
 20
131.5548844807002
 30
0.0
 11
293.26303828869038
 21
131.68160125735201
 31
0.0
  0
LINE
  5
9D7
  8
LAYER_1
 10
293.26303828869038
 20
131.68160125735201
 30
0.0
 11
293.25834262186243
 21
131.785244481213
 31
0.0
  0
LINE
  5
9D8
  8
LAYER_1
 10
293.25834262186243
 20
131.785244481213
 30
0.0
 11
293.27987089518069
 21
131.8777141145564
 31
0.0
  0
LINE
  5
9D9
  8
LAYER_1
 10
293.27987089518069
 20
131.8777141145564
 30
0.0
 11
293.28641687495588
 21
131.9683290671737
 31
0.0
  0
LINE
  5
9DA
  8
LAYER_1
 10
293.28641687495588
 20
131.9683290671737
 30
0.0
 11
293.27498131929292
 21
132.13375350494559
 31
0.0
  0
LINE
  5
9DB
  8
LAYER_1
 10
293.27498131929292
 20
132.13375350494559
 30
0.0
 11
293.20929368600679
 21
132.57852887904869
 31
0.0
  0
LINE
  5
9DC
  8
LAYER_1
 10
293.20929368600679
 20
132.57852887904869
 30
0.0
 11
293.20577447529058
 21
132.64728177879491
 31
0.0
  0
LINE
  5
9DD
  8
LAYER_1
 10
293.20577447529058
 20
132.64728177879491
 30
0.0
 11
293.22142331217668
 21
132.68636750671331
 31
0.0
  0
LINE
  5
9DE
  8
LAYER_1
 10
293.22142331217668
 20
132.68636750671331
 30
0.0
 11
293.26037140427758
 21
132.6767460012764
 31
0.0
  0
LINE
  5
9DF
  8
LAYER_1
 10
293.26037140427758
 20
132.6767460012764
 30
0.0
 11
293.31431408064668
 21
132.60980887855439
 31
0.0
  0
LINE
  5
9E0
  8
LAYER_1
 10
293.31431408064668
 20
132.60980887855439
 30
0.0
 11
293.46496902711863
 21
132.30743406021901
 31
0.0
  0
LINE
  5
9E1
  8
LAYER_1
 10
293.46496902711863
 20
132.30743406021901
 30
0.0
 11
293.58759492192939
 21
132.05741133577271
 31
0.0
  0
LINE
  5
9E2
  8
LAYER_1
 10
293.58759492192939
 20
132.05741133577271
 30
0.0
 11
293.73792431652248
 21
131.791426716442
 31
0.0
  0
LINE
  5
9E3
  8
LAYER_1
 10
293.73792431652248
 20
131.791426716442
 30
0.0
 11
293.9579051543584
 21
131.41374032155349
 31
0.0
  0
LINE
  5
9E4
  8
LAYER_1
 10
293.9579051543584
 20
131.41374032155349
 30
0.0
 11
294.06105634287201
 21
131.23334100530579
 31
0.0
  0
LINE
  5
9E5
  8
LAYER_1
 10
294.06105634287201
 20
131.23334100530579
 30
0.0
 11
294.20360398104651
 21
131.02061382897031
 31
0.0
  0
LINE
  5
9E6
  8
LAYER_1
 10
294.20360398104651
 20
131.02061382897031
 30
0.0
 11
294.5370307602106
 21
130.5967287277667
 31
0.0
  0
LINE
  5
9E7
  8
LAYER_1
 10
294.5370307602106
 20
130.5967287277667
 30
0.0
 11
294.86431898192842
 21
130.25974708462559
 31
0.0
  0
LINE
  5
9E8
  8
LAYER_1
 10
294.86431898192842
 20
130.25974708462559
 30
0.0
 11
295.22228160556091
 21
129.95219705799121
 31
0.0
  0
LINE
  5
9E9
  8
LAYER_1
 10
295.22228160556091
 20
129.95219705799121
 30
0.0
 11
295.60513051171648
 21
129.6786192077594
 31
0.0
  0
LINE
  5
9EA
  8
LAYER_1
 10
295.60513051171648
 20
129.6786192077594
 30
0.0
 11
296.00707717470982
 21
129.44355409382729
 31
0.0
  0
LINE
  5
9EB
  8
LAYER_1
 10
296.00707717470982
 20
129.44355409382729
 30
0.0
 11
296.4535216497319
 21
129.19046508715971
 31
0.0
  0
LINE
  5
9EC
  8
LAYER_1
 10
296.4535216497319
 20
129.19046508715971
 30
0.0
 11
296.78978128889719
 21
128.95904249750859
 31
0.0
  0
LINE
  5
9ED
  8
LAYER_1
 10
296.78978128889719
 20
128.95904249750859
 30
0.0
 11
296.91118928448321
 21
128.85569455580281
 31
0.0
  0
LINE
  5
9EE
  8
LAYER_1
 10
296.91118928448321
 20
128.85569455580281
 30
0.0
 11
296.9985683225413
 21
128.76284939506701
 31
0.0
  0
LINE
  5
9EF
  8
LAYER_1
 10
296.9985683225413
 20
128.76284939506701
 30
0.0
 11
297.04975726680652
 21
128.6822023228948
 31
0.0
  0
LINE
  5
9F0
  8
LAYER_1
 10
297.04975726680652
 20
128.6822023228948
 30
0.0
 11
297.06259518416152
 21
128.61544885002991
 31
0.0
  0
LINE
  5
9F1
  8
LAYER_1
 10
297.06259518416152
 20
128.61544885002991
 30
0.0
 11
297.04348757442841
 21
128.55412726864449
 31
0.0
  0
LINE
  5
9F2
  8
LAYER_1
 10
297.04348757442841
 20
128.55412726864449
 30
0.0
 11
297.01042481017947
 21
128.5147752078019
 31
0.0
  0
LINE
  5
9F3
  8
LAYER_1
 10
297.01042481017947
 20
128.5147752078019
 30
0.0
 11
296.46070268421482
 21
128.20371287763729
 31
0.0
  0
LINE
  5
9F4
  8
LAYER_1
 10
296.46070268421482
 20
128.20371287763729
 30
0.0
 11
296.08931239153242
 21
128.0007679003638
 31
0.0
  0
LINE
  5
9F5
  8
LAYER_1
 10
296.08931239153242
 20
128.0007679003638
 30
0.0
 11
295.90796171213691
 21
127.9163572250221
 31
0.0
  0
LINE
  5
9F6
  8
LAYER_1
 10
295.90796171213691
 20
127.9163572250221
 30
0.0
 11
295.87004898673899
 21
127.93109390719449
 31
0.0
  0
LINE
  5
9F7
  8
LAYER_1
 10
295.87004898673899
 20
127.93109390719449
 30
0.0
 11
295.84351980996598
 21
127.9665246169527
 31
0.0
  0
LINE
  5
9F8
  8
LAYER_1
 10
295.84351980996598
 20
127.9665246169527
 30
0.0
 11
295.84351980996598
 21
127.9665246169527
 31
0.0
  0
CIRCLE
  5
A28
  8
0
  6
CONTINUOUS
 10
295.04578194799439
 20
130.047989750303
 30
0.0
 40
12.0
  0
ENDSEC
  0
EOF
