  0
SECTION
  2
HEADER
  9
$ACADVER
  1
AC1009
  9
$EXTMIN
 10
1.51620370
 20
4.58667695
 30
0.0
  9
$EXTMAX
 10
198.48379630
 20
195.41332305
 30
0.0
  0
ENDSEC
  0
SECTION
  2
TABLES
  0
TABLE
  2
LAYER
 70
1
 0
LAYER
 2
Default Layer
 70
0
 62
1
 6
CONTINUOUS
 0
ENDTAB
 0
ENDSEC
  0
SECTION
  2
ENTITIES
  0
POLYLINE
  8
Default Layer
 66
   1
 39
0.000000
 70
    0
  0
VERTEX
  8
0
 10
113.94778807
 20
8.37577160
  0
VERTEX
  8
0
 10
169.80426955
 20
8.37577160
  0
SEQEND
  0
POLYLINE
  8
Default Layer
 66
   1
 39
0.000000
 70
    0
  0
VERTEX
  8
0
 10
121.46064815
 20
10.07433128
  0
VERTEX
  8
0
 10
171.50282922
 20
10.07433128
  0
SEQEND
  0
POLYLINE
  8
Default Layer
 66
   1
 39
0.000000
 70
    0
  0
VERTEX
  8
0
 10
140.07947531
 20
11.90354938
  0
VERTEX
  8
0
 10
175.61856996
 20
11.90354938
  0
SEQEND
  0
POLYLINE
  8
Default Layer
 66
   1
 39
0.000000
 70
    0
  0
VERTEX
  8
0
 10
149.94418724
 20
13.66743827
  0
VERTEX
  8
0
 10
169.80426955
 20
13.66743827
  0
SEQEND
  0
POLYLINE
  8
Default Layer
 66
   1
 39
0.000000
 70
    0
  0
VERTEX
  8
0
 10
155.23585391
 20
15.36599794
  0
VERTEX
  8
0
 10
165.68852881
 20
15.36599794
  0
SEQEND
  0
POLYLINE
  8
Default Layer
 66
   1
 39
0.000000
 70
    0
  0
VERTEX
  8
0
 10
165.75385802
 20
147.65766461
  0
VERTEX
  8
0
 10
167.84439300
 20
145.95910494
  0
VERTEX
  8
0
 10
169.54295267
 20
143.34593621
  0
VERTEX
  8
0
 10
170.91486626
 20
139.94881687
  0
VERTEX
  8
0
 10
172.09079218
 20
136.02906379
  0
VERTEX
  8
0
 10
172.94007202
 20
131.91332305
  0
VERTEX
  8
0
 10
173.52803498
 20
127.79758230
  0
VERTEX
  8
0
 10
173.85468107
 20
123.94315844
  0
VERTEX
  8
0
 10
174.05066872
 20
120.61136831
  0
SEQEND
  0
POLYLINE
  8
Default Layer
 66
   1
 39
0.000000
 70
    0
  0
VERTEX
  8
0
 10
165.49254115
 20
147.20036008
  0
VERTEX
  8
0
 10
167.58307613
 20
142.82330247
  0
VERTEX
  8
0
 10
168.88966049
 20
138.11959877
  0
VERTEX
  8
0
 10
169.47762346
 20
133.21990741
  0
VERTEX
  8
0
 10
169.67361111
 20
128.38554527
  0
VERTEX
  8
0
 10
169.54295267
 20
123.74717078
  0
VERTEX
  8
0
 10
169.28163580
 20
119.37011317
  0
VERTEX
  8
0
 10
168.95498971
 20
115.51568930
  0
VERTEX
  8
0
 10
168.82433128
 20
112.11856996
  0
SEQEND
  0
POLYLINE
  8
Default Layer
 66
   1
 39
0.000000
 70
    1
  0
VERTEX
  8
0
 10
79.78060700
 20
36.72865226
  0
VERTEX
  8
0
 10
79.97659465
 20
32.28626543
  0
VERTEX
  8
0
 10
78.99665638
 20
29.80375514
  0
VERTEX
  8
0
 10
76.84079218
 20
28.95447531
  0
VERTEX
  8
0
 10
73.31301440
 20
29.67309671
  0
VERTEX
  8
0
 10
68.02134774
 20
31.17566872
  0
VERTEX
  8
0
 10
62.33770576
 20
32.28626543
  0
VERTEX
  8
0
 10
56.45807613
 20
32.87422840
  0
VERTEX
  8
0
 10
50.51311728
 20
32.67824074
  0
VERTEX
  8
0
 10
44.56815844
 20
31.37165638
  0
VERTEX
  8
0
 10
38.81918724
 20
28.62782922
  0
VERTEX
  8
0
 10
33.39686214
 20
24.25077160
  0
VERTEX
  8
0
 10
28.36651235
 20
17.78317901
  0
VERTEX
  8
0
 10
31.11033951
 20
12.03420782
  0
VERTEX
  8
0
 10
36.46733539
 20
8.11445473
  0
VERTEX
  8
0
 10
43.78420782
 20
5.76260288
  0
VERTEX
  8
0
 10
52.27700617
 20
4.71733539
  0
VERTEX
  8
0
 10
61.42309671
 20
4.58667695
  0
VERTEX
  8
0
 10
70.56918724
 20
4.97865226
  0
VERTEX
  8
0
 10
78.93132716
 20
5.69727366
  0
VERTEX
  8
0
 10
85.98688272
 20
6.41589506
  0
VERTEX
  8
0
 10
88.01208848
 20
5.89326132
  0
VERTEX
  8
0
 10
90.10262346
 20
6.41589506
  0
VERTEX
  8
0
 10
91.86651235
 20
8.24511317
  0
VERTEX
  8
0
 10
93.04243827
 20
11.44624486
  0
VERTEX
  8
0
 10
99.90200617
 20
19.87371399
  0
VERTEX
  8
0
 10
98.39943416
 20
21.57227366
  0
VERTEX
  8
0
 10
96.63554527
 20
22.74819959
  0
VERTEX
  8
0
 10
94.67566872
 20
23.92412551
  0
VERTEX
  8
0
 10
92.91177984
 20
25.10005144
  0
VERTEX
  8
0
 10
91.27854938
 20
26.60262346
  0
VERTEX
  8
0
 10
90.10262346
 20
28.49717078
  0
VERTEX
  8
0
 10
89.51466049
 20
31.04501029
  0
VERTEX
  8
0
 10
89.71064815
 20
34.44212963
  0
VERTEX
  8
0
 10
79.78060700
 20
36.72865226
  0
SEQEND
  0
POLYLINE
  8
Default Layer
 66
   1
 39
0.000000
 70
    1
  0
VERTEX
  8
0
 10
116.29963992
 20
43.00025720
  0
VERTEX
  8
0
 10
117.14891975
 20
38.23122428
  0
VERTEX
  8
0
 10
119.17412551
 20
34.96476337
  0
VERTEX
  8
0
 10
121.98328189
 20
33.65817901
  0
VERTEX
  8
0
 10
125.51105967
 20
34.57278807
  0
VERTEX
  8
0
 10
130.41075103
 20
37.05529835
  0
VERTEX
  8
0
 10
135.76774691
 20
39.21116255
  0
VERTEX
  8
0
 10
141.45138889
 20
40.97505144
  0
VERTEX
  8
0
 10
147.33101852
 20
41.88966049
  0
VERTEX
  8
0
 10
153.40663580
 20
41.69367284
  0
VERTEX
  8
0
 10
159.54758230
 20
40.12577160
  0
VERTEX
  8
0
 10
165.68852881
 20
36.85931070
  0
VERTEX
  8
0
 10
171.82947531
 20
31.50231481
  0
VERTEX
  8
0
 10
170.19624486
 20
25.36136831
  0
VERTEX
  8
0
 10
165.75385802
 20
20.52700617
  0
VERTEX
  8
0
 10
159.02494856
 20
16.80324074
  0
VERTEX
  8
0
 10
150.92412551
 20
14.05941358
  0
VERTEX
  8
0
 10
141.90869342
 20
12.23019547
  0
VERTEX
  8
0
 10
132.95859053
 20
10.85828189
  0
VERTEX
  8
0
 10
124.53112140
 20
10.00900206
  0
VERTEX
  8
0
 10
117.54089506
 20
9.29038066
  0
VERTEX
  8
0
 10
115.58101852
 20
8.37577160
  0
VERTEX
  8
0
 10
113.42515432
 20
8.44110082
  0
VERTEX
  8
0
 10
111.26929012
 20
9.87834362
  0
VERTEX
  8
0
 10
109.57073045
 20
12.81815844
  0
VERTEX
  8
0
 10
101.27391975
 20
19.87371399
  0
VERTEX
  8
0
 10
102.44984568
 20
21.83359053
  0
VERTEX
  8
0
 10
103.82175926
 20
23.72813786
  0
VERTEX
  8
0
 10
105.32433128
 20
25.68801440
  0
VERTEX
  8
0
 10
106.82690329
 20
27.71322016
  0
VERTEX
  8
0
 10
107.93750000
 20
29.93441358
  0
VERTEX
  8
0
 10
108.65612140
 20
32.48225309
  0
VERTEX
  8
0
 10
108.72145062
 20
35.42206790
  0
VERTEX
  8
0
 10
107.80684156
 20
38.75385802
  0
VERTEX
  8
0
 10
116.29963992
 20
43.00025720
  0
SEQEND
  0
POLYLINE
  8
Default Layer
 66
   1
 39
0.000000
 70
    1
  0
VERTEX
  8
0
 10
186.46322016
 20
93.17309671
  0
VERTEX
  8
0
 10
183.06610082
 20
93.76105967
  0
VERTEX
  8
0
 10
179.40766461
 20
93.76105967
  0
VERTEX
  8
0
 10
175.61856996
 20
92.65046296
  0
VERTEX
  8
0
 10
171.76414609
 20
90.69058642
  0
VERTEX
  8
0
 10
167.90972222
 20
88.01208848
  0
VERTEX
  8
0
 10
164.12062757
 20
84.61496914
  0
VERTEX
  8
0
 10
160.33153292
 20
80.89120370
  0
VERTEX
  8
0
 10
155.95447531
 20
76.71013374
  0
VERTEX
  8
0
 10
149.42155350
 20
69.98122428
  0
VERTEX
  8
0
 10
141.64737654
 20
63.70961934
  0
VERTEX
  8
0
 10
132.43595679
 20
58.09130658
  0
VERTEX
  8
0
 10
121.78729424
 20
53.32227366
  0
VERTEX
  8
0
 10
121.78729424
 20
61.35776749
  0
VERTEX
  8
0
 10
127.92824074
 20
64.36291152
  0
VERTEX
  8
0
 10
133.80787037
 20
67.95601852
  0
VERTEX
  8
0
 10
139.42618313
 20
71.94110082
  0
VERTEX
  8
0
 10
144.71784979
 20
76.12217078
  0
VERTEX
  8
0
 10
149.68287037
 20
80.43389918
  0
VERTEX
  8
0
 10
154.25591564
 20
84.68029835
  0
VERTEX
  8
0
 10
159.28626543
 20
88.92669753
  0
VERTEX
  8
0
 10
163.01003086
 20
92.78112140
  0
VERTEX
  8
0
 10
165.62319959
 20
94.80632716
  0
VERTEX
  8
0
 10
168.30169753
 20
96.57021605
  0
VERTEX
  8
0
 10
171.04552469
 20
97.87680041
  0
VERTEX
  8
0
 10
173.98533951
 20
98.79140947
  0
VERTEX
  8
0
 10
176.79449588
 20
99.37937243
  0
VERTEX
  8
0
 10
179.60365226
 20
99.64068930
  0
VERTEX
  8
0
 10
182.34747942
 20
99.57536008
  0
VERTEX
  8
0
 10
185.09130658
 20
99.24871399
  0
VERTEX
  8
0
 10
187.50848765
 20
98.59542181
  0
VERTEX
  8
0
 10
189.79501029
 20
97.68081276
  0
VERTEX
  8
0
 10
191.95087449
 20
96.50488683
  0
VERTEX
  8
0
 10
193.84542181
 20
95.06764403
  0
VERTEX
  8
0
 10
195.34799383
 20
93.63040123
  0
VERTEX
  8
0
 10
196.65457819
 20
91.53986626
  0
VERTEX
  8
0
 10
197.43852881
 20
89.64531893
  0
VERTEX
  8
0
 10
198.15715021
 20
86.64017490
  0
VERTEX
  8
0
 10
198.48379630
 20
82.65509259
  0
VERTEX
  8
0
 10
197.96116255
 20
78.47402263
  0
VERTEX
  8
0
 10
197.11188272
 20
74.68492798
  0
VERTEX
  8
0
 10
195.80529835
 20
71.28780864
  0
VERTEX
  8
0
 10
194.04140947
 20
68.28266461
  0
VERTEX
  8
0
 10
192.01620370
 20
65.80015432
  0
VERTEX
  8
0
 10
189.72968107
 20
63.64429012
  0
VERTEX
  8
0
 10
187.24717078
 20
61.94573045
  0
VERTEX
  8
0
 10
184.56867284
 20
60.76980453
  0
VERTEX
  8
0
 10
181.89017490
 20
59.92052469
  0
VERTEX
  8
0
 10
179.21167695
 20
59.52854938
  0
VERTEX
  8
0
 10
176.66383745
 20
59.59387860
  0
VERTEX
  8
0
 10
174.18132716
 20
60.11651235
  0
VERTEX
  8
0
 10
171.96013374
 20
61.09645062
  0
VERTEX
  8
0
 10
170.00025720
 20
62.53369342
  0
VERTEX
  8
0
 10
168.43235597
 20
64.49356996
  0
VERTEX
  8
0
 10
168.95498971
 20
64.29758230
  0
VERTEX
  8
0
 10
169.54295267
 20
64.10159465
  0
VERTEX
  8
0
 10
170.13091564
 20
63.90560700
  0
VERTEX
  8
0
 10
170.78420782
 20
63.77494856
  0
VERTEX
  8
0
 10
171.43750000
 20
63.64429012
  0
VERTEX
  8
0
 10
172.02546296
 20
63.51363169
  0
VERTEX
  8
0
 10
172.61342593
 20
63.38297325
  0
VERTEX
  8
0
 10
173.13605967
 20
63.25231481
  0
VERTEX
  8
0
 10
176.07587449
 20
62.99099794
  0
VERTEX
  8
0
 10
179.08101852
 20
63.57896091
  0
VERTEX
  8
0
 10
182.41280864
 20
64.68955761
  0
VERTEX
  8
0
 10
185.28729424
 20
66.32278807
  0
VERTEX
  8
0
 10
187.37782922
 20
67.95601852
  0
VERTEX
  8
0
 10
189.40303498
 20
70.17721193
  0
VERTEX
  8
0
 10
191.10159465
 20
72.65972222
  0
VERTEX
  8
0
 10
192.34284979
 20
75.33822016
  0
VERTEX
  8
0
 10
193.06147119
 20
78.08204733
  0
VERTEX
  8
0
 10
193.38811728
 20
80.89120370
  0
VERTEX
  8
0
 10
193.32278807
 20
83.96167695
  0
VERTEX
  8
0
 10
192.86548354
 20
87.09747942
  0
VERTEX
  8
0
 10
191.62422840
 20
89.25334362
  0
VERTEX
  8
0
 10
189.40303498
 20
91.67052469
  0
VERTEX
  8
0
 10
186.46322016
 20
93.17309671
  0
SEQEND
  0
POLYLINE
  8
Default Layer
 66
   1
 39
0.000000
 70
    1
  0
VERTEX
  8
0
 10
88.53472222
 20
119.37011317
  0
VERTEX
  8
0
 10
97.94212963
 20
121.59130658
  0
VERTEX
  8
0
 10
97.22350823
 20
113.03317901
  0
VERTEX
  8
0
 10
97.55015432
 20
110.28935185
  0
VERTEX
  8
0
 10
98.13811728
 20
107.93750000
  0
VERTEX
  8
0
 10
98.98739712
 20
106.30426955
  0
VERTEX
  8
0
 10
99.90200617
 20
105.52031893
  0
VERTEX
  8
0
 10
102.97247942
 20
105.65097737
  0
VERTEX
  8
0
 10
105.78163580
 20
102.58050412
  0
VERTEX
  8
0
 10
107.93750000
 20
102.12319959
  0
VERTEX
  8
0
 10
109.76671811
 20
101.33924897
  0
VERTEX
  8
0
 10
111.26929012
 20
100.35931070
  0
VERTEX
  8
0
 10
112.51054527
 20
99.11805556
  0
VERTEX
  8
0
 10
113.42515432
 20
97.61548354
  0
VERTEX
  8
0
 10
114.14377572
 20
96.04758230
  0
VERTEX
  8
0
 10
114.66640947
 20
94.28369342
  0
VERTEX
  8
0
 10
114.99305556
 20
92.51980453
  0
VERTEX
  8
0
 10
115.05838477
 20
90.69058642
  0
VERTEX
  8
0
 10
115.12371399
 20
88.92669753
  0
VERTEX
  8
0
 10
114.99305556
 20
87.09747942
  0
VERTEX
  8
0
 10
114.79706790
 20
85.46424897
  0
VERTEX
  8
0
 10
114.47042181
 20
83.89634774
  0
VERTEX
  8
0
 10
114.14377572
 20
82.52443416
  0
VERTEX
  8
0
 10
113.81712963
 20
81.28317901
  0
VERTEX
  8
0
 10
113.42515432
 20
80.30324074
  0
VERTEX
  8
0
 10
114.60108025
 20
79.32330247
  0
VERTEX
  8
0
 10
115.71167695
 20
78.14737654
  0
VERTEX
  8
0
 10
116.82227366
 20
76.90612140
  0
VERTEX
  8
0
 10
117.86754115
 20
75.53420782
  0
VERTEX
  8
0
 10
118.78215021
 20
74.09696502
  0
VERTEX
  8
0
 10
119.76208848
 20
72.52906379
  0
VERTEX
  8
0
 10
120.54603909
 20
70.83050412
  0
VERTEX
  8
0
 10
121.32998971
 20
69.06661523
  0
VERTEX
  8
0
 10
121.98328189
 20
67.30272634
  0
VERTEX
  8
0
 10
122.57124486
 20
65.47350823
  0
VERTEX
  8
0
 10
123.02854938
 20
63.57896091
  0
VERTEX
  8
0
 10
123.42052469
 20
61.68441358
  0
VERTEX
  8
0
 10
123.61651235
 20
59.72453704
  0
VERTEX
  8
0
 10
123.74717078
 20
57.76466049
  0
VERTEX
  8
0
 10
123.68184156
 20
55.80478395
  0
VERTEX
  8
0
 10
123.55118313
 20
53.91023663
  0
VERTEX
  8
0
 10
123.22453704
 20
52.01568930
  0
VERTEX
  8
0
 10
122.70190329
 20
50.12114198
  0
VERTEX
  8
0
 10
122.04861111
 20
48.29192387
  0
VERTEX
  8
0
 10
121.26466049
 20
46.46270576
  0
VERTEX
  8
0
 10
120.28472222
 20
44.76414609
  0
VERTEX
  8
0
 10
119.10879630
 20
43.06558642
  0
VERTEX
  8
0
 10
117.67155350
 20
41.56301440
  0
VERTEX
  8
0
 10
116.10365226
 20
40.06044239
  0
VERTEX
  8
0
 10
114.27443416
 20
38.62319959
  0
VERTEX
  8
0
 10
112.24922840
 20
37.38194444
  0
VERTEX
  8
0
 10
110.02803498
 20
36.27134774
  0
VERTEX
  8
0
 10
107.48019547
 20
35.22608025
  0
VERTEX
  8
0
 10
104.67103909
 20
34.44212963
  0
VERTEX
  8
0
 10
101.73122428
 20
33.72350823
  0
VERTEX
  8
0
 10
98.53009259
 20
33.20087449
  0
VERTEX
  8
0
 10
95.00231481
 20
32.80889918
  0
VERTEX
  8
0
 10
91.99717078
 20
32.67824074
  0
VERTEX
  8
0
 10
89.12268519
 20
32.74356996
  0
VERTEX
  8
0
 10
86.44418724
 20
32.93955761
  0
VERTEX
  8
0
 10
83.89634774
 20
33.26620370
  0
VERTEX
  8
0
 10
81.54449588
 20
33.72350823
  0
VERTEX
  8
0
 10
79.32330247
 20
34.37680041
  0
VERTEX
  8
0
 10
77.29809671
 20
35.09542181
  0
VERTEX
  8
0
 10
75.33822016
 20
35.87937243
  0
VERTEX
  8
0
 10
73.57433128
 20
36.85931070
  0
VERTEX
  8
0
 10
71.94110082
 20
37.83924897
  0
VERTEX
  8
0
 10
70.50385802
 20
39.01517490
  0
VERTEX
  8
0
 10
69.13194444
 20
40.19110082
  0
VERTEX
  8
0
 10
67.89068930
 20
41.49768519
  0
VERTEX
  8
0
 10
66.84542181
 20
42.80426955
  0
VERTEX
  8
0
 10
65.93081276
 20
44.24151235
  0
VERTEX
  8
0
 10
65.14686214
 20
45.67875514
  0
VERTEX
  8
0
 10
64.42824074
 20
47.24665638
  0
VERTEX
  8
0
 10
63.90560700
 20
48.81455761
  0
VERTEX
  8
0
 10
63.44830247
 20
50.44778807
  0
VERTEX
  8
0
 10
63.18698560
 20
52.08101852
  0
VERTEX
  8
0
 10
62.99099794
 20
53.71424897
  0
VERTEX
  8
0
 10
62.92566872
 20
55.41280864
  0
VERTEX
  8
0
 10
62.99099794
 20
57.04603909
  0
VERTEX
  8
0
 10
63.12165638
 20
58.67926955
  0
VERTEX
  8
0
 10
63.38297325
 20
60.37782922
  0
VERTEX
  8
0
 10
63.77494856
 20
62.07638889
  0
VERTEX
  8
0
 10
64.23225309
 20
63.64429012
  0
VERTEX
  8
0
 10
64.88554527
 20
65.21219136
  0
VERTEX
  8
0
 10
65.60416667
 20
66.84542181
  0
VERTEX
  8
0
 10
66.38811728
 20
68.34799383
  0
VERTEX
  8
0
 10
67.23739712
 20
69.78523663
  0
VERTEX
  8
0
 10
68.34799383
 20
71.22247942
  0
VERTEX
  8
0
 10
68.54398148
 20
88.14274691
  0
VERTEX
  8
0
 10
68.34799383
 20
90.29861111
  0
VERTEX
  8
0
 10
68.34799383
 20
92.12782922
  0
VERTEX
  8
0
 10
68.60931070
 20
93.63040123
  0
VERTEX
  8
0
 10
69.19727366
 20
94.80632716
  0
VERTEX
  8
0
 10
70.04655350
 20
95.91692387
  0
VERTEX
  8
0
 10
71.28780864
 20
96.89686214
  0
VERTEX
  8
0
 10
72.85570988
 20
97.68081276
  0
VERTEX
  8
0
 10
74.88091564
 20
98.53009259
  0
VERTEX
  8
0
 10
75.73019547
 20
100.55529835
  0
VERTEX
  8
0
 10
76.71013374
 20
101.86188272
  0
VERTEX
  8
0
 10
77.82073045
 20
102.77649177
  0
VERTEX
  8
0
 10
78.93132716
 20
103.23379630
  0
VERTEX
  8
0
 10
80.04192387
 20
103.42978395
  0
VERTEX
  8
0
 10
81.21784979
 20
103.49511317
  0
VERTEX
  8
0
 10
82.26311728
 20
103.56044239
  0
VERTEX
  8
0
 10
83.30838477
 20
103.62577160
  0
VERTEX
  8
0
 10
82.58976337
 20
107.87217078
  0
VERTEX
  8
0
 10
81.34850823
 20
111.59593621
  0
VERTEX
  8
0
 10
77.95138889
 20
118.84747942
  0
VERTEX
  8
0
 10
88.53472222
 20
119.37011317
  0
SEQEND
  0
POLYLINE
  8
Default Layer
 66
   1
 39
0.000000
 70
    1
  0
VERTEX
  8
0
 10
82.98173868
 20
114.33976337
  0
VERTEX
  8
0
 10
78.40869342
 20
114.14377572
  0
VERTEX
  8
0
 10
74.22762346
 20
113.94778807
  0
VERTEX
  8
0
 10
71.87577160
 20
114.01311728
  0
VERTEX
  8
0
 10
69.39326132
 20
114.07844650
  0
VERTEX
  8
0
 10
66.97608025
 20
114.27443416
  0
VERTEX
  8
0
 10
64.49356996
 20
114.79706790
  0
VERTEX
  8
0
 10
62.01105967
 20
115.45036008
  0
VERTEX
  8
0
 10
59.46322016
 20
116.29963992
  0
VERTEX
  8
0
 10
57.04603909
 20
117.34490741
  0
VERTEX
  8
0
 10
54.95550412
 20
113.88245885
  0
VERTEX
  8
0
 10
52.08101852
 20
110.74665638
  0
VERTEX
  8
0
 10
48.48791152
 20
108.06815844
  0
VERTEX
  8
0
 10
44.37217078
 20
105.78163580
  0
VERTEX
  8
0
 10
39.92978395
 20
104.14840535
  0
VERTEX
  8
0
 10
35.09542181
 20
102.90715021
  0
VERTEX
  8
0
 10
30.26105967
 20
102.25385802
  0
VERTEX
  8
0
 10
25.29603909
 20
102.18852881
  0
VERTEX
  8
0
 10
20.52700617
 20
102.84182099
  0
VERTEX
  8
0
 10
16.01929012
 20
104.14840535
  0
VERTEX
  8
0
 10
11.83822016
 20
106.17361111
  0
VERTEX
  8
0
 10
8.24511317
 20
108.91743827
  0
VERTEX
  8
0
 10
5.30529835
 20
112.57587449
  0
VERTEX
  8
0
 10
3.08410494
 20
117.01826132
  0
VERTEX
  8
0
 10
1.84284979
 20
122.37525720
  0
VERTEX
  8
0
 10
1.58153292
 20
128.64686214
  0
VERTEX
  8
0
 10
1.51620370
 20
133.21990741
  0
VERTEX
  8
0
 10
1.64686214
 20
137.66229424
  0
VERTEX
  8
0
 10
1.97350823
 20
141.90869342
  0
VERTEX
  8
0
 10
2.62680041
 20
145.76311728
  0
VERTEX
  8
0
 10
3.60673868
 20
149.42155350
  0
VERTEX
  8
0
 10
4.71733539
 20
152.81867284
  0
VERTEX
  8
0
 10
6.21990741
 20
155.82381687
  0
VERTEX
  8
0
 10
8.04912551
 20
158.63297325
  0
VERTEX
  8
0
 10
10.13966049
 20
161.11548354
  0
VERTEX
  8
0
 10
12.55684156
 20
163.14068930
  0
VERTEX
  8
0
 10
15.23533951
 20
164.90457819
  0
VERTEX
  8
0
 10
18.30581276
 20
166.27649177
  0
VERTEX
  8
0
 10
21.70293210
 20
167.25643004
  0
VERTEX
  8
0
 10
25.42669753
 20
167.90972222
  0
VERTEX
  8
0
 10
29.54243827
 20
168.04038066
  0
VERTEX
  8
0
 10
33.98482510
 20
167.90972222
  0
VERTEX
  8
0
 10
39.60313786
 20
167.58307613
  0
VERTEX
  8
0
 10
45.09079218
 20
166.79912551
  0
VERTEX
  8
0
 10
50.38245885
 20
165.49254115
  0
VERTEX
  8
0
 10
55.41280864
 20
163.79398148
  0
VERTEX
  8
0
 10
58.02597737
 20
168.10570988
  0
VERTEX
  8
0
 10
61.09645062
 20
171.63348765
  0
VERTEX
  8
0
 10
64.49356996
 20
174.44264403
  0
VERTEX
  8
0
 10
68.41332305
 20
176.40252058
  0
VERTEX
  8
0
 10
72.59439300
 20
177.64377572
  0
VERTEX
  8
0
 10
77.16743827
 20
178.03575103
  0
VERTEX
  8
0
 10
82.00180041
 20
177.70910494
  0
VERTEX
  8
0
 10
87.16280864
 20
176.59850823
  0
VERTEX
  8
0
 10
88.66538066
 20
180.45293210
  0
VERTEX
  8
0
 10
90.29861111
 20
183.39274691
  0
VERTEX
  8
0
 10
91.99717078
 20
185.48328189
  0
VERTEX
  8
0
 10
93.82638889
 20
186.78986626
  0
VERTEX
  8
0
 10
95.59027778
 20
187.37782922
  0
VERTEX
  8
0
 10
99.18338477
 20
186.85519547
  0
VERTEX
  8
0
 10
100.81661523
 20
185.87525720
  0
VERTEX
  8
0
 10
102.25385802
 20
184.56867284
  0
VERTEX
  8
0
 10
103.62577160
 20
183.06610082
  0
VERTEX
  8
0
 10
104.73636831
 20
181.30221193
  0
VERTEX
  8
0
 10
105.71630658
 20
179.53832305
  0
VERTEX
  8
0
 10
106.10828189
 20
179.79963992
  0
VERTEX
  8
0
 10
106.50025720
 20
181.69418724
  0
VERTEX
  8
0
 10
107.15354938
 20
183.06610082
  0
VERTEX
  8
0
 10
107.93750000
 20
183.65406379
  0
VERTEX
  8
0
 10
108.85210905
 20
183.78472222
  0
VERTEX
  8
0
 10
109.89737654
 20
183.45807613
  0
VERTEX
  8
0
 10
110.94264403
 20
182.80478395
  0
VERTEX
  8
0
 10
111.98791152
 20
181.69418724
  0
VERTEX
  8
0
 10
113.09850823
 20
180.51826132
  0
VERTEX
  8
0
 10
114.07844650
 20
179.08101852
  0
VERTEX
  8
0
 10
114.99305556
 20
177.64377572
  0
VERTEX
  8
0
 10
115.71167695
 20
176.07587449
  0
VERTEX
  8
0
 10
116.23431070
 20
174.70396091
  0
VERTEX
  8
0
 10
116.56095679
 20
173.39737654
  0
VERTEX
  8
0
 10
116.62628601
 20
172.35210905
  0
VERTEX
  8
0
 10
116.75694444
 20
171.82947531
  0
VERTEX
  8
0
 10
117.08359053
 20
170.13091564
  0
VERTEX
  8
0
 10
117.21424897
 20
169.02031893
  0
VERTEX
  8
0
 10
117.27957819
 20
167.77906379
  0
VERTEX
  8
0
 10
117.34490741
 20
166.53780864
  0
VERTEX
  8
0
 10
117.27957819
 20
165.36188272
  0
VERTEX
  8
0
 10
117.21424897
 20
164.18595679
  0
VERTEX
  8
0
 10
117.14891975
 20
162.94470165
  0
VERTEX
  8
0
 10
117.01826132
 20
161.83410494
  0
VERTEX
  8
0
 10
116.82227366
 20
160.72350823
  0
VERTEX
  8
0
 10
116.62628601
 20
159.74356996
  0
VERTEX
  8
0
 10
116.49562757
 20
158.76363169
  0
VERTEX
  8
0
 10
116.29963992
 20
157.84902263
  0
VERTEX
  8
0
 10
115.90766461
 20
156.47710905
  0
VERTEX
  8
0
 10
115.71167695
 20
155.95447531
  0
VERTEX
  8
0
 10
117.99819959
 20
158.69830247
  0
VERTEX
  8
0
 10
120.48070988
 20
161.50745885
  0
VERTEX
  8
0
 10
123.09387860
 20
164.38194444
  0
VERTEX
  8
0
 10
125.77237654
 20
167.38708848
  0
VERTEX
  8
0
 10
128.58153292
 20
170.19624486
  0
VERTEX
  8
0
 10
131.52134774
 20
172.94007202
  0
VERTEX
  8
0
 10
134.52649177
 20
175.42258230
  0
VERTEX
  8
0
 10
137.72762346
 20
177.70910494
  0
VERTEX
  8
0
 10
140.92875514
 20
179.47299383
  0
VERTEX
  8
0
 10
144.26054527
 20
180.84490741
  0
VERTEX
  8
0
 10
147.65766461
 20
181.69418724
  0
VERTEX
  8
0
 10
151.12011317
 20
182.02083333
  0
VERTEX
  8
0
 10
154.64789095
 20
181.56352881
  0
VERTEX
  8
0
 10
158.24099794
 20
180.45293210
  0
VERTEX
  8
0
 10
161.83410494
 20
178.42772634
  0
VERTEX
  8
0
 10
165.55787037
 20
175.55324074
  0
VERTEX
  8
0
 10
170.91486626
 20
166.86445473
  0
VERTEX
  8
0
 10
171.30684156
 20
163.66332305
  0
VERTEX
  8
0
 10
171.30684156
 20
160.39686214
  0
VERTEX
  8
0
 10
170.91486626
 20
157.13040123
  0
VERTEX
  8
0
 10
170.13091564
 20
153.92926955
  0
VERTEX
  8
0
 10
168.95498971
 20
150.85879630
  0
VERTEX
  8
0
 10
167.51774691
 20
147.85365226
  0
VERTEX
  8
0
 10
165.75385802
 20
144.97916667
  0
VERTEX
  8
0
 10
163.72865226
 20
142.30066872
  0
VERTEX
  8
0
 10
161.37680041
 20
139.81815844
  0
VERTEX
  8
0
 10
158.82896091
 20
137.59696502
  0
VERTEX
  8
0
 10
156.08513374
 20
135.63708848
  0
VERTEX
  8
0
 10
153.21064815
 20
133.93852881
  0
VERTEX
  8
0
 10
150.07484568
 20
132.56661523
  0
VERTEX
  8
0
 10
146.93904321
 20
131.58667695
  0
VERTEX
  8
0
 10
143.67258230
 20
130.99871399
  0
VERTEX
  8
0
 10
140.27546296
 20
130.73739712
  0
VERTEX
  8
0
 10
140.07947531
 20
129.03883745
  0
VERTEX
  8
0
 10
139.68750000
 20
127.53626543
  0
VERTEX
  8
0
 10
138.83822016
 20
126.22968107
  0
VERTEX
  8
0
 10
137.85828189
 20
125.05375514
  0
VERTEX
  8
0
 10
136.55169753
 20
124.07381687
  0
VERTEX
  8
0
 10
135.17978395
 20
123.28986626
  0
VERTEX
  8
0
 10
133.61188272
 20
122.70190329
  0
VERTEX
  8
0
 10
131.97865226
 20
122.24459877
  0
VERTEX
  8
0
 10
130.21476337
 20
121.98328189
  0
VERTEX
  8
0
 10
128.51620370
 20
121.91795267
  0
VERTEX
  8
0
 10
126.75231481
 20
122.11394033
  0
VERTEX
  8
0
 10
125.11908436
 20
122.37525720
  0
VERTEX
  8
0
 10
123.55118313
 20
122.96322016
  0
VERTEX
  8
0
 10
122.11394033
 20
123.61651235
  0
VERTEX
  8
0
 10
120.87268519
 20
124.46579218
  0
VERTEX
  8
0
 10
119.82741770
 20
125.51105967
  0
VERTEX
  8
0
 10
117.99819959
 20
124.33513374
  0
VERTEX
  8
0
 10
116.29963992
 20
122.76723251
  0
VERTEX
  8
0
 10
114.47042181
 20
121.13400206
  0
VERTEX
  8
0
 10
112.64120370
 20
119.63143004
  0
VERTEX
  8
0
 10
110.42001029
 20
118.45550412
  0
VERTEX
  8
0
 10
107.93750000
 20
117.80221193
  0
VERTEX
  8
0
 10
104.99768519
 20
117.93287037
  0
VERTEX
  8
0
 10
101.40457819
 20
119.04346708
  0
VERTEX
  8
0
 10
99.31404321
 20
117.54089506
  0
VERTEX
  8
0
 10
95.45961934
 20
116.36496914
  0
VERTEX
  8
0
 10
91.08256173
 20
115.51568930
  0
VERTEX
  8
0
 10
86.83616255
 20
114.79706790
  0
VERTEX
  8
0
 10
82.98173868
 20
114.33976337
  0
SEQEND
  0
POLYLINE
  8
Default Layer
 66
   1
 39
0.000000
 70
    0
  0
VERTEX
  8
0
 10
68.34799383
 20
71.22247942
  0
VERTEX
  8
0
 10
68.87062757
 20
71.81044239
  0
VERTEX
  8
0
 10
69.39326132
 20
72.52906379
  0
VERTEX
  8
0
 10
69.85056584
 20
73.24768519
  0
VERTEX
  8
0
 10
70.37319959
 20
73.90097737
  0
VERTEX
  8
0
 10
70.83050412
 20
74.61959877
  0
VERTEX
  8
0
 10
71.28780864
 20
75.27289095
  0
VERTEX
  8
0
 10
71.74511317
 20
75.99151235
  0
VERTEX
  8
0
 10
72.13708848
 20
76.64480453
  0
VERTEX
  8
0
 10
72.65972222
 20
77.36342593
  0
VERTEX
  8
0
 10
73.05169753
 20
78.08204733
  0
VERTEX
  8
0
 10
73.50900206
 20
78.80066872
  0
VERTEX
  8
0
 10
73.90097737
 20
79.51929012
  0
VERTEX
  8
0
 10
74.29295267
 20
80.17258230
  0
VERTEX
  8
0
 10
74.68492798
 20
80.89120370
  0
VERTEX
  8
0
 10
75.01157407
 20
81.60982510
  0
VERTEX
  8
0
 10
75.40354938
 20
82.32844650
  0
VERTEX
  8
0
 10
75.73019547
 20
83.04706790
  0
VERTEX
  8
0
 10
75.99151235
 20
83.76568930
  0
VERTEX
  8
0
 10
76.31815844
 20
84.48431070
  0
VERTEX
  8
0
 10
76.64480453
 20
85.20293210
  0
VERTEX
  8
0
 10
76.90612140
 20
85.92155350
  0
VERTEX
  8
0
 10
77.16743827
 20
86.64017490
  0
VERTEX
  8
0
 10
77.42875514
 20
87.35879630
  0
VERTEX
  8
0
 10
77.62474280
 20
88.14274691
  0
VERTEX
  8
0
 10
77.82073045
 20
88.86136831
  0
VERTEX
  8
0
 10
78.01671811
 20
89.57998971
  0
VERTEX
  8
0
 10
78.14737654
 20
90.29861111
  0
VERTEX
  8
0
 10
78.34336420
 20
91.01723251
  0
VERTEX
  8
0
 10
78.40869342
 20
91.80118313
  0
VERTEX
  8
0
 10
78.47402263
 20
92.51980453
  0
VERTEX
  8
0
 10
78.53935185
 20
93.23842593
  0
VERTEX
  8
0
 10
78.60468107
 20
94.02237654
  0
SEQEND
  0
POLYLINE
  8
Default Layer
 66
   1
 39
0.000000
 70
    0
  0
VERTEX
  8
0
 10
113.49048354
 20
80.49922840
  0
VERTEX
  8
0
 10
113.16383745
 20
80.76054527
  0
VERTEX
  8
0
 10
112.83719136
 20
81.08719136
  0
VERTEX
  8
0
 10
112.57587449
 20
81.47916667
  0
VERTEX
  8
0
 10
112.24922840
 20
81.80581276
  0
VERTEX
  8
0
 10
111.98791152
 20
82.13245885
  0
VERTEX
  8
0
 10
111.66126543
 20
82.52443416
  0
VERTEX
  8
0
 10
111.39994856
 20
82.85108025
  0
VERTEX
  8
0
 10
111.13863169
 20
83.17772634
  0
VERTEX
  8
0
 10
110.87731481
 20
83.56970165
  0
VERTEX
  8
0
 10
110.61599794
 20
83.89634774
  0
VERTEX
  8
0
 10
110.35468107
 20
84.22299383
  0
VERTEX
  8
0
 10
110.09336420
 20
84.61496914
  0
VERTEX
  8
0
 10
109.89737654
 20
85.00694444
  0
VERTEX
  8
0
 10
109.63605967
 20
85.33359053
  0
VERTEX
  8
0
 10
109.37474280
 20
85.66023663
  0
VERTEX
  8
0
 10
109.17875514
 20
86.05221193
  0
VERTEX
  8
0
 10
108.98276749
 20
86.37885802
  0
VERTEX
  8
0
 10
108.78677984
 20
86.77083333
  0
VERTEX
  8
0
 10
108.52546296
 20
87.16280864
  0
VERTEX
  8
0
 10
108.32947531
 20
87.55478395
  0
VERTEX
  8
0
 10
108.13348765
 20
87.94675926
  0
VERTEX
  8
0
 10
107.93750000
 20
88.33873457
  0
VERTEX
  8
0
 10
107.74151235
 20
88.73070988
  0
VERTEX
  8
0
 10
107.54552469
 20
89.18801440
  0
VERTEX
  8
0
 10
107.48019547
 20
89.57998971
  0
VERTEX
  8
0
 10
107.28420782
 20
89.97196502
  0
VERTEX
  8
0
 10
107.15354938
 20
90.36394033
  0
VERTEX
  8
0
 10
107.02289095
 20
90.82124486
  0
VERTEX
  8
0
 10
106.82690329
 20
91.27854938
  0
VERTEX
  8
0
 10
106.69624486
 20
91.67052469
  0
VERTEX
  8
0
 10
106.50025720
 20
92.12782922
  0
VERTEX
  8
0
 10
106.43492798
 20
92.58513374
  0
SEQEND
  0
POLYLINE
  8
Default Layer
 66
   1
 39
0.000000
 70
    0
  0
VERTEX
  8
0
 10
140.21013374
 20
130.80272634
  0
VERTEX
  8
0
 10
137.79295267
 20
130.93338477
  0
VERTEX
  8
0
 10
135.37577160
 20
131.39068930
  0
VERTEX
  8
0
 10
133.08924897
 20
131.91332305
  0
VERTEX
  8
0
 10
130.80272634
 20
132.69727366
  0
VERTEX
  8
0
 10
128.58153292
 20
133.61188272
  0
VERTEX
  8
0
 10
126.49099794
 20
134.65715021
  0
VERTEX
  8
0
 10
124.33513374
 20
135.76774691
  0
VERTEX
  8
0
 10
122.24459877
 20
137.00900206
  0
SEQEND
  0
POLYLINE
  8
Default Layer
 66
   1
 39
0.000000
 70
    0
  0
VERTEX
  8
0
 10
120.28472222
 20
130.14943416
  0
VERTEX
  8
0
 10
120.35005144
 20
131.97865226
  0
VERTEX
  8
0
 10
120.67669753
 20
133.61188272
  0
VERTEX
  8
0
 10
121.19933128
 20
135.17978395
  0
VERTEX
  8
0
 10
121.85262346
 20
136.61702675
  0
VERTEX
  8
0
 10
122.70190329
 20
137.79295267
  0
VERTEX
  8
0
 10
123.61651235
 20
138.90354938
  0
VERTEX
  8
0
 10
124.59645062
 20
139.94881687
  0
VERTEX
  8
0
 10
125.70704733
 20
140.73276749
  0
SEQEND
  0
POLYLINE
  8
Default Layer
 66
   1
 39
0.000000
 70
    0
  0
VERTEX
  8
0
 10
55.47813786
 20
163.79398148
  0
VERTEX
  8
0
 10
62.92566872
 20
160.13554527
  0
SEQEND
  0
POLYLINE
  8
Default Layer
 66
   1
 39
0.000000
 70
    1
  0
VERTEX
  8
0
 10
61.94573045
 20
133.35056584
  0
VERTEX
  8
0
 10
60.18184156
 20
130.93338477
  0
VERTEX
  8
0
 10
58.22196502
 20
128.51620370
  0
VERTEX
  8
0
 10
56.19675926
 20
126.09902263
  0
VERTEX
  8
0
 10
53.97556584
 20
123.74717078
  0
VERTEX
  8
0
 10
51.68904321
 20
121.46064815
  0
VERTEX
  8
0
 10
49.33719136
 20
119.37011317
  0
VERTEX
  8
0
 10
46.98533951
 20
117.54089506
  0
VERTEX
  8
0
 10
44.50282922
 20
115.97299383
  0
VERTEX
  8
0
 10
42.02031893
 20
114.79706790
  0
VERTEX
  8
0
 10
39.60313786
 20
113.94778807
  0
VERTEX
  8
0
 10
37.18595679
 20
113.55581276
  0
VERTEX
  8
0
 10
34.76877572
 20
113.62114198
  0
VERTEX
  8
0
 10
32.48225309
 20
114.33976337
  0
VERTEX
  8
0
 10
30.26105967
 20
115.58101852
  0
VERTEX
  8
0
 10
28.10519547
 20
117.54089506
  0
VERTEX
  8
0
 10
26.14531893
 20
120.15406379
  0
VERTEX
  8
0
 10
25.03472222
 20
123.55118313
  0
VERTEX
  8
0
 10
24.25077160
 20
127.53626543
  0
VERTEX
  8
0
 10
24.05478395
 20
131.84799383
  0
VERTEX
  8
0
 10
24.25077160
 20
136.35570988
  0
VERTEX
  8
0
 10
25.10005144
 20
140.99408436
  0
VERTEX
  8
0
 10
26.34130658
 20
145.50180041
  0
VERTEX
  8
0
 10
28.17052469
 20
149.81352881
  0
VERTEX
  8
0
 10
30.52237654
 20
153.66795267
  0
VERTEX
  8
0
 10
34.05015432
 20
156.47710905
  0
VERTEX
  8
0
 10
37.57793210
 20
158.37165638
  0
VERTEX
  8
0
 10
41.17103909
 20
159.41692387
  0
VERTEX
  8
0
 10
44.82947531
 20
159.54758230
  0
VERTEX
  8
0
 10
48.61856996
 20
158.89429012
  0
VERTEX
  8
0
 10
52.66898148
 20
157.45704733
  0
VERTEX
  8
0
 10
56.98070988
 20
155.30118313
  0
VERTEX
  8
0
 10
61.61908436
 20
152.49202675
  0
VERTEX
  8
0
 10
61.09645062
 20
149.02957819
  0
VERTEX
  8
0
 10
51.75437243
 20
149.22556584
  0
VERTEX
  8
0
 10
48.16126543
 20
148.57227366
  0
VERTEX
  8
0
 10
45.61342593
 20
146.80838477
  0
VERTEX
  8
0
 10
44.04552469
 20
144.19521605
  0
VERTEX
  8
0
 10
43.39223251
 20
141.25540123
  0
VERTEX
  8
0
 10
43.71887860
 20
138.31558642
  0
VERTEX
  8
0
 10
44.76414609
 20
135.76774691
  0
VERTEX
  8
0
 10
46.65869342
 20
134.00385802
  0
VERTEX
  8
0
 10
49.20653292
 20
133.48122428
  0
VERTEX
  8
0
 10
61.94573045
 20
133.35056584
  0
SEQEND
  0
POLYLINE
  8
Default Layer
 66
   1
 39
0.000000
 70
    0
  0
VERTEX
  8
0
 10
57.11136831
 20
117.34490741
  0
VERTEX
  8
0
 10
64.23225309
 20
127.60159465
  0
SEQEND
  0
POLYLINE
  8
Default Layer
 66
   1
 39
0.000000
 70
    0
  0
VERTEX
  8
0
 10
87.81610082
 20
186.72453704
  0
VERTEX
  8
0
 10
88.33873457
 20
188.22710905
  0
VERTEX
  8
0
 10
88.99202675
 20
189.59902263
  0
VERTEX
  8
0
 10
89.77597737
 20
190.90560700
  0
VERTEX
  8
0
 10
90.69058642
 20
192.08153292
  0
VERTEX
  8
0
 10
91.73585391
 20
193.12680041
  0
VERTEX
  8
0
 10
92.91177984
 20
194.10673868
  0
VERTEX
  8
0
 10
94.21836420
 20
194.82536008
  0
VERTEX
  8
0
 10
95.78626543
 20
195.41332305
  0
SEQEND
  0
POLYLINE
  8
Default Layer
 66
   1
 39
0.000000
 70
    0
  0
VERTEX
  8
0
 10
110.55066872
 20
189.07638889
  0
VERTEX
  8
0
 10
111.39994856
 20
188.88040123
  0
VERTEX
  8
0
 10
112.24922840
 20
188.55375514
  0
VERTEX
  8
0
 10
113.09850823
 20
188.22710905
  0
VERTEX
  8
0
 10
113.81712963
 20
187.70447531
  0
VERTEX
  8
0
 10
114.47042181
 20
187.11651235
  0
VERTEX
  8
0
 10
115.05838477
 20
186.39789095
  0
VERTEX
  8
0
 10
115.51568930
 20
185.61394033
  0
VERTEX
  8
0
 10
115.90766461
 20
184.63400206
  0
SEQEND
  0
POLYLINE
  8
Default Layer
 66
   1
 39
0.000000
 70
    0
  0
VERTEX
  8
0
 10
115.77700617
 20
155.95447531
  0
VERTEX
  8
0
 10
114.01311728
 20
150.92412551
  0
SEQEND
  0
POLYLINE
  8
Default Layer
 66
   1
 39
0.000000
 70
    1
  0
VERTEX
  8
0
 10
115.84233539
 20
155.75848765
  0
VERTEX
  8
0
 10
116.36496914
 20
157.45704733
  0
VERTEX
  8
0
 10
116.82227366
 20
159.28626543
  0
VERTEX
  8
0
 10
117.14891975
 20
161.24614198
  0
VERTEX
  8
0
 10
117.27957819
 20
163.27134774
  0
VERTEX
  8
0
 10
117.34490741
 20
165.29655350
  0
VERTEX
  8
0
 10
117.34490741
 20
167.38708848
  0
VERTEX
  8
0
 10
117.14891975
 20
169.34696502
  0
VERTEX
  8
0
 10
116.88760288
 20
171.37217078
  0
VERTEX
  8
0
 10
116.49562757
 20
173.20138889
  0
VERTEX
  8
0
 10
115.90766461
 20
174.96527778
  0
VERTEX
  8
0
 10
115.31970165
 20
176.53317901
  0
VERTEX
  8
0
 10
114.40509259
 20
177.97042181
  0
VERTEX
  8
0
 10
113.42515432
 20
179.14634774
  0
VERTEX
  8
0
 10
112.31455761
 20
180.06095679
  0
VERTEX
  8
0
 10
111.07330247
 20
180.77957819
  0
VERTEX
  8
0
 10
109.63605967
 20
181.17155350
  0
VERTEX
  8
0
 10
108.39480453
 20
180.51826132
  0
VERTEX
  8
0
 10
107.34953704
 20
179.53832305
  0
VERTEX
  8
0
 10
106.56558642
 20
178.29706790
  0
VERTEX
  8
0
 10
106.10828189
 20
176.72916667
  0
VERTEX
  8
0
 10
105.84696502
 20
174.96527778
  0
VERTEX
  8
0
 10
105.78163580
 20
173.07073045
  0
VERTEX
  8
0
 10
105.84696502
 20
171.04552469
  0
VERTEX
  8
0
 10
105.97762346
 20
168.95498971
  0
VERTEX
  8
0
 10
106.30426955
 20
166.86445473
  0
VERTEX
  8
0
 10
106.50025720
 20
164.83924897
  0
VERTEX
  8
0
 10
106.89223251
 20
162.94470165
  0
VERTEX
  8
0
 10
107.15354938
 20
161.18081276
  0
VERTEX
  8
0
 10
107.41486626
 20
159.67824074
  0
VERTEX
  8
0
 10
107.54552469
 20
158.37165638
  0
VERTEX
  8
0
 10
107.61085391
 20
157.39171811
  0
VERTEX
  8
0
 10
107.48019547
 20
156.80375514
  0
VERTEX
  8
0
 10
109.11342593
 20
157.13040123
  0
VERTEX
  8
0
 10
110.55066872
 20
157.32638889
  0
VERTEX
  8
0
 10
111.92258230
 20
157.26105967
  0
VERTEX
  8
0
 10
113.03317901
 20
157.13040123
  0
VERTEX
  8
0
 10
113.94778807
 20
156.86908436
  0
VERTEX
  8
0
 10
114.79706790
 20
156.54243827
  0
VERTEX
  8
0
 10
115.38503086
 20
156.15046296
  0
VERTEX
  8
0
 10
115.84233539
 20
155.75848765
  0
SEQEND
  0
POLYLINE
  8
Default Layer
 66
   1
 39
0.000000
 70
    1
  0
VERTEX
  8
0
 10
110.15869342
 20
165.23122428
  0
VERTEX
  8
0
 10
110.55066872
 20
165.16589506
  0
VERTEX
  8
0
 10
110.94264403
 20
165.10056584
  0
VERTEX
  8
0
 10
111.46527778
 20
164.77391975
  0
VERTEX
  8
0
 10
111.92258230
 20
164.38194444
  0
VERTEX
  8
0
 10
112.18389918
 20
163.92463992
  0
VERTEX
  8
0
 10
112.24922840
 20
163.40200617
  0
VERTEX
  8
0
 10
112.18389918
 20
162.81404321
  0
VERTEX
  8
0
 10
111.92258230
 20
162.35673868
  0
VERTEX
  8
0
 10
111.46527778
 20
161.96476337
  0
VERTEX
  8
0
 10
110.94264403
 20
161.63811728
  0
VERTEX
  8
0
 10
110.55066872
 20
161.57278807
  0
VERTEX
  8
0
 10
110.15869342
 20
161.50745885
  0
VERTEX
  8
0
 10
109.63605967
 20
161.57278807
  0
VERTEX
  8
0
 10
109.24408436
 20
161.63811728
  0
VERTEX
  8
0
 10
108.72145062
 20
161.96476337
  0
VERTEX
  8
0
 10
108.26414609
 20
162.35673868
  0
VERTEX
  8
0
 10
108.06815844
 20
162.81404321
  0
VERTEX
  8
0
 10
107.93750000
 20
163.40200617
  0
VERTEX
  8
0
 10
108.06815844
 20
163.92463992
  0
VERTEX
  8
0
 10
108.26414609
 20
164.38194444
  0
VERTEX
  8
0
 10
108.72145062
 20
164.77391975
  0
VERTEX
  8
0
 10
109.24408436
 20
165.10056584
  0
VERTEX
  8
0
 10
109.63605967
 20
165.16589506
  0
VERTEX
  8
0
 10
110.15869342
 20
165.23122428
  0
SEQEND
  0
POLYLINE
  8
Default Layer
 66
   1
 39
0.000000
 70
    1
  0
VERTEX
  8
0
 10
91.67052469
 20
142.30066872
  0
VERTEX
  8
0
 10
90.88657407
 20
144.52186214
  0
VERTEX
  8
0
 10
90.16795267
 20
147.13503086
  0
VERTEX
  8
0
 10
89.57998971
 20
150.07484568
  0
VERTEX
  8
0
 10
89.05735597
 20
153.34130658
  0
VERTEX
  8
0
 10
88.66538066
 20
156.67309671
  0
VERTEX
  8
0
 10
88.46939300
 20
160.13554527
  0
VERTEX
  8
0
 10
88.40406379
 20
163.59799383
  0
VERTEX
  8
0
 10
88.46939300
 20
167.06044239
  0
VERTEX
  8
0
 10
88.79603909
 20
170.32690329
  0
VERTEX
  8
0
 10
89.25334362
 20
173.46270576
  0
VERTEX
  8
0
 10
90.03729424
 20
176.33719136
  0
VERTEX
  8
0
 10
90.95190329
 20
178.95036008
  0
VERTEX
  8
0
 10
92.12782922
 20
181.10622428
  0
VERTEX
  8
0
 10
93.69573045
 20
182.80478395
  0
VERTEX
  8
0
 10
95.45961934
 20
183.98070988
  0
VERTEX
  8
0
 10
97.55015432
 20
184.56867284
  0
VERTEX
  8
0
 10
99.64068930
 20
184.17669753
  0
VERTEX
  8
0
 10
101.40457819
 20
183.39274691
  0
VERTEX
  8
0
 10
102.84182099
 20
182.08616255
  0
VERTEX
  8
0
 10
104.14840535
 20
180.58359053
  0
VERTEX
  8
0
 10
105.06301440
 20
178.68904321
  0
VERTEX
  8
0
 10
105.78163580
 20
176.66383745
  0
VERTEX
  8
0
 10
106.30426955
 20
174.44264403
  0
VERTEX
  8
0
 10
106.69624486
 20
172.15612140
  0
VERTEX
  8
0
 10
106.95756173
 20
169.67361111
  0
VERTEX
  8
0
 10
107.15354938
 20
167.32175926
  0
VERTEX
  8
0
 10
107.21887860
 20
165.03523663
  0
VERTEX
  8
0
 10
107.28420782
 20
162.81404321
  0
VERTEX
  8
0
 10
107.34953704
 20
160.85416667
  0
VERTEX
  8
0
 10
107.34953704
 20
159.15560700
  0
VERTEX
  8
0
 10
107.48019547
 20
157.71836420
  0
VERTEX
  8
0
 10
107.74151235
 20
156.67309671
  0
VERTEX
  8
0
 10
106.30426955
 20
156.28112140
  0
VERTEX
  8
0
 10
104.93235597
 20
155.95447531
  0
VERTEX
  8
0
 10
103.62577160
 20
155.49717078
  0
VERTEX
  8
0
 10
102.44984568
 20
155.03986626
  0
VERTEX
  8
0
 10
101.27391975
 20
154.45190329
  0
VERTEX
  8
0
 10
100.22865226
 20
153.86394033
  0
VERTEX
  8
0
 10
99.18338477
 20
153.14531893
  0
VERTEX
  8
0
 10
98.20344650
 20
152.36136831
  0
VERTEX
  8
0
 10
97.22350823
 20
151.51208848
  0
VERTEX
  8
0
 10
96.30889918
 20
150.53215021
  0
VERTEX
  8
0
 10
95.45961934
 20
149.42155350
  0
VERTEX
  8
0
 10
94.67566872
 20
148.31095679
  0
VERTEX
  8
0
 10
93.89171811
 20
146.93904321
  0
VERTEX
  8
0
 10
93.10776749
 20
145.50180041
  0
VERTEX
  8
0
 10
92.38914609
 20
143.99922840
  0
VERTEX
  8
0
 10
91.67052469
 20
142.30066872
  0
SEQEND
  0
POLYLINE
  8
Default Layer
 66
   1
 39
0.000000
 70
    1
  0
VERTEX
  8
0
 10
99.57536008
 20
161.31147119
  0
VERTEX
  8
0
 10
99.57536008
 20
161.50745885
  0
VERTEX
  8
0
 10
99.51003086
 20
161.76877572
  0
VERTEX
  8
0
 10
99.44470165
 20
162.03009259
  0
VERTEX
  8
0
 10
99.37937243
 20
162.29140947
  0
VERTEX
  8
0
 10
99.24871399
 20
162.48739712
  0
VERTEX
  8
0
 10
99.11805556
 20
162.68338477
  0
VERTEX
  8
0
 10
98.98739712
 20
162.94470165
  0
VERTEX
  8
0
 10
98.79140947
 20
163.14068930
  0
VERTEX
  8
0
 10
98.59542181
 20
163.33667695
  0
VERTEX
  8
0
 10
98.39943416
 20
163.46733539
  0
VERTEX
  8
0
 10
98.13811728
 20
163.59799383
  0
VERTEX
  8
0
 10
97.87680041
 20
163.79398148
  0
VERTEX
  8
0
 10
97.68081276
 20
163.85931070
  0
VERTEX
  8
0
 10
97.41949588
 20
163.98996914
  0
VERTEX
  8
0
 10
97.09284979
 20
164.05529835
  0
VERTEX
  8
0
 10
96.83153292
 20
164.12062757
  0
VERTEX
  8
0
 10
96.50488683
 20
164.12062757
  0
VERTEX
  8
0
 10
96.24356996
 20
164.18595679
  0
VERTEX
  8
0
 10
95.98225309
 20
164.12062757
  0
VERTEX
  8
0
 10
95.65560700
 20
164.12062757
  0
VERTEX
  8
0
 10
95.39429012
 20
164.05529835
  0
VERTEX
  8
0
 10
95.13297325
 20
163.98996914
  0
VERTEX
  8
0
 10
94.87165638
 20
163.85931070
  0
VERTEX
  8
0
 10
94.61033951
 20
163.79398148
  0
VERTEX
  8
0
 10
94.34902263
 20
163.59799383
  0
VERTEX
  8
0
 10
94.15303498
 20
163.46733539
  0
VERTEX
  8
0
 10
93.89171811
 20
163.33667695
  0
VERTEX
  8
0
 10
93.69573045
 20
163.14068930
  0
VERTEX
  8
0
 10
93.49974280
 20
162.94470165
  0
VERTEX
  8
0
 10
93.36908436
 20
162.68338477
  0
VERTEX
  8
0
 10
93.23842593
 20
162.48739712
  0
VERTEX
  8
0
 10
93.10776749
 20
162.29140947
  0
VERTEX
  8
0
 10
93.04243827
 20
162.03009259
  0
VERTEX
  8
0
 10
92.97710905
 20
161.76877572
  0
VERTEX
  8
0
 10
92.97710905
 20
161.50745885
  0
VERTEX
  8
0
 10
92.91177984
 20
161.31147119
  0
VERTEX
  8
0
 10
92.97710905
 20
161.11548354
  0
VERTEX
  8
0
 10
92.97710905
 20
160.78883745
  0
VERTEX
  8
0
 10
93.04243827
 20
160.59284979
  0
VERTEX
  8
0
 10
93.10776749
 20
160.33153292
  0
VERTEX
  8
0
 10
93.23842593
 20
160.13554527
  0
VERTEX
  8
0
 10
93.36908436
 20
159.87422840
  0
VERTEX
  8
0
 10
93.49974280
 20
159.67824074
  0
VERTEX
  8
0
 10
93.69573045
 20
159.48225309
  0
VERTEX
  8
0
 10
93.89171811
 20
159.28626543
  0
VERTEX
  8
0
 10
94.15303498
 20
159.15560700
  0
VERTEX
  8
0
 10
94.34902263
 20
159.02494856
  0
VERTEX
  8
0
 10
94.61033951
 20
158.89429012
  0
VERTEX
  8
0
 10
94.87165638
 20
158.76363169
  0
VERTEX
  8
0
 10
95.13297325
 20
158.63297325
  0
VERTEX
  8
0
 10
95.39429012
 20
158.56764403
  0
VERTEX
  8
0
 10
95.65560700
 20
158.50231481
  0
VERTEX
  8
0
 10
95.98225309
 20
158.50231481
  0
VERTEX
  8
0
 10
96.24356996
 20
158.50231481
  0
VERTEX
  8
0
 10
96.50488683
 20
158.50231481
  0
VERTEX
  8
0
 10
96.83153292
 20
158.50231481
  0
VERTEX
  8
0
 10
97.09284979
 20
158.56764403
  0
VERTEX
  8
0
 10
97.41949588
 20
158.63297325
  0
VERTEX
  8
0
 10
97.68081276
 20
158.76363169
  0
VERTEX
  8
0
 10
97.87680041
 20
158.89429012
  0
VERTEX
  8
0
 10
98.13811728
 20
159.02494856
  0
VERTEX
  8
0
 10
98.39943416
 20
159.15560700
  0
VERTEX
  8
0
 10
98.59542181
 20
159.28626543
  0
VERTEX
  8
0
 10
98.79140947
 20
159.48225309
  0
VERTEX
  8
0
 10
98.98739712
 20
159.67824074
  0
VERTEX
  8
0
 10
99.11805556
 20
159.87422840
  0
VERTEX
  8
0
 10
99.24871399
 20
160.13554527
  0
VERTEX
  8
0
 10
99.37937243
 20
160.33153292
  0
VERTEX
  8
0
 10
99.44470165
 20
160.59284979
  0
VERTEX
  8
0
 10
99.51003086
 20
160.78883745
  0
VERTEX
  8
0
 10
99.57536008
 20
161.11548354
  0
VERTEX
  8
0
 10
99.57536008
 20
161.31147119
  0
SEQEND
  0
POLYLINE
  8
Default Layer
 66
   1
 39
0.000000
 70
    1
  0
VERTEX
  8
0
 10
182.02083333
 20
186.00591564
  0
VERTEX
  8
0
 10
181.69418724
 20
186.26723251
  0
VERTEX
  8
0
 10
180.51826132
 20
186.92052469
  0
VERTEX
  8
0
 10
179.73431070
 20
187.24717078
  0
VERTEX
  8
0
 10
178.88503086
 20
187.44315844
  0
VERTEX
  8
0
 10
177.97042181
 20
187.57381687
  0
VERTEX
  8
0
 10
177.05581276
 20
187.57381687
  0
VERTEX
  8
0
 10
176.14120370
 20
187.50848765
  0
VERTEX
  8
0
 10
175.22659465
 20
187.31250000
  0
VERTEX
  8
0
 10
174.24665638
 20
187.05118313
  0
VERTEX
  8
0
 10
173.26671811
 20
186.72453704
  0
VERTEX
  8
0
 10
172.35210905
 20
186.26723251
  0
VERTEX
  8
0
 10
171.43750000
 20
185.67926955
  0
VERTEX
  8
0
 10
170.52289095
 20
185.02597737
  0
VERTEX
  8
0
 10
169.67361111
 20
184.37268519
  0
VERTEX
  8
0
 10
168.82433128
 20
183.58873457
  0
VERTEX
  8
0
 10
168.04038066
 20
182.73945473
  0
VERTEX
  8
0
 10
167.71373457
 20
182.28215021
  0
VERTEX
  8
0
 10
167.32175926
 20
181.69418724
  0
VERTEX
  8
0
 10
166.66846708
 20
180.77957819
  0
VERTEX
  8
0
 10
166.14583333
 20
179.79963992
  0
VERTEX
  8
0
 10
165.68852881
 20
178.81970165
  0
VERTEX
  8
0
 10
165.29655350
 20
177.83976337
  0
VERTEX
  8
0
 10
165.03523663
 20
176.79449588
  0
VERTEX
  8
0
 10
164.83924897
 20
175.81455761
  0
VERTEX
  8
0
 10
164.77391975
 20
174.83461934
  0
VERTEX
  8
0
 10
164.77391975
 20
173.85468107
  0
VERTEX
  8
0
 10
164.83924897
 20
172.87474280
  0
VERTEX
  8
0
 10
165.03523663
 20
172.02546296
  0
VERTEX
  8
0
 10
165.29655350
 20
171.17618313
  0
VERTEX
  8
0
 10
165.62319959
 20
170.32690329
  0
VERTEX
  8
0
 10
166.08050412
 20
169.60828189
  0
VERTEX
  8
0
 10
166.66846708
 20
168.88966049
  0
VERTEX
  8
0
 10
167.25643004
 20
168.30169753
  0
VERTEX
  8
0
 10
167.58307613
 20
168.04038066
  0
VERTEX
  8
0
 10
168.69367284
 20
167.38708848
  0
VERTEX
  8
0
 10
169.54295267
 20
166.99511317
  0
VERTEX
  8
0
 10
170.39223251
 20
166.79912551
  0
VERTEX
  8
0
 10
171.30684156
 20
166.73379630
  0
VERTEX
  8
0
 10
172.15612140
 20
166.66846708
  0
VERTEX
  8
0
 10
173.13605967
 20
166.79912551
  0
VERTEX
  8
0
 10
174.05066872
 20
166.92978395
  0
VERTEX
  8
0
 10
175.03060700
 20
167.19110082
  0
VERTEX
  8
0
 10
175.94521605
 20
167.58307613
  0
VERTEX
  8
0
 10
176.92515432
 20
168.04038066
  0
VERTEX
  8
0
 10
177.83976337
 20
168.56301440
  0
VERTEX
  8
0
 10
178.68904321
 20
169.15097737
  0
VERTEX
  8
0
 10
179.60365226
 20
169.93492798
  0
VERTEX
  8
0
 10
180.38760288
 20
170.65354938
  0
VERTEX
  8
0
 10
181.23688272
 20
171.63348765
  0
VERTEX
  8
0
 10
181.56352881
 20
172.02546296
  0
VERTEX
  8
0
 10
181.89017490
 20
172.48276749
  0
VERTEX
  8
0
 10
182.54346708
 20
173.46270576
  0
VERTEX
  8
0
 10
183.06610082
 20
174.44264403
  0
VERTEX
  8
0
 10
183.58873457
 20
175.42258230
  0
VERTEX
  8
0
 10
183.91538066
 20
176.46784979
  0
VERTEX
  8
0
 10
184.17669753
 20
177.44778807
  0
VERTEX
  8
0
 10
184.37268519
 20
178.42772634
  0
VERTEX
  8
0
 10
184.50334362
 20
179.47299383
  0
VERTEX
  8
0
 10
184.50334362
 20
180.45293210
  0
VERTEX
  8
0
 10
184.43801440
 20
181.36754115
  0
VERTEX
  8
0
 10
184.24202675
 20
182.28215021
  0
VERTEX
  8
0
 10
183.98070988
 20
183.13143004
  0
VERTEX
  8
0
 10
183.65406379
 20
183.91538066
  0
VERTEX
  8
0
 10
183.19675926
 20
184.69933128
  0
VERTEX
  8
0
 10
182.67412551
 20
185.41795267
  0
VERTEX
  8
0
 10
182.02083333
 20
186.00591564
  0
SEQEND
  0
POLYLINE
  8
Default Layer
 66
   1
 39
0.000000
 70
    0
  0
VERTEX
  8
0
 10
126.22968107
 20
80.89120370
  0
VERTEX
  8
0
 10
126.36033951
 20
85.98688272
  0
VERTEX
  8
0
 10
126.49099794
 20
90.88657407
  0
VERTEX
  8
0
 10
126.68698560
 20
95.65560700
  0
VERTEX
  8
0
 10
127.01363169
 20
100.16332305
  0
VERTEX
  8
0
 10
127.40560700
 20
104.67103909
  0
VERTEX
  8
0
 10
127.86291152
 20
108.98276749
  0
VERTEX
  8
0
 10
128.51620370
 20
113.29449588
  0
VERTEX
  8
0
 10
129.16949588
 20
117.41023663
  0
VERTEX
  8
0
 10
129.95344650
 20
121.46064815
  0
VERTEX
  8
0
 10
130.86805556
 20
125.51105967
  0
VERTEX
  8
0
 10
131.91332305
 20
129.49614198
  0
VERTEX
  8
0
 10
132.95859053
 20
133.41589506
  0
VERTEX
  8
0
 10
134.13451646
 20
137.40097737
  0
VERTEX
  8
0
 10
135.44110082
 20
141.25540123
  0
VERTEX
  8
0
 10
136.81301440
 20
145.24048354
  0
VERTEX
  8
0
 10
138.38091564
 20
149.09490741
  0
VERTEX
  8
0
 10
136.09439300
 20
146.54706790
  0
VERTEX
  8
0
 10
133.93852881
 20
143.80324074
  0
VERTEX
  8
0
 10
132.10931070
 20
140.86342593
  0
VERTEX
  8
0
 10
130.28009259
 20
137.72762346
  0
VERTEX
  8
0
 10
128.64686214
 20
134.52649177
  0
VERTEX
  8
0
 10
127.14429012
 20
131.12937243
  0
VERTEX
  8
0
 10
125.70704733
 20
127.66692387
  0
VERTEX
  8
0
 10
124.40046296
 20
124.13914609
  0
VERTEX
  8
0
 10
123.15920782
 20
120.48070988
  0
VERTEX
  8
0
 10
122.04861111
 20
116.82227366
  0
VERTEX
  8
0
 10
121.06867284
 20
113.09850823
  0
VERTEX
  8
0
 10
119.95807613
 20
109.37474280
  0
VERTEX
  8
0
 10
119.04346708
 20
105.65097737
  0
VERTEX
  8
0
 10
118.12885802
 20
101.92721193
  0
VERTEX
  8
0
 10
117.21424897
 20
98.33410494
  0
VERTEX
  8
0
 10
116.29963992
 20
94.67566872
  0
SEQEND
  0
POLYLINE
  8
Default Layer
 66
   1
 39
0.000000
 70
    1
  0
VERTEX
  8
0
 10
166.66846708
 20
176.99048354
  0
VERTEX
  8
0
 10
167.64840535
 20
179.73431070
  0
VERTEX
  8
0
 10
168.88966049
 20
181.69418724
  0
VERTEX
  8
0
 10
169.80426955
 20
182.93544239
  0
VERTEX
  8
0
 10
171.24151235
 20
184.11136831
  0
VERTEX
  8
0
 10
173.07073045
 20
185.22196502
  0
VERTEX
  8
0
 10
174.96527778
 20
185.94058642
  0
VERTEX
  8
0
 10
176.66383745
 20
186.33256173
  0
VERTEX
  8
0
 10
178.75437243
 20
186.33256173
  0
VERTEX
  8
0
 10
180.71424897
 20
185.61394033
  0
VERTEX
  8
0
 10
181.89017490
 20
184.56867284
  0
VERTEX
  8
0
 10
179.99562757
 20
185.22196502
  0
VERTEX
  8
0
 10
177.64377572
 20
185.67926955
  0
VERTEX
  8
0
 10
176.66383745
 20
185.61394033
  0
VERTEX
  8
0
 10
174.70396091
 20
185.02597737
  0
VERTEX
  8
0
 10
173.20138889
 20
184.11136831
  0
VERTEX
  8
0
 10
171.43750000
 20
182.67412551
  0
VERTEX
  8
0
 10
170.19624486
 20
180.58359053
  0
VERTEX
  8
0
 10
169.02031893
 20
178.23173868
  0
VERTEX
  8
0
 10
168.69367284
 20
176.99048354
  0
VERTEX
  8
0
 10
166.53780864
 20
176.92515432
  0
VERTEX
  8
0
 10
166.66846708
 20
176.99048354
  0
SEQEND
  0
POLYLINE
  8
Default Layer
 66
   1
 39
0.000000
 70
    0
  0
VERTEX
  8
0
 10
119.50077160
 20
155.23585391
  0
VERTEX
  8
0
 10
123.94315844
 20
160.98482510
  0
VERTEX
  8
0
 10
130.60673868
 20
168.95498971
  0
VERTEX
  8
0
 10
135.83307613
 20
173.98533951
  0
VERTEX
  8
0
 10
140.07947531
 20
176.72916667
  0
VERTEX
  8
0
 10
144.26054527
 20
178.95036008
  0
VERTEX
  8
0
 10
148.18029835
 20
179.99562757
  0
VERTEX
  8
0
 10
152.75334362
 20
180.19161523
  0
VERTEX
  8
0
 10
156.93441358
 20
179.27700617
  0
SEQEND
  0
POLYLINE
  8
Default Layer
 66
   1
 39
0.000000
 70
    0
  0
VERTEX
  8
0
 10
4.32536008
 20
140.14480453
  0
VERTEX
  8
0
 10
5.37062757
 20
146.54706790
  0
VERTEX
  8
0
 10
7.33050412
 20
152.62268519
  0
VERTEX
  8
0
 10
10.00900206
 20
157.32638889
  0
VERTEX
  8
0
 10
14.38605967
 20
161.37680041
  0
VERTEX
  8
0
 10
18.04449588
 20
163.79398148
  0
VERTEX
  8
0
 10
22.74819959
 20
165.42721193
  0
VERTEX
  8
0
 10
27.38657407
 20
165.75385802
  0
VERTEX
  8
0
 10
32.74356996
 20
165.75385802
  0
VERTEX
  8
0
 10
39.79912551
 20
165.75385802
  0
VERTEX
  8
0
 10
46.13605967
 20
165.10056584
  0
VERTEX
  8
0
 10
53.45293210
 20
163.40200617
  0
VERTEX
  8
0
 10
57.82998971
 20
161.37680041
  0
SEQEND
  0
POLYLINE
  8
Default Layer
 66
   1
 39
0.000000
 70
    0
  0
VERTEX
  8
0
 10
59.13657407
 20
165.42721193
  0
VERTEX
  8
0
 10
61.81507202
 20
169.15097737
  0
VERTEX
  8
0
 10
65.14686214
 20
172.15612140
  0
VERTEX
  8
0
 10
69.52391975
 20
174.50797325
  0
VERTEX
  8
0
 10
74.22762346
 20
175.87988683
  0
VERTEX
  8
0
 10
79.91126543
 20
176.20653292
  0
VERTEX
  8
0
 10
83.89634774
 20
175.87988683
  0
SEQEND
  0
POLYLINE
  8
Default Layer
 66
   1
 39
0.000000
 70
    0
  0
VERTEX
  8
0
 10
124.72710905
 20
61.29243827
  0
VERTEX
  8
0
 10
129.88811728
 20
63.70961934
  0
VERTEX
  8
0
 10
135.63708848
 20
67.30272634
  0
VERTEX
  8
0
 10
140.79809671
 20
70.89583333
  0
VERTEX
  8
0
 10
147.46167695
 20
76.25282922
  0
VERTEX
  8
0
 10
153.01466049
 20
81.02186214
  0
VERTEX
  8
0
 10
157.71836420
 20
85.59490741
  0
VERTEX
  8
0
 10
162.48739712
 20
89.64531893
  0
VERTEX
  8
0
 10
166.47247942
 20
92.97710905
  0
VERTEX
  8
0
 10
170.39223251
 20
95.59027778
  0
VERTEX
  8
0
 10
173.39737654
 20
97.02752058
  0
VERTEX
  8
0
 10
176.33719136
 20
97.94212963
  0
VERTEX
  8
0
 10
179.08101852
 20
98.39943416
  0
VERTEX
  8
0
 10
182.41280864
 20
98.39943416
  0
VERTEX
  8
0
 10
186.20190329
 20
97.94212963
  0
VERTEX
  8
0
 10
189.53369342
 20
96.83153292
  0
VERTEX
  8
0
 10
192.47350823
 20
94.93698560
  0
VERTEX
  8
0
 10
194.89068930
 20
92.97710905
  0
VERTEX
  8
0
 10
196.45859053
 20
90.82124486
  0
SEQEND
  0
POLYLINE
  8
Default Layer
 66
   1
 39
0.000000
 70
    0
  0
VERTEX
  8
0
 10
171.17618313
 20
63.25231481
  0
VERTEX
  8
0
 10
173.72402263
 20
62.72968107
  0
VERTEX
  8
0
 10
175.94521605
 20
62.53369342
  0
VERTEX
  8
0
 10
179.08101852
 20
62.72968107
  0
VERTEX
  8
0
 10
182.41280864
 20
63.44830247
  0
VERTEX
  8
0
 10
185.80992798
 20
64.88554527
  0
VERTEX
  8
0
 10
187.96579218
 20
66.71476337
  0
VERTEX
  8
0
 10
190.51363169
 20
69.45859053
  0
SEQEND
  0
POLYLINE
  8
Default Layer
 66
   1
 39
0.000000
 70
    0
  0
VERTEX
  8
0
 10
33.00488683
 20
20.00437243
  0
VERTEX
  8
0
 10
37.51260288
 20
24.51208848
  0
VERTEX
  8
0
 10
43.00025720
 20
28.10519547
  0
VERTEX
  8
0
 10
47.83461934
 20
29.73842593
  0
VERTEX
  8
0
 10
55.28215021
 20
30.39171811
  0
VERTEX
  8
0
 10
61.74974280
 20
30.39171811
  0
VERTEX
  8
0
 10
68.21733539
 20
29.41177984
  0
VERTEX
  8
0
 10
73.70498971
 20
28.10519547
  0
SEQEND
  0
POLYLINE
  8
Default Layer
 66
   1
 39
0.000000
 70
    0
  0
VERTEX
  8
0
 10
124.46579218
 20
31.69830247
  0
VERTEX
  8
0
 10
131.58667695
 20
35.29140947
  0
VERTEX
  8
0
 10
137.66229424
 20
37.90457819
  0
VERTEX
  8
0
 10
142.82330247
 20
39.21116255
  0
VERTEX
  8
0
 10
148.70293210
 20
39.86445473
  0
VERTEX
  8
0
 10
154.12525720
 20
39.53780864
  0
VERTEX
  8
0
 10
159.67824074
 20
37.90457819
  0
VERTEX
  8
0
 10
165.16589506
 20
34.63811728
  0
SEQEND
  0
ENDSEC
  0
EOF
