0
SECTION
2
HEADER
9
$EXTMIN
10
1.034671
20
15.191109
9
$EXTMAX
10
19.157888
20
33.313835
0
ENDSEC
0
SECTION
2
TABLES
0
TABLE
2
LTYPE
70
1
0
LTYPE
2
0
70
0
3
Solid Line
72
65
73
0
40
0.0
0
ENDTAB
0
TABLE
2
LAYER
70
1
0
LAYER
2
1
70
0
62
7
6
0
0
ENDTAB
0
ENDSEC
0
SECTION
2
BLOCKS
0
ENDSEC
0
SECTION
2
ENTITIES
0
LINE
8
1
10
12.434421
20
17.843031
11
12.435930
21
17.851305
0
ARC
8
1
10
8.608913
20
18.095257
40
3.834784
50
-3.647364
51
4.168177
0
LINE
8
1
10
12.433555
20
18.373985
11
12.431787
21
18.408125
0
LINE
8
1
10
12.431787
20
18.408125
11
12.400539
21
18.991514
0
LINE
8
1
10
12.400539
20
18.991514
11
13.299173
21
19.023573
0
ARC
8
1
10
13.230417
20
24.048248
40
5.025146
50
-89.216029
51
-81.041796
0
ARC
8
1
10
13.912886
20
19.799923
40
0.722481
50
-82.042707
51
-57.081350
0
ARC
8
1
10
14.056128
20
19.520699
40
0.411451
50
-52.690522
51
-27.421914
0
LINE
8
1
10
14.421348
20
19.331209
11
14.437923
21
19.357655
0
LINE
8
1
10
14.437923
20
19.357655
11
14.455952
21
19.386967
0
LINE
8
1
10
14.455952
20
19.386967
11
14.475374
21
19.419037
0
LINE
8
1
10
14.475374
20
19.419037
11
14.496133
21
19.453756
0
LINE
8
1
10
14.496133
20
19.453756
11
14.518167
21
19.491016
0
ARC
8
1
10
-32.684811
20
46.509468
40
54.388582
50
-29.786334
51
-26.750950
0
ARC
8
1
10
14.432888
20
22.803263
40
1.643815
50
-28.122140
51
-19.254925
0
LINE
8
1
10
15.984749
20
22.261179
11
15.984933
21
22.266632
0
LINE
8
1
10
15.984933
20
22.266632
11
15.975170
21
22.267151
0
ARC
8
1
10
20.372759
20
5.811219
40
17.033393
50
104.961772
51
107.184015
0
LINE
8
1
10
15.340386
20
22.084255
11
15.308507
21
22.075876
0
ARC
8
1
10
14.144381
20
27.160900
40
5.216575
50
-88.439100
51
-77.105346
0
ARC
8
1
10
13.918853
20
30.263531
40
8.325391
50
-97.369352
51
-87.469165
0
LINE
8
1
10
12.850995
20
22.006908
11
12.335436
21
22.077576
0
LINE
8
1
10
12.335436
20
22.077576
11
12.334097
21
22.534739
0
LINE
8
1
10
12.334097
20
22.534739
11
12.332759
21
22.991903
0
ARC
8
1
10
74.554115
20
-12.613040
40
71.688278
50
150.220500
51
151.810074
0
LINE
8
1
10
11.369031
20
21.252197
11
10.911345
21
20.401466
0
LINE
8
1
10
10.911345
20
20.401466
11
11.651172
21
19.116755
0
ARC
8
1
10
38.090569
20
34.047993
40
30.364183
50
-150.545082
51
-147.783622
0
ARC
8
1
10
12.508022
20
17.920231
40
0.122460
50
-150.698535
51
-131.412837
0
LINE
8
1
10
12.427017
20
17.828390
11
12.434421
21
17.843031
0
LINE
8
1
10
10.112999
20
20.607155
11
10.112999
21
22.056112
0
LINE
8
1
10
10.112999
20
22.056112
11
8.340445
21
22.041803
0
LINE
8
1
10
8.340445
20
22.041803
11
6.567890
21
22.027496
0
LINE
8
1
10
6.567890
20
22.027496
11
6.368998
21
21.509602
0
ARC
8
1
10
8.873311
20
20.503393
40
2.698896
50
158.110221
51
179.815028
0
ARC
8
1
10
7.573360
20
20.502831
40
1.398963
50
179.620108
51
-152.128854
0
ARC
8
1
10
7.725761
20
20.686140
40
1.621924
50
-148.919565
51
-129.950582
0
ARC
8
1
10
7.324299
20
20.288769
40
1.060815
50
-127.108567
51
-101.185239
0
LINE
8
1
10
7.118521
20
19.248104
11
7.153734
21
19.240374
0
LINE
8
1
10
7.153734
20
19.240374
11
7.190180
21
19.233089
0
ARC
8
1
10
8.009213
20
24.282076
40
5.114986
50
-99.214104
51
-90.330605
0
ARC
8
1
10
8.594772
20
44.792850
40
25.633056
50
-91.374960
51
-89.897487
0
LINE
8
1
10
8.640634
20
19.159836
11
10.112999
21
19.158197
0
LINE
8
1
10
10.112999
20
19.158197
11
10.112999
21
20.607155
0
LINE
8
1
10
5.895770
20
20.603714
11
5.901550
21
20.606476
0
ARC
8
1
10
5.718648
20
20.784256
40
0.255066
50
-44.186450
51
-14.208611
0
ARC
8
1
10
4.008822
20
21.373510
40
2.062795
50
-18.421722
51
-7.995586
0
ARC
8
1
10
9.580020
20
20.222507
40
3.632716
50
155.284706
51
166.239777
0
ARC
8
1
10
17.610168
20
16.674770
40
12.411350
50
147.414754
51
155.906681
0
LINE
8
1
10
7.152475
20
23.358950
11
7.456310
21
23.837118
0
LINE
8
1
10
7.456310
20
23.837118
11
7.825454
21
23.608974
0
ARC
8
1
10
9.425747
20
26.073156
40
2.938219
50
-123.000564
51
-113.815624
0
LINE
8
1
10
8.239309
20
23.385128
11
8.247185
21
23.382761
0
LINE
8
1
10
8.247185
20
23.382761
11
8.258625
21
23.380831
0
LINE
8
1
10
8.258625
20
23.380831
11
8.262032
21
23.387682
0
LINE
8
1
10
8.262032
20
23.387682
11
8.260392
21
23.396088
0
LINE
8
1
10
8.260392
20
23.396088
11
8.256618
21
23.407663
0
LINE
8
1
10
8.256618
20
23.407663
11
8.250776
21
23.422300
0
LINE
8
1
10
8.250776
20
23.422300
11
8.242937
21
23.439894
0
LINE
8
1
10
8.242937
20
23.439894
11
8.233169
21
23.460329
0
LINE
8
1
10
8.233169
20
23.460329
11
8.221540
21
23.483501
0
LINE
8
1
10
8.221540
20
23.483501
11
8.208122
21
23.509300
0
LINE
8
1
10
8.208122
20
23.509300
11
8.192983
21
23.537617
0
LINE
8
1
10
8.192983
20
23.537617
11
8.176190
21
23.568340
0
LINE
8
1
10
8.176190
20
23.568340
11
8.157813
21
23.601362
0
ARC
8
1
10
-18.378490
20
8.113208
40
30.725532
50
30.270360
51
34.585706
0
ARC
8
1
10
5.558675
20
24.660370
40
1.626169
50
33.343245
51
43.083892
0
LINE
8
1
10
6.746354
20
25.771154
11
6.739957
21
25.775814
0
ARC
8
1
10
6.526254
20
25.285618
40
0.534753
50
66.445043
51
87.509732
0
ARC
8
1
10
5.924275
20
18.104620
40
7.740537
50
85.367090
51
92.243880
0
ARC
8
1
10
6.110043
20
4.916080
40
20.928852
50
91.338374
51
92.390693
0
LINE
8
1
10
5.237030
20
25.826715
11
3.861401
21
25.769951
0
LINE
8
1
10
3.861401
20
25.769951
11
4.320274
21
25.512817
0
ARC
8
1
10
3.174656
20
23.362501
40
2.436452
50
49.933598
51
61.952776
0
ARC
8
1
10
4.658975
20
25.126038
40
0.131403
50
24.690654
51
50.283820
0
LINE
8
1
10
4.778365
20
25.180927
11
4.778711
21
25.171247
0
LINE
8
1
10
4.778711
20
25.171247
11
4.777415
21
25.165104
0
LINE
8
1
10
4.777415
20
25.165104
11
4.775279
21
25.157427
0
LINE
8
1
10
4.775279
20
25.157427
11
4.772321
21
25.148252
0
LINE
8
1
10
4.772321
20
25.148252
11
4.768563
21
25.137627
0
LINE
8
1
10
4.768563
20
25.137627
11
4.764023
21
25.125586
0
ARC
8
1
10
-5.305371
20
29.569733
40
11.006505
50
-28.780134
51
-23.814359
0
ARC
8
1
10
7.376157
20
22.628960
40
3.450226
50
151.587114
51
163.643304
0
ARC
8
1
10
4.476651
20
23.471504
40
0.430873
50
162.565640
51
-172.898911
0
LINE
8
1
10
4.049083
20
23.418240
11
4.052206
21
23.408436
0
LINE
8
1
10
4.052206
20
23.408436
11
4.058818
21
23.392405
0
LINE
8
1
10
4.058818
20
23.392405
11
4.067439
21
23.373491
0
LINE
8
1
10
4.067439
20
23.373491
11
4.078006
21
23.351786
0
LINE
8
1
10
4.078006
20
23.351786
11
4.090457
21
23.327391
0
LINE
8
1
10
4.090457
20
23.327391
11
4.104726
21
23.300404
0
LINE
8
1
10
4.104726
20
23.300404
11
4.120751
21
23.270916
0
LINE
8
1
10
4.120751
20
23.270916
11
4.138468
21
23.239029
0
LINE
8
1
10
4.138468
20
23.239029
11
4.157814
21
23.204840
0
LINE
8
1
10
4.157814
20
23.204840
11
4.178724
21
23.168446
0
LINE
8
1
10
4.178724
20
23.168446
11
4.201136
21
23.129942
0
ARC
8
1
10
38.260990
20
43.707401
40
39.793285
50
-148.861479
51
-144.953605
0
ARC
8
1
10
7.414328
20
22.025438
40
2.089207
50
-145.978722
51
-137.332709
0
LINE
8
1
10
5.878130
20
20.609499
11
5.895770
21
20.603714
0
LINE
8
1
10
15.094333
20
26.597631
11
15.086219
21
26.594217
0
LINE
8
1
10
15.086219
20
26.594217
11
15.076525
21
26.589855
0
LINE
8
1
10
15.076525
20
26.589855
11
15.065280
21
26.584564
0
ARC
8
1
10
27.086569
20
3.918836
40
25.656318
50
117.940265
51
121.031761
0
LINE
8
1
10
13.860398
20
25.903263
11
12.672176
21
25.203161
0
LINE
8
1
10
12.672176
20
25.203161
11
13.348092
21
23.986410
0
ARC
8
1
10
107.288147
20
75.834068
40
107.298246
50
-151.104689
51
-150.157397
0
LINE
8
1
10
14.218108
20
22.440422
11
14.232701
21
22.417768
0
LINE
8
1
10
14.232701
20
22.417768
11
14.247587
21
22.396111
0
ARC
8
1
10
14.675748
20
22.675022
40
0.510992
50
-146.919048
51
-92.662603
0
LINE
8
1
10
14.652010
20
22.164581
11
14.679824
21
22.162724
0
ARC
8
1
10
14.695059
20
23.999840
40
1.837179
50
-90.475132
51
-74.658025
0
LINE
8
1
10
15.181139
20
22.228130
11
15.226115
21
22.239145
0
LINE
8
1
10
15.226115
20
22.239145
11
15.272470
21
22.250978
0
LINE
8
1
10
15.272470
20
22.250978
11
15.320231
21
22.263628
0
LINE
8
1
10
15.320231
20
22.263628
11
15.369431
21
22.277090
0
ARC
8
1
10
14.935836
20
23.975048
40
1.752446
50
-75.674949
51
-47.208909
0
ARC
8
1
10
15.194853
20
23.652935
40
1.340419
50
-45.980149
51
-3.606370
0
ARC
8
1
10
15.352287
20
23.729012
40
1.191178
50
-7.738321
51
23.692841
0
ARC
8
1
10
10.159463
20
21.543320
40
6.825129
50
22.977716
51
29.215273
0
ARC
8
1
10
-9.876287
20
11.128414
40
29.403686
50
27.872084
51
31.430501
0
ARC
8
1
10
14.579268
20
26.107418
40
0.725963
50
29.181026
51
42.841113
0
LINE
8
1
10
15.111574
20
26.601049
11
15.108834
21
26.601992
0
LINE
8
1
10
15.108834
20
26.601992
11
15.094333
21
26.597631
0
LINE
8
1
10
8.534190
20
25.834789
11
8.538494
21
25.840729
0
LINE
8
1
10
8.538494
20
25.840729
11
8.543758
21
25.848322
0
LINE
8
1
10
8.543758
20
25.848322
11
8.549965
21
25.857538
0
ARC
8
1
10
-52.072475
20
63.275036
40
71.240083
50
-31.683792
51
-29.986256
0
ARC
8
1
10
40.450092
20
9.696308
40
35.676520
50
146.495878
51
149.748911
0
ARC
8
1
10
13.268100
20
27.672766
40
3.088006
50
141.630927
51
146.221718
0
LINE
8
1
10
10.847014
20
29.589567
11
11.158903
21
29.964405
0
LINE
8
1
10
11.158903
20
29.964405
11
9.441390
21
29.882620
0
ARC
8
1
10
11.008764
20
-8.505495
40
38.420099
50
92.338067
51
94.885544
0
ARC
8
1
10
7.773199
20
29.315071
40
0.461392
50
94.537909
51
104.526604
0
LINE
8
1
10
7.657468
20
29.761713
11
7.651819
21
29.757120
0
LINE
8
1
10
7.651819
20
29.757120
11
7.644161
21
29.748863
0
LINE
8
1
10
7.644161
20
29.748863
11
7.634564
21
29.737062
0
LINE
8
1
10
7.634564
20
29.737062
11
7.623097
21
29.721842
0
LINE
8
1
10
7.623097
20
29.721842
11
7.609829
21
29.703321
0
LINE
8
1
10
7.609829
20
29.703321
11
7.594831
21
29.681618
0
LINE
8
1
10
7.594831
20
29.681618
11
7.578171
21
29.656858
0
LINE
8
1
10
7.578171
20
29.656858
11
7.559918
21
29.629158
0
LINE
8
1
10
7.559918
20
29.629158
11
7.540142
21
29.598639
0
LINE
8
1
10
7.540142
20
29.598639
11
7.518911
21
29.565422
0
ARC
8
1
10
45.059761
20
6.474712
40
44.073759
50
148.405062
51
151.808576
0
ARC
8
1
10
7.402615
20
26.637999
40
1.358334
50
151.026399
51
159.271004
0
LINE
8
1
10
6.132213
20
27.118778
11
6.131817
21
27.107790
0
LINE
8
1
10
6.131817
20
27.107790
11
6.136175
21
27.104683
0
LINE
8
1
10
6.136175
20
27.104683
11
6.144308
21
27.099583
0
ARC
8
1
10
54.985611
20
115.602592
40
101.085388
50
-118.892562
51
-117.368082
0
LINE
8
1
10
8.516134
20
25.831532
11
8.523561
21
25.828312
0
LINE
8
1
10
8.523561
20
25.828312
11
8.534190
21
25.834789
0
ARC
8
1
10
11.212710
20
27.041702
40
0.268185
50
-57.498397
51
-29.711472
0
ARC
8
1
10
9.974355
20
28.661814
40
2.306509
50
-62.769319
51
-53.175046
0
LINE
8
1
10
11.029754
20
26.610931
11
10.613048
21
26.390944
0
LINE
8
1
10
10.613048
20
26.390944
11
12.113193
21
26.387930
0
LINE
8
1
10
12.113193
20
26.387930
11
13.613338
21
26.384916
0
LINE
8
1
10
13.613338
20
26.384916
11
14.307851
21
27.591238
0
ARC
8
1
10
-6.878086
20
40.032181
40
24.568699
50
-30.422582
51
-27.175255
0
ARC
8
1
10
14.813203
20
28.906332
40
0.190716
50
-29.880987
51
-9.175331
0
LINE
8
1
10
15.001478
20
28.875921
11
14.994559
21
28.880676
0
ARC
8
1
10
15.010471
20
28.587133
40
0.293974
50
93.102789
51
118.469947
0
ARC
8
1
10
16.614172
20
25.021126
40
4.203241
50
114.511706
51
121.649495
0
ARC
8
1
10
12.561810
20
31.656807
40
3.572048
50
-66.411662
51
-58.867236
0
LINE
8
1
10
13.991210
20
28.383224
11
13.981332
21
28.381315
0
LINE
8
1
10
13.981332
20
28.381315
11
13.973174
21
28.384489
0
LINE
8
1
10
13.973174
20
28.384489
11
13.967722
21
28.388393
0
LINE
8
1
10
13.967722
20
28.388393
11
13.961397
21
28.393787
0
LINE
8
1
10
13.961397
20
28.393787
11
13.954226
21
28.400627
0
LINE
8
1
10
13.954226
20
28.400627
11
13.946243
21
28.408875
0
ARC
8
1
10
17.257984
20
31.100311
40
4.267489
50
-149.268636
51
-140.899392
0
LINE
8
1
10
13.589767
20
28.919567
11
13.571864
21
28.948032
0
LINE
8
1
10
13.571864
20
28.948032
11
13.553865
21
28.975971
0
LINE
8
1
10
13.553865
20
28.975971
11
13.535769
21
29.003387
0
LINE
8
1
10
13.535769
20
29.003387
11
13.517567
21
29.030291
0
LINE
8
1
10
13.517567
20
29.030291
11
13.499249
21
29.056684
0
ARC
8
1
10
11.932823
20
28.001907
40
1.888451
50
33.954957
51
68.546918
0
ARC
8
1
10
11.863910
20
28.077057
40
1.845988
50
65.701920
51
88.336028
0
ARC
8
1
10
11.909638
20
28.757542
40
1.164751
50
89.612637
51
133.630914
0
ARC
8
1
10
12.521623
20
28.097422
40
2.064859
50
133.283074
51
150.566394
0
LINE
8
1
10
10.723284
20
29.112123
11
10.435951
21
28.621826
0
LINE
8
1
10
10.435951
20
28.621826
11
10.941206
21
27.809933
0
ARC
8
1
10
1.401580
20
21.732864
40
11.310846
50
27.636260
51
32.498530
0
ARC
8
1
10
11.261309
20
26.886389
40
0.185684
50
6.926347
51
30.087763
0
CIRCLE
8
1
10
10.096279
20
24.252634
40
9.061609
0
ENDSEC
0
EOF
