  0
SECTION
  2
HEADER
  9
$ACADVER
  1
AC1009
  9
$EXTMIN
 10
61.96532922
 20
80.32283951
 30
0.0
  9
$EXTMAX
 10
138.03467078
 20
119.67716049
 30
0.0
  0
ENDSEC
  0
SECTION
  2
TABLES
  0
TABLE
  2
LAYER
 70
1
 0
LAYER
 2
Default Layer
 70
0
 62
1
 6
CONTINUOUS
 0
ENDTAB
 0
ENDSEC
  0
SECTION
  2
ENTITIES
  0
POLYLINE
  8
Default Layer
 66
   1
 39
0.000000
 70
    1
  0
VERTEX
  8
0
 10
74.57386831
 20
110.26975309
  0
VERTEX
  8
0
 10
74.63919753
 20
110.50493827
  0
VERTEX
  8
0
 10
74.63919753
 20
111.09290123
  0
VERTEX
  8
0
 10
74.69146091
 20
111.51100823
  0
VERTEX
  8
0
 10
74.69146091
 20
112.58240741
  0
VERTEX
  8
0
 10
74.57386831
 20
112.81759259
  0
VERTEX
  8
0
 10
74.39094650
 20
112.81759259
  0
VERTEX
  8
0
 10
74.39094650
 20
113.64074074
  0
VERTEX
  8
0
 10
74.39094650
 20
113.28796296
  0
VERTEX
  8
0
 10
74.33868313
 20
113.28796296
  0
VERTEX
  8
0
 10
74.10349794
 20
113.52314815
  0
VERTEX
  8
0
 10
73.98590535
 20
113.64074074
  0
VERTEX
  8
0
 10
73.98590535
 20
113.82366255
  0
VERTEX
  8
0
 10
73.92057613
 20
113.94125514
  0
VERTEX
  8
0
 10
73.92057613
 20
114.05884774
  0
VERTEX
  8
0
 10
73.80298354
 20
114.29403292
  0
VERTEX
  8
0
 10
73.80298354
 20
114.47695473
  0
VERTEX
  8
0
 10
73.63312757
 20
114.52921811
  0
VERTEX
  8
0
 10
73.50246914
 20
114.64681070
  0
VERTEX
  8
0
 10
73.45020576
 20
114.76440329
  0
VERTEX
  8
0
 10
73.33261317
 20
114.88199588
  0
VERTEX
  8
0
 10
73.26728395
 20
115.06491770
  0
VERTEX
  8
0
 10
73.14969136
 20
115.18251029
  0
VERTEX
  8
0
 10
73.03209877
 20
115.30010288
  0
VERTEX
  8
0
 10
72.91450617
 20
115.30010288
  0
VERTEX
  8
0
 10
72.91450617
 20
115.41769547
  0
VERTEX
  8
0
 10
72.74465021
 20
115.95339506
  0
VERTEX
  8
0
 10
72.44413580
 20
116.18858025
  0
VERTEX
  8
0
 10
72.32654321
 20
116.18858025
  0
VERTEX
  8
0
 10
72.32654321
 20
116.30617284
  0
VERTEX
  8
0
 10
72.26121399
 20
116.37150206
  0
VERTEX
  8
0
 10
72.26121399
 20
116.48909465
  0
VERTEX
  8
0
 10
72.14362140
 20
116.72427984
  0
VERTEX
  8
0
 10
72.14362140
 20
116.84187243
  0
VERTEX
  8
0
 10
72.09135802
 20
116.95946502
  0
VERTEX
  8
0
 10
72.09135802
 20
117.01172840
  0
VERTEX
  8
0
 10
71.90843621
 20
117.01172840
  0
VERTEX
  8
0
 10
71.60792181
 20
117.19465021
  0
VERTEX
  8
0
 10
71.37273663
 20
117.42983539
  0
VERTEX
  8
0
 10
71.25514403
 20
117.84794239
  0
VERTEX
  8
0
 10
70.36666667
 20
117.84794239
  0
VERTEX
  8
0
 10
70.36666667
 20
118.01779835
  0
VERTEX
  8
0
 10
70.24907407
 20
118.31831276
  0
VERTEX
  8
0
 10
70.19681070
 20
118.43590535
  0
VERTEX
  8
0
 10
70.01388889
 20
118.55349794
  0
VERTEX
  8
0
 10
69.72644033
 20
118.61882716
  0
VERTEX
  8
0
 10
69.42592593
 20
118.61882716
  0
VERTEX
  8
0
 10
69.19074074
 20
118.67109053
  0
VERTEX
  8
0
 10
68.89022634
 20
118.67109053
  0
VERTEX
  8
0
 10
68.72037037
 20
118.73641975
  0
VERTEX
  8
0
 10
68.72037037
 20
118.90627572
  0
VERTEX
  8
0
 10
68.35452675
 20
119.08919753
  0
VERTEX
  8
0
 10
67.88415638
 20
119.20679012
  0
VERTEX
  8
0
 10
67.46604938
 20
119.27211934
  0
VERTEX
  8
0
 10
67.06100823
 20
119.27211934
  0
VERTEX
  8
0
 10
66.17253086
 20
119.15452675
  0
VERTEX
  8
0
 10
65.81975309
 20
119.15452675
  0
VERTEX
  8
0
 10
65.28405350
 20
119.08919753
  0
VERTEX
  8
0
 10
64.51316872
 20
118.67109053
  0
VERTEX
  8
0
 10
63.92520576
 20
118.26604938
  0
VERTEX
  8
0
 10
63.74228395
 20
118.01779835
  0
VERTEX
  8
0
 10
63.55936214
 20
117.66502058
  0
VERTEX
  8
0
 10
63.15432099
 20
117.01172840
  0
VERTEX
  8
0
 10
62.85380658
 20
116.54135802
  0
VERTEX
  8
0
 10
62.73621399
 20
116.30617284
  0
VERTEX
  8
0
 10
62.61862140
 20
116.18858025
  0
VERTEX
  8
0
 10
62.50102881
 20
115.88806584
  0
VERTEX
  8
0
 10
62.31810700
 20
115.60061728
  0
VERTEX
  8
0
 10
62.14825103
 20
114.94732510
  0
VERTEX
  8
0
 10
61.96532922
 20
113.99351852
  0
VERTEX
  8
0
 10
61.96532922
 20
111.92911523
  0
VERTEX
  8
0
 10
62.20051440
 20
111.81152263
  0
VERTEX
  8
0
 10
62.43569959
 20
111.57633745
  0
VERTEX
  8
0
 10
62.85380658
 20
110.92304527
  0
VERTEX
  8
0
 10
62.97139918
 20
110.57026749
  0
VERTEX
  8
0
 10
63.20658436
 20
110.33508230
  0
VERTEX
  8
0
 10
63.44176955
 20
110.15216049
  0
VERTEX
  8
0
 10
63.67695473
 20
110.03456790
  0
VERTEX
  8
0
 10
63.67695473
 20
109.38127572
  0
VERTEX
  8
0
 10
63.74228395
 20
109.38127572
  0
VERTEX
  8
0
 10
63.85987654
 20
109.32901235
  0
VERTEX
  8
0
 10
63.92520576
 20
109.32901235
  0
VERTEX
  8
0
 10
63.97746914
 20
109.26368313
  0
VERTEX
  8
0
 10
64.09506173
 20
109.26368313
  0
VERTEX
  8
0
 10
64.16039095
 20
109.19835391
  0
VERTEX
  8
0
 10
64.21265432
 20
109.19835391
  0
VERTEX
  8
0
 10
64.33024691
 20
109.14609053
  0
VERTEX
  8
0
 10
64.33024691
 20
109.02849794
  0
VERTEX
  8
0
 10
64.44783951
 20
108.91090535
  0
VERTEX
  8
0
 10
64.44783951
 20
108.79331276
  0
VERTEX
  8
0
 10
64.51316872
 20
108.67572016
  0
VERTEX
  8
0
 10
64.51316872
 20
108.55812757
  0
VERTEX
  8
0
 10
65.16646091
 20
108.55812757
  0
VERTEX
  8
0
 10
65.33631687
 20
108.32294239
  0
VERTEX
  8
0
 10
65.28405350
 20
108.44053498
  0
VERTEX
  8
0
 10
65.28405350
 20
108.32294239
  0
VERTEX
  8
0
 10
65.33631687
 20
108.19228395
  0
VERTEX
  8
0
 10
65.33631687
 20
107.90483539
  0
VERTEX
  8
0
 10
65.63683128
 20
107.90483539
  0
VERTEX
  8
0
 10
65.87201646
 20
107.78724280
  0
VERTEX
  8
0
 10
66.64290123
 20
107.48672840
  0
VERTEX
  8
0
 10
66.87808642
 20
107.31687243
  0
VERTEX
  8
0
 10
67.23086420
 20
107.06862140
  0
VERTEX
  8
0
 10
68.00174897
 20
106.95102881
  0
VERTEX
  8
0
 10
68.41985597
 20
106.95102881
  0
VERTEX
  8
0
 10
68.83796296
 20
106.89876543
  0
VERTEX
  8
0
 10
70.36666667
 20
106.89876543
  0
VERTEX
  8
0
 10
70.54958848
 20
107.18621399
  0
VERTEX
  8
0
 10
71.25514403
 20
107.60432099
  0
VERTEX
  8
0
 10
71.55565844
 20
107.78724280
  0
VERTEX
  8
0
 10
71.79084362
 20
107.90483539
  0
VERTEX
  8
0
 10
71.90843621
 20
108.07469136
  0
VERTEX
  8
0
 10
72.02602881
 20
108.19228395
  0
VERTEX
  8
0
 10
72.09135802
 20
108.37520576
  0
VERTEX
  8
0
 10
72.09135802
 20
108.55812757
  0
VERTEX
  8
0
 10
72.74465021
 20
108.55812757
  0
VERTEX
  8
0
 10
72.86224280
 20
109.02849794
  0
VERTEX
  8
0
 10
73.45020576
 20
109.91697531
  0
VERTEX
  8
0
 10
73.56779835
 20
110.26975309
  0
VERTEX
  8
0
 10
74.57386831
 20
110.26975309
  0
SEQEND
  0
POLYLINE
  8
Default Layer
 66
   1
 39
0.000000
 70
    1
  0
VERTEX
  8
0
 10
65.87201646
 20
119.32438272
  0
VERTEX
  8
0
 10
68.41985597
 20
119.32438272
  0
VERTEX
  8
0
 10
68.72037037
 20
119.15452675
  0
VERTEX
  8
0
 10
69.24300412
 20
119.03693416
  0
VERTEX
  8
0
 10
69.59578189
 20
118.78868313
  0
VERTEX
  8
0
 10
71.55565844
 20
117.54742798
  0
VERTEX
  8
0
 10
71.97376543
 20
117.54742798
  0
VERTEX
  8
0
 10
71.97376543
 20
117.01172840
  0
VERTEX
  8
0
 10
72.32654321
 20
116.84187243
  0
VERTEX
  8
0
 10
73.98590535
 20
115.36543210
  0
VERTEX
  8
0
 10
73.98590535
 20
115.18251029
  0
VERTEX
  8
0
 10
74.27335391
 20
114.12417695
  0
VERTEX
  8
0
 10
74.45627572
 20
113.94125514
  0
VERTEX
  8
0
 10
74.45627572
 20
113.40555556
  0
VERTEX
  8
0
 10
74.63919753
 20
113.23569959
  0
VERTEX
  8
0
 10
74.63919753
 20
112.70000000
  0
VERTEX
  8
0
 10
74.80905350
 20
112.51707819
  0
VERTEX
  8
0
 10
74.80905350
 20
111.04063786
  0
VERTEX
  8
0
 10
75.88045267
 20
111.04063786
  0
VERTEX
  8
0
 10
76.05030864
 20
111.22355967
  0
VERTEX
  8
0
 10
77.00411523
 20
111.04063786
  0
VERTEX
  8
0
 10
77.12170782
 20
111.22355967
  0
VERTEX
  8
0
 10
77.29156379
 20
111.22355967
  0
VERTEX
  8
0
 10
77.53981481
 20
111.45874486
  0
VERTEX
  8
0
 10
81.85154321
 20
111.04063786
  0
VERTEX
  8
0
 10
82.20432099
 20
110.85771605
  0
VERTEX
  8
0
 10
82.74002058
 20
110.50493827
  0
VERTEX
  8
0
 10
83.45864198
 20
110.50493827
  0
VERTEX
  8
0
 10
83.62849794
 20
110.68786008
  0
VERTEX
  8
0
 10
83.98127572
 20
110.68786008
  0
VERTEX
  8
0
 10
83.98127572
 20
110.85771605
  0
VERTEX
  8
0
 10
84.69989712
 20
113.58847737
  0
VERTEX
  8
0
 10
85.40545267
 20
114.99958848
  0
VERTEX
  8
0
 10
85.40545267
 20
115.18251029
  0
VERTEX
  8
0
 10
85.75823045
 20
115.77047325
  0
VERTEX
  8
0
 10
85.94115226
 20
116.13631687
  0
VERTEX
  8
0
 10
86.52911523
 20
116.60668724
  0
VERTEX
  8
0
 10
86.82962963
 20
117.19465021
  0
VERTEX
  8
0
 10
87.24773663
 20
117.54742798
  0
VERTEX
  8
0
 10
87.77037037
 20
118.08312757
  0
VERTEX
  8
0
 10
88.30606996
 20
118.08312757
  0
VERTEX
  8
0
 10
88.84176955
 20
118.43590535
  0
VERTEX
  8
0
 10
89.25987654
 20
118.61882716
  0
VERTEX
  8
0
 10
89.42973251
 20
118.78868313
  0
VERTEX
  8
0
 10
90.31820988
 20
118.78868313
  0
VERTEX
  8
0
 10
90.50113169
 20
119.03693416
  0
VERTEX
  8
0
 10
91.74238683
 20
119.03693416
  0
VERTEX
  8
0
 10
91.91224280
 20
119.15452675
  0
VERTEX
  8
0
 10
92.98364198
 20
119.15452675
  0
VERTEX
  8
0
 10
93.33641975
 20
119.03693416
  0
VERTEX
  8
0
 10
94.05504115
 20
118.78868313
  0
VERTEX
  8
0
 10
94.40781893
 20
118.61882716
  0
VERTEX
  8
0
 10
95.64907407
 20
117.66502058
  0
VERTEX
  8
0
 10
95.64907407
 20
117.54742798
  0
VERTEX
  8
0
 10
96.06718107
 20
117.19465021
  0
VERTEX
  8
0
 10
96.06718107
 20
117.01172840
  0
VERTEX
  8
0
 10
96.18477366
 20
116.84187243
  0
VERTEX
  8
0
 10
96.18477366
 20
115.36543210
  0
VERTEX
  8
0
 10
96.06718107
 20
114.99958848
  0
VERTEX
  8
0
 10
94.40781893
 20
111.45874486
  0
VERTEX
  8
0
 10
92.02983539
 20
108.37520576
  0
VERTEX
  8
0
 10
91.91224280
 20
108.37520576
  0
VERTEX
  8
0
 10
90.67098765
 20
107.48672840
  0
VERTEX
  8
0
 10
91.74238683
 20
107.48672840
  0
VERTEX
  8
0
 10
91.91224280
 20
107.66965021
  0
VERTEX
  8
0
 10
96.06718107
 20
107.13395062
  0
VERTEX
  8
0
 10
96.35462963
 20
106.89876543
  0
VERTEX
  8
0
 10
96.95565844
 20
106.71584362
  0
VERTEX
  8
0
 10
97.30843621
 20
106.54598765
  0
VERTEX
  8
0
 10
101.56790123
 20
104.23333333
  0
VERTEX
  8
0
 10
101.73775720
 20
104.05041152
  0
VERTEX
  8
0
 10
102.50864198
 20
103.52777778
  0
VERTEX
  8
0
 10
102.99207819
 20
102.80915638
  0
VERTEX
  8
0
 10
103.58004115
 20
102.27345679
  0
VERTEX
  8
0
 10
104.11574074
 20
101.14979424
  0
VERTEX
  8
0
 10
104.40318930
 20
100.97993827
  0
VERTEX
  8
0
 10
104.40318930
 20
100.67942387
  0
VERTEX
  8
0
 10
104.63837449
 20
100.50956790
  0
VERTEX
  8
0
 10
104.63837449
 20
100.26131687
  0
VERTEX
  8
0
 10
104.82129630
 20
100.09146091
  0
VERTEX
  8
0
 10
105.00421811
 20
99.37283951
  0
VERTEX
  8
0
 10
105.17407407
 20
99.20298354
  0
VERTEX
  8
0
 10
105.17407407
 20
98.66728395
  0
VERTEX
  8
0
 10
105.35699588
 20
98.49742798
  0
VERTEX
  8
0
 10
105.35699588
 20
97.77880658
  0
VERTEX
  8
0
 10
105.52685185
 20
97.60895062
  0
VERTEX
  8
0
 10
105.52685185
 20
97.24310700
  0
VERTEX
  8
0
 10
105.64444444
 20
97.00792181
  0
VERTEX
  8
0
 10
105.64444444
 20
96.18477366
  0
VERTEX
  8
0
 10
105.89269547
 20
95.94958848
  0
VERTEX
  8
0
 10
105.89269547
 20
94.34248971
  0
VERTEX
  8
0
 10
106.06255144
 20
94.17263374
  0
VERTEX
  8
0
 10
106.06255144
 20
92.33034979
  0
VERTEX
  8
0
 10
106.24547325
 20
92.21275720
  0
VERTEX
  8
0
 10
106.59825103
 20
91.27201646
  0
VERTEX
  8
0
 10
106.95102881
 20
91.08909465
  0
VERTEX
  8
0
 10
108.37520576
 20
90.20061728
  0
VERTEX
  8
0
 10
108.54506173
 20
90.20061728
  0
VERTEX
  8
0
 10
112.33415638
 20
89.49506173
  0
VERTEX
  8
0
 10
112.70000000
 20
89.31213992
  0
VERTEX
  8
0
 10
116.48909465
 20
88.95936214
  0
VERTEX
  8
0
 10
120.26512346
 20
88.78950617
  0
VERTEX
  8
0
 10
124.00195473
 20
88.78950617
  0
VERTEX
  8
0
 10
127.67345679
 20
88.25380658
  0
VERTEX
  8
0
 10
128.14382716
 20
88.07088477
  0
VERTEX
  8
0
 10
135.30390947
 20
86.29393004
  0
VERTEX
  8
0
 10
135.72201646
 20
86.29393004
  0
VERTEX
  8
0
 10
136.07479424
 20
86.05874486
  0
VERTEX
  8
0
 10
137.66882716
 20
84.63456790
  0
VERTEX
  8
0
 10
137.66882716
 20
84.46471193
  0
VERTEX
  8
0
 10
137.85174897
 20
84.28179012
  0
VERTEX
  8
0
 10
137.85174897
 20
84.11193416
  0
VERTEX
  8
0
 10
138.03467078
 20
83.87674897
  0
VERTEX
  8
0
 10
138.03467078
 20
83.04053498
  0
VERTEX
  8
0
 10
137.85174897
 20
82.62242798
  0
VERTEX
  8
0
 10
136.96327160
 20
81.56409465
  0
VERTEX
  8
0
 10
136.07479424
 20
81.56409465
  0
VERTEX
  8
0
 10
135.90493827
 20
81.38117284
  0
VERTEX
  8
0
 10
134.95113169
 20
81.21131687
  0
VERTEX
  8
0
 10
134.76820988
 20
81.09372428
  0
VERTEX
  8
0
 10
132.11584362
 20
81.09372428
  0
VERTEX
  8
0
 10
131.93292181
 20
80.91080247
  0
VERTEX
  8
0
 10
131.04444444
 20
80.91080247
  0
VERTEX
  8
0
 10
130.80925926
 20
80.67561728
  0
VERTEX
  8
0
 10
129.56800412
 20
80.91080247
  0
VERTEX
  8
0
 10
129.38508230
 20
80.67561728
  0
VERTEX
  8
0
 10
128.91471193
 20
80.91080247
  0
VERTEX
  8
0
 10
128.67952675
 20
80.67561728
  0
VERTEX
  8
0
 10
128.14382716
 20
80.67561728
  0
VERTEX
  8
0
 10
127.96090535
 20
80.49269547
  0
VERTEX
  8
0
 10
127.25534979
 20
80.32283951
  0
VERTEX
  8
0
 10
126.90257202
 20
80.49269547
  0
VERTEX
  8
0
 10
123.81903292
 20
81.09372428
  0
VERTEX
  8
0
 10
123.81903292
 20
81.38117284
  0
VERTEX
  8
0
 10
125.24320988
 20
81.98220165
  0
VERTEX
  8
0
 10
125.47839506
 20
82.15205761
  0
VERTEX
  8
0
 10
126.01409465
 20
82.15205761
  0
VERTEX
  8
0
 10
126.19701646
 20
82.33497942
  0
VERTEX
  8
0
 10
128.67952675
 20
82.33497942
  0
VERTEX
  8
0
 10
128.91471193
 20
82.45257202
  0
VERTEX
  8
0
 10
129.56800412
 20
82.33497942
  0
VERTEX
  8
0
 10
129.73786008
 20
82.45257202
  0
VERTEX
  8
0
 10
131.22736626
 20
82.45257202
  0
VERTEX
  8
0
 10
131.39722222
 20
82.62242798
  0
VERTEX
  8
0
 10
131.58014403
 20
82.62242798
  0
VERTEX
  8
0
 10
131.75000000
 20
83.04053498
  0
VERTEX
  8
0
 10
132.11584362
 20
83.04053498
  0
VERTEX
  8
0
 10
132.28569959
 20
82.80534979
  0
VERTEX
  8
0
 10
132.63847737
 20
82.80534979
  0
VERTEX
  8
0
 10
132.82139918
 20
83.04053498
  0
VERTEX
  8
0
 10
133.05658436
 20
83.04053498
  0
VERTEX
  8
0
 10
133.17417695
 20
83.22345679
  0
VERTEX
  8
0
 10
133.52695473
 20
83.87674897
  0
VERTEX
  8
0
 10
133.17417695
 20
83.87674897
  0
VERTEX
  8
0
 10
133.17417695
 20
84.28179012
  0
VERTEX
  8
0
 10
133.05658436
 20
84.46471193
  0
VERTEX
  8
0
 10
132.63847737
 20
85.00041152
  0
VERTEX
  8
0
 10
130.33888889
 20
85.00041152
  0
VERTEX
  8
0
 10
129.38508230
 20
85.23559671
  0
VERTEX
  8
0
 10
129.21522634
 20
85.00041152
  0
VERTEX
  8
0
 10
128.67952675
 20
85.35318930
  0
VERTEX
  8
0
 10
128.49660494
 20
85.35318930
  0
VERTEX
  8
0
 10
126.36687243
 20
85.52304527
  0
VERTEX
  8
0
 10
126.36687243
 20
85.88888889
  0
VERTEX
  8
0
 10
126.36687243
 20
85.52304527
  0
VERTEX
  8
0
 10
126.01409465
 20
85.52304527
  0
VERTEX
  8
0
 10
125.24320988
 20
85.70596708
  0
VERTEX
  8
0
 10
125.06028807
 20
85.70596708
  0
VERTEX
  8
0
 10
124.00195473
 20
85.88888889
  0
VERTEX
  8
0
 10
123.81903292
 20
85.70596708
  0
VERTEX
  8
0
 10
121.68930041
 20
85.70596708
  0
VERTEX
  8
0
 10
121.51944444
 20
85.52304527
  0
VERTEX
  8
0
 10
120.44804527
 20
85.70596708
  0
VERTEX
  8
0
 10
120.26512346
 20
85.52304527
  0
VERTEX
  8
0
 10
117.01172840
 20
85.52304527
  0
VERTEX
  8
0
 10
116.84187243
 20
85.35318930
  0
VERTEX
  8
0
 10
114.47695473
 20
85.70596708
  0
VERTEX
  8
0
 10
114.29403292
 20
85.52304527
  0
VERTEX
  8
0
 10
113.99351852
 20
85.70596708
  0
VERTEX
  8
0
 10
113.82366255
 20
85.52304527
  0
VERTEX
  8
0
 10
113.05277778
 20
85.52304527
  0
VERTEX
  8
0
 10
107.48672840
 20
86.29393004
  0
VERTEX
  8
0
 10
107.30380658
 20
86.05874486
  0
VERTEX
  8
0
 10
105.17407407
 20
86.41152263
  0
VERTEX
  8
0
 10
104.82129630
 20
86.59444444
  0
VERTEX
  8
0
 10
103.34485597
 20
86.77736626
  0
VERTEX
  8
0
 10
103.16193416
 20
86.59444444
  0
VERTEX
  8
0
 10
102.27345679
 20
86.41152263
  0
VERTEX
  8
0
 10
102.10360082
 20
86.29393004
  0
VERTEX
  8
0
 10
101.73775720
 20
85.70596708
  0
VERTEX
  8
0
 10
101.21512346
 20
85.88888889
  0
VERTEX
  8
0
 10
99.43816872
 20
86.05874486
  0
VERTEX
  8
0
 10
99.20298354
 20
85.88888889
  0
VERTEX
  8
0
 10
96.06718107
 20
86.05874486
  0
VERTEX
  8
0
 10
95.88425926
 20
85.88888889
  0
VERTEX
  8
0
 10
91.15442387
 20
86.05874486
  0
VERTEX
  8
0
 10
90.97150206
 20
85.88888889
  0
VERTEX
  8
0
 10
90.31820988
 20
85.70596708
  0
VERTEX
  8
0
 10
89.90010288
 20
85.88888889
  0
VERTEX
  8
0
 10
89.01162551
 20
85.52304527
  0
VERTEX
  8
0
 10
88.84176955
 20
85.35318930
  0
VERTEX
  8
0
 10
87.88796296
 20
85.35318930
  0
VERTEX
  8
0
 10
87.77037037
 20
85.23559671
  0
VERTEX
  8
0
 10
86.64670782
 20
85.52304527
  0
VERTEX
  8
0
 10
86.52911523
 20
85.52304527
  0
VERTEX
  8
0
 10
85.28786008
 20
86.41152263
  0
VERTEX
  8
0
 10
85.28786008
 20
87.71810700
  0
VERTEX
  8
0
 10
85.40545267
 20
88.07088477
  0
VERTEX
  8
0
 10
85.94115226
 20
88.78950617
  0
VERTEX
  8
0
 10
85.75823045
 20
88.78950617
  0
VERTEX
  8
0
 10
83.98127572
 20
89.14228395
  0
VERTEX
  8
0
 10
83.81141975
 20
88.95936214
  0
VERTEX
  8
0
 10
83.09279835
 20
88.95936214
  0
VERTEX
  8
0
 10
83.09279835
 20
88.78950617
  0
VERTEX
  8
0
 10
82.92294239
 20
87.30000000
  0
VERTEX
  8
0
 10
83.09279835
 20
87.13014403
  0
VERTEX
  8
0
 10
82.03446502
 20
85.23559671
  0
VERTEX
  8
0
 10
81.85154321
 20
85.23559671
  0
VERTEX
  8
0
 10
81.68168724
 20
85.00041152
  0
VERTEX
  8
0
 10
75.88045267
 20
85.00041152
  0
VERTEX
  8
0
 10
75.88045267
 20
85.35318930
  0
VERTEX
  8
0
 10
75.69753086
 20
85.52304527
  0
VERTEX
  8
0
 10
75.69753086
 20
85.88888889
  0
VERTEX
  8
0
 10
75.88045267
 20
86.29393004
  0
VERTEX
  8
0
 10
76.05030864
 20
87.13014403
  0
VERTEX
  8
0
 10
76.23323045
 20
87.48292181
  0
VERTEX
  8
0
 10
76.82119342
 20
88.25380658
  0
VERTEX
  8
0
 10
77.00411523
 20
88.25380658
  0
VERTEX
  8
0
 10
77.53981481
 20
88.54125514
  0
VERTEX
  8
0
 10
77.29156379
 20
88.78950617
  0
VERTEX
  8
0
 10
76.23323045
 20
90.38353909
  0
VERTEX
  8
0
 10
76.05030864
 20
90.03076132
  0
VERTEX
  8
0
 10
74.80905350
 20
88.25380658
  0
VERTEX
  8
0
 10
74.63919753
 20
88.07088477
  0
VERTEX
  8
0
 10
74.63919753
 20
87.90102881
  0
VERTEX
  8
0
 10
74.45627572
 20
86.94722222
  0
VERTEX
  8
0
 10
74.63919753
 20
86.77736626
  0
VERTEX
  8
0
 10
74.27335391
 20
85.52304527
  0
VERTEX
  8
0
 10
72.86224280
 20
85.52304527
  0
VERTEX
  8
0
 10
72.67932099
 20
85.35318930
  0
VERTEX
  8
0
 10
71.25514403
 20
85.23559671
  0
VERTEX
  8
0
 10
70.90236626
 20
85.35318930
  0
VERTEX
  8
0
 10
70.66718107
 20
85.35318930
  0
VERTEX
  8
0
 10
70.48425926
 20
85.23559671
  0
VERTEX
  8
0
 10
69.07314815
 20
85.23559671
  0
VERTEX
  8
0
 10
68.89022634
 20
85.00041152
  0
VERTEX
  8
0
 10
68.18467078
 20
85.52304527
  0
VERTEX
  8
0
 10
68.18467078
 20
85.70596708
  0
VERTEX
  8
0
 10
68.41985597
 20
86.94722222
  0
VERTEX
  8
0
 10
68.72037037
 20
86.94722222
  0
VERTEX
  8
0
 10
69.42592593
 20
89.14228395
  0
VERTEX
  8
0
 10
69.84403292
 20
89.14228395
  0
VERTEX
  8
0
 10
69.84403292
 20
89.49506173
  0
VERTEX
  8
0
 10
70.66718107
 20
90.38353909
  0
VERTEX
  8
0
 10
70.66718107
 20
90.73631687
  0
VERTEX
  8
0
 10
71.08528807
 20
90.97150206
  0
VERTEX
  8
0
 10
71.08528807
 20
91.27201646
  0
VERTEX
  8
0
 10
71.55565844
 20
92.86604938
  0
VERTEX
  8
0
 10
71.55565844
 20
93.10123457
  0
VERTEX
  8
0
 10
71.97376543
 20
95.11337449
  0
VERTEX
  8
0
 10
71.73858025
 20
95.23096708
  0
VERTEX
  8
0
 10
71.73858025
 20
95.94958848
  0
VERTEX
  8
0
 10
71.37273663
 20
96.18477366
  0
VERTEX
  8
0
 10
70.31440329
 20
96.35462963
  0
VERTEX
  8
0
 10
70.13148148
 20
96.18477366
  0
VERTEX
  8
0
 10
69.59578189
 20
95.76666667
  0
VERTEX
  8
0
 10
67.64897119
 20
94.34248971
  0
VERTEX
  8
0
 10
67.64897119
 20
93.98971193
  0
VERTEX
  8
0
 10
66.76049383
 20
93.28415638
  0
VERTEX
  8
0
 10
66.57757202
 20
93.28415638
  0
VERTEX
  8
0
 10
65.68909465
 20
92.33034979
  0
VERTEX
  8
0
 10
65.51923868
 20
92.69619342
  0
VERTEX
  8
0
 10
67.46604938
 20
94.70833333
  0
VERTEX
  8
0
 10
67.64897119
 20
95.11337449
  0
VERTEX
  8
0
 10
69.59578189
 20
96.83806584
  0
VERTEX
  8
0
 10
69.42592593
 20
97.00792181
  0
VERTEX
  8
0
 10
68.72037037
 20
98.13158436
  0
VERTEX
  8
0
 10
68.72037037
 20
98.31450617
  0
VERTEX
  8
0
 10
68.58971193
 20
98.49742798
  0
VERTEX
  8
0
 10
68.41985597
 20
98.49742798
  0
VERTEX
  8
0
 10
65.33631687
 20
97.42602881
  0
VERTEX
  8
0
 10
65.33631687
 20
97.77880658
  0
VERTEX
  8
0
 10
68.41985597
 20
99.55576132
  0
VERTEX
  8
0
 10
68.18467078
 20
99.73868313
  0
VERTEX
  8
0
 10
68.41985597
 20
101.56790123
  0
VERTEX
  8
0
 10
68.18467078
 20
101.33271605
  0
VERTEX
  8
0
 10
66.40771605
 20
101.33271605
  0
VERTEX
  8
0
 10
66.17253086
 20
101.14979424
  0
VERTEX
  8
0
 10
65.10113169
 20
100.97993827
  0
VERTEX
  8
0
 10
65.10113169
 20
101.92067901
  0
VERTEX
  8
0
 10
65.68909465
 20
101.92067901
  0
VERTEX
  8
0
 10
65.87201646
 20
102.10360082
  0
VERTEX
  8
0
 10
66.57757202
 20
102.10360082
  0
VERTEX
  8
0
 10
66.76049383
 20
102.27345679
  0
VERTEX
  8
0
 10
67.64897119
 20
102.27345679
  0
VERTEX
  8
0
 10
67.83189300
 20
102.40411523
  0
VERTEX
  8
0
 10
68.89022634
 20
102.40411523
  0
VERTEX
  8
0
 10
69.07314815
 20
102.80915638
  0
VERTEX
  8
0
 10
70.31440329
 20
104.05041152
  0
VERTEX
  8
0
 10
70.31440329
 20
104.23333333
  0
VERTEX
  8
0
 10
70.66718107
 20
106.42839506
  0
VERTEX
  8
0
 10
70.31440329
 20
106.54598765
  0
VERTEX
  8
0
 10
69.07314815
 20
106.54598765
  0
VERTEX
  8
0
 10
68.72037037
 20
106.71584362
  0
VERTEX
  8
0
 10
67.34845679
 20
107.31687243
  0
VERTEX
  8
0
 10
67.11327160
 20
107.31687243
  0
VERTEX
  8
0
 10
65.98960905
 20
107.48672840
  0
VERTEX
  8
0
 10
65.98960905
 20
107.78724280
  0
VERTEX
  8
0
 10
65.10113169
 20
108.19228395
  0
VERTEX
  8
0
 10
65.10113169
 20
109.44660494
  0
VERTEX
  8
0
 10
65.98960905
 20
109.44660494
  0
VERTEX
  8
0
 10
66.40771605
 20
108.91090535
  0
VERTEX
  8
0
 10
66.94341564
 20
108.72798354
  0
VERTEX
  8
0
 10
67.34845679
 20
108.19228395
  0
VERTEX
  8
0
 10
68.89022634
 20
107.48672840
  0
VERTEX
  8
0
 10
69.07314815
 20
107.66965021
  0
VERTEX
  8
0
 10
70.66718107
 20
107.13395062
  0
VERTEX
  8
0
 10
70.90236626
 20
107.31687243
  0
VERTEX
  8
0
 10
71.37273663
 20
108.37520576
  0
VERTEX
  8
0
 10
71.25514403
 20
108.37520576
  0
VERTEX
  8
0
 10
69.42592593
 20
108.55812757
  0
VERTEX
  8
0
 10
68.89022634
 20
108.55812757
  0
VERTEX
  8
0
 10
68.58971193
 20
108.72798354
  0
VERTEX
  8
0
 10
67.34845679
 20
109.79938272
  0
VERTEX
  8
0
 10
67.34845679
 20
109.96923868
  0
VERTEX
  8
0
 10
66.94341564
 20
110.68786008
  0
VERTEX
  8
0
 10
66.94341564
 20
110.85771605
  0
VERTEX
  8
0
 10
66.76049383
 20
111.81152263
  0
VERTEX
  8
0
 10
66.57757202
 20
111.92911523
  0
VERTEX
  8
0
 10
66.57757202
 20
112.09897119
  0
VERTEX
  8
0
 10
66.76049383
 20
112.51707819
  0
VERTEX
  8
0
 10
66.76049383
 20
112.70000000
  0
VERTEX
  8
0
 10
66.94341564
 20
113.05277778
  0
VERTEX
  8
0
 10
68.72037037
 20
114.82973251
  0
VERTEX
  8
0
 10
68.89022634
 20
114.82973251
  0
VERTEX
  8
0
 10
69.07314815
 20
114.99958848
  0
VERTEX
  8
0
 10
69.24300412
 20
114.99958848
  0
VERTEX
  8
0
 10
70.13148148
 20
114.82973251
  0
VERTEX
  8
0
 10
70.48425926
 20
114.64681070
  0
VERTEX
  8
0
 10
72.14362140
 20
113.40555556
  0
VERTEX
  8
0
 10
72.14362140
 20
113.23569959
  0
VERTEX
  8
0
 10
72.67932099
 20
112.28189300
  0
VERTEX
  8
0
 10
72.67932099
 20
112.09897119
  0
VERTEX
  8
0
 10
72.86224280
 20
111.45874486
  0
VERTEX
  8
0
 10
73.03209877
 20
111.22355967
  0
VERTEX
  8
0
 10
73.03209877
 20
110.85771605
  0
VERTEX
  8
0
 10
73.21502058
 20
110.68786008
  0
VERTEX
  8
0
 10
74.10349794
 20
110.68786008
  0
VERTEX
  8
0
 10
74.10349794
 20
111.22355967
  0
VERTEX
  8
0
 10
73.98590535
 20
111.45874486
  0
VERTEX
  8
0
 10
73.98590535
 20
112.70000000
  0
VERTEX
  8
0
 10
73.75072016
 20
112.86985597
  0
VERTEX
  8
0
 10
73.75072016
 20
113.40555556
  0
VERTEX
  8
0
 10
73.56779835
 20
113.58847737
  0
VERTEX
  8
0
 10
73.38487654
 20
113.94125514
  0
VERTEX
  8
0
 10
73.38487654
 20
114.12417695
  0
VERTEX
  8
0
 10
72.86224280
 20
114.82973251
  0
VERTEX
  8
0
 10
72.86224280
 20
114.99958848
  0
VERTEX
  8
0
 10
72.49639918
 20
115.53528807
  0
VERTEX
  8
0
 10
72.49639918
 20
115.77047325
  0
VERTEX
  8
0
 10
71.55565844
 20
116.30617284
  0
VERTEX
  8
0
 10
71.55565844
 20
116.60668724
  0
VERTEX
  8
0
 10
71.25514403
 20
117.19465021
  0
VERTEX
  8
0
 10
70.90236626
 20
117.37757202
  0
VERTEX
  8
0
 10
69.24300412
 20
118.43590535
  0
VERTEX
  8
0
 10
68.89022634
 20
118.43590535
  0
VERTEX
  8
0
 10
67.64897119
 20
118.78868313
  0
VERTEX
  8
0
 10
67.46604938
 20
118.61882716
  0
VERTEX
  8
0
 10
65.87201646
 20
118.61882716
  0
VERTEX
  8
0
 10
65.68909465
 20
118.43590535
  0
VERTEX
  8
0
 10
65.10113169
 20
118.43590535
  0
VERTEX
  8
0
 10
65.10113169
 20
118.78868313
  0
VERTEX
  8
0
 10
65.33631687
 20
119.32438272
  0
VERTEX
  8
0
 10
65.51923868
 20
119.67716049
  0
VERTEX
  8
0
 10
65.51923868
 20
119.50730453
  0
VERTEX
  8
0
 10
65.87201646
 20
119.32438272
  0
SEQEND
  0
POLYLINE
  8
Default Layer
 66
   1
 39
0.000000
 70
    1
  0
VERTEX
  8
0
 10
93.16656379
 20
118.26604938
  0
VERTEX
  8
0
 10
94.40781893
 20
118.08312757
  0
VERTEX
  8
0
 10
94.40781893
 20
117.66502058
  0
VERTEX
  8
0
 10
95.11337449
 20
117.19465021
  0
VERTEX
  8
0
 10
95.11337449
 20
116.84187243
  0
VERTEX
  8
0
 10
95.29629630
 20
116.60668724
  0
VERTEX
  8
0
 10
95.29629630
 20
114.99958848
  0
VERTEX
  8
0
 10
92.39567901
 20
109.44660494
  0
VERTEX
  8
0
 10
92.02983539
 20
109.44660494
  0
VERTEX
  8
0
 10
91.50720165
 20
108.91090535
  0
VERTEX
  8
0
 10
90.97150206
 20
108.72798354
  0
VERTEX
  8
0
 10
90.31820988
 20
108.19228395
  0
VERTEX
  8
0
 10
89.90010288
 20
107.95709877
  0
VERTEX
  8
0
 10
89.25987654
 20
107.78724280
  0
VERTEX
  8
0
 10
89.01162551
 20
107.66965021
  0
VERTEX
  8
0
 10
88.65884774
 20
107.66965021
  0
VERTEX
  8
0
 10
88.48899177
 20
107.48672840
  0
VERTEX
  8
0
 10
87.60051440
 20
107.48672840
  0
VERTEX
  8
0
 10
87.60051440
 20
107.78724280
  0
VERTEX
  8
0
 10
87.88796296
 20
108.37520576
  0
VERTEX
  8
0
 10
87.88796296
 20
108.55812757
  0
VERTEX
  8
0
 10
88.30606996
 20
108.72798354
  0
VERTEX
  8
0
 10
88.48899177
 20
108.91090535
  0
VERTEX
  8
0
 10
88.84176955
 20
109.02849794
  0
VERTEX
  8
0
 10
89.01162551
 20
109.26368313
  0
VERTEX
  8
0
 10
89.42973251
 20
109.26368313
  0
VERTEX
  8
0
 10
89.54732510
 20
109.44660494
  0
VERTEX
  8
0
 10
89.90010288
 20
109.96923868
  0
VERTEX
  8
0
 10
90.08302469
 20
109.96923868
  0
VERTEX
  8
0
 10
90.78858025
 20
111.04063786
  0
VERTEX
  8
0
 10
91.15442387
 20
111.04063786
  0
VERTEX
  8
0
 10
92.02983539
 20
112.28189300
  0
VERTEX
  8
0
 10
92.02983539
 20
112.51707819
  0
VERTEX
  8
0
 10
92.39567901
 20
114.64681070
  0
VERTEX
  8
0
 10
91.91224280
 20
115.18251029
  0
VERTEX
  8
0
 10
91.74238683
 20
115.18251029
  0
VERTEX
  8
0
 10
90.31820988
 20
115.36543210
  0
VERTEX
  8
0
 10
90.08302469
 20
115.18251029
  0
VERTEX
  8
0
 10
89.42973251
 20
114.82973251
  0
VERTEX
  8
0
 10
88.48899177
 20
113.94125514
  0
VERTEX
  8
0
 10
87.60051440
 20
112.86985597
  0
VERTEX
  8
0
 10
86.99948560
 20
111.81152263
  0
VERTEX
  8
0
 10
85.58837449
 20
110.15216049
  0
VERTEX
  8
0
 10
84.86975309
 20
109.96923868
  0
VERTEX
  8
0
 10
84.86975309
 20
110.85771605
  0
VERTEX
  8
0
 10
85.10493827
 20
111.22355967
  0
VERTEX
  8
0
 10
86.52911523
 20
115.18251029
  0
VERTEX
  8
0
 10
86.52911523
 20
115.36543210
  0
VERTEX
  8
0
 10
87.24773663
 20
116.13631687
  0
VERTEX
  8
0
 10
87.77037037
 20
117.19465021
  0
VERTEX
  8
0
 10
88.07088477
 20
117.19465021
  0
VERTEX
  8
0
 10
89.73024691
 20
117.90020576
  0
VERTEX
  8
0
 10
89.90010288
 20
118.08312757
  0
VERTEX
  8
0
 10
90.50113169
 20
118.08312757
  0
VERTEX
  8
0
 10
90.67098765
 20
118.26604938
  0
VERTEX
  8
0
 10
91.74238683
 20
118.26604938
  0
VERTEX
  8
0
 10
91.91224280
 20
118.43590535
  0
VERTEX
  8
0
 10
92.98364198
 20
118.43590535
  0
VERTEX
  8
0
 10
93.16656379
 20
118.26604938
  0
SEQEND
  0
POLYLINE
  8
Default Layer
 66
   1
 39
0.000000
 70
    1
  0
VERTEX
  8
0
 10
91.74238683
 20
114.47695473
  0
VERTEX
  8
0
 10
91.74238683
 20
113.58847737
  0
VERTEX
  8
0
 10
91.50720165
 20
113.23569959
  0
VERTEX
  8
0
 10
91.50720165
 20
113.05277778
  0
VERTEX
  8
0
 10
91.32427984
 20
112.70000000
  0
VERTEX
  8
0
 10
91.15442387
 20
112.09897119
  0
VERTEX
  8
0
 10
90.50113169
 20
111.62860082
  0
VERTEX
  8
0
 10
89.90010288
 20
111.04063786
  0
VERTEX
  8
0
 10
88.84176955
 20
110.15216049
  0
VERTEX
  8
0
 10
88.48899177
 20
109.96923868
  0
VERTEX
  8
0
 10
87.60051440
 20
109.02849794
  0
VERTEX
  8
0
 10
87.41759259
 20
109.02849794
  0
VERTEX
  8
0
 10
86.35925926
 20
109.61646091
  0
VERTEX
  8
0
 10
86.35925926
 20
109.79938272
  0
VERTEX
  8
0
 10
87.60051440
 20
111.62860082
  0
VERTEX
  8
0
 10
87.60051440
 20
111.81152263
  0
VERTEX
  8
0
 10
89.42973251
 20
114.12417695
  0
VERTEX
  8
0
 10
89.54732510
 20
114.12417695
  0
VERTEX
  8
0
 10
90.08302469
 20
114.64681070
  0
VERTEX
  8
0
 10
90.31820988
 20
114.64681070
  0
VERTEX
  8
0
 10
91.50720165
 20
114.64681070
  0
VERTEX
  8
0
 10
91.74238683
 20
114.47695473
  0
SEQEND
  0
POLYLINE
  8
Default Layer
 66
   1
 39
0.000000
 70
    1
  0
VERTEX
  8
0
 10
70.48425926
 20
114.12417695
  0
VERTEX
  8
0
 10
71.73858025
 20
112.86985597
  0
VERTEX
  8
0
 10
71.73858025
 20
112.70000000
  0
VERTEX
  8
0
 10
71.97376543
 20
112.51707819
  0
VERTEX
  8
0
 10
71.97376543
 20
112.28189300
  0
VERTEX
  8
0
 10
72.14362140
 20
111.45874486
  0
VERTEX
  8
0
 10
72.32654321
 20
111.22355967
  0
VERTEX
  8
0
 10
72.49639918
 20
110.38734568
  0
VERTEX
  8
0
 10
72.86224280
 20
110.38734568
  0
VERTEX
  8
0
 10
72.49639918
 20
109.02849794
  0
VERTEX
  8
0
 10
72.14362140
 20
109.02849794
  0
VERTEX
  8
0
 10
72.14362140
 20
108.72798354
  0
VERTEX
  8
0
 10
71.73858025
 20
108.72798354
  0
VERTEX
  8
0
 10
70.66718107
 20
109.02849794
  0
VERTEX
  8
0
 10
70.48425926
 20
108.91090535
  0
VERTEX
  8
0
 10
69.42592593
 20
109.02849794
  0
VERTEX
  8
0
 10
69.24300412
 20
109.02849794
  0
VERTEX
  8
0
 10
69.07314815
 20
109.02849794
  0
VERTEX
  8
0
 10
68.72037037
 20
109.26368313
  0
VERTEX
  8
0
 10
67.64897119
 20
110.38734568
  0
VERTEX
  8
0
 10
67.64897119
 20
110.50493827
  0
VERTEX
  8
0
 10
67.46604938
 20
111.22355967
  0
VERTEX
  8
0
 10
67.34845679
 20
111.45874486
  0
VERTEX
  8
0
 10
67.34845679
 20
112.28189300
  0
VERTEX
  8
0
 10
67.46604938
 20
112.70000000
  0
VERTEX
  8
0
 10
68.72037037
 20
114.12417695
  0
VERTEX
  8
0
 10
68.89022634
 20
114.12417695
  0
VERTEX
  8
0
 10
69.07314815
 20
114.29403292
  0
VERTEX
  8
0
 10
69.24300412
 20
114.29403292
  0
VERTEX
  8
0
 10
70.31440329
 20
114.29403292
  0
VERTEX
  8
0
 10
70.48425926
 20
114.12417695
  0
SEQEND
  0
POLYLINE
  8
Default Layer
 66
   1
 39
0.000000
 70
    1
  0
VERTEX
  8
0
 10
80.02232510
 20
110.68786008
  0
VERTEX
  8
0
 10
81.26358025
 20
110.38734568
  0
VERTEX
  8
0
 10
81.68168724
 20
110.15216049
  0
VERTEX
  8
0
 10
82.74002058
 20
109.96923868
  0
VERTEX
  8
0
 10
82.92294239
 20
110.15216049
  0
VERTEX
  8
0
 10
84.51697531
 20
109.96923868
  0
VERTEX
  8
0
 10
84.86975309
 20
109.79938272
  0
VERTEX
  8
0
 10
85.75823045
 20
109.61646091
  0
VERTEX
  8
0
 10
85.75823045
 20
109.26368313
  0
VERTEX
  8
0
 10
86.52911523
 20
108.55812757
  0
VERTEX
  8
0
 10
86.52911523
 20
107.78724280
  0
VERTEX
  8
0
 10
86.64670782
 20
107.66965021
  0
VERTEX
  8
0
 10
86.82962963
 20
107.31687243
  0
VERTEX
  8
0
 10
86.99948560
 20
107.31687243
  0
VERTEX
  8
0
 10
87.60051440
 20
106.89876543
  0
VERTEX
  8
0
 10
87.60051440
 20
106.42839506
  0
VERTEX
  8
0
 10
87.77037037
 20
106.24547325
  0
VERTEX
  8
0
 10
87.88796296
 20
104.93888889
  0
VERTEX
  8
0
 10
87.41759259
 20
105.12181070
  0
VERTEX
  8
0
 10
86.35925926
 20
105.30473251
  0
VERTEX
  8
0
 10
86.35925926
 20
105.65751029
  0
VERTEX
  8
0
 10
85.94115226
 20
106.71584362
  0
VERTEX
  8
0
 10
84.86975309
 20
107.95709877
  0
VERTEX
  8
0
 10
84.69989712
 20
107.95709877
  0
VERTEX
  8
0
 10
84.16419753
 20
108.19228395
  0
VERTEX
  8
0
 10
83.98127572
 20
107.95709877
  0
VERTEX
  8
0
 10
82.38724280
 20
106.24547325
  0
VERTEX
  8
0
 10
82.38724280
 20
106.01028807
  0
VERTEX
  8
0
 10
81.85154321
 20
104.58611111
  0
VERTEX
  8
0
 10
81.44650206
 20
104.58611111
  0
VERTEX
  8
0
 10
81.14598765
 20
105.12181070
  0
VERTEX
  8
0
 10
80.96306584
 20
104.76903292
  0
VERTEX
  8
0
 10
80.96306584
 20
104.05041152
  0
VERTEX
  8
0
 10
81.14598765
 20
103.81522634
  0
VERTEX
  8
0
 10
81.14598765
 20
103.34485597
  0
VERTEX
  8
0
 10
81.26358025
 20
103.16193416
  0
VERTEX
  8
0
 10
81.44650206
 20
102.80915638
  0
VERTEX
  8
0
 10
81.68168724
 20
102.80915638
  0
VERTEX
  8
0
 10
81.68168724
 20
103.64537037
  0
VERTEX
  8
0
 10
82.03446502
 20
103.64537037
  0
VERTEX
  8
0
 10
82.38724280
 20
103.81522634
  0
VERTEX
  8
0
 10
82.38724280
 20
104.23333333
  0
VERTEX
  8
0
 10
82.92294239
 20
104.41625514
  0
VERTEX
  8
0
 10
84.16419753
 20
104.41625514
  0
VERTEX
  8
0
 10
84.34711934
 20
104.58611111
  0
VERTEX
  8
0
 10
85.10493827
 20
104.58611111
  0
VERTEX
  8
0
 10
85.28786008
 20
104.76903292
  0
VERTEX
  8
0
 10
85.94115226
 20
104.76903292
  0
VERTEX
  8
0
 10
86.35925926
 20
104.58611111
  0
VERTEX
  8
0
 10
87.77037037
 20
104.05041152
  0
VERTEX
  8
0
 10
88.07088477
 20
104.05041152
  0
VERTEX
  8
0
 10
89.42973251
 20
103.16193416
  0
VERTEX
  8
0
 10
89.42973251
 20
102.99207819
  0
VERTEX
  8
0
 10
89.73024691
 20
101.92067901
  0
VERTEX
  8
0
 10
89.42973251
 20
101.92067901
  0
VERTEX
  8
0
 10
89.25987654
 20
101.75082305
  0
VERTEX
  8
0
 10
88.30606996
 20
101.75082305
  0
VERTEX
  8
0
 10
88.07088477
 20
101.56790123
  0
VERTEX
  8
0
 10
87.77037037
 20
101.56790123
  0
VERTEX
  8
0
 10
87.60051440
 20
101.33271605
  0
VERTEX
  8
0
 10
86.99948560
 20
101.33271605
  0
VERTEX
  8
0
 10
86.82962963
 20
101.14979424
  0
VERTEX
  8
0
 10
86.82962963
 20
100.67942387
  0
VERTEX
  8
0
 10
86.99948560
 20
100.50956790
  0
VERTEX
  8
0
 10
87.60051440
 20
100.50956790
  0
VERTEX
  8
0
 10
87.77037037
 20
100.67942387
  0
VERTEX
  8
0
 10
88.65884774
 20
100.86234568
  0
VERTEX
  8
0
 10
88.84176955
 20
100.97993827
  0
VERTEX
  8
0
 10
89.54732510
 20
100.97993827
  0
VERTEX
  8
0
 10
89.73024691
 20
101.14979424
  0
VERTEX
  8
0
 10
90.50113169
 20
101.14979424
  0
VERTEX
  8
0
 10
90.50113169
 20
99.55576132
  0
VERTEX
  8
0
 10
90.31820988
 20
99.20298354
  0
VERTEX
  8
0
 10
90.08302469
 20
99.02006173
  0
VERTEX
  8
0
 10
89.90010288
 20
99.02006173
  0
VERTEX
  8
0
 10
88.48899177
 20
99.20298354
  0
VERTEX
  8
0
 10
88.30606996
 20
99.02006173
  0
VERTEX
  8
0
 10
87.41759259
 20
98.85020576
  0
VERTEX
  8
0
 10
87.60051440
 20
98.66728395
  0
VERTEX
  8
0
 10
87.60051440
 20
98.31450617
  0
VERTEX
  8
0
 10
89.73024691
 20
98.31450617
  0
VERTEX
  8
0
 10
89.54732510
 20
97.77880658
  0
VERTEX
  8
0
 10
89.42973251
 20
97.00792181
  0
VERTEX
  8
0
 10
89.01162551
 20
97.00792181
  0
VERTEX
  8
0
 10
88.84176955
 20
96.83806584
  0
VERTEX
  8
0
 10
87.88796296
 20
96.83806584
  0
VERTEX
  8
0
 10
87.60051440
 20
97.00792181
  0
VERTEX
  8
0
 10
86.35925926
 20
97.42602881
  0
VERTEX
  8
0
 10
86.17633745
 20
97.24310700
  0
VERTEX
  8
0
 10
86.35925926
 20
96.35462963
  0
VERTEX
  8
0
 10
86.17633745
 20
96.35462963
  0
VERTEX
  8
0
 10
85.28786008
 20
96.47222222
  0
VERTEX
  8
0
 10
85.10493827
 20
96.35462963
  0
VERTEX
  8
0
 10
83.62849794
 20
96.47222222
  0
VERTEX
  8
0
 10
83.27572016
 20
96.65514403
  0
VERTEX
  8
0
 10
82.74002058
 20
97.42602881
  0
VERTEX
  8
0
 10
83.09279835
 20
97.42602881
  0
VERTEX
  8
0
 10
83.27572016
 20
99.90853909
  0
VERTEX
  8
0
 10
83.09279835
 20
100.09146091
  0
VERTEX
  8
0
 10
82.92294239
 20
100.67942387
  0
VERTEX
  8
0
 10
83.98127572
 20
100.67942387
  0
VERTEX
  8
0
 10
83.98127572
 20
100.97993827
  0
VERTEX
  8
0
 10
83.27572016
 20
101.56790123
  0
VERTEX
  8
0
 10
79.66954733
 20
101.56790123
  0
VERTEX
  8
0
 10
79.55195473
 20
101.33271605
  0
VERTEX
  8
0
 10
78.59814815
 20
101.14979424
  0
VERTEX
  8
0
 10
78.59814815
 20
101.33271605
  0
VERTEX
  8
0
 10
78.95092593
 20
102.40411523
  0
VERTEX
  8
0
 10
78.95092593
 20
105.65751029
  0
VERTEX
  8
0
 10
78.78106996
 20
106.01028807
  0
VERTEX
  8
0
 10
78.59814815
 20
106.71584362
  0
VERTEX
  8
0
 10
78.41522634
 20
106.89876543
  0
VERTEX
  8
0
 10
77.89259259
 20
107.66965021
  0
VERTEX
  8
0
 10
77.89259259
 20
107.78724280
  0
VERTEX
  8
0
 10
77.00411523
 20
108.55812757
  0
VERTEX
  8
0
 10
76.82119342
 20
108.55812757
  0
VERTEX
  8
0
 10
76.05030864
 20
108.72798354
  0
VERTEX
  8
0
 10
76.05030864
 20
108.55812757
  0
VERTEX
  8
0
 10
77.00411523
 20
107.95709877
  0
VERTEX
  8
0
 10
77.00411523
 20
107.66965021
  0
VERTEX
  8
0
 10
76.65133745
 20
107.31687243
  0
VERTEX
  8
0
 10
76.46841564
 20
107.48672840
  0
VERTEX
  8
0
 10
76.05030864
 20
107.66965021
  0
VERTEX
  8
0
 10
75.88045267
 20
107.66965021
  0
VERTEX
  8
0
 10
74.27335391
 20
107.78724280
  0
VERTEX
  8
0
 10
73.98590535
 20
107.48672840
  0
VERTEX
  8
0
 10
73.75072016
 20
107.48672840
  0
VERTEX
  8
0
 10
73.21502058
 20
106.54598765
  0
VERTEX
  8
0
 10
73.21502058
 20
105.65751029
  0
VERTEX
  8
0
 10
72.86224280
 20
105.65751029
  0
VERTEX
  8
0
 10
71.08528807
 20
104.93888889
  0
VERTEX
  8
0
 10
71.25514403
 20
105.47458848
  0
VERTEX
  8
0
 10
72.32654321
 20
108.55812757
  0
VERTEX
  8
0
 10
72.67932099
 20
108.55812757
  0
VERTEX
  8
0
 10
73.75072016
 20
109.79938272
  0
VERTEX
  8
0
 10
73.98590535
 20
109.79938272
  0
VERTEX
  8
0
 10
75.04423868
 20
110.38734568
  0
VERTEX
  8
0
 10
75.39701646
 20
110.15216049
  0
VERTEX
  8
0
 10
75.51460905
 20
110.15216049
  0
VERTEX
  8
0
 10
75.69753086
 20
110.38734568
  0
VERTEX
  8
0
 10
77.29156379
 20
110.15216049
  0
VERTEX
  8
0
 10
77.53981481
 20
110.38734568
  0
VERTEX
  8
0
 10
77.70967078
 20
110.38734568
  0
VERTEX
  8
0
 10
78.06244856
 20
110.68786008
  0
VERTEX
  8
0
 10
79.66954733
 20
110.68786008
  0
VERTEX
  8
0
 10
79.83940329
 20
110.85771605
  0
VERTEX
  8
0
 10
80.02232510
 20
110.68786008
  0
SEQEND
  0
POLYLINE
  8
Default Layer
 66
   1
 39
0.000000
 70
    1
  0
VERTEX
  8
0
 10
65.87201646
 20
108.19228395
  0
VERTEX
  8
0
 10
66.17253086
 20
107.66965021
  0
VERTEX
  8
0
 10
66.40771605
 20
107.66965021
  0
VERTEX
  8
0
 10
68.41985597
 20
106.89876543
  0
VERTEX
  8
0
 10
68.58971193
 20
106.89876543
  0
VERTEX
  8
0
 10
70.90236626
 20
106.54598765
  0
VERTEX
  8
0
 10
70.90236626
 20
106.24547325
  0
VERTEX
  8
0
 10
70.48425926
 20
103.81522634
  0
VERTEX
  8
0
 10
70.13148148
 20
103.81522634
  0
VERTEX
  8
0
 10
69.59578189
 20
103.16193416
  0
VERTEX
  8
0
 10
69.42592593
 20
103.16193416
  0
VERTEX
  8
0
 10
69.07314815
 20
102.27345679
  0
VERTEX
  8
0
 10
68.72037037
 20
102.27345679
  0
VERTEX
  8
0
 10
67.83189300
 20
102.27345679
  0
VERTEX
  8
0
 10
67.64897119
 20
102.10360082
  0
VERTEX
  8
0
 10
66.76049383
 20
102.10360082
  0
VERTEX
  8
0
 10
66.57757202
 20
101.92067901
  0
VERTEX
  8
0
 10
65.87201646
 20
101.92067901
  0
VERTEX
  8
0
 10
65.68909465
 20
101.75082305
  0
VERTEX
  8
0
 10
65.10113169
 20
101.75082305
  0
VERTEX
  8
0
 10
65.10113169
 20
102.10360082
  0
VERTEX
  8
0
 10
65.10113169
 20
108.37520576
  0
VERTEX
  8
0
 10
65.51923868
 20
108.37520576
  0
VERTEX
  8
0
 10
65.68909465
 20
108.37520576
  0
VERTEX
  8
0
 10
65.87201646
 20
108.19228395
  0
SEQEND
  0
POLYLINE
  8
Default Layer
 66
   1
 39
0.000000
 70
    1
  0
VERTEX
  8
0
 10
84.51697531
 20
107.48672840
  0
VERTEX
  8
0
 10
85.28786008
 20
106.89876543
  0
VERTEX
  8
0
 10
85.28786008
 20
106.71584362
  0
VERTEX
  8
0
 10
85.28786008
 20
106.01028807
  0
VERTEX
  8
0
 10
85.28786008
 20
106.24547325
  0
VERTEX
  8
0
 10
84.69989712
 20
106.54598765
  0
VERTEX
  8
0
 10
84.51697531
 20
106.54598765
  0
VERTEX
  8
0
 10
83.62849794
 20
106.54598765
  0
VERTEX
  8
0
 10
83.45864198
 20
106.42839506
  0
VERTEX
  8
0
 10
82.92294239
 20
105.12181070
  0
VERTEX
  8
0
 10
82.50483539
 20
105.12181070
  0
VERTEX
  8
0
 10
82.74002058
 20
105.82736626
  0
VERTEX
  8
0
 10
82.92294239
 20
106.24547325
  0
VERTEX
  8
0
 10
82.92294239
 20
106.42839506
  0
VERTEX
  8
0
 10
83.09279835
 20
106.71584362
  0
VERTEX
  8
0
 10
83.98127572
 20
107.66965021
  0
VERTEX
  8
0
 10
84.16419753
 20
107.66965021
  0
VERTEX
  8
0
 10
84.34711934
 20
107.66965021
  0
VERTEX
  8
0
 10
84.51697531
 20
107.48672840
  0
SEQEND
  0
POLYLINE
  8
Default Layer
 66
   1
 39
0.000000
 70
    1
  0
VERTEX
  8
0
 10
75.39701646
 20
107.31687243
  0
VERTEX
  8
0
 10
76.65133745
 20
106.54598765
  0
VERTEX
  8
0
 10
76.65133745
 20
106.42839506
  0
VERTEX
  8
0
 10
77.00411523
 20
105.47458848
  0
VERTEX
  8
0
 10
77.12170782
 20
105.30473251
  0
VERTEX
  8
0
 10
76.82119342
 20
104.41625514
  0
VERTEX
  8
0
 10
76.65133745
 20
104.58611111
  0
VERTEX
  8
0
 10
76.23323045
 20
104.93888889
  0
VERTEX
  8
0
 10
76.23323045
 20
105.12181070
  0
VERTEX
  8
0
 10
76.23323045
 20
106.24547325
  0
VERTEX
  8
0
 10
75.88045267
 20
106.42839506
  0
VERTEX
  8
0
 10
74.63919753
 20
106.42839506
  0
VERTEX
  8
0
 10
74.45627572
 20
106.24547325
  0
VERTEX
  8
0
 10
74.27335391
 20
106.24547325
  0
VERTEX
  8
0
 10
74.27335391
 20
105.82736626
  0
VERTEX
  8
0
 10
73.56779835
 20
105.82736626
  0
VERTEX
  8
0
 10
73.56779835
 20
106.24547325
  0
VERTEX
  8
0
 10
73.75072016
 20
107.13395062
  0
VERTEX
  8
0
 10
74.10349794
 20
107.13395062
  0
VERTEX
  8
0
 10
74.27335391
 20
107.31687243
  0
VERTEX
  8
0
 10
74.45627572
 20
107.31687243
  0
VERTEX
  8
0
 10
75.22716049
 20
107.48672840
  0
VERTEX
  8
0
 10
75.39701646
 20
107.31687243
  0
SEQEND
  0
POLYLINE
  8
Default Layer
 66
   1
 39
0.000000
 70
    1
  0
VERTEX
  8
0
 10
92.02983539
 20
106.71584362
  0
VERTEX
  8
0
 10
95.64907407
 20
106.42839506
  0
VERTEX
  8
0
 10
96.95565844
 20
105.82736626
  0
VERTEX
  8
0
 10
97.30843621
 20
105.65751029
  0
VERTEX
  8
0
 10
97.47829218
 20
105.65751029
  0
VERTEX
  8
0
 10
101.21512346
 20
103.64537037
  0
VERTEX
  8
0
 10
101.21512346
 20
103.34485597
  0
VERTEX
  8
0
 10
102.27345679
 20
102.40411523
  0
VERTEX
  8
0
 10
102.27345679
 20
102.27345679
  0
VERTEX
  8
0
 10
103.34485597
 20
100.97993827
  0
VERTEX
  8
0
 10
103.34485597
 20
100.86234568
  0
VERTEX
  8
0
 10
103.58004115
 20
100.50956790
  0
VERTEX
  8
0
 10
103.93281893
 20
100.26131687
  0
VERTEX
  8
0
 10
104.23333333
 20
99.55576132
  0
VERTEX
  8
0
 10
104.40318930
 20
99.37283951
  0
VERTEX
  8
0
 10
104.40318930
 20
98.85020576
  0
VERTEX
  8
0
 10
104.63837449
 20
98.66728395
  0
VERTEX
  8
0
 10
104.63837449
 20
97.77880658
  0
VERTEX
  8
0
 10
104.82129630
 20
97.60895062
  0
VERTEX
  8
0
 10
104.82129630
 20
97.24310700
  0
VERTEX
  8
0
 10
105.00421811
 20
97.00792181
  0
VERTEX
  8
0
 10
105.00421811
 20
96.47222222
  0
VERTEX
  8
0
 10
105.17407407
 20
96.35462963
  0
VERTEX
  8
0
 10
105.17407407
 20
94.52541152
  0
VERTEX
  8
0
 10
105.35699588
 20
94.34248971
  0
VERTEX
  8
0
 10
105.35699588
 20
92.21275720
  0
VERTEX
  8
0
 10
105.52685185
 20
92.04290123
  0
VERTEX
  8
0
 10
105.64444444
 20
91.44187243
  0
VERTEX
  8
0
 10
105.64444444
 20
91.27201646
  0
VERTEX
  8
0
 10
105.89269547
 20
91.08909465
  0
VERTEX
  8
0
 10
105.89269547
 20
90.73631687
  0
VERTEX
  8
0
 10
105.64444444
 20
90.38353909
  0
VERTEX
  8
0
 10
103.93281893
 20
88.25380658
  0
VERTEX
  8
0
 10
103.93281893
 20
87.48292181
  0
VERTEX
  8
0
 10
103.34485597
 20
87.48292181
  0
VERTEX
  8
0
 10
103.16193416
 20
87.90102881
  0
VERTEX
  8
0
 10
103.76296296
 20
89.31213992
  0
VERTEX
  8
0
 10
103.93281893
 20
89.61265432
  0
VERTEX
  8
0
 10
104.11574074
 20
91.80771605
  0
VERTEX
  8
0
 10
103.93281893
 20
91.80771605
  0
VERTEX
  8
0
 10
103.58004115
 20
90.20061728
  0
VERTEX
  8
0
 10
101.21512346
 20
86.41152263
  0
VERTEX
  8
0
 10
101.03220165
 20
86.41152263
  0
VERTEX
  8
0
 10
99.60802469
 20
86.77736626
  0
VERTEX
  8
0
 10
99.43816872
 20
86.59444444
  0
VERTEX
  8
0
 10
98.71954733
 20
86.59444444
  0
VERTEX
  8
0
 10
98.36676955
 20
86.94722222
  0
VERTEX
  8
0
 10
97.30843621
 20
86.94722222
  0
VERTEX
  8
0
 10
96.70740741
 20
86.77736626
  0
VERTEX
  8
0
 10
95.46615226
 20
86.77736626
  0
VERTEX
  8
0
 10
93.87211934
 20
86.94722222
  0
VERTEX
  8
0
 10
93.68919753
 20
86.77736626
  0
VERTEX
  8
0
 10
92.02983539
 20
86.94722222
  0
VERTEX
  8
0
 10
91.91224280
 20
86.77736626
  0
VERTEX
  8
0
 10
91.15442387
 20
86.77736626
  0
VERTEX
  8
0
 10
90.97150206
 20
86.59444444
  0
VERTEX
  8
0
 10
90.08302469
 20
86.77736626
  0
VERTEX
  8
0
 10
89.90010288
 20
86.59444444
  0
VERTEX
  8
0
 10
89.25987654
 20
86.41152263
  0
VERTEX
  8
0
 10
89.01162551
 20
86.29393004
  0
VERTEX
  8
0
 10
87.88796296
 20
86.29393004
  0
VERTEX
  8
0
 10
87.77037037
 20
86.05874486
  0
VERTEX
  8
0
 10
86.64670782
 20
86.05874486
  0
VERTEX
  8
0
 10
86.64670782
 20
86.41152263
  0
VERTEX
  8
0
 10
87.24773663
 20
87.48292181
  0
VERTEX
  8
0
 10
87.60051440
 20
87.48292181
  0
VERTEX
  8
0
 10
88.07088477
 20
88.07088477
  0
VERTEX
  8
0
 10
87.88796296
 20
88.07088477
  0
VERTEX
  8
0
 10
86.99948560
 20
87.48292181
  0
VERTEX
  8
0
 10
86.82962963
 20
87.48292181
  0
VERTEX
  8
0
 10
85.94115226
 20
86.77736626
  0
VERTEX
  8
0
 10
85.94115226
 20
87.13014403
  0
VERTEX
  8
0
 10
86.99948560
 20
88.78950617
  0
VERTEX
  8
0
 10
87.77037037
 20
88.78950617
  0
VERTEX
  8
0
 10
87.88796296
 20
88.95936214
  0
VERTEX
  8
0
 10
92.56553498
 20
88.78950617
  0
VERTEX
  8
0
 10
92.80072016
 20
88.95936214
  0
VERTEX
  8
0
 10
92.98364198
 20
89.14228395
  0
VERTEX
  8
0
 10
92.98364198
 20
89.49506173
  0
VERTEX
  8
0
 10
92.80072016
 20
89.61265432
  0
VERTEX
  8
0
 10
92.98364198
 20
91.62479424
  0
VERTEX
  8
0
 10
93.16656379
 20
92.04290123
  0
VERTEX
  8
0
 10
94.57767490
 20
94.34248971
  0
VERTEX
  8
0
 10
94.93045267
 20
94.34248971
  0
VERTEX
  8
0
 10
95.29629630
 20
94.87818930
  0
VERTEX
  8
0
 10
96.06718107
 20
94.87818930
  0
VERTEX
  8
0
 10
96.35462963
 20
95.11337449
  0
VERTEX
  8
0
 10
97.12551440
 20
95.23096708
  0
VERTEX
  8
0
 10
97.47829218
 20
95.59681070
  0
VERTEX
  8
0
 10
99.02006173
 20
95.59681070
  0
VERTEX
  8
0
 10
99.43816872
 20
95.41388889
  0
VERTEX
  8
0
 10
99.97386831
 20
95.23096708
  0
VERTEX
  8
0
 10
99.97386831
 20
95.76666667
  0
VERTEX
  8
0
 10
99.79094650
 20
95.76666667
  0
VERTEX
  8
0
 10
98.01399177
 20
96.18477366
  0
VERTEX
  8
0
 10
97.83106996
 20
95.94958848
  0
VERTEX
  8
0
 10
96.70740741
 20
95.94958848
  0
VERTEX
  8
0
 10
96.53755144
 20
95.76666667
  0
VERTEX
  8
0
 10
94.93045267
 20
95.11337449
  0
VERTEX
  8
0
 10
94.81286008
 20
94.87818930
  0
VERTEX
  8
0
 10
93.33641975
 20
93.75452675
  0
VERTEX
  8
0
 10
93.33641975
 20
93.63693416
  0
VERTEX
  8
0
 10
92.80072016
 20
92.33034979
  0
VERTEX
  8
0
 10
92.39567901
 20
92.33034979
  0
VERTEX
  8
0
 10
92.21275720
 20
89.49506173
  0
VERTEX
  8
0
 10
91.91224280
 20
89.49506173
  0
VERTEX
  8
0
 10
91.50720165
 20
89.31213992
  0
VERTEX
  8
0
 10
91.15442387
 20
89.49506173
  0
VERTEX
  8
0
 10
90.31820988
 20
89.14228395
  0
VERTEX
  8
0
 10
89.90010288
 20
89.31213992
  0
VERTEX
  8
0
 10
88.48899177
 20
89.61265432
  0
VERTEX
  8
0
 10
88.30606996
 20
89.49506173
  0
VERTEX
  8
0
 10
87.77037037
 20
89.61265432
  0
VERTEX
  8
0
 10
87.60051440
 20
89.49506173
  0
VERTEX
  8
0
 10
87.41759259
 20
89.49506173
  0
VERTEX
  8
0
 10
87.24773663
 20
89.31213992
  0
VERTEX
  8
0
 10
85.28786008
 20
89.31213992
  0
VERTEX
  8
0
 10
85.10493827
 20
89.49506173
  0
VERTEX
  8
0
 10
84.86975309
 20
89.61265432
  0
VERTEX
  8
0
 10
84.69989712
 20
89.49506173
  0
VERTEX
  8
0
 10
83.62849794
 20
89.84783951
  0
VERTEX
  8
0
 10
83.45864198
 20
89.61265432
  0
VERTEX
  8
0
 10
82.50483539
 20
89.61265432
  0
VERTEX
  8
0
 10
82.50483539
 20
90.03076132
  0
VERTEX
  8
0
 10
82.20432099
 20
90.55339506
  0
VERTEX
  8
0
 10
82.20432099
 20
90.73631687
  0
VERTEX
  8
0
 10
81.44650206
 20
91.27201646
  0
VERTEX
  8
0
 10
81.44650206
 20
91.62479424
  0
VERTEX
  8
0
 10
81.26358025
 20
92.21275720
  0
VERTEX
  8
0
 10
82.38724280
 20
92.21275720
  0
VERTEX
  8
0
 10
82.50483539
 20
92.33034979
  0
VERTEX
  8
0
 10
83.09279835
 20
92.33034979
  0
VERTEX
  8
0
 10
83.27572016
 20
92.51327160
  0
VERTEX
  8
0
 10
83.62849794
 20
92.69619342
  0
VERTEX
  8
0
 10
83.98127572
 20
92.69619342
  0
VERTEX
  8
0
 10
84.16419753
 20
92.86604938
  0
VERTEX
  8
0
 10
84.86975309
 20
93.75452675
  0
VERTEX
  8
0
 10
84.86975309
 20
94.87818930
  0
VERTEX
  8
0
 10
84.69989712
 20
95.11337449
  0
VERTEX
  8
0
 10
84.69989712
 20
95.94958848
  0
VERTEX
  8
0
 10
84.86975309
 20
95.94958848
  0
VERTEX
  8
0
 10
86.17633745
 20
95.76666667
  0
VERTEX
  8
0
 10
86.35925926
 20
95.94958848
  0
VERTEX
  8
0
 10
86.82962963
 20
96.18477366
  0
VERTEX
  8
0
 10
87.24773663
 20
95.94958848
  0
VERTEX
  8
0
 10
87.41759259
 20
96.18477366
  0
VERTEX
  8
0
 10
88.30606996
 20
96.18477366
  0
VERTEX
  8
0
 10
88.65884774
 20
95.94958848
  0
VERTEX
  8
0
 10
91.50720165
 20
94.70833333
  0
VERTEX
  8
0
 10
91.50720165
 20
94.87818930
  0
VERTEX
  8
0
 10
89.25987654
 20
96.47222222
  0
VERTEX
  8
0
 10
89.42973251
 20
96.83806584
  0
VERTEX
  8
0
 10
89.90010288
 20
97.24310700
  0
VERTEX
  8
0
 10
89.90010288
 20
97.60895062
  0
VERTEX
  8
0
 10
90.31820988
 20
97.60895062
  0
VERTEX
  8
0
 10
90.50113169
 20
97.96172840
  0
VERTEX
  8
0
 10
90.78858025
 20
98.31450617
  0
VERTEX
  8
0
 10
90.97150206
 20
98.31450617
  0
VERTEX
  8
0
 10
92.80072016
 20
98.13158436
  0
VERTEX
  8
0
 10
93.16656379
 20
97.96172840
  0
VERTEX
  8
0
 10
93.33641975
 20
97.96172840
  0
VERTEX
  8
0
 10
95.11337449
 20
97.00792181
  0
VERTEX
  8
0
 10
95.29629630
 20
97.00792181
  0
VERTEX
  8
0
 10
96.95565844
 20
96.47222222
  0
VERTEX
  8
0
 10
97.12551440
 20
96.83806584
  0
VERTEX
  8
0
 10
97.30843621
 20
97.00792181
  0
VERTEX
  8
0
 10
97.12551440
 20
97.24310700
  0
VERTEX
  8
0
 10
96.06718107
 20
97.77880658
  0
VERTEX
  8
0
 10
94.57767490
 20
98.31450617
  0
VERTEX
  8
0
 10
93.33641975
 20
98.85020576
  0
VERTEX
  8
0
 10
91.74238683
 20
98.85020576
  0
VERTEX
  8
0
 10
91.32427984
 20
99.20298354
  0
VERTEX
  8
0
 10
91.32427984
 20
100.26131687
  0
VERTEX
  8
0
 10
91.15442387
 20
100.50956790
  0
VERTEX
  8
0
 10
90.97150206
 20
100.97993827
  0
VERTEX
  8
0
 10
91.15442387
 20
101.33271605
  0
VERTEX
  8
0
 10
91.32427984
 20
101.56790123
  0
VERTEX
  8
0
 10
92.21275720
 20
101.56790123
  0
VERTEX
  8
0
 10
92.39567901
 20
101.75082305
  0
VERTEX
  8
0
 10
93.51934156
 20
101.75082305
  0
VERTEX
  8
0
 10
93.68919753
 20
101.92067901
  0
VERTEX
  8
0
 10
95.11337449
 20
101.75082305
  0
VERTEX
  8
0
 10
95.29629630
 20
101.92067901
  0
VERTEX
  8
0
 10
99.97386831
 20
101.56790123
  0
VERTEX
  8
0
 10
99.97386831
 20
101.92067901
  0
VERTEX
  8
0
 10
99.79094650
 20
101.92067901
  0
VERTEX
  8
0
 10
98.19691358
 20
102.40411523
  0
VERTEX
  8
0
 10
93.16656379
 20
102.40411523
  0
VERTEX
  8
0
 10
92.80072016
 20
102.27345679
  0
VERTEX
  8
0
 10
91.74238683
 20
102.27345679
  0
VERTEX
  8
0
 10
91.50720165
 20
102.10360082
  0
VERTEX
  8
0
 10
90.50113169
 20
102.10360082
  0
VERTEX
  8
0
 10
90.50113169
 20
102.40411523
  0
VERTEX
  8
0
 10
90.08302469
 20
103.16193416
  0
VERTEX
  8
0
 10
89.90010288
 20
103.34485597
  0
VERTEX
  8
0
 10
89.90010288
 20
103.52777778
  0
VERTEX
  8
0
 10
88.48899177
 20
104.76903292
  0
VERTEX
  8
0
 10
88.48899177
 20
106.01028807
  0
VERTEX
  8
0
 10
88.84176955
 20
106.01028807
  0
VERTEX
  8
0
 10
89.73024691
 20
106.42839506
  0
VERTEX
  8
0
 10
89.90010288
 20
106.54598765
  0
VERTEX
  8
0
 10
90.67098765
 20
106.54598765
  0
VERTEX
  8
0
 10
90.78858025
 20
106.71584362
  0
VERTEX
  8
0
 10
91.74238683
 20
106.71584362
  0
VERTEX
  8
0
 10
91.91224280
 20
106.89876543
  0
VERTEX
  8
0
 10
92.02983539
 20
106.71584362
  0
SEQEND
  0
POLYLINE
  8
Default Layer
 66
   1
 39
0.000000
 70
    1
  0
VERTEX
  8
0
 10
84.51697531
 20
106.24547325
  0
VERTEX
  8
0
 10
83.81141975
 20
105.47458848
  0
VERTEX
  8
0
 10
83.98127572
 20
106.01028807
  0
VERTEX
  8
0
 10
84.34711934
 20
106.42839506
  0
VERTEX
  8
0
 10
84.51697531
 20
106.24547325
  0
SEQEND
  0
POLYLINE
  8
Default Layer
 66
   1
 39
0.000000
 70
    1
  0
VERTEX
  8
0
 10
75.39701646
 20
105.82736626
  0
VERTEX
  8
0
 10
75.51460905
 20
105.82736626
  0
VERTEX
  8
0
 10
75.22716049
 20
105.65751029
  0
VERTEX
  8
0
 10
74.80905350
 20
105.82736626
  0
VERTEX
  8
0
 10
74.80905350
 20
106.01028807
  0
VERTEX
  8
0
 10
75.39701646
 20
105.82736626
  0
SEQEND
  0
POLYLINE
  8
Default Layer
 66
   1
 39
0.000000
 70
    1
  0
VERTEX
  8
0
 10
74.63919753
 20
104.93888889
  0
VERTEX
  8
0
 10
77.53981481
 20
102.99207819
  0
VERTEX
  8
0
 10
77.53981481
 20
102.80915638
  0
VERTEX
  8
0
 10
77.12170782
 20
100.26131687
  0
VERTEX
  8
0
 10
76.82119342
 20
100.26131687
  0
VERTEX
  8
0
 10
76.23323045
 20
99.20298354
  0
VERTEX
  8
0
 10
76.46841564
 20
99.20298354
  0
VERTEX
  8
0
 10
76.82119342
 20
99.37283951
  0
VERTEX
  8
0
 10
76.82119342
 20
99.20298354
  0
VERTEX
  8
0
 10
76.46841564
 20
97.96172840
  0
VERTEX
  8
0
 10
76.65133745
 20
97.77880658
  0
VERTEX
  8
0
 10
76.65133745
 20
97.60895062
  0
VERTEX
  8
0
 10
77.00411523
 20
97.42602881
  0
VERTEX
  8
0
 10
77.70967078
 20
97.24310700
  0
VERTEX
  8
0
 10
77.89259259
 20
97.60895062
  0
VERTEX
  8
0
 10
78.95092593
 20
98.49742798
  0
VERTEX
  8
0
 10
78.95092593
 20
98.13158436
  0
VERTEX
  8
0
 10
78.78106996
 20
96.18477366
  0
VERTEX
  8
0
 10
75.51460905
 20
96.35462963
  0
VERTEX
  8
0
 10
75.39701646
 20
96.18477366
  0
VERTEX
  8
0
 10
71.55565844
 20
96.47222222
  0
VERTEX
  8
0
 10
71.55565844
 20
97.00792181
  0
VERTEX
  8
0
 10
71.97376543
 20
97.00792181
  0
VERTEX
  8
0
 10
71.97376543
 20
97.24310700
  0
VERTEX
  8
0
 10
72.14362140
 20
97.60895062
  0
VERTEX
  8
0
 10
71.97376543
 20
97.77880658
  0
VERTEX
  8
0
 10
71.37273663
 20
97.77880658
  0
VERTEX
  8
0
 10
71.25514403
 20
97.60895062
  0
VERTEX
  8
0
 10
70.48425926
 20
97.24310700
  0
VERTEX
  8
0
 10
70.13148148
 20
97.42602881
  0
VERTEX
  8
0
 10
70.01388889
 20
97.77880658
  0
VERTEX
  8
0
 10
69.59578189
 20
98.13158436
  0
VERTEX
  8
0
 10
69.59578189
 20
98.31450617
  0
VERTEX
  8
0
 10
69.42592593
 20
98.49742798
  0
VERTEX
  8
0
 10
69.42592593
 20
98.85020576
  0
VERTEX
  8
0
 10
70.48425926
 20
99.20298354
  0
VERTEX
  8
0
 10
70.66718107
 20
99.37283951
  0
VERTEX
  8
0
 10
71.08528807
 20
99.73868313
  0
VERTEX
  8
0
 10
68.89022634
 20
99.73868313
  0
VERTEX
  8
0
 10
68.89022634
 20
100.67942387
  0
VERTEX
  8
0
 10
69.07314815
 20
100.67942387
  0
VERTEX
  8
0
 10
69.07314815
 20
101.56790123
  0
VERTEX
  8
0
 10
69.42592593
 20
101.56790123
  0
VERTEX
  8
0
 10
69.59578189
 20
101.75082305
  0
VERTEX
  8
0
 10
69.84403292
 20
101.75082305
  0
VERTEX
  8
0
 10
71.55565844
 20
101.92067901
  0
VERTEX
  8
0
 10
71.55565844
 20
102.10360082
  0
VERTEX
  8
0
 10
71.37273663
 20
102.27345679
  0
VERTEX
  8
0
 10
69.84403292
 20
102.27345679
  0
VERTEX
  8
0
 10
70.01388889
 20
102.80915638
  0
VERTEX
  8
0
 10
70.31440329
 20
103.52777778
  0
VERTEX
  8
0
 10
70.66718107
 20
103.52777778
  0
VERTEX
  8
0
 10
71.08528807
 20
103.81522634
  0
VERTEX
  8
0
 10
71.25514403
 20
104.05041152
  0
VERTEX
  8
0
 10
72.14362140
 20
104.76903292
  0
VERTEX
  8
0
 10
72.49639918
 20
105.12181070
  0
VERTEX
  8
0
 10
74.45627572
 20
105.12181070
  0
VERTEX
  8
0
 10
74.63919753
 20
104.93888889
  0
SEQEND
  0
POLYLINE
  8
Default Layer
 66
   1
 39
0.000000
 70
    1
  0
VERTEX
  8
0
 10
68.58971193
 20
101.56790123
  0
VERTEX
  8
0
 10
68.41985597
 20
99.37283951
  0
VERTEX
  8
0
 10
68.18467078
 20
99.20298354
  0
VERTEX
  8
0
 10
66.17253086
 20
98.13158436
  0
VERTEX
  8
0
 10
65.98960905
 20
98.13158436
  0
VERTEX
  8
0
 10
65.10113169
 20
97.77880658
  0
VERTEX
  8
0
 10
65.10113169
 20
97.96172840
  0
VERTEX
  8
0
 10
65.10113169
 20
101.14979424
  0
VERTEX
  8
0
 10
65.51923868
 20
101.14979424
  0
VERTEX
  8
0
 10
66.40771605
 20
101.56790123
  0
VERTEX
  8
0
 10
66.76049383
 20
101.33271605
  0
VERTEX
  8
0
 10
66.94341564
 20
101.56790123
  0
VERTEX
  8
0
 10
67.11327160
 20
101.56790123
  0
VERTEX
  8
0
 10
68.18467078
 20
101.56790123
  0
VERTEX
  8
0
 10
68.41985597
 20
101.75082305
  0
VERTEX
  8
0
 10
68.58971193
 20
101.56790123
  0
SEQEND
  0
POLYLINE
  8
Default Layer
 66
   1
 39
0.000000
 70
    1
  0
VERTEX
  8
0
 10
85.40545267
 20
100.97993827
  0
VERTEX
  8
0
 10
85.40545267
 20
100.09146091
  0
VERTEX
  8
0
 10
85.10493827
 20
100.09146091
  0
VERTEX
  8
0
 10
84.69989712
 20
100.09146091
  0
VERTEX
  8
0
 10
84.69989712
 20
100.50956790
  0
VERTEX
  8
0
 10
85.28786008
 20
101.14979424
  0
VERTEX
  8
0
 10
85.40545267
 20
100.97993827
  0
SEQEND
  0
POLYLINE
  8
Default Layer
 66
   1
 39
0.000000
 70
    1
  0
VERTEX
  8
0
 10
74.27335391
 20
100.86234568
  0
VERTEX
  8
0
 10
74.10349794
 20
100.26131687
  0
VERTEX
  8
0
 10
73.75072016
 20
100.26131687
  0
VERTEX
  8
0
 10
73.75072016
 20
100.86234568
  0
VERTEX
  8
0
 10
73.98590535
 20
101.14979424
  0
VERTEX
  8
0
 10
73.98590535
 20
100.97993827
  0
VERTEX
  8
0
 10
74.27335391
 20
100.86234568
  0
SEQEND
  0
POLYLINE
  8
Default Layer
 66
   1
 39
0.000000
 70
    1
  0
VERTEX
  8
0
 10
81.44650206
 20
99.73868313
  0
VERTEX
  8
0
 10
81.44650206
 20
98.85020576
  0
VERTEX
  8
0
 10
81.14598765
 20
98.85020576
  0
VERTEX
  8
0
 10
80.37510288
 20
98.85020576
  0
VERTEX
  8
0
 10
80.61028807
 20
99.37283951
  0
VERTEX
  8
0
 10
81.26358025
 20
99.90853909
  0
VERTEX
  8
0
 10
81.44650206
 20
99.73868313
  0
SEQEND
  0
POLYLINE
  8
Default Layer
 66
   1
 39
0.000000
 70
    1
  0
VERTEX
  8
0
 10
79.55195473
 20
99.73868313
  0
VERTEX
  8
0
 10
79.30370370
 20
99.20298354
  0
VERTEX
  8
0
 10
78.95092593
 20
99.37283951
  0
VERTEX
  8
0
 10
79.30370370
 20
99.90853909
  0
VERTEX
  8
0
 10
79.55195473
 20
99.73868313
  0
SEQEND
  0
POLYLINE
  8
Default Layer
 66
   1
 39
0.000000
 70
    1
  0
VERTEX
  8
0
 10
84.86975309
 20
99.37283951
  0
VERTEX
  8
0
 10
84.86975309
 20
98.49742798
  0
VERTEX
  8
0
 10
84.51697531
 20
98.49742798
  0
VERTEX
  8
0
 10
83.98127572
 20
98.85020576
  0
VERTEX
  8
0
 10
83.98127572
 20
99.02006173
  0
VERTEX
  8
0
 10
84.69989712
 20
99.55576132
  0
VERTEX
  8
0
 10
84.86975309
 20
99.37283951
  0
SEQEND
  0
POLYLINE
  8
Default Layer
 66
   1
 39
0.000000
 70
    1
  0
VERTEX
  8
0
 10
73.75072016
 20
99.37283951
  0
VERTEX
  8
0
 10
73.56779835
 20
99.20298354
  0
VERTEX
  8
0
 10
73.03209877
 20
99.20298354
  0
VERTEX
  8
0
 10
73.38487654
 20
99.55576132
  0
VERTEX
  8
0
 10
73.56779835
 20
99.55576132
  0
VERTEX
  8
0
 10
73.75072016
 20
99.37283951
  0
SEQEND
  0
POLYLINE
  8
Default Layer
 66
   1
 39
0.000000
 70
    1
  0
VERTEX
  8
0
 10
82.03446502
 20
97.77880658
  0
VERTEX
  8
0
 10
82.20432099
 20
97.24310700
  0
VERTEX
  8
0
 10
82.03446502
 20
96.83806584
  0
VERTEX
  8
0
 10
80.79320988
 20
96.47222222
  0
VERTEX
  8
0
 10
80.61028807
 20
96.83806584
  0
VERTEX
  8
0
 10
80.79320988
 20
97.42602881
  0
VERTEX
  8
0
 10
80.96306584
 20
97.60895062
  0
VERTEX
  8
0
 10
81.85154321
 20
97.96172840
  0
VERTEX
  8
0
 10
82.03446502
 20
97.77880658
  0
SEQEND
  0
POLYLINE
  8
Default Layer
 66
   1
 39
0.000000
 70
    1
  0
VERTEX
  8
0
 10
82.38724280
 20
96.18477366
  0
VERTEX
  8
0
 10
81.14598765
 20
93.75452675
  0
VERTEX
  8
0
 10
81.14598765
 20
93.63693416
  0
VERTEX
  8
0
 10
79.66954733
 20
88.95936214
  0
VERTEX
  8
0
 10
79.13384774
 20
88.95936214
  0
VERTEX
  8
0
 10
79.83940329
 20
95.76666667
  0
VERTEX
  8
0
 10
80.19218107
 20
95.76666667
  0
VERTEX
  8
0
 10
80.37510288
 20
95.94958848
  0
VERTEX
  8
0
 10
80.61028807
 20
95.94958848
  0
VERTEX
  8
0
 10
80.79320988
 20
96.18477366
  0
VERTEX
  8
0
 10
81.14598765
 20
96.18477366
  0
VERTEX
  8
0
 10
81.26358025
 20
96.35462963
  0
VERTEX
  8
0
 10
81.44650206
 20
96.35462963
  0
VERTEX
  8
0
 10
82.20432099
 20
96.35462963
  0
VERTEX
  8
0
 10
82.38724280
 20
96.18477366
  0
SEQEND
  0
POLYLINE
  8
Default Layer
 66
   1
 39
0.000000
 70
    1
  0
VERTEX
  8
0
 10
83.81141975
 20
95.94958848
  0
VERTEX
  8
0
 10
83.81141975
 20
95.76666667
  0
VERTEX
  8
0
 10
83.98127572
 20
95.59681070
  0
VERTEX
  8
0
 10
83.98127572
 20
94.17263374
  0
VERTEX
  8
0
 10
83.81141975
 20
93.75452675
  0
VERTEX
  8
0
 10
83.27572016
 20
93.28415638
  0
VERTEX
  8
0
 10
83.09279835
 20
93.28415638
  0
VERTEX
  8
0
 10
81.85154321
 20
92.86604938
  0
VERTEX
  8
0
 10
81.85154321
 20
93.28415638
  0
VERTEX
  8
0
 10
81.85154321
 20
93.63693416
  0
VERTEX
  8
0
 10
82.03446502
 20
93.98971193
  0
VERTEX
  8
0
 10
82.74002058
 20
95.11337449
  0
VERTEX
  8
0
 10
82.74002058
 20
95.23096708
  0
VERTEX
  8
0
 10
83.09279835
 20
95.76666667
  0
VERTEX
  8
0
 10
83.09279835
 20
95.94958848
  0
VERTEX
  8
0
 10
83.27572016
 20
96.35462963
  0
VERTEX
  8
0
 10
83.45864198
 20
96.18477366
  0
VERTEX
  8
0
 10
83.81141975
 20
95.94958848
  0
SEQEND
  0
POLYLINE
  8
Default Layer
 66
   1
 39
0.000000
 70
    1
  0
VERTEX
  8
0
 10
72.67932099
 20
95.94958848
  0
VERTEX
  8
0
 10
73.03209877
 20
95.76666667
  0
VERTEX
  8
0
 10
73.21502058
 20
95.94958848
  0
VERTEX
  8
0
 10
73.56779835
 20
95.76666667
  0
VERTEX
  8
0
 10
73.56779835
 20
95.41388889
  0
VERTEX
  8
0
 10
73.38487654
 20
95.11337449
  0
VERTEX
  8
0
 10
73.38487654
 20
94.87818930
  0
VERTEX
  8
0
 10
73.21502058
 20
93.98971193
  0
VERTEX
  8
0
 10
73.38487654
 20
93.75452675
  0
VERTEX
  8
0
 10
73.75072016
 20
92.86604938
  0
VERTEX
  8
0
 10
73.98590535
 20
92.69619342
  0
VERTEX
  8
0
 10
74.80905350
 20
92.04290123
  0
VERTEX
  8
0
 10
75.04423868
 20
92.04290123
  0
VERTEX
  8
0
 10
75.88045267
 20
92.04290123
  0
VERTEX
  8
0
 10
76.05030864
 20
92.21275720
  0
VERTEX
  8
0
 10
77.00411523
 20
92.33034979
  0
VERTEX
  8
0
 10
77.00411523
 20
92.04290123
  0
VERTEX
  8
0
 10
77.00411523
 20
91.08909465
  0
VERTEX
  8
0
 10
76.65133745
 20
90.97150206
  0
VERTEX
  8
0
 10
75.88045267
 20
91.08909465
  0
VERTEX
  8
0
 10
75.88045267
 20
90.97150206
  0
VERTEX
  8
0
 10
74.27335391
 20
88.37139918
  0
VERTEX
  8
0
 10
73.98590535
 20
88.37139918
  0
VERTEX
  8
0
 10
73.38487654
 20
88.95936214
  0
VERTEX
  8
0
 10
73.21502058
 20
88.95936214
  0
VERTEX
  8
0
 10
72.49639918
 20
89.31213992
  0
VERTEX
  8
0
 10
72.32654321
 20
89.31213992
  0
VERTEX
  8
0
 10
70.66718107
 20
89.49506173
  0
VERTEX
  8
0
 10
70.66718107
 20
89.61265432
  0
VERTEX
  8
0
 10
70.66718107
 20
90.03076132
  0
VERTEX
  8
0
 10
71.08528807
 20
90.03076132
  0
VERTEX
  8
0
 10
71.37273663
 20
90.38353909
  0
VERTEX
  8
0
 10
71.37273663
 20
90.55339506
  0
VERTEX
  8
0
 10
71.97376543
 20
91.44187243
  0
VERTEX
  8
0
 10
71.97376543
 20
91.62479424
  0
VERTEX
  8
0
 10
72.32654321
 20
92.86604938
  0
VERTEX
  8
0
 10
72.14362140
 20
93.10123457
  0
VERTEX
  8
0
 10
72.49639918
 20
94.52541152
  0
VERTEX
  8
0
 10
72.32654321
 20
94.70833333
  0
VERTEX
  8
0
 10
72.32654321
 20
96.18477366
  0
VERTEX
  8
0
 10
72.67932099
 20
95.94958848
  0
SEQEND
  0
POLYLINE
  8
Default Layer
 66
   1
 39
0.000000
 70
    1
  0
VERTEX
  8
0
 10
78.78106996
 20
95.76666667
  0
VERTEX
  8
0
 10
79.13384774
 20
95.76666667
  0
VERTEX
  8
0
 10
79.13384774
 20
95.41388889
  0
VERTEX
  8
0
 10
78.59814815
 20
89.49506173
  0
VERTEX
  8
0
 10
78.06244856
 20
89.49506173
  0
VERTEX
  8
0
 10
77.89259259
 20
90.73631687
  0
VERTEX
  8
0
 10
77.70967078
 20
90.97150206
  0
VERTEX
  8
0
 10
77.70967078
 20
91.80771605
  0
VERTEX
  8
0
 10
77.53981481
 20
92.04290123
  0
VERTEX
  8
0
 10
77.53981481
 20
92.86604938
  0
VERTEX
  8
0
 10
77.29156379
 20
93.10123457
  0
VERTEX
  8
0
 10
77.29156379
 20
93.28415638
  0
VERTEX
  8
0
 10
77.12170782
 20
93.45401235
  0
VERTEX
  8
0
 10
77.12170782
 20
94.17263374
  0
VERTEX
  8
0
 10
77.00411523
 20
94.34248971
  0
VERTEX
  8
0
 10
77.12170782
 20
95.76666667
  0
VERTEX
  8
0
 10
77.53981481
 20
95.76666667
  0
VERTEX
  8
0
 10
78.59814815
 20
95.94958848
  0
VERTEX
  8
0
 10
78.78106996
 20
95.76666667
  0
SEQEND
  0
POLYLINE
  8
Default Layer
 66
   1
 39
0.000000
 70
    1
  0
VERTEX
  8
0
 10
76.05030864
 20
95.76666667
  0
VERTEX
  8
0
 10
76.05030864
 20
95.59681070
  0
VERTEX
  8
0
 10
76.23323045
 20
95.41388889
  0
VERTEX
  8
0
 10
76.23323045
 20
94.70833333
  0
VERTEX
  8
0
 10
76.46841564
 20
94.52541152
  0
VERTEX
  8
0
 10
76.46841564
 20
93.75452675
  0
VERTEX
  8
0
 10
76.65133745
 20
93.63693416
  0
VERTEX
  8
0
 10
76.65133745
 20
92.69619342
  0
VERTEX
  8
0
 10
76.23323045
 20
92.69619342
  0
VERTEX
  8
0
 10
74.80905350
 20
92.69619342
  0
VERTEX
  8
0
 10
74.80905350
 20
93.10123457
  0
VERTEX
  8
0
 10
74.80905350
 20
93.45401235
  0
VERTEX
  8
0
 10
74.63919753
 20
93.45401235
  0
VERTEX
  8
0
 10
74.63919753
 20
93.75452675
  0
VERTEX
  8
0
 10
74.45627572
 20
93.75452675
  0
VERTEX
  8
0
 10
74.27335391
 20
94.17263374
  0
VERTEX
  8
0
 10
74.80905350
 20
95.94958848
  0
VERTEX
  8
0
 10
75.22716049
 20
95.94958848
  0
VERTEX
  8
0
 10
75.88045267
 20
95.94958848
  0
VERTEX
  8
0
 10
76.05030864
 20
95.76666667
  0
SEQEND
  0
POLYLINE
  8
Default Layer
 66
   1
 39
0.000000
 70
    1
  0
VERTEX
  8
0
 10
71.55565844
 20
92.21275720
  0
VERTEX
  8
0
 10
71.37273663
 20
92.04290123
  0
VERTEX
  8
0
 10
71.55565844
 20
92.21275720
  0
SEQEND
  0
POLYLINE
  8
Default Layer
 66
   1
 39
0.000000
 70
    1
  0
VERTEX
  8
0
 10
81.44650206
 20
91.08909465
  0
VERTEX
  8
0
 10
81.85154321
 20
90.20061728
  0
VERTEX
  8
0
 10
82.03446502
 20
90.03076132
  0
VERTEX
  8
0
 10
82.20432099
 20
89.84783951
  0
VERTEX
  8
0
 10
82.20432099
 20
89.61265432
  0
VERTEX
  8
0
 10
82.20432099
 20
88.95936214
  0
VERTEX
  8
0
 10
82.38724280
 20
88.78950617
  0
VERTEX
  8
0
 10
82.03446502
 20
87.90102881
  0
VERTEX
  8
0
 10
81.85154321
 20
88.07088477
  0
VERTEX
  8
0
 10
81.14598765
 20
88.37139918
  0
VERTEX
  8
0
 10
81.14598765
 20
88.25380658
  0
VERTEX
  8
0
 10
81.68168724
 20
88.07088477
  0
VERTEX
  8
0
 10
81.68168724
 20
87.71810700
  0
VERTEX
  8
0
 10
82.03446502
 20
87.30000000
  0
VERTEX
  8
0
 10
82.03446502
 20
87.13014403
  0
VERTEX
  8
0
 10
82.03446502
 20
85.70596708
  0
VERTEX
  8
0
 10
81.85154321
 20
85.70596708
  0
VERTEX
  8
0
 10
81.68168724
 20
85.70596708
  0
VERTEX
  8
0
 10
81.44650206
 20
85.52304527
  0
VERTEX
  8
0
 10
80.61028807
 20
85.52304527
  0
VERTEX
  8
0
 10
80.19218107
 20
85.70596708
  0
VERTEX
  8
0
 10
80.02232510
 20
86.41152263
  0
VERTEX
  8
0
 10
79.83940329
 20
86.41152263
  0
VERTEX
  8
0
 10
79.66954733
 20
85.52304527
  0
VERTEX
  8
0
 10
79.30370370
 20
85.52304527
  0
VERTEX
  8
0
 10
78.59814815
 20
85.52304527
  0
VERTEX
  8
0
 10
78.78106996
 20
86.05874486
  0
VERTEX
  8
0
 10
78.78106996
 20
86.59444444
  0
VERTEX
  8
0
 10
78.59814815
 20
86.77736626
  0
VERTEX
  8
0
 10
78.24537037
 20
86.77736626
  0
VERTEX
  8
0
 10
78.24537037
 20
86.59444444
  0
VERTEX
  8
0
 10
77.89259259
 20
85.52304527
  0
VERTEX
  8
0
 10
77.70967078
 20
85.52304527
  0
VERTEX
  8
0
 10
76.46841564
 20
85.88888889
  0
VERTEX
  8
0
 10
76.46841564
 20
86.05874486
  0
VERTEX
  8
0
 10
76.82119342
 20
86.77736626
  0
VERTEX
  8
0
 10
76.82119342
 20
86.94722222
  0
VERTEX
  8
0
 10
77.70967078
 20
88.07088477
  0
VERTEX
  8
0
 10
77.89259259
 20
88.07088477
  0
VERTEX
  8
0
 10
78.06244856
 20
88.54125514
  0
VERTEX
  8
0
 10
78.59814815
 20
88.37139918
  0
VERTEX
  8
0
 10
79.83940329
 20
88.25380658
  0
VERTEX
  8
0
 10
80.02232510
 20
88.37139918
  0
VERTEX
  8
0
 10
80.37510288
 20
88.54125514
  0
VERTEX
  8
0
 10
80.37510288
 20
88.78950617
  0
VERTEX
  8
0
 10
80.96306584
 20
91.27201646
  0
VERTEX
  8
0
 10
81.26358025
 20
91.27201646
  0
VERTEX
  8
0
 10
81.44650206
 20
91.08909465
  0
SEQEND
  0
POLYLINE
  8
Default Layer
 66
   1
 39
0.000000
 70
    1
  0
VERTEX
  8
0
 10
106.59825103
 20
90.20061728
  0
VERTEX
  8
0
 10
108.07469136
 20
89.49506173
  0
VERTEX
  8
0
 10
108.19228395
 20
89.49506173
  0
VERTEX
  8
0
 10
108.91090535
 20
89.14228395
  0
VERTEX
  8
0
 10
109.14609053
 20
89.14228395
  0
VERTEX
  8
0
 10
109.79938272
 20
88.95936214
  0
VERTEX
  8
0
 10
109.79938272
 20
88.54125514
  0
VERTEX
  8
0
 10
108.19228395
 20
86.77736626
  0
VERTEX
  8
0
 10
107.83950617
 20
86.94722222
  0
VERTEX
  8
0
 10
107.66965021
 20
87.71810700
  0
VERTEX
  8
0
 10
108.07469136
 20
87.71810700
  0
VERTEX
  8
0
 10
108.19228395
 20
88.37139918
  0
VERTEX
  8
0
 10
108.07469136
 20
88.37139918
  0
VERTEX
  8
0
 10
107.13395062
 20
87.48292181
  0
VERTEX
  8
0
 10
107.13395062
 20
87.30000000
  0
VERTEX
  8
0
 10
107.13395062
 20
86.94722222
  0
VERTEX
  8
0
 10
106.78117284
 20
86.94722222
  0
VERTEX
  8
0
 10
105.52685185
 20
87.13014403
  0
VERTEX
  8
0
 10
105.64444444
 20
87.71810700
  0
VERTEX
  8
0
 10
106.06255144
 20
88.37139918
  0
VERTEX
  8
0
 10
105.89269547
 20
88.37139918
  0
VERTEX
  8
0
 10
105.00421811
 20
87.48292181
  0
VERTEX
  8
0
 10
104.63837449
 20
87.48292181
  0
VERTEX
  8
0
 10
104.40318930
 20
87.71810700
  0
VERTEX
  8
0
 10
104.40318930
 20
87.90102881
  0
VERTEX
  8
0
 10
105.00421811
 20
89.49506173
  0
VERTEX
  8
0
 10
105.35699588
 20
89.49506173
  0
VERTEX
  8
0
 10
105.89269547
 20
90.03076132
  0
VERTEX
  8
0
 10
106.24547325
 20
90.38353909
  0
VERTEX
  8
0
 10
106.06255144
 20
90.38353909
  0
VERTEX
  8
0
 10
106.59825103
 20
90.20061728
  0
SEQEND
  0
POLYLINE
  8
Default Layer
 66
   1
 39
0.000000
 70
    1
  0
VERTEX
  8
0
 10
113.64074074
 20
88.54125514
  0
VERTEX
  8
0
 10
113.99351852
 20
88.37139918
  0
VERTEX
  8
0
 10
114.11111111
 20
88.37139918
  0
VERTEX
  8
0
 10
115.77047325
 20
88.25380658
  0
VERTEX
  8
0
 10
115.95339506
 20
87.90102881
  0
VERTEX
  8
0
 10
115.95339506
 20
87.48292181
  0
VERTEX
  8
0
 10
116.12325103
 20
87.48292181
  0
VERTEX
  8
0
 10
116.30617284
 20
88.07088477
  0
VERTEX
  8
0
 10
117.01172840
 20
88.07088477
  0
VERTEX
  8
0
 10
117.19465021
 20
88.25380658
  0
VERTEX
  8
0
 10
118.61882716
 20
88.07088477
  0
VERTEX
  8
0
 10
118.85401235
 20
87.71810700
  0
VERTEX
  8
0
 10
118.25298354
 20
86.05874486
  0
VERTEX
  8
0
 10
117.96553498
 20
86.05874486
  0
VERTEX
  8
0
 10
117.54742798
 20
86.29393004
  0
VERTEX
  8
0
 10
117.36450617
 20
86.59444444
  0
VERTEX
  8
0
 10
117.54742798
 20
87.71810700
  0
VERTEX
  8
0
 10
117.36450617
 20
87.71810700
  0
VERTEX
  8
0
 10
116.65895062
 20
86.05874486
  0
VERTEX
  8
0
 10
115.53528807
 20
86.05874486
  0
VERTEX
  8
0
 10
115.77047325
 20
86.59444444
  0
VERTEX
  8
0
 10
115.77047325
 20
86.77736626
  0
VERTEX
  8
0
 10
115.53528807
 20
86.77736626
  0
VERTEX
  8
0
 10
115.06491770
 20
86.05874486
  0
VERTEX
  8
0
 10
114.47695473
 20
86.29393004
  0
VERTEX
  8
0
 10
113.99351852
 20
86.29393004
  0
VERTEX
  8
0
 10
113.99351852
 20
86.59444444
  0
VERTEX
  8
0
 10
114.29403292
 20
86.59444444
  0
VERTEX
  8
0
 10
114.29403292
 20
87.13014403
  0
VERTEX
  8
0
 10
114.11111111
 20
87.13014403
  0
VERTEX
  8
0
 10
113.82366255
 20
86.94722222
  0
VERTEX
  8
0
 10
113.64074074
 20
86.77736626
  0
VERTEX
  8
0
 10
113.22263374
 20
86.29393004
  0
VERTEX
  8
0
 10
112.21656379
 20
86.29393004
  0
VERTEX
  8
0
 10
112.21656379
 20
86.77736626
  0
VERTEX
  8
0
 10
112.51707819
 20
86.77736626
  0
VERTEX
  8
0
 10
112.51707819
 20
86.94722222
  0
VERTEX
  8
0
 10
112.33415638
 20
87.48292181
  0
VERTEX
  8
0
 10
112.21656379
 20
87.48292181
  0
VERTEX
  8
0
 10
111.62860082
 20
86.41152263
  0
VERTEX
  8
0
 10
110.74012346
 20
86.41152263
  0
VERTEX
  8
0
 10
110.74012346
 20
86.77736626
  0
VERTEX
  8
0
 10
111.27582305
 20
88.07088477
  0
VERTEX
  8
0
 10
110.92304527
 20
88.07088477
  0
VERTEX
  8
0
 10
110.74012346
 20
87.71810700
  0
VERTEX
  8
0
 10
109.79938272
 20
86.59444444
  0
VERTEX
  8
0
 10
109.68179012
 20
86.77736626
  0
VERTEX
  8
0
 10
109.31594650
 20
86.77736626
  0
VERTEX
  8
0
 10
109.31594650
 20
86.94722222
  0
VERTEX
  8
0
 10
110.57026749
 20
88.78950617
  0
VERTEX
  8
0
 10
110.74012346
 20
88.78950617
  0
VERTEX
  8
0
 10
113.22263374
 20
88.54125514
  0
VERTEX
  8
0
 10
113.40555556
 20
88.78950617
  0
VERTEX
  8
0
 10
113.64074074
 20
88.54125514
  0
SEQEND
  0
POLYLINE
  8
Default Layer
 66
   1
 39
0.000000
 70
    1
  0
VERTEX
  8
0
 10
72.67932099
 20
88.54125514
  0
VERTEX
  8
0
 10
73.38487654
 20
88.07088477
  0
VERTEX
  8
0
 10
73.38487654
 20
87.90102881
  0
VERTEX
  8
0
 10
73.38487654
 20
87.71810700
  0
VERTEX
  8
0
 10
73.56779835
 20
87.48292181
  0
VERTEX
  8
0
 10
73.75072016
 20
86.77736626
  0
VERTEX
  8
0
 10
73.98590535
 20
86.59444444
  0
VERTEX
  8
0
 10
73.98590535
 20
85.88888889
  0
VERTEX
  8
0
 10
73.56779835
 20
85.88888889
  0
VERTEX
  8
0
 10
72.32654321
 20
85.88888889
  0
VERTEX
  8
0
 10
72.14362140
 20
86.05874486
  0
VERTEX
  8
0
 10
72.14362140
 20
86.41152263
  0
VERTEX
  8
0
 10
71.97376543
 20
86.59444444
  0
VERTEX
  8
0
 10
71.97376543
 20
87.13014403
  0
VERTEX
  8
0
 10
71.73858025
 20
87.13014403
  0
VERTEX
  8
0
 10
71.55565844
 20
85.88888889
  0
VERTEX
  8
0
 10
71.25514403
 20
85.88888889
  0
VERTEX
  8
0
 10
70.90236626
 20
85.88888889
  0
VERTEX
  8
0
 10
70.90236626
 20
86.05874486
  0
VERTEX
  8
0
 10
70.66718107
 20
86.94722222
  0
VERTEX
  8
0
 10
70.48425926
 20
86.94722222
  0
VERTEX
  8
0
 10
70.13148148
 20
86.41152263
  0
VERTEX
  8
0
 10
70.13148148
 20
85.88888889
  0
VERTEX
  8
0
 10
70.01388889
 20
85.70596708
  0
VERTEX
  8
0
 10
69.84403292
 20
85.70596708
  0
VERTEX
  8
0
 10
68.89022634
 20
85.70596708
  0
VERTEX
  8
0
 10
68.89022634
 20
86.05874486
  0
VERTEX
  8
0
 10
69.24300412
 20
87.48292181
  0
VERTEX
  8
0
 10
69.42592593
 20
87.48292181
  0
VERTEX
  8
0
 10
70.31440329
 20
88.37139918
  0
VERTEX
  8
0
 10
70.48425926
 20
88.37139918
  0
VERTEX
  8
0
 10
70.90236626
 20
88.78950617
  0
VERTEX
  8
0
 10
71.08528807
 20
88.78950617
  0
VERTEX
  8
0
 10
72.49639918
 20
88.78950617
  0
VERTEX
  8
0
 10
72.67932099
 20
88.54125514
  0
SEQEND
  0
POLYLINE
  8
Default Layer
 66
   1
 39
0.000000
 70
    1
  0
VERTEX
  8
0
 10
123.34866255
 20
88.25380658
  0
VERTEX
  8
0
 10
123.81903292
 20
88.25380658
  0
VERTEX
  8
0
 10
123.64917695
 20
87.71810700
  0
VERTEX
  8
0
 10
122.93055556
 20
86.29393004
  0
VERTEX
  8
0
 10
122.76069959
 20
86.29393004
  0
VERTEX
  8
0
 10
122.57777778
 20
86.05874486
  0
VERTEX
  8
0
 10
122.29032922
 20
86.29393004
  0
VERTEX
  8
0
 10
122.57777778
 20
87.48292181
  0
VERTEX
  8
0
 10
122.57777778
 20
87.71810700
  0
VERTEX
  8
0
 10
123.11347737
 20
88.37139918
  0
VERTEX
  8
0
 10
123.34866255
 20
88.25380658
  0
SEQEND
  0
POLYLINE
  8
Default Layer
 66
   1
 39
0.000000
 70
    1
  0
VERTEX
  8
0
 10
121.98981481
 20
88.07088477
  0
VERTEX
  8
0
 10
122.40792181
 20
87.71810700
  0
VERTEX
  8
0
 10
122.29032922
 20
87.71810700
  0
VERTEX
  8
0
 10
121.10133745
 20
86.05874486
  0
VERTEX
  8
0
 10
120.74855967
 20
86.29393004
  0
VERTEX
  8
0
 10
120.63096708
 20
86.05874486
  0
VERTEX
  8
0
 10
120.44804527
 20
86.05874486
  0
VERTEX
  8
0
 10
119.67716049
 20
86.29393004
  0
VERTEX
  8
0
 10
119.50730453
 20
86.05874486
  0
VERTEX
  8
0
 10
118.85401235
 20
86.41152263
  0
VERTEX
  8
0
 10
118.85401235
 20
86.77736626
  0
VERTEX
  8
0
 10
119.67716049
 20
88.25380658
  0
VERTEX
  8
0
 10
119.91234568
 20
88.25380658
  0
VERTEX
  8
0
 10
120.74855967
 20
88.25380658
  0
VERTEX
  8
0
 10
120.74855967
 20
87.90102881
  0
VERTEX
  8
0
 10
120.74855967
 20
87.30000000
  0
VERTEX
  8
0
 10
120.44804527
 20
87.30000000
  0
VERTEX
  8
0
 10
120.26512346
 20
86.41152263
  0
VERTEX
  8
0
 10
120.44804527
 20
86.59444444
  0
VERTEX
  8
0
 10
120.91841564
 20
88.07088477
  0
VERTEX
  8
0
 10
121.33652263
 20
88.07088477
  0
VERTEX
  8
0
 10
121.87222222
 20
88.25380658
  0
VERTEX
  8
0
 10
121.98981481
 20
88.07088477
  0
SEQEND
  0
POLYLINE
  8
Default Layer
 66
   1
 39
0.000000
 70
    1
  0
VERTEX
  8
0
 10
125.06028807
 20
87.90102881
  0
VERTEX
  8
0
 10
125.06028807
 20
87.48292181
  0
VERTEX
  8
0
 10
124.89043210
 20
87.13014403
  0
VERTEX
  8
0
 10
124.18487654
 20
86.05874486
  0
VERTEX
  8
0
 10
124.00195473
 20
86.05874486
  0
VERTEX
  8
0
 10
123.53158436
 20
86.59444444
  0
VERTEX
  8
0
 10
123.64917695
 20
86.94722222
  0
VERTEX
  8
0
 10
124.42006173
 20
88.07088477
  0
VERTEX
  8
0
 10
124.58991770
 20
88.07088477
  0
VERTEX
  8
0
 10
124.89043210
 20
88.07088477
  0
VERTEX
  8
0
 10
125.06028807
 20
87.90102881
  0
SEQEND
  0
POLYLINE
  8
Default Layer
 66
   1
 39
0.000000
 70
    1
  0
VERTEX
  8
0
 10
126.54979424
 20
87.71810700
  0
VERTEX
  8
0
 10
125.83117284
 20
86.29393004
  0
VERTEX
  8
0
 10
125.66131687
 20
86.29393004
  0
VERTEX
  8
0
 10
124.89043210
 20
86.29393004
  0
VERTEX
  8
0
 10
124.89043210
 20
86.59444444
  0
VERTEX
  8
0
 10
126.01409465
 20
87.90102881
  0
VERTEX
  8
0
 10
126.19701646
 20
87.90102881
  0
VERTEX
  8
0
 10
126.36687243
 20
87.90102881
  0
VERTEX
  8
0
 10
126.54979424
 20
87.71810700
  0
SEQEND
  0
POLYLINE
  8
Default Layer
 66
   1
 39
0.000000
 70
    1
  0
VERTEX
  8
0
 10
127.67345679
 20
87.48292181
  0
VERTEX
  8
0
 10
128.14382716
 20
87.13014403
  0
VERTEX
  8
0
 10
128.32674897
 20
87.30000000
  0
VERTEX
  8
0
 10
128.49660494
 20
87.48292181
  0
VERTEX
  8
0
 10
128.67952675
 20
87.48292181
  0
VERTEX
  8
0
 10
129.73786008
 20
87.30000000
  0
VERTEX
  8
0
 10
129.73786008
 20
86.94722222
  0
VERTEX
  8
0
 10
129.03230453
 20
85.88888889
  0
VERTEX
  8
0
 10
128.91471193
 20
85.88888889
  0
VERTEX
  8
0
 10
128.14382716
 20
86.59444444
  0
VERTEX
  8
0
 10
128.32674897
 20
86.59444444
  0
VERTEX
  8
0
 10
128.32674897
 20
86.77736626
  0
VERTEX
  8
0
 10
128.14382716
 20
86.77736626
  0
VERTEX
  8
0
 10
127.79104938
 20
86.05874486
  0
VERTEX
  8
0
 10
127.49053498
 20
86.05874486
  0
VERTEX
  8
0
 10
126.54979424
 20
86.05874486
  0
VERTEX
  8
0
 10
126.54979424
 20
86.41152263
  0
VERTEX
  8
0
 10
127.49053498
 20
87.71810700
  0
VERTEX
  8
0
 10
127.67345679
 20
87.48292181
  0
SEQEND
  0
POLYLINE
  8
Default Layer
 66
   1
 39
0.000000
 70
    1
  0
VERTEX
  8
0
 10
131.39722222
 20
87.13014403
  0
VERTEX
  8
0
 10
131.58014403
 20
86.59444444
  0
VERTEX
  8
0
 10
131.75000000
 20
86.59444444
  0
VERTEX
  8
0
 10
131.93292181
 20
86.41152263
  0
VERTEX
  8
0
 10
131.75000000
 20
86.29393004
  0
VERTEX
  8
0
 10
131.22736626
 20
85.52304527
  0
VERTEX
  8
0
 10
131.04444444
 20
85.52304527
  0
VERTEX
  8
0
 10
129.97304527
 20
85.88888889
  0
VERTEX
  8
0
 10
129.97304527
 20
86.29393004
  0
VERTEX
  8
0
 10
130.33888889
 20
87.13014403
  0
VERTEX
  8
0
 10
130.50874486
 20
87.13014403
  0
VERTEX
  8
0
 10
131.22736626
 20
87.30000000
  0
VERTEX
  8
0
 10
131.39722222
 20
87.13014403
  0
SEQEND
  0
POLYLINE
  8
Default Layer
 66
   1
 39
0.000000
 70
    1
  0
VERTEX
  8
0
 10
133.17417695
 20
86.59444444
  0
VERTEX
  8
0
 10
133.35709877
 20
86.05874486
  0
VERTEX
  8
0
 10
133.17417695
 20
85.88888889
  0
VERTEX
  8
0
 10
132.46862140
 20
85.35318930
  0
VERTEX
  8
0
 10
132.11584362
 20
85.52304527
  0
VERTEX
  8
0
 10
132.28569959
 20
86.59444444
  0
VERTEX
  8
0
 10
132.63847737
 20
86.59444444
  0
VERTEX
  8
0
 10
133.05658436
 20
86.77736626
  0
VERTEX
  8
0
 10
133.17417695
 20
86.59444444
  0
SEQEND
  0
POLYLINE
  8
Default Layer
 66
   1
 39
0.000000
 70
    1
  0
VERTEX
  8
0
 10
92.21275720
 20
86.59444444
  0
VERTEX
  8
0
 10
92.02983539
 20
86.41152263
  0
VERTEX
  8
0
 10
92.21275720
 20
86.59444444
  0
SEQEND
  0
POLYLINE
  8
Default Layer
 66
   1
 39
0.000000
 70
    1
  0
VERTEX
  8
0
 10
134.12798354
 20
85.88888889
  0
VERTEX
  8
0
 10
134.29783951
 20
85.52304527
  0
VERTEX
  8
0
 10
134.12798354
 20
85.35318930
  0
VERTEX
  8
0
 10
133.35709877
 20
85.00041152
  0
VERTEX
  8
0
 10
133.05658436
 20
85.23559671
  0
VERTEX
  8
0
 10
133.05658436
 20
85.52304527
  0
VERTEX
  8
0
 10
133.17417695
 20
85.70596708
  0
VERTEX
  8
0
 10
133.87973251
 20
86.05874486
  0
VERTEX
  8
0
 10
134.12798354
 20
85.88888889
  0
SEQEND
  0
POLYLINE
  8
Default Layer
 66
   1
 39
0.000000
 70
    1
  0
VERTEX
  8
0
 10
135.72201646
 20
85.23559671
  0
VERTEX
  8
0
 10
136.37530864
 20
84.46471193
  0
VERTEX
  8
0
 10
136.07479424
 20
84.46471193
  0
VERTEX
  8
0
 10
134.65061728
 20
84.46471193
  0
VERTEX
  8
0
 10
134.48076132
 20
84.28179012
  0
VERTEX
  8
0
 10
133.87973251
 20
84.63456790
  0
VERTEX
  8
0
 10
134.12798354
 20
85.00041152
  0
VERTEX
  8
0
 10
134.29783951
 20
85.23559671
  0
VERTEX
  8
0
 10
134.48076132
 20
85.23559671
  0
VERTEX
  8
0
 10
135.13405350
 20
85.23559671
  0
VERTEX
  8
0
 10
135.30390947
 20
85.35318930
  0
VERTEX
  8
0
 10
135.53909465
 20
85.35318930
  0
VERTEX
  8
0
 10
135.72201646
 20
85.23559671
  0
SEQEND
  0
POLYLINE
  8
Default Layer
 66
   1
 39
0.000000
 70
    1
  0
VERTEX
  8
0
 10
136.61049383
 20
84.11193416
  0
VERTEX
  8
0
 10
137.14619342
 20
84.11193416
  0
VERTEX
  8
0
 10
137.14619342
 20
83.69382716
  0
VERTEX
  8
0
 10
137.31604938
 20
83.57623457
  0
VERTEX
  8
0
 10
137.31604938
 20
83.39331276
  0
VERTEX
  8
0
 10
136.78034979
 20
82.15205761
  0
VERTEX
  8
0
 10
136.61049383
 20
82.15205761
  0
VERTEX
  8
0
 10
135.72201646
 20
81.98220165
  0
VERTEX
  8
0
 10
135.53909465
 20
81.73395062
  0
VERTEX
  8
0
 10
134.65061728
 20
81.73395062
  0
VERTEX
  8
0
 10
134.65061728
 20
81.98220165
  0
VERTEX
  8
0
 10
134.12798354
 20
82.80534979
  0
VERTEX
  8
0
 10
134.29783951
 20
83.04053498
  0
VERTEX
  8
0
 10
135.90493827
 20
82.80534979
  0
VERTEX
  8
0
 10
135.90493827
 20
83.04053498
  0
VERTEX
  8
0
 10
134.95113169
 20
83.57623457
  0
VERTEX
  8
0
 10
134.76820988
 20
83.39331276
  0
VERTEX
  8
0
 10
134.12798354
 20
83.39331276
  0
VERTEX
  8
0
 10
134.29783951
 20
83.69382716
  0
VERTEX
  8
0
 10
134.29783951
 20
84.11193416
  0
VERTEX
  8
0
 10
134.65061728
 20
84.11193416
  0
VERTEX
  8
0
 10
135.53909465
 20
84.11193416
  0
VERTEX
  8
0
 10
135.72201646
 20
84.28179012
  0
VERTEX
  8
0
 10
136.37530864
 20
84.28179012
  0
VERTEX
  8
0
 10
136.61049383
 20
84.11193416
  0
SEQEND
  0
POLYLINE
  8
Default Layer
 66
   1
 39
0.000000
 70
    1
  0
VERTEX
  8
0
 10
133.70987654
 20
82.45257202
  0
VERTEX
  8
0
 10
134.48076132
 20
81.98220165
  0
VERTEX
  8
0
 10
134.29783951
 20
81.56409465
  0
VERTEX
  8
0
 10
134.12798354
 20
81.38117284
  0
VERTEX
  8
0
 10
133.87973251
 20
81.38117284
  0
VERTEX
  8
0
 10
132.63847737
 20
81.56409465
  0
VERTEX
  8
0
 10
132.63847737
 20
81.98220165
  0
VERTEX
  8
0
 10
132.63847737
 20
82.45257202
  0
VERTEX
  8
0
 10
133.05658436
 20
82.45257202
  0
VERTEX
  8
0
 10
133.52695473
 20
82.62242798
  0
VERTEX
  8
0
 10
133.70987654
 20
82.45257202
  0
SEQEND
  0
POLYLINE
  8
Default Layer
 66
   1
 39
0.000000
 70
    1
  0
VERTEX
  8
0
 10
132.11584362
 20
82.15205761
  0
VERTEX
  8
0
 10
132.28569959
 20
81.38117284
  0
VERTEX
  8
0
 10
131.93292181
 20
81.38117284
  0
VERTEX
  8
0
 10
130.50874486
 20
81.38117284
  0
VERTEX
  8
0
 10
130.69166667
 20
81.98220165
  0
VERTEX
  8
0
 10
131.75000000
 20
82.15205761
  0
VERTEX
  8
0
 10
131.93292181
 20
82.33497942
  0
VERTEX
  8
0
 10
132.11584362
 20
82.15205761
  0
SEQEND
  0
POLYLINE
  8
Default Layer
 66
   1
 39
0.000000
 70
    1
  0
VERTEX
  8
0
 10
130.15596708
 20
81.98220165
  0
VERTEX
  8
0
 10
130.15596708
 20
81.38117284
  0
VERTEX
  8
0
 10
129.97304527
 20
81.38117284
  0
VERTEX
  8
0
 10
129.38508230
 20
81.38117284
  0
VERTEX
  8
0
 10
129.38508230
 20
81.73395062
  0
VERTEX
  8
0
 10
129.73786008
 20
82.15205761
  0
VERTEX
  8
0
 10
130.15596708
 20
81.98220165
  0
SEQEND
  0
POLYLINE
  8
Default Layer
 66
   1
 39
0.000000
 70
    1
  0
VERTEX
  8
0
 10
129.03230453
 20
81.73395062
  0
VERTEX
  8
0
 10
128.67952675
 20
81.21131687
  0
VERTEX
  8
0
 10
128.49660494
 20
81.21131687
  0
VERTEX
  8
0
 10
127.79104938
 20
81.21131687
  0
VERTEX
  8
0
 10
127.79104938
 20
81.56409465
  0
VERTEX
  8
0
 10
127.79104938
 20
81.98220165
  0
VERTEX
  8
0
 10
128.14382716
 20
81.98220165
  0
VERTEX
  8
0
 10
128.91471193
 20
81.98220165
  0
VERTEX
  8
0
 10
129.03230453
 20
81.73395062
  0
SEQEND
  0
POLYLINE
  8
Default Layer
 66
   1
 39
0.000000
 70
    1
  0
VERTEX
  8
0
 10
127.49053498
 20
81.73395062
  0
VERTEX
  8
0
 10
127.49053498
 20
81.21131687
  0
VERTEX
  8
0
 10
127.07242798
 20
81.21131687
  0
VERTEX
  8
0
 10
126.36687243
 20
81.21131687
  0
VERTEX
  8
0
 10
126.54979424
 20
81.73395062
  0
VERTEX
  8
0
 10
127.25534979
 20
81.98220165
  0
VERTEX
  8
0
 10
127.49053498
 20
81.73395062
  0
SEQEND
  0
ENDSEC
  0
EOF
