  0
SECTION
  2
HEADER
  9
$ACADVER
  1
AC1015
  9
$ACADMAINTVER
 70
     6
  9
$DWGCODEPAGE
  3
ANSI_1252
  9
$INSBASE
 10
0.0
 20
0.0
 30
0.0
  9
$EXTMIN
 10
1.000000E+20
 20
1.000000E+20
 30
1.000000E+20
  9
$EXTMAX
 10
-1.000000E+20
 20
-1.000000E+20
 30
-1.000000E+20
  9
$LIMMIN
 10
0.0
 20
0.0
  9
$LIMMAX
 10
420.0
 20
297.0
  9
$ORTHOMODE
 70
     0
  9
$REGENMODE
 70
     1
  9
$FILLMODE
 70
     1
  9
$QTEXTMODE
 70
     0
  9
$MIRRTEXT
 70
     1
  9
$LTSCALE
 40
1.0
  9
$ATTMODE
 70
     1
  9
$TEXTSIZE
 40
2.5
  9
$TRACEWID
 40
1.0
  9
$TEXTSTYLE
  7
Standard
  9
$CLAYER
  8
0
  9
$CELTYPE
  6
ByLayer
  9
$CECOLOR
 62
   256
  9
$CELTSCALE
 40
1.0
  9
$DISPSILH
 70
     0
  9
$DIMSCALE
 40
1.0
  9
$DIMASZ
 40
2.5
  9
$DIMEXO
 40
0.625
  9
$DIMDLI
 40
3.75
  9
$DIMRND
 40
0.0
  9
$DIMDLE
 40
0.0
  9
$DIMEXE
 40
1.25
  9
$DIMTP
 40
0.0
  9
$DIMTM
 40
0.0
  9
$DIMTXT
 40
2.5
  9
$DIMCEN
 40
2.5
  9
$DIMTSZ
 40
0.0
  9
$DIMTOL
 70
     0
  9
$DIMLIM
 70
     0
  9
$DIMTIH
 70
     0
  9
$DIMTOH
 70
     0
  9
$DIMSE1
 70
     0
  9
$DIMSE2
 70
     0
  9
$DIMTAD
 70
     1
  9
$DIMZIN
 70
     8
  9
$DIMBLK
  1

  9
$DIMASO
 70
     1
  9
$DIMSHO
 70
     1
  9
$DIMPOST
  1

  9
$DIMAPOST
  1

  9
$DIMALT
 70
     0
  9
$DIMALTD
 70
     3
  9
$DIMALTF
 40
0.03937
  9
$DIMLFAC
 40
1.0
  9
$DIMTOFL
 70
     1
  9
$DIMTVP
 40
0.0
  9
$DIMTIX
 70
     0
  9
$DIMSOXD
 70
     0
  9
$DIMSAH
 70
     0
  9
$DIMBLK1
  1

  9
$DIMBLK2
  1

  9
$DIMSTYLE
  2
ISO-25
  9
$DIMCLRD
 70
     0
  9
$DIMCLRE
 70
     0
  9
$DIMCLRT
 70
     0
  9
$DIMTFAC
 40
1.0
  9
$DIMGAP
 40
0.625
  9
$DIMJUST
 70
     0
  9
$DIMSD1
 70
     0
  9
$DIMSD2
 70
     0
  9
$DIMTOLJ
 70
     0
  9
$DIMTZIN
 70
     8
  9
$DIMALTZ
 70
     0
  9
$DIMALTTZ
 70
     0
  9
$DIMUPT
 70
     0
  9
$DIMDEC
 70
     2
  9
$DIMTDEC
 70
     2
  9
$DIMALTU
 70
     2
  9
$DIMALTTD
 70
     3
  9
$DIMTXSTY
  7
Standard
  9
$DIMAUNIT
 70
     0
  9
$DIMADEC
 70
     0
  9
$DIMALTRND
 40
0.0
  9
$DIMAZIN
 70
     0
  9
$DIMDSEP
 70
    44
  9
$DIMATFIT
 70
     3
  9
$DIMFRAC
 70
     0
  9
$DIMLDRBLK
  1

  9
$DIMLUNIT
 70
     2
  9
$DIMLWD
 70
    -2
  9
$DIMLWE
 70
    -2
  9
$DIMTMOVE
 70
     0
  9
$LUNITS
 70
     2
  9
$LUPREC
 70
     4
  9
$SKETCHINC
 40
1.0
  9
$FILLETRAD
 40
10.0
  9
$AUNITS
 70
     0
  9
$AUPREC
 70
     0
  9
$MENU
  1
.
  9
$ELEVATION
 40
0.0
  9
$PELEVATION
 40
0.0
  9
$THICKNESS
 40
0.0
  9
$LIMCHECK
 70
     0
  9
$CHAMFERA
 40
10.0
  9
$CHAMFERB
 40
10.0
  9
$CHAMFERC
 40
20.0
  9
$CHAMFERD
 40
0.0
  9
$SKPOLY
 70
     0
  9
$TDCREATE
 40
2455272.040782326
  9
$TDUCREATE
 40
2455271.49911566
  9
$TDUPDATE
 40
2455272.040782338
  9
$TDUUPDATE
 40
2455271.499115672
  9
$TDINDWG
 40
0.0000000116
  9
$TDUSRTIMER
 40
0.0000000116
  9
$USRTIMER
 70
     1
  9
$ANGBASE
 50
0.0
  9
$ANGDIR
 70
     0
  9
$PDMODE
 70
     3
  9
$PDSIZE
 40
-0.7
  9
$PLINEWID
 40
0.0
  9
$SPLFRAME
 70
     0
  9
$SPLINETYPE
 70
     6
  9
$SPLINESEGS
 70
     8
  9
$HANDSEED
  5
3F
  9
$SURFTAB1
 70
     6
  9
$SURFTAB2
 70
     6
  9
$SURFTYPE
 70
     6
  9
$SURFU
 70
     6
  9
$SURFV
 70
     6
  9
$UCSBASE
  2

  9
$UCSNAME
  2

  9
$UCSORG
 10
0.0
 20
0.0
 30
0.0
  9
$UCSXDIR
 10
1.0
 20
0.0
 30
0.0
  9
$UCSYDIR
 10
0.0
 20
1.0
 30
0.0
  9
$UCSORTHOREF
  2

  9
$UCSORTHOVIEW
 70
     0
  9
$UCSORGTOP
 10
0.0
 20
0.0
 30
0.0
  9
$UCSORGBOTTOM
 10
0.0
 20
0.0
 30
0.0
  9
$UCSORGLEFT
 10
0.0
 20
0.0
 30
0.0
  9
$UCSORGRIGHT
 10
0.0
 20
0.0
 30
0.0
  9
$UCSORGFRONT
 10
0.0
 20
0.0
 30
0.0
  9
$UCSORGBACK
 10
0.0
 20
0.0
 30
0.0
  9
$PUCSBASE
  2

  9
$PUCSNAME
  2

  9
$PUCSORG
 10
0.0
 20
0.0
 30
0.0
  9
$PUCSXDIR
 10
1.0
 20
0.0
 30
0.0
  9
$PUCSYDIR
 10
0.0
 20
1.0
 30
0.0
  9
$PUCSORTHOREF
  2

  9
$PUCSORTHOVIEW
 70
     0
  9
$PUCSORGTOP
 10
0.0
 20
0.0
 30
0.0
  9
$PUCSORGBOTTOM
 10
0.0
 20
0.0
 30
0.0
  9
$PUCSORGLEFT
 10
0.0
 20
0.0
 30
0.0
  9
$PUCSORGRIGHT
 10
0.0
 20
0.0
 30
0.0
  9
$PUCSORGFRONT
 10
0.0
 20
0.0
 30
0.0
  9
$PUCSORGBACK
 10
0.0
 20
0.0
 30
0.0
  9
$USERI1
 70
     0
  9
$USERI2
 70
     0
  9
$USERI3
 70
     0
  9
$USERI4
 70
     0
  9
$USERI5
 70
     0
  9
$USERR1
 40
0.0
  9
$USERR2
 40
0.0
  9
$USERR3
 40
0.0
  9
$USERR4
 40
0.0
  9
$USERR5
 40
0.0
  9
$WORLDVIEW
 70
     1
  9
$SHADEDGE
 70
     3
  9
$SHADEDIF
 70
    70
  9
$TILEMODE
 70
     1
  9
$MAXACTVP
 70
    64
  9
$PINSBASE
 10
0.0
 20
0.0
 30
0.0
  9
$PLIMCHECK
 70
     0
  9
$PEXTMIN
 10
1.000000E+20
 20
1.000000E+20
 30
1.000000E+20
  9
$PEXTMAX
 10
-1.000000E+20
 20
-1.000000E+20
 30
-1.000000E+20
  9
$PLIMMIN
 10
0.0
 20
0.0
  9
$PLIMMAX
 10
420.0
 20
297.0
  9
$UNITMODE
 70
     0
  9
$VISRETAIN
 70
     1
  9
$PLINEGEN
 70
     0
  9
$PSLTSCALE
 70
     1
  9
$TREEDEPTH
 70
  3020
  9
$CMLSTYLE
  2
Standard
  9
$CMLJUST
 70
     1
  9
$CMLSCALE
 40
1.0
  9
$PROXYGRAPHICS
 70
     1
  9
$MEASUREMENT
 70
     1
  9
$CELWEIGHT
370
    -1
  9
$ENDCAPS
280
     0
  9
$JOINSTYLE
280
     0
  9
$LWDISPLAY
290
     0
  9
$INSUNITS
 70
     4
  9
$HYPERLINKBASE
  1

  9
$STYLESHEET
  1

  9
$XEDIT
290
     1
  9
$CEPSNTYPE
380
     0
  9
$PSTYLEMODE
290
     1
  9
$FINGERPRINTGUID
  2
{FAEB1C30-E019-11D5-929B-00C0DF256EC4}
  9
$VERSIONGUID
  2
{FAEB1C32-E019-11D5-929B-00C0DF256EC4}
  9
$EXTNAMES
290
     1
  9
$PSVPSCALE
 40
0.0
  9
$OLESTARTUP
290
     0
  0
ENDSEC
  0
SECTION
  2
CLASSES
  0
CLASS
  1
ACDBDICTIONARYWDFLT
  2
AcDbDictionaryWithDefault
  3
ObjectDBX Classes
 90
        0
280
     0
281
     0
  0
CLASS
  1
ACDBPLACEHOLDER
  2
AcDbPlaceHolder
  3
ObjectDBX Classes
 90
        0
280
     0
281
     0
  0
CLASS
  1
LAYOUT
  2
AcDbLayout
  3
ObjectDBX Classes
 90
        0
280
     0
281
     0
  0
ENDSEC
  0
SECTION
  2
TABLES
  0
TABLE
  2
VPORT
  5
8
330
0
100
AcDbSymbolTable
 70
     2
  0
VPORT
  5
29
330
8
100
AcDbSymbolTableRecord
100
AcDbViewportTableRecord
  2
*Active
 70
     0
 10
0.0
 20
0.0
 11
1.0
 21
1.0
 12
50.0
 22
50.0
 13
0.0
 23
0.0
 14
10.0
 24
10.0
 15
10.0
 25
10.0
 16
0.0
 26
0.0
 36
1.0
 17
0.0
 27
0.0
 37
0.0
 40
103.921569
 41
1.0
 42
50.0
 43
0.0
 44
0.0
 50
0.0
 51
0.0
 71
     0
 72
   100
 73
     1
 74
     3
 75
     0
 76
     0
 77
     0
 78
     0
281
     0
 65
     1
110
0.0
120
0.0
130
0.0
111
1.0
121
0.0
131
0.0
112
0.0
122
1.0
132
0.0
 79
     0
146
0.0
  0
ENDTAB
  0
TABLE
  2
LTYPE
  5
5
330
0
100
AcDbSymbolTable
 70
     1
  0
LTYPE
  5
14
330
5
100
AcDbSymbolTableRecord
100
AcDbLinetypeTableRecord
  2
ByBlock
 70
     0
  3

 72
    65
 73
     0
 40
0.0
  0
LTYPE
  5
15
330
5
100
AcDbSymbolTableRecord
100
AcDbLinetypeTableRecord
  2
ByLayer
 70
     0
  3

 72
    65
 73
     0
 40
0.0
  0
LTYPE
  5
16
330
5
100
AcDbSymbolTableRecord
100
AcDbLinetypeTableRecord
  2
Continuous
 70
     0
  3

 72
    65
 73
     0
 40
0.0
  0
ENDTAB
  0
TABLE
  2
LAYER
  5
2
330
0
100
AcDbSymbolTable
 70
     1
  0
LAYER
  5
10
330
2
100
AcDbSymbolTableRecord
100
AcDbLayerTableRecord
  2
0
 70
     0
 62
     7
  6
Continuous
370
    -3
390
F
  0
ENDTAB
  0
TABLE
  2
STYLE
  5
3
330
0
100
AcDbSymbolTable
 70
     1
  0
STYLE
  5
11
330
3
100
AcDbSymbolTableRecord
100
AcDbTextStyleTableRecord
  2
Standard
 70
     0
 40
1.0
 41
1.0
 50
0.0
 71
     0
 42
2.5
  3
RomanS
  4

  0
ENDTAB
  0
TABLE
  2
VIEW
  5
6
330
0
100
AcDbSymbolTable
 70
     0
  0
ENDTAB
  0
TABLE
  2
UCS
  5
7
330
0
100
AcDbSymbolTable
 70
     0
  0
ENDTAB
  0
TABLE
  2
APPID
  5
9
330
0
100
AcDbSymbolTable
 70
     1
  0
APPID
  5
12
330
9
100
AcDbSymbolTableRecord
100
AcDbRegAppTableRecord
  2
ACAD
 70
     0
  0
ENDTAB
  0
TABLE
  2
DIMSTYLE
  5
A
330
0
100
AcDbSymbolTable
 70
     1
100
AcDbDimStyleTable
  0
DIMSTYLE
105
27
330
A
100
AcDbSymbolTableRecord
100
AcDbDimStyleTableRecord
  2
ISO-25
 70
     0
 41
2.5
 42
0.625
 44
1.25
 73
     0
 74
     0
 77
     1
 78
     8
 79
     2
140
2.5
141
2.5
146
0.0
147
0.625
271
     2
272
     0
273
     0
274
     0
278
    44
283
     0
289
     0
340
11
  0
ENDTAB
  0
TABLE
  2
BLOCK_RECORD
  5
1
330
0
100
AcDbSymbolTable
 70
     1
  0
BLOCK_RECORD
  5
1F
330
1
100
AcDbSymbolTableRecord
100
AcDbBlockTableRecord
  2
*Model_Space
340
22
  0
BLOCK_RECORD
  5
1B
330
1
100
AcDbSymbolTableRecord
100
AcDbBlockTableRecord
  2
*Paper_Space
340
1E
  0
BLOCK_RECORD
  5
23
330
1
100
AcDbSymbolTableRecord
100
AcDbBlockTableRecord
  2
*Paper_Space0
340
26
  0
ENDTAB
  0
ENDSEC
  0
SECTION
  2
BLOCKS
  0
BLOCK
  5
20
330
1F
100
AcDbEntity
  8
0
100
AcDbBlockBegin
  2
*Model_Space
 70
     0
 71
     0
 10
0.0
 20
0.0
 30
0.0
  3
*Model_Space
  1

  0
ENDBLK
  5
21
330
1F
100
AcDbEntity
  8
0
100
AcDbBlockEnd
  0
BLOCK
  5
1C
330
1B
100
AcDbEntity
 67
     1
  8
0
100
AcDbBlockBegin
  2
*Paper_Space
 70
     0
 71
     0
 10
0.0
 20
0.0
 30
0.0
  3
*Paper_Space
  1

  0
ENDBLK
  5
1D
330
1B
100
AcDbEntity
 67
     1
  8
0
100
AcDbBlockEnd
  0
BLOCK
  5
24
330
23
100
AcDbEntity
  8
0
100
AcDbBlockBegin
  2
*Paper_Space0
 70
     0
 71
     0
 10
0.0
 20
0.0
 30
0.0
  3
*Paper_Space0
  1

  0
ENDBLK
  5
25
330
23
100
AcDbEntity
  8
0
100
AcDbBlockEnd
  0
ENDSEC
  0
SECTION
  2
ENTITIES
  0
LWPOLYLINE
  5
2A
330
1F
100
AcDbEntity
  8
0
100
AcDbPolyline
 90
      472
 70
   128
 43
0.0
 10
701.228551
 20
268.547797
 10
701.330391
 20
268.551619
 10
701.432385
 20
268.563136
 10
701.534598
 20
268.582429
 10
701.637098
 20
268.609574
 10
701.843223
 20
268.687741
 10
702.051294
 20
268.798267
 10
702.261844
 20
268.941781
 10
702.475406
 20
269.118914
 10
702.692514
 20
269.330297
 10
702.9137
 20
269.576558
 10
703.139499
 20
269.858328
 10
703.370443
 20
270.176238
 10
703.607067
 20
270.530917
 10
703.849902
 20
270.922995
 10
704.099484
 20
271.353102
 10
704.356344
 20
271.821869
 10
704.621017
 20
272.329925
 10
704.894036
 20
272.877901
 10
705.350671
 20
273.842775
 10
705.77075
 20
274.79281
 10
706.154831
 20
275.73061
 10
706.333546
 20
276.195737
 10
706.50347
 20
276.658783
 10
706.664673
 20
277.120074
 10
706.817224
 20
277.579936
 10
706.961193
 20
278.038694
 10
707.096651
 20
278.496674
 10
707.223665
 20
278.954202
 10
707.342307
 20
279.411604
 10
707.452646
 20
279.869206
 10
707.554751
 20
280.327333
 10
707.648692
 20
280.786311
 10
707.734538
 20
281.246466
 10
707.81236
 20
281.708124
 10
707.882227
 20
282.171611
 10
707.944208
 20
282.637252
 10
707.998374
 20
283.105373
 10
708.044793
 20
283.5763
 10
708.083537
 20
284.050359
 10
708.114673
 20
284.527876
 10
708.138272
 20
285.009176
 10
708.163137
 20
285.984429
 10
708.158689
 20
286.978726
 10
708.125486
 20
287.994672
 10
708.08476
 20
288.711069
 10
708.029184
 20
289.407513
 10
707.958032
 20
290.08671
 10
707.870577
 20
290.751367
 10
707.766093
 20
291.404188
 10
707.643855
 20
292.04788
 10
707.503135
 20
292.685149
 10
707.343208
 20
293.318701
 10
707.163347
 20
293.951241
 10
706.962826
 20
294.585476
 10
706.740919
 20
295.224111
 10
706.4969
 20
295.869853
 10
706.230043
 20
296.525408
 10
705.939621
 20
297.193481
 10
705.624907
 20
297.876778
 10
705.285177
 20
298.578005
 10
704.843357
 20
299.436657
 10
704.614501
 20
299.857213
 10
704.380052
 20
300.272259
 10
704.139789
 20
300.682047
 10
703.893489
 20
301.08683
 10
703.640931
 20
301.486859
 10
703.381894
 20
301.882386
 10
703.116155
 20
302.273663
 10
702.843494
 20
302.660944
 10
702.563687
 20
303.044479
 10
702.276515
 20
303.424521
 10
701.981754
 20
303.801322
 10
701.679184
 20
304.175134
 10
701.368582
 20
304.54621
 10
701.049728
 20
304.914801
 10
700.722398
 20
305.281159
 10
700.386373
 20
305.645537
 10
700.041429
 20
306.008187
 10
699.687346
 20
306.369361
 10
698.950873
 20
307.088289
 10
698.175181
 20
307.804338
 10
697.358498
 20
308.519525
 10
696.499048
 20
309.235867
 10
695.59506
 20
309.955382
 10
694.644759
 20
310.680085
 10
691.610338
 20
312.947907
 10
691.042346
 20
313.669992
 10
690.928248
 20
313.8251
 10
690.821806
 20
313.989243
 10
690.725347
 20
314.157437
 10
690.641202
 20
314.324701
 10
690.571701
 20
314.486052
 10
690.519172
 20
314.636507
 10
690.485947
 20
314.771084
 10
690.474354
 20
314.884799
 10
690.479178
 20
314.956631
 10
690.493522
 20
315.033878
 10
690.550029
 20
315.203853
 10
690.642377
 20
315.393195
 10
690.769072
 20
315.600376
 10
690.928616
 20
315.823866
 10
691.119513
 20
316.062136
 10
691.340267
 20
316.313656
 10
691.589382
 20
316.576898
 10
691.865362
 20
316.850331
 10
692.166709
 20
317.132427
 10
692.491929
 20
317.421656
 10
692.839523
 20
317.716489
 10
693.207998
 20
318.015397
 10
693.595855
 20
318.316851
 10
694.001599
 20
318.619321
 10
694.423733
 20
318.921277
 10
694.927021
 20
319.249759
 10
695.477126
 20
319.594925
 10
695.749726
 20
319.774858
 10
696.01002
 20
319.960273
 10
696.250004
 20
320.151609
 10
696.461676
 20
320.349302
 10
696.584211
 20
320.50087
 10
696.698179
 20
320.678746
 10
696.805377
 20
320.862041
 10
696.907598
 20
321.029865
 10
697.007206
 20
321.19221
 10
697.093331
 20
321.354458
 10
697.165974
 20
321.516359
 10
697.225138
 20
321.677665
 10
697.270826
 20
321.838126
 10
697.30304
 20
321.997496
 10
697.321782
 20
322.155523
 10
697.327055
 20
322.311961
 10
697.31886
 20
322.46656
 10
697.297201
 20
322.619071
 10
697.26208
 20
322.769246
 10
697.213498
 20
322.916836
 10
697.151458
 20
323.061592
 10
697.075964
 20
323.203265
 10
696.987016
 20
323.341607
 10
696.884617
 20
323.47637
 10
696.733386
 20
323.628385
 10
696.477469
 20
323.847887
 10
696.130679
 20
324.124516
 10
695.706829
 20
324.447914
 10
695.219729
 20
324.807721
 10
694.683194
 20
325.193579
 10
694.111034
 20
325.595128
 10
693.517063
 20
326.002009
 10
689.34706
 20
328.871666
 10
689.043076
 20
329.078982
 10
688.747874
 20
329.259928
 10
688.461515
 20
329.414502
 10
688.184062
 20
329.542702
 10
687.91558
 20
329.644524
 10
687.656129
 20
329.719967
 10
687.405773
 20
329.769028
 10
687.164575
 20
329.791704
 10
686.932597
 20
329.787993
 10
686.709903
 20
329.757893
 10
686.496555
 20
329.7014
 10
686.292615
 20
329.618512
 10
686.098147
 20
329.509228
 10
685.913214
 20
329.373543
 10
685.737877
 20
329.211457
 10
685.572201
 20
329.022965
 10
685.507704
 20
328.933136
 10
685.437904
 20
328.819361
 10
685.285052
 20
328.526841
 10
685.118961
 20
328.159142
 10
684.944949
 20
327.73
 10
684.768331
 20
327.253154
 10
684.594424
 20
326.742339
 10
684.428543
 20
326.211294
 10
684.276007
 20
325.673754
 10
683.188027
 20
322.142114
 10
683.096098
 20
321.945939
 10
682.983819
 20
321.74555
 10
682.855545
 20
321.546576
 10
682.715628
 20
321.354645
 10
682.568423
 20
321.175385
 10
682.418282
 20
321.014424
 10
682.269559
 20
320.877391
 10
682.126607
 20
320.769913
 10
681.949311
 20
320.667861
 10
681.764261
 20
320.589698
 10
681.570336
 20
320.535792
 10
681.366411
 20
320.506512
 10
681.151364
 20
320.502225
 10
680.92407
 20
320.523299
 10
680.683408
 20
320.570101
 10
680.428254
 20
320.643
 10
680.157484
 20
320.742365
 10
679.869976
 20
320.868561
 10
679.564606
 20
321.021958
 10
679.240251
 20
321.202924
 10
678.895788
 20
321.411825
 10
678.530094
 20
321.649031
 10
678.142046
 20
321.914909
 10
677.730519
 20
322.209827
 10
677.38648
 20
322.45526
 10
677.027543
 20
322.699809
 10
676.654421
 20
322.943187
 10
676.267827
 20
323.185108
 10
675.868472
 20
323.425284
 10
675.457071
 20
323.663427
 10
674.600978
 20
324.132467
 10
673.705246
 20
324.589932
 10
672.775578
 20
325.033523
 10
671.817673
 20
325.460942
 10
670.837233
 20
325.869892
 10
669.839958
 20
326.258076
 10
668.831548
 20
326.623195
 10
667.817705
 20
326.962952
 10
666.804129
 20
327.275049
 10
665.796521
 20
327.557189
 10
664.800581
 20
327.807073
 10
664.308768
 20
327.919201
 10
663.82201
 20
328.022404
 10
663.34102
 20
328.116394
 10
662.86651
 20
328.200885
 10
662.349419
 20
328.283556
 10
661.836309
 20
328.355946
 10
661.326802
 20
328.417993
 10
660.820519
 20
328.469632
 10
660.317085
 20
328.5108
 10
659.81612
 20
328.541433
 10
659.317248
 20
328.561468
 10
658.820092
 20
328.57084
 10
658.324272
 20
328.569488
 10
657.829413
 20
328.557347
 10
657.335136
 20
328.534353
 10
656.841064
 20
328.500442
 10
656.346819
 20
328.455553
 10
655.852024
 20
328.39962
 10
655.356301
 20
328.33258
 10
654.859273
 20
328.254369
 10
654.360562
 20
328.164925
 10
653.859791
 20
328.064183
 10
653.356582
 20
327.952081
 10
652.850557
 20
327.828553
 10
652.341339
 20
327.693537
 10
651.828551
 20
327.54697
 10
651.311815
 20
327.388787
 10
650.790753
 20
327.218925
 10
650.264988
 20
327.037321
 10
649.734142
 20
326.84391
 10
649.197838
 20
326.63863
 10
648.655698
 20
326.421417
 10
648.107344
 20
326.192207
 10
647.5524
 20
325.950937
 10
646.990488
 20
325.697543
 10
646.421229
 20
325.431961
 10
645.85912
 20
325.161985
 10
645.335017
 20
324.902277
 10
644.843448
 20
324.649028
 10
644.378944
 20
324.398427
 10
643.936035
 20
324.146664
 10
643.509249
 20
323.88993
 10
643.093118
 20
323.624415
 10
642.682169
 20
323.346308
 10
642.270933
 20
323.051801
 10
641.853939
 20
322.737083
 10
641.425718
 20
322.398344
 10
640.980798
 20
322.031775
 10
640.513709
 20
321.633565
 10
640.018982
 20
321.199905
 10
638.924727
 20
320.210994
 10
638.355354
 20
319.709139
 10
637.735298
 20
319.174331
 10
637.426573
 20
318.900514
 10
637.129547
 20
318.62559
 10
636.852345
 20
318.351937
 10
636.603089
 20
318.081933
 10
636.473487
 20
317.923715
 10
636.34403
 20
317.74981
 10
636.088284
 20
317.373588
 10
635.841323
 20
316.990556
 10
635.608615
 20
316.638002
 10
635.467683
 20
316.426389
 10
635.337893
 20
316.217218
 10
635.219194
 20
316.010771
 10
635.111535
 20
315.807327
 10
635.014864
 20
315.607168
 10
634.929132
 20
315.410574
 10
634.854285
 20
315.217824
 10
634.790273
 20
315.029199
 10
634.737045
 20
314.84498
 10
634.694549
 20
314.665447
 10
634.662734
 20
314.49088
 10
634.641549
 20
314.321559
 10
634.630942
 20
314.157765
 10
634.630863
 20
313.999779
 10
634.64126
 20
313.84788
 10
634.662081
 20
313.702348
 10
634.693276
 20
313.563465
 10
634.734793
 20
313.431511
 10
634.786581
 20
313.306765
 10
634.848588
 20
313.189509
 10
634.920764
 20
313.080022
 10
635.003057
 20
312.978585
 10
635.095416
 20
312.885478
 10
635.19779
 20
312.800982
 10
635.310126
 20
312.725376
 10
635.432375
 20
312.658942
 10
635.564484
 20
312.601959
 10
635.706403
 20
312.554708
 10
635.85808
 20
312.51747
 10
636.019464
 20
312.490524
 10
636.190504
 20
312.47415
 10
636.371148
 20
312.46863
 10
636.516872
 20
312.479319
 10
636.685321
 20
312.510154
 10
636.872889
 20
312.55929
 10
637.075968
 20
312.624881
 10
637.290952
 20
312.705081
 10
637.514232
 20
312.798044
 10
637.742202
 20
312.901924
 10
637.971254
 20
313.014875
 10
638.197781
 20
313.135052
 10
638.418176
 20
313.260608
 10
638.628833
 20
313.389698
 10
638.826142
 20
313.520476
 10
639.006498
 20
313.651096
 10
639.166293
 20
313.779712
 10
639.30192
 20
313.904478
 10
639.409771
 20
314.023549
 10
639.496722
 20
314.117506
 10
639.636689
 20
314.25055
 10
640.051143
 20
314.614299
 10
640.604081
 20
315.075612
 10
641.24645
 20
315.595301
 10
641.929197
 20
316.134182
 10
642.603271
 20
316.653069
 10
643.219618
 20
317.112776
 10
643.729186
 20
317.474117
 10
644.114235
 20
317.728732
 10
644.512128
 20
317.9778
 10
644.922171
 20
318.221122
 10
645.343674
 20
318.458497
 10
645.775944
 20
318.689726
 10
646.218288
 20
318.914608
 10
646.670017
 20
319.132945
 10
647.130436
 20
319.344536
 10
647.598855
 20
319.549182
 10
648.074581
 20
319.746683
 10
648.556924
 20
319.936839
 10
649.045189
 20
320.11945
 10
649.538687
 20
320.294317
 10
650.036724
 20
320.46124
 10
650.53861
 20
320.620019
 10
651.043651
 20
320.770454
 10
651.551157
 20
320.912346
 10
652.060435
 20
321.045494
 10
652.570793
 20
321.1697
 10
653.08154
 20
321.284763
 10
653.591983
 20
321.390484
 10
654.10143
 20
321.486662
 10
654.609191
 20
321.573098
 10
655.114572
 20
321.649593
 10
655.616882
 20
321.715946
 10
656.115429
 20
321.771958
 10
656.60952
 20
321.817429
 10
657.098465
 20
321.85216
 10
657.581571
 20
321.875949
 10
658.058147
 20
321.888599
 10
658.5275
 20
321.889908
 10
658.988938
 20
321.879678
 10
659.534947
 20
321.855728
 10
660.077815
 20
321.822263
 10
660.618008
 20
321.779124
 10
661.155995
 20
321.726148
 10
661.69224
 20
321.663175
 10
662.227211
 20
321.590043
 10
662.761375
 20
321.506593
 10
663.295199
 20
321.412664
 10
663.829149
 20
321.308093
 10
664.363692
 20
321.192721
 10
664.899294
 20
321.066387
 10
665.436423
 20
320.928929
 10
665.975546
 20
320.780187
 10
666.517128
 20
320.62
 10
667.061637
 20
320.448207
 10
667.609539
 20
320.264647
 10
668.161302
 20
320.06916
 10
668.717392
 20
319.861584
 10
669.278275
 20
319.641758
 10
669.844419
 20
319.409522
 10
670.416291
 20
319.164714
 10
670.994356
 20
318.907174
 10
671.579082
 20
318.636742
 10
672.170936
 20
318.353255
 10
672.770384
 20
318.056553
 10
673.377892
 20
317.746476
 10
673.993929
 20
317.422862
 10
674.61896
 20
317.085551
 10
675.897873
 20
316.369192
 10
677.218366
 20
315.596112
 10
681.236231
 20
313.081666
 42
0.402623
 10
681.643163
 20
313.166847
 10
684.378231
 20
317.173963
 10
686.030121
 20
316.046461
 10
683.328838
 20
312.088843
 42
0.400655
 10
683.396158
 20
311.680066
 10
691.400396
 20
305.652679
 10
696.454072
 20
300.430089
 10
697.598681
 20
298.741738
 10
697.882588
 20
298.310556
 10
698.1664
 20
297.855312
 10
698.448772
 20
297.378914
 10
698.728358
 20
296.884269
 10
699.003813
 20
296.374283
 10
699.273789
 20
295.851864
 10
699.536942
 20
295.319917
 10
699.791925
 20
294.78135
 10
700.037392
 20
294.239069
 10
700.271998
 20
293.695982
 10
700.494397
 20
293.154994
 10
700.703243
 20
292.619014
 10
700.897189
 20
292.090948
 10
701.074891
 20
291.573701
 10
701.235002
 20
291.070183
 10
701.376176
 20
290.583298
 10
701.531724
 20
289.978647
 10
701.657889
 20
289.390763
 10
701.757531
 20
288.789995
 10
701.833515
 20
288.146691
 10
701.888702
 20
287.4312
 10
701.925955
 20
286.61387
 10
701.948135
 20
285.66505
 10
701.958106
 20
284.555089
 10
701.980758
 20
283.599123
 10
702.016255
 20
282.568088
 10
702.026965
 20
282.048288
 10
702.026661
 20
281.538365
 10
702.0106
 20
281.047866
 10
701.974042
 20
280.586339
 10
701.940841
 20
280.347505
 10
701.893963
 20
280.096237
 10
701.773111
 20
279.573692
 10
701.63935
 20
279.053294
 10
701.520546
 20
278.569636
 10
701.410242
 20
278.108481
 10
701.270211
 20
277.569928
 10
700.923843
 20
276.338762
 10
700.527201
 20
275.032409
 10
700.324326
 20
274.39987
 10
700.126041
 20
273.807136
 10
699.939922
 20
273.1684
 10
699.732601
 20
272.481363
 10
699.632357
 20
272.133785
 10
699.540453
 20
271.790996
 10
699.461435
 20
271.458617
 10
699.399852
 20
271.14227
 10
699.368449
 20
270.919108
 10
699.345746
 20
270.676941
 10
699.334676
 20
270.434134
 10
699.338172
 20
270.209048
 10
699.358299
 20
270.033324
 10
699.397783
 20
269.86402
 10
699.455277
 20
269.701814
 10
699.529434
 20
269.547385
 10
699.618906
 20
269.401411
 10
699.722346
 20
269.264571
 10
699.838406
 20
269.137544
 10
699.965739
 20
269.021007
 10
700.102998
 20
268.915639
 10
700.248836
 20
268.822119
 10
700.401904
 20
268.741126
 10
700.560856
 20
268.673337
 10
700.724344
 20
268.619431
 10
700.89102
 20
268.580087
 10
701.059538
 20
268.555982
 10
701.228551
 20
268.547797
  0
LWPOLYLINE
  5
2B
330
1F
100
AcDbEntity
  8
0
100
AcDbPolyline
 90
      410
 70
   128
 43
0.0
 10
687.67007
 20
270.996489
 10
687.921783
 20
271.028847
 10
688.151027
 20
271.083162
 10
688.257568
 20
271.119368
 10
688.358903
 20
271.162037
 10
688.45517
 20
271.211497
 10
688.546506
 20
271.268073
 10
688.63305
 20
271.332088
 10
688.714937
 20
271.403869
 10
688.792306
 20
271.483741
 10
688.865294
 20
271.572029
 10
688.934037
 20
271.669057
 10
688.998674
 20
271.775152
 10
689.059341
 20
271.890638
 10
689.116177
 20
272.01584
 10
689.2189
 20
272.296694
 10
689.307941
 20
272.620315
 10
689.384401
 20
272.989305
 10
689.449375
 20
273.406265
 10
689.503964
 20
273.873795
 10
689.549265
 20
274.394497
 10
689.586377
 20
274.970973
 10
689.616398
 20
275.605822
 10
689.635533
 20
276.238204
 10
689.641501
 20
276.862048
 10
689.634254
 20
277.477482
 10
689.613746
 20
278.084633
 10
689.579929
 20
278.683631
 10
689.532755
 20
279.274603
 10
689.472177
 20
279.857677
 10
689.398148
 20
280.432981
 10
689.310621
 20
281.000643
 10
689.209547
 20
281.560792
 10
689.09488
 20
282.113555
 10
688.966572
 20
282.659061
 10
688.824576
 20
283.197438
 10
688.668844
 20
283.728813
 10
688.49933
 20
284.253315
 10
688.315985
 20
284.771072
 10
688.118763
 20
285.282212
 10
687.907615
 20
285.786863
 10
687.682496
 20
286.285154
 10
687.443356
 20
286.777211
 10
687.190149
 20
287.263164
 10
686.922828
 20
287.74314
 10
686.641345
 20
288.217267
 10
686.345653
 20
288.685674
 10
686.035704
 20
289.148489
 10
685.711451
 20
289.605839
 10
685.372847
 20
290.057853
 10
685.019843
 20
290.504659
 10
684.652394
 20
290.946385
 10
684.270451
 20
291.383159
 10
683.873968
 20
291.815109
 10
683.462896
 20
292.242363
 10
682.883064
 20
292.815335
 10
682.29312
 20
293.366196
 10
681.691308
 20
293.896034
 10
681.075875
 20
294.40594
 10
680.445064
 20
294.897002
 10
679.797121
 20
295.370312
 10
679.13029
 20
295.826958
 10
678.442818
 20
296.26803
 10
677.732948
 20
296.694618
 10
676.998927
 20
297.107812
 10
676.238998
 20
297.508702
 10
675.451407
 20
297.898377
 10
674.634399
 20
298.277927
 10
673.786219
 20
298.648441
 10
672.905111
 20
299.01101
 10
671.989322
 20
299.366723
 10
671.579029
 20
299.531123
 10
671.159793
 20
299.716513
 10
670.743397
 20
299.916547
 10
670.341625
 20
300.124878
 10
669.966259
 20
300.335158
 10
669.629084
 20
300.541041
 10
669.341882
 20
300.736178
 10
669.116436
 20
300.914223
 10
668.829605
 20
301.172509
 10
668.611113
 20
301.392277
 10
668.525142
 20
301.493809
 10
668.453435
 20
301.593023
 10
668.39505
 20
301.692354
 10
668.349048
 20
301.79424
 10
668.314489
 20
301.901119
 10
668.290431
 20
302.015425
 10
668.275934
 20
302.139598
 10
668.270059
 20
302.276073
 10
668.280409
 20
302.595677
 10
668.313959
 20
302.993735
 10
668.340448
 20
303.227437
 10
668.375737
 20
303.451763
 10
668.422775
 20
303.671924
 10
668.484514
 20
303.893132
 10
668.563902
 20
304.120599
 10
668.663891
 20
304.359537
 10
668.78743
 20
304.615158
 10
668.937471
 20
304.892673
 10
669.116963
 20
305.197295
 10
669.328856
 20
305.534234
 10
669.576102
 20
305.908704
 10
669.861649
 20
306.325916
 10
670.559452
 20
307.309413
 10
671.445868
 20
308.526419
 10
671.684239
 20
308.865472
 10
671.89362
 20
309.193062
 10
672.07429
 20
309.509352
 10
672.226527
 20
309.814504
 10
672.350611
 20
310.108682
 10
672.446819
 20
310.392048
 10
672.515431
 20
310.664765
 10
672.556726
 20
310.926995
 10
672.570982
 20
311.178901
 10
672.558479
 20
311.420646
 10
672.519495
 20
311.652392
 10
672.454309
 20
311.874303
 10
672.363199
 20
312.08654
 10
672.246446
 20
312.289268
 10
672.104326
 20
312.482647
 10
671.93712
 20
312.666842
 10
671.786507
 20
312.814555
 10
671.638176
 20
312.941957
 10
671.557981
 20
312.999196
 10
671.470093
 20
313.05274
 10
671.371758
 20
313.103053
 10
671.260221
 20
313.150595
 10
661.399455
 20
316.43541
 10
661.305586
 20
316.46043
 10
661.210251
 20
316.472515
 10
661.114416
 20
316.473927
 10
661.019046
 20
316.466926
 10
660.833566
 20
316.436733
 10
660.661543
 20
316.400024
 10
660.539729
 20
316.370735
 10
660.424405
 20
316.33492
 10
660.315364
 20
316.292364
 10
660.212404
 20
316.242851
 10
660.115319
 20
316.186166
 10
660.023906
 20
316.122094
 10
659.93796
 20
316.050419
 10
659.857276
 20
315.970928
 10
659.781651
 20
315.883404
 10
659.710881
 20
315.787633
 10
659.64476
 20
315.683399
 10
659.583085
 20
315.570487
 10
659.472255
 20
315.317769
 10
659.376756
 20
315.027757
 10
659.294954
 20
314.698731
 10
659.225214
 20
314.328969
 10
659.165902
 20
313.916751
 10
659.115384
 20
313.460354
 10
659.072025
 20
312.958058
 10
659.034191
 20
312.408141
 10
658.968561
 20
311.158562
 10
658.95946
 20
310.769423
 10
658.961758
 20
310.355001
 10
658.972048
 20
309.486087
 10
658.965789
 20
309.049483
 10
658.942427
 20
308.623375
 10
658.922106
 20
308.417051
 10
658.894837
 20
308.216706
 10
658.859729
 20
308.023457
 10
658.815892
 20
307.838422
 10
658.752252
 20
307.671877
 10
658.661068
 20
307.501132
 10
658.561443
 20
307.333667
 10
658.472477
 20
307.176964
 10
658.29635
 20
306.873158
 10
658.070661
 20
306.534936
 10
657.82447
 20
306.203535
 10
657.586837
 20
305.920193
 10
657.440005
 20
305.780125
 10
657.271949
 20
305.659105
 10
657.082578
 20
305.557136
 10
656.871798
 20
305.474216
 10
656.639519
 20
305.410349
 10
656.385645
 20
305.365533
 10
656.110087
 20
305.33977
 10
655.81275
 20
305.333061
 10
655.493542
 20
305.345406
 10
655.152371
 20
305.376807
 10
654.789145
 20
305.427265
 10
654.40377
 20
305.49678
 10
653.996154
 20
305.585352
 10
653.566205
 20
305.692984
 10
653.113831
 20
305.819675
 10
652.638938
 20
305.965427
 10
652.014408
 20
306.160209
 10
651.403368
 20
306.34113
 10
650.803998
 20
306.508507
 10
650.214478
 20
306.662656
 10
649.632989
 20
306.803892
 10
649.05771
 20
306.93253
 10
648.486823
 20
307.048888
 10
647.918509
 20
307.15328
 10
647.350946
 20
307.246023
 10
646.782316
 20
307.327431
 10
646.210799
 20
307.397822
 10
645.634576
 20
307.45751
 10
645.051827
 20
307.506812
 10
644.460733
 20
307.546043
 10
643.859473
 20
307.57552
 10
643.246229
 20
307.595557
 10
642.783596
 20
307.595267
 10
642.152136
 20
307.578882
 10
640.635123
 20
307.511393
 10
639.875763
 20
307.46707
 10
639.199965
 20
307.420218
 10
638.670824
 20
307.374227
 10
638.351438
 20
307.332488
 10
637.802246
 20
307.215739
 10
637.256684
 20
307.084759
 10
636.714981
 20
306.939706
 10
636.177368
 20
306.780737
 10
635.644076
 20
306.60801
 10
635.115334
 20
306.421683
 10
634.591373
 20
306.221913
 10
634.072424
 20
306.008857
 10
633.558715
 20
305.782674
 10
633.050479
 20
305.543521
 10
632.547945
 20
305.291556
 10
632.051344
 20
305.026936
 10
631.560905
 20
304.749818
 10
631.07686
 20
304.460362
 10
630.599438
 20
304.158723
 10
630.128871
 20
303.84506
 10
629.665387
 20
303.519531
 10
629.209218
 20
303.182292
 10
628.760594
 20
302.833502
 10
628.319745
 20
302.473318
 10
627.886902
 20
302.101898
 10
627.462294
 20
301.7194
 10
627.046153
 20
301.325981
 10
626.638708
 20
300.921798
 10
626.24019
 20
300.50701
 10
625.850829
 20
300.081773
 10
625.470856
 20
299.646246
 10
625.100501
 20
299.200587
 10
624.739994
 20
298.744952
 10
624.389565
 20
298.279499
 10
624.049446
 20
297.804387
 10
623.719865
 20
297.319772
 10
623.218171
 20
296.54034
 10
623.011364
 20
296.198205
 10
622.833044
 20
295.884561
 10
622.682557
 20
295.596985
 10
622.559247
 20
295.333054
 10
622.46246
 20
295.090346
 10
622.39154
 20
294.866437
 10
622.345833
 20
294.658906
 10
622.324684
 20
294.465329
 10
622.327437
 20
294.283283
 10
622.353439
 20
294.110347
 10
622.402033
 20
293.944098
 10
622.472566
 20
293.782112
 10
622.564382
 20
293.621967
 10
622.676826
 20
293.46124
 10
622.829365
 20
293.27402
 10
622.979715
 20
293.121495
 10
623.133697
 20
293.001022
 10
623.213867
 20
292.95198
 10
623.297127
 20
292.90996
 10
623.384205
 20
292.874631
 10
623.475827
 20
292.845665
 10
623.675616
 20
292.805495
 10
623.902312
 20
292.786809
 10
624.161735
 20
292.786962
 10
624.304588
 20
292.795191
 10
624.443621
 20
292.811532
 10
624.580705
 20
292.837114
 10
624.717709
 20
292.873069
 10
624.856503
 20
292.920527
 10
624.998956
 20
292.980619
 10
625.146939
 20
293.054476
 10
625.302321
 20
293.143227
 10
625.466972
 20
293.248005
 10
625.642761
 20
293.369939
 10
626.035235
 20
293.669798
 10
626.4947
 20
294.051852
 10
627.036113
 20
294.525145
 10
628.008232
 20
295.371302
 10
628.48223
 20
295.770105
 10
628.948913
 20
296.153084
 10
629.408829
 20
296.520507
 10
629.862521
 20
296.872644
 10
630.310537
 20
297.209764
 10
630.753422
 20
297.532137
 10
631.191721
 20
297.840031
 10
631.625979
 20
298.133716
 10
632.056743
 20
298.413461
 10
632.484559
 20
298.679535
 10
632.909971
 20
298.932207
 10
633.333525
 20
299.171747
 10
633.755768
 20
299.398425
 10
634.177244
 20
299.612508
 10
634.598499
 20
299.814267
 10
635.020079
 20
300.00397
 10
635.44253
 20
300.181888
 10
635.866397
 20
300.348288
 10
636.292225
 20
300.503441
 10
636.72056
 20
300.647615
 10
637.151949
 20
300.781081
 10
637.586936
 20
300.904106
 10
638.026067
 20
301.01696
 10
638.469888
 20
301.119913
 10
638.918945
 20
301.213234
 10
639.373782
 20
301.297192
 10
639.834946
 20
301.372056
 10
640.302983
 20
301.438095
 10
640.778437
 20
301.495579
 10
641.261854
 20
301.544777
 10
642.063399
 20
301.608499
 10
642.858575
 20
301.649697
 10
643.653518
 20
301.667515
 10
644.454368
 20
301.661096
 10
645.267263
 20
301.629583
 10
646.09834
 20
301.572119
 10
646.953738
 20
301.487847
 10
647.839595
 20
301.375912
 10
648.762049
 20
301.235456
 10
649.727238
 20
301.065622
 10
650.741301
 20
300.865554
 10
651.810375
 20
300.634395
 10
652.940599
 20
300.371288
 10
654.13811
 20
300.075377
 10
655.409048
 20
299.745804
 10
656.75955
 20
299.381714
 10
659.580031
 20
298.608626
 42
0.396897
 10
659.943438
 20
298.80159
 10
661.483408
 20
303.34175
 10
663.377422
 20
302.699322
 10
661.862019
 20
298.231594
 42
0.378669
 10
662.015666
 20
297.865079
 10
662.770506
 20
297.500568
 10
663.65645
 20
297.099484
 10
664.708636
 20
296.652869
 10
665.858793
 20
296.174884
 10
666.930779
 20
295.71994
 10
667.930235
 20
295.284982
 10
668.862801
 20
294.866958
 10
669.734117
 20
294.462816
 10
670.549825
 20
294.069503
 10
671.315563
 20
293.683966
 10
672.036972
 20
293.303152
 10
672.719694
 20
292.92401
 10
673.369366
 20
292.543485
 10
673.991631
 20
292.158526
 10
674.592129
 20
291.76608
 10
675.176499
 20
291.363094
 10
675.750381
 20
290.946515
 10
676.319417
 20
290.513291
 10
676.889247
 20
290.060369
 10
677.316358
 20
289.707156
 10
677.730453
 20
289.350431
 10
678.131724
 20
288.989848
 10
678.520362
 20
288.62506
 10
678.89656
 20
288.255719
 10
679.260509
 20
287.881478
 10
679.612402
 20
287.501992
 10
679.952429
 20
287.116911
 10
680.280783
 20
286.725891
 10
680.597655
 20
286.328582
 10
680.903238
 20
285.92464
 10
681.197724
 20
285.513715
 10
681.481304
 20
285.095462
 10
681.754169
 20
284.669533
 10
682.016513
 20
284.235582
 10
682.268526
 20
283.793261
 10
682.510401
 20
283.342223
 10
682.74233
 20
282.882121
 10
682.964504
 20
282.412609
 10
683.177115
 20
281.933339
 10
683.380355
 20
281.443964
 10
683.574416
 20
280.944137
 10
683.759489
 20
280.433512
 10
683.935768
 20
279.91174
 10
684.103442
 20
279.378475
 10
684.262705
 20
278.833371
 10
684.413748
 20
278.27608
 10
684.556763
 20
277.706254
 10
684.691942
 20
277.123548
 10
684.819477
 20
276.527613
 10
684.939559
 20
275.918104
 10
685.05238
 20
275.294672
 10
685.145743
 20
274.653709
 10
685.236398
 20
273.960263
 10
685.288621
 20
273.612056
 10
685.349662
 20
273.272564
 10
685.422684
 20
272.949065
 10
685.510853
 20
272.648839
 10
685.566539
 20
272.516928
 10
685.639321
 20
272.380184
 10
685.786863
 20
272.119672
 10
685.869817
 20
271.970193
 10
685.957182
 20
271.831416
 10
686.049006
 20
271.703314
 10
686.145337
 20
271.585858
 10
686.246222
 20
271.47902
 10
686.351708
 20
271.382771
 10
686.461842
 20
271.297084
 10
686.576673
 20
271.22193
 10
686.696248
 20
271.15728
 10
686.820613
 20
271.103107
 10
686.949817
 20
271.059382
 10
687.083906
 20
271.026076
 10
687.222929
 20
271.003163
 10
687.366932
 20
270.990612
 10
687.515963
 20
270.988397
 10
687.67007
 20
270.996489
  0
LWPOLYLINE
  5
2C
330
1F
100
AcDbEntity
  8
0
100
AcDbPolyline
 90
      341
 70
   128
 43
0.0
 10
586.360813
 20
306.314472
 10
586.53131
 20
306.343297
 10
586.718415
 20
306.386206
 10
586.92329
 20
306.443728
 10
587.147096
 20
306.516392
 10
587.390996
 20
306.604727
 10
587.65615
 20
306.709263
 10
588.254872
 20
306.969056
 10
588.952555
 20
307.300005
 10
589.758494
 20
307.706345
 10
590.681982
 20
308.192312
 10
591.732314
 20
308.762141
 10
592.35167
 20
309.097144
 10
592.860798
 20
309.353168
 10
593.087224
 20
309.454871
 10
593.301928
 20
309.540801
 10
593.510191
 20
309.612281
 10
593.71729
 20
309.670635
 10
593.928504
 20
309.717187
 10
594.149113
 20
309.75326
 10
594.384394
 20
309.780179
 10
594.639627
 20
309.799266
 10
595.231062
 20
309.819245
 10
595.965647
 20
309.823786
 10
596.450831
 20
309.827821
 10
596.89199
 20
309.840944
 10
597.293805
 20
309.865333
 10
597.660959
 20
309.903171
 10
597.998132
 20
309.956637
 10
598.310007
 20
310.027912
 10
598.601266
 20
310.119176
 10
598.876588
 20
310.232609
 10
599.140658
 20
310.370393
 10
599.398155
 20
310.534707
 10
599.653763
 20
310.727732
 10
599.912162
 20
310.951648
 10
600.178034
 20
311.208636
 10
600.45606
 20
311.500877
 10
600.750924
 20
311.83055
 10
601.067305
 20
312.199837
 10
601.685328
 20
312.923623
 10
601.943544
 20
313.20735
 10
602.175914
 20
313.438643
 10
602.284288
 20
313.534552
 10
602.388455
 20
313.617263
 10
602.489169
 20
313.686744
 10
602.587181
 20
313.742967
 10
602.683242
 20
313.785901
 10
602.778106
 20
313.815515
 10
602.872523
 20
313.83178
 10
602.967245
 20
313.834665
 10
603.063025
 20
313.824141
 10
603.160613
 20
313.800176
 10
603.260763
 20
313.762742
 10
603.364225
 20
313.711808
 10
603.471752
 20
313.647343
 10
603.584095
 20
313.569318
 10
603.826238
 20
313.372466
 10
604.096669
 20
313.12101
 10
604.401402
 20
312.81471
 10
605.137833
 20
312.03661
 10
605.78122
 20
311.355835
 10
606.052607
 20
311.079836
 10
606.299855
 20
310.842447
 10
606.530012
 20
310.640432
 10
606.750127
 20
310.470556
 10
606.967248
 20
310.329582
 10
607.188424
 20
310.214275
 10
607.420704
 20
310.121397
 10
607.671135
 20
310.047715
 10
607.946766
 20
309.98999
 10
608.254647
 20
309.944988
 10
608.601824
 20
309.909471
 10
608.995348
 20
309.880205
 10
609.949627
 20
309.82748
 10
610.905032
 20
309.775913
 10
611.301229
 20
309.749399
 10
611.653613
 20
309.719242
 10
611.970077
 20
309.683076
 10
612.258512
 20
309.638533
 10
612.526813
 20
309.583246
 10
612.782871
 20
309.514849
 10
613.03458
 20
309.430974
 10
613.289832
 20
309.329256
 10
613.55652
 20
309.207326
 10
613.842537
 20
309.062817
 10
614.504128
 20
308.696599
 10
615.337747
 20
308.211665
 10
617.846229
 20
306.743389
 10
619.115261
 20
306.424113
 10
619.437264
 20
306.351773
 10
619.750842
 20
306.298864
 10
620.055894
 20
306.265356
 10
620.352317
 20
306.25122
 10
620.640011
 20
306.256428
 10
620.918874
 20
306.28095
 10
621.188803
 20
306.324759
 10
621.449698
 20
306.387825
 10
621.701457
 20
306.470119
 10
621.943978
 20
306.571613
 10
622.177159
 20
306.692277
 10
622.4009
 20
306.832084
 10
622.615097
 20
306.991003
 10
622.819651
 20
307.169007
 10
623.014458
 20
307.366067
 10
623.199418
 20
307.582153
 10
623.381635
 20
307.823253
 10
623.547197
 20
308.070401
 10
623.696684
 20
308.326501
 10
623.83068
 20
308.594456
 10
623.949762
 20
308.87717
 10
624.054514
 20
309.177547
 10
624.145516
 20
309.49849
 10
624.223347
 20
309.842903
 10
624.288591
 20
310.213689
 10
624.341826
 20
310.613752
 10
624.383634
 20
311.045996
 10
624.414597
 20
311.513323
 10
624.435294
 20
312.018639
 10
624.446307
 20
312.564845
 10
624.448216
 20
313.154847
 10
624.441603
 20
313.791547
 10
624.346415
 20
316.686846
 42
0.404638
 10
624.046559
 20
316.976988
 10
612.320318
 20
316.976265
 10
612.320194
 20
318.976265
 10
624.047262
 20
318.976988
 42
0.402126
 10
624.346986
 20
319.264577
 10
624.381023
 20
320.086563
 10
624.414203
 20
321.175231
 10
624.439698
 20
322.324359
 10
624.443896
 20
322.840604
 10
624.438987
 20
323.337681
 10
624.424909
 20
323.815687
 10
624.401605
 20
324.274719
 10
624.369012
 20
324.714872
 10
624.327072
 20
325.136242
 10
624.275723
 20
325.538926
 10
624.214907
 20
325.92302
 10
624.144562
 20
326.28862
 10
624.06463
 20
326.635823
 10
623.975048
 20
326.964724
 10
623.875759
 20
327.275419
 10
623.7667
 20
327.568005
 10
623.647813
 20
327.842578
 10
623.519038
 20
328.099233
 10
623.380313
 20
328.338069
 10
623.23158
 20
328.559179
 10
623.072777
 20
328.762661
 10
622.903845
 20
328.94861
 10
622.724724
 20
329.117124
 10
622.535354
 20
329.268297
 10
622.335674
 20
329.402227
 10
622.125625
 20
329.519008
 10
621.905146
 20
329.618739
 10
621.674177
 20
329.701513
 10
621.432659
 20
329.767429
 10
621.18053
 20
329.816582
 10
620.917732
 20
329.849068
 10
620.644203
 20
329.864983
 10
620.359884
 20
329.864423
 10
620.064714
 20
329.847485
 10
619.758635
 20
329.814265
 10
619.483383
 20
329.770561
 10
619.198225
 20
329.711548
 10
618.904959
 20
329.638039
 10
618.605381
 20
329.550849
 10
618.301287
 20
329.450794
 10
617.994473
 20
329.338688
 10
617.686736
 20
329.215345
 10
617.379873
 20
329.08158
 10
617.075679
 20
328.938209
 10
616.775951
 20
328.786045
 10
616.482485
 20
328.625905
 10
616.197078
 20
328.458601
 10
615.921527
 20
328.284949
 10
615.657627
 20
328.105764
 10
615.407175
 20
327.921861
 10
615.171968
 20
327.734053
 10
614.899416
 20
327.51261
 10
614.635384
 20
327.311488
 10
614.376769
 20
327.12966
 10
614.120466
 20
326.966099
 10
613.863373
 20
326.819778
 10
613.602384
 20
326.689671
 10
613.334397
 20
326.574749
 10
613.056306
 20
326.473988
 10
612.765009
 20
326.386358
 10
612.457402
 20
326.310834
 10
612.13038
 20
326.246388
 10
611.780839
 20
326.191994
 10
611.405677
 20
326.146624
 10
611.001788
 20
326.109251
 10
610.566069
 20
326.078849
 10
610.095416
 20
326.05439
 10
609.490395
 20
326.050293
 10
608.836153
 20
326.059266
 10
608.507426
 20
326.055093
 10
608.186614
 20
326.037914
 10
607.880458
 20
326.002303
 10
607.734983
 20
325.975891
 10
607.5957
 20
325.942837
 10
607.509098
 20
325.914112
 10
607.42045
 20
325.875547
 10
607.240913
 20
325.779026
 10
607.064876
 20
325.673539
 10
606.900131
 20
325.579351
 10
606.722942
 20
325.47851
 10
606.487964
 20
325.328436
 10
606.209698
 20
325.132889
 10
605.902645
 20
324.895633
 10
605.581308
 20
324.620428
 10
605.260186
 20
324.311038
 10
605.104238
 20
324.144698
 10
604.953782
 20
323.971223
 10
604.81063
 20
323.791083
 10
604.676596
 20
323.604747
 10
604.11563
 20
322.744477
 10
603.685591
 20
322.065037
 10
603.50636
 20
321.802303
 10
603.343891
 20
321.595786
 10
603.267278
 20
321.514756
 10
603.192859
 20
321.449156
 10
603.119969
 20
321.399446
 10
603.047942
 20
321.366083
 10
602.976113
 20
321.349527
 10
602.903816
 20
321.350236
 10
602.830386
 20
321.368669
 10
602.755157
 20
321.405285
 10
602.677465
 20
321.460542
 10
602.596643
 20
321.5349
 10
602.512027
 20
321.628817
 10
602.42295
 20
321.742751
 10
602.228754
 20
322.032507
 10
602.008732
 20
322.407839
 10
601.757561
 20
322.872416
 10
601.469917
 20
323.429908
 10
601.221722
 20
323.888143
 10
601.097333
 20
324.095087
 10
600.972275
 20
324.287948
 10
600.846193
 20
324.467249
 10
600.718731
 20
324.633515
 10
600.589533
 20
324.787268
 10
600.458243
 20
324.929034
 10
600.324506
 20
325.059336
 10
600.187966
 20
325.178698
 10
600.048268
 20
325.287644
 10
599.905055
 20
325.386698
 10
599.757972
 20
325.476384
 10
599.606663
 20
325.557225
 10
599.450773
 20
325.629746
 10
599.289945
 20
325.69447
 10
599.123825
 20
325.751921
 10
598.952056
 20
325.802624
 10
598.590149
 20
325.88588
 10
598.201379
 20
325.948428
 10
597.7829
 20
325.99446
 10
597.331867
 20
326.028166
 10
596.845433
 20
326.053739
 10
595.754983
 20
326.09725
 10
594.869682
 20
326.135433
 10
594.502333
 20
326.156973
 10
594.175321
 20
326.183444
 10
593.881248
 20
326.21732
 10
593.612716
 20
326.261076
 10
593.362328
 20
326.317186
 10
593.122684
 20
326.388124
 10
592.886388
 20
326.476365
 10
592.64604
 20
326.584382
 10
592.394244
 20
326.714651
 10
592.1236
 20
326.869645
 10
591.496179
 20
327.263706
 10
590.704593
 20
327.786361
 10
590.173447
 20
328.131188
 10
589.666248
 20
328.443649
 10
589.181589
 20
328.724152
 10
588.71806
 20
328.973108
 10
588.274252
 20
329.190925
 10
587.848755
 20
329.378012
 10
587.440162
 20
329.534778
 10
587.047063
 20
329.661633
 10
586.668048
 20
329.758986
 10
586.30171
 20
329.827245
 10
585.946638
 20
329.866821
 10
585.601424
 20
329.878122
 10
585.264659
 20
329.861557
 10
584.934934
 20
329.817535
 10
584.610839
 20
329.746466
 10
584.290967
 20
329.648759
 10
584.097259
 20
329.575524
 10
583.911209
 20
329.493362
 10
583.732743
 20
329.402064
 10
583.561785
 20
329.301421
 10
583.398263
 20
329.191224
 10
583.242102
 20
329.071263
 10
583.093228
 20
328.94133
 10
582.951567
 20
328.801215
 10
582.817044
 20
328.65071
 10
582.689586
 20
328.489604
 10
582.569118
 20
328.31769
 10
582.455566
 20
328.134758
 10
582.348856
 20
327.940598
 10
582.248914
 20
327.735002
 10
582.155666
 20
327.51776
 10
582.069038
 20
327.288663
 10
581.988955
 20
327.047503
 10
581.915344
 20
326.79407
 10
581.84813
 20
326.528155
 10
581.787239
 20
326.249548
 10
581.732596
 20
325.958042
 10
581.684129
 20
325.653425
 10
581.641762
 20
325.33549
 10
581.605422
 20
325.004028
 10
581.550525
 20
324.299683
 10
581.518844
 20
323.538717
 10
581.509786
 20
322.719458
 10
581.522759
 20
321.840232
 10
581.588057
 20
319.343114
 42
0.405584
 10
581.886932
 20
319.050958
 10
593.584587
 20
319.011096
 10
593.577771
 20
317.011108
 10
581.864416
 20
317.051023
 42
0.418036
 10
581.563407
 20
316.748138
 10
581.633889
 20
309.425922
 10
582.053982
 20
308.632172
 10
582.232448
 20
308.319637
 10
582.425683
 20
308.028021
 10
582.633112
 20
307.757631
 10
582.854165
 20
307.508776
 10
583.088266
 20
307.281765
 10
583.334845
 20
307.076905
 10
583.593327
 20
306.894505
 10
583.863141
 20
306.734873
 10
584.143712
 20
306.598318
 10
584.434469
 20
306.485148
 10
584.734837
 20
306.39567
 10
585.044245
 20
306.330195
 10
585.36212
 20
306.289029
 10
585.687888
 20
306.27248
 10
586.020976
 20
306.280859
 10
586.360813
 20
306.314472
  0
LWPOLYLINE
  5
2D
330
1F
100
AcDbEntity
  8
0
100
AcDbPolyline
 90
      210
 70
   128
 43
0.0
 10
646.020927
 20
237.677615
 10
646.155931
 20
237.685479
 10
646.322109
 20
237.708866
 10
646.51041
 20
237.747469
 10
646.71178
 20
237.800984
 10
646.917167
 20
237.869103
 10
647.117518
 20
237.95152
 10
647.30378
 20
238.047929
 10
647.466901
 20
238.158024
 10
647.681464
 20
238.335225
 10
647.846495
 20
238.497284
 10
647.911903
 20
238.577056
 10
647.966687
 20
238.658349
 10
648.011435
 20
238.742931
 10
648.046733
 20
238.83257
 10
648.073168
 20
238.929034
 10
648.091326
 20
239.034093
 10
648.101794
 20
239.149515
 10
648.105159
 20
239.277068
 10
648.092926
 20
239.575641
 10
648.059319
 20
239.943962
 10
648.024581
 20
240.224003
 10
647.974626
 20
240.553064
 10
647.838458
 20
241.310046
 10
647.669598
 20
242.118502
 10
647.486832
 20
242.882028
 10
647.397788
 20
243.251677
 10
647.324218
 20
243.612087
 10
647.266063
 20
243.962623
 10
647.223266
 20
244.302647
 10
647.195771
 20
244.631523
 10
647.18352
 20
244.948614
 10
647.186455
 20
245.253284
 10
647.204521
 20
245.544897
 10
647.237658
 20
245.822815
 10
647.285811
 20
246.086403
 10
647.348922
 20
246.335024
 10
647.426934
 20
246.568041
 10
647.519789
 20
246.784819
 10
647.62743
 20
246.98472
 10
647.7498
 20
247.167107
 10
647.886843
 20
247.331346
 10
648.154752
 20
247.634774
 42
0.354943
 10
648.170319
 20
248.012729
 10
645.703994
 20
251.318502
 10
647.307016
 20
252.514462
 10
649.739647
 20
249.253851
 42
0.357718
 10
650.109053
 20
249.162373
 10
650.482656
 20
249.340232
 10
650.722124
 20
249.427676
 10
650.975177
 20
249.494198
 10
651.242269
 20
249.539182
 10
651.523853
 20
249.562013
 10
651.820382
 20
249.562074
 10
652.132311
 20
249.53875
 10
652.460091
 20
249.491424
 10
652.804178
 20
249.419482
 10
653.165023
 20
249.322307
 10
653.543081
 20
249.199283
 10
653.938805
 20
249.049795
 10
654.352648
 20
248.873226
 10
654.785064
 20
248.668961
 10
655.236505
 20
248.436385
 10
655.707426
 20
248.17488
 10
655.918514
 20
248.044287
 10
656.136702
 20
247.895347
 10
656.5877
 20
247.57283
 10
656.817169
 20
247.414452
 10
657.047059
 20
247.268127
 10
657.275699
 20
247.141456
 10
657.50142
 20
247.042038
 10
657.643132
 20
246.996667
 10
657.796555
 20
246.95997
 10
658.124355
 20
246.907599
 10
658.456467
 20
246.874928
 10
658.764539
 20
246.851964
 10
658.908326
 20
246.856182
 10
659.057451
 20
246.8882
 10
659.209898
 20
246.945539
 10
659.363651
 20
247.02572
 10
659.516691
 20
247.126264
 10
659.667004
 20
247.244692
 10
659.812572
 20
247.378525
 10
659.951379
 20
247.525284
 10
660.081408
 20
247.682489
 10
660.200643
 20
247.847663
 10
660.307067
 20
248.018326
 10
660.398663
 20
248.191999
 10
660.473414
 20
248.366203
 10
660.529305
 20
248.53846
 10
660.564318
 20
248.706289
 10
660.576438
 20
248.867212
 10
660.562524
 20
249.08892
 10
660.52188
 20
249.323062
 10
660.456155
 20
249.567218
 10
660.366996
 20
249.818966
 10
660.256052
 20
250.075885
 10
660.12497
 20
250.335555
 10
659.975399
 20
250.595553
 10
659.808986
 20
250.853458
 10
659.627381
 20
251.10685
 10
659.432229
 20
251.353306
 10
659.225181
 20
251.590407
 10
659.007883
 20
251.81573
 10
658.781985
 20
252.026854
 10
658.549133
 20
252.221358
 10
658.310975
 20
252.396821
 10
658.069161
 20
252.550822
 10
657.78925
 20
252.702195
 10
657.44147
 20
252.86971
 10
657.039629
 20
253.047818
 10
656.597533
 20
253.230974
 10
656.12899
 20
253.41363
 10
655.647808
 20
253.590242
 10
655.167794
 20
253.75526
 10
654.702756
 20
253.90314
 10
654.228885
 20
254.058127
 10
653.723555
 20
254.243518
 10
653.202349
 20
254.452336
 10
652.68085
 20
254.677606
 10
652.174639
 20
254.912354
 10
651.699301
 20
255.149604
 10
651.270417
 20
255.382383
 10
650.90357
 20
255.603713
 10
650.53244
 20
255.834719
 10
650.172395
 20
256.041314
 10
649.821985
 20
256.22374
 10
649.479763
 20
256.382239
 10
649.144278
 20
256.51705
 10
648.814082
 20
256.628417
 10
648.487726
 20
256.716578
 10
648.163761
 20
256.781777
 10
647.840738
 20
256.824253
 10
647.517208
 20
256.844249
 10
647.191723
 20
256.842004
 10
646.862834
 20
256.817761
 10
646.529091
 20
256.77176
 10
646.189045
 20
256.704243
 10
645.841248
 20
256.61545
 10
645.484251
 20
256.505623
 10
645.176398
 20
256.394555
 10
644.877949
 20
256.269303
 10
644.589188
 20
256.130439
 10
644.310393
 20
255.978537
 10
644.041848
 20
255.814171
 10
643.783832
 20
255.637915
 10
643.536626
 20
255.450343
 10
643.300512
 20
255.252029
 10
643.07577
 20
255.043546
 10
642.862682
 20
254.825468
 10
642.661529
 20
254.59837
 10
642.472591
 20
254.362824
 10
642.29615
 20
254.119405
 10
642.132487
 20
253.868686
 10
641.981882
 20
253.611242
 10
641.844617
 20
253.347646
 10
641.720972
 20
253.078472
 10
641.61123
 20
252.804294
 10
641.515669
 20
252.525685
 10
641.434573
 20
252.24322
 10
641.368221
 20
251.957472
 10
641.316895
 20
251.669015
 10
641.280876
 20
251.378423
 10
641.260445
 20
251.08627
 10
641.255882
 20
250.793129
 10
641.267469
 20
250.499575
 10
641.295487
 20
250.20618
 10
641.340216
 20
249.91352
 10
641.401939
 20
249.622167
 10
641.480935
 20
249.332696
 10
641.577486
 20
249.045681
 10
641.691873
 20
248.761695
 10
641.742458
 20
248.633708
 10
641.791845
 20
248.484194
 10
641.886672
 20
248.123011
 10
641.975656
 20
247.683007
 10
642.0581
 20
247.16904
 10
642.133305
 20
246.585968
 10
642.200573
 20
245.93865
 10
642.259205
 20
245.231946
 10
642.308504
 20
244.470714
 10
642.321878
 20
244.083063
 10
642.324533
 20
243.670201
 10
642.324811
 20
242.804545
 10
642.335997
 20
242.369603
 10
642.363589
 20
241.945151
 10
642.385656
 20
241.739649
 10
642.414368
 20
241.540116
 10
642.450572
 20
241.347668
 10
642.495115
 20
241.163422
 10
642.61172
 20
240.805109
 10
642.78467
 20
240.345848
 10
642.97139
 20
239.891944
 10
643.129307
 20
239.549699
 10
643.254278
 20
239.329823
 10
643.394862
 20
239.122814
 10
643.549305
 20
238.928855
 10
643.715856
 20
238.748126
 10
643.892762
 20
238.58081
 10
644.07827
 20
238.427089
 10
644.270628
 20
238.287145
 10
644.468084
 20
238.16116
 10
644.668884
 20
238.049314
 10
644.871276
 20
237.951792
 10
645.073508
 20
237.868774
 10
645.273828
 20
237.800442
 10
645.470482
 20
237.746978
 10
645.661718
 20
237.708564
 10
645.845784
 20
237.685383
 10
646.020927
 20
237.677615
  0
LWPOLYLINE
  5
2E
330
1F
100
AcDbEntity
  8
0
100
AcDbPolyline
 90
     1883
 70
   128
 43
0.0
 10
625.214025
 20
232.175117
 42
0.471236
 10
625.233278
 20
232.637444
 10
621.565624
 20
235.93074
 10
622.90185
 20
237.418859
 10
626.730642
 20
233.980873
 42
0.383133
 10
627.131551
 20
233.98091
 10
627.777429
 20
234.561079
 10
628.427766
 20
235.124356
 10
629.79518
 20
236.2993
 10
630.474208
 20
236.902359
 10
631.12475
 20
237.510069
 10
631.433393
 20
237.814324
 10
631.727782
 20
238.118128
 10
632.005536
 20
238.420943
 10
632.264279
 20
238.72223
 10
632.399821
 20
238.898319
 10
632.533002
 20
239.092586
 10
632.791551
 20
239.514212
 10
633.03847
 20
239.944215
 10
633.272303
 20
240.339701
 10
633.567304
 20
240.834996
 10
633.833609
 20
241.328015
 10
634.071182
 20
241.818544
 10
634.279987
 20
242.306369
 10
634.459989
 20
242.791275
 10
634.611151
 20
243.273047
 10
634.733439
 20
243.751472
 10
634.826815
 20
244.226335
 10
634.891245
 20
244.697421
 10
634.926693
 20
245.164517
 10
634.933122
 20
245.627407
 10
634.910498
 20
246.085878
 10
634.858784
 20
246.539714
 10
634.777945
 20
246.988703
 10
634.667944
 20
247.432628
 10
634.528747
 20
247.871276
 10
634.434973
 20
248.113378
 10
634.316693
 20
248.379011
 10
634.175536
 20
248.665718
 10
634.013131
 20
248.971044
 10
633.831106
 20
249.292533
 10
633.63109
 20
249.62773
 10
633.414711
 20
249.974177
 10
633.183597
 20
250.32942
 10
632.683681
 20
251.056469
 10
632.144368
 20
251.78923
 10
631.86401
 20
252.151613
 10
631.578688
 20
252.508056
 10
631.290031
 20
252.856103
 10
630.999668
 20
253.193299
 10
630.649313
 20
253.582514
 10
630.492397
 20
253.738164
 10
630.032567
 20
254.128323
 42
0.207466
 10
629.804156
 20
254.197601
 10
617.132244
 20
252.738481
 10
616.903464
 20
254.725353
 10
628.189693
 20
256.024917
 42
0.36867
 10
628.455095
 20
256.309957
 10
628.508841
 20
257.549937
 10
628.518463
 20
257.932567
 10
628.515254
 20
258.318946
 10
628.500155
 20
258.698514
 10
628.474108
 20
259.06071
 10
628.438055
 20
259.394975
 10
628.392937
 20
259.690749
 10
628.339696
 20
259.93747
 10
628.279273
 20
260.12458
 10
628.184081
 20
260.325054
 10
628.068533
 20
260.515936
 10
627.932595
 20
260.697247
 10
627.776228
 20
260.869005
 10
627.599397
 20
261.031229
 10
627.402064
 20
261.183938
 10
627.184193
 20
261.327151
 10
626.945747
 20
261.460888
 10
626.68669
 20
261.585167
 10
626.406985
 20
261.700007
 10
626.106594
 20
261.805428
 10
625.785482
 20
261.901449
 10
625.443611
 20
261.988088
 10
625.080946
 20
262.065364
 10
624.697448
 20
262.133297
 10
624.293082
 20
262.191906
 10
623.63539
 20
262.292251
 10
622.983309
 20
262.420833
 10
622.339386
 20
262.576358
 10
621.706168
 20
262.757538
 10
621.0862
 20
262.963079
 10
620.48203
 20
263.191692
 10
619.896204
 20
263.442086
 10
619.331268
 20
263.712968
 10
618.789768
 20
264.003049
 10
618.27425
 20
264.311038
 10
617.787262
 20
264.635643
 10
617.555262
 20
264.803773
 10
617.33135
 20
264.975573
 10
617.115843
 20
265.150881
 10
616.909059
 20
265.329537
 10
616.711318
 20
265.511378
 10
616.522937
 20
265.696244
 10
616.344235
 20
265.883973
 10
616.17553
 20
266.074404
 10
616.01714
 20
266.267375
 10
615.869384
 20
266.462725
 10
615.640741
 20
266.791381
 10
615.458809
 20
267.088095
 10
615.383798
 20
267.229675
 10
615.318589
 20
267.369513
 10
615.262557
 20
267.509688
 10
615.215078
 20
267.652282
 10
615.175526
 20
267.799375
 10
615.143275
 20
267.953048
 10
615.098179
 20
268.288459
 10
615.07479
 20
268.675161
 10
615.068104
 20
269.129801
 10
615.076093
 20
269.464333
 10
615.099078
 20
269.803898
 10
615.135587
 20
270.139922
 10
615.184147
 20
270.463832
 10
615.243286
 20
270.767055
 10
615.311533
 20
271.041018
 10
615.387414
 20
271.277149
 10
615.469458
 20
271.466874
 10
615.598999
 20
271.689356
 10
615.748026
 20
271.89514
 10
615.9153
 20
272.084331
 10
616.099584
 20
272.257033
 10
616.299639
 20
272.413351
 10
616.514226
 20
272.553388
 10
616.742108
 20
272.677249
 10
616.982045
 20
272.785037
 10
617.232799
 20
272.876858
 10
617.493133
 20
272.952816
 10
617.761807
 20
273.013014
 10
618.037583
 20
273.057557
 10
618.319223
 20
273.08655
 10
618.605488
 20
273.100096
 10
618.89514
 20
273.0983
 10
619.186941
 20
273.081265
 10
619.479652
 20
273.049097
 10
619.772035
 20
273.0019
 10
620.062851
 20
272.939777
 10
620.350862
 20
272.862833
 10
620.63483
 20
272.771172
 10
620.913517
 20
272.664899
 10
621.185683
 20
272.544117
 10
621.45009
 20
272.408931
 10
621.705501
 20
272.259446
 10
621.950676
 20
272.095765
 10
622.184378
 20
271.917992
 10
622.405367
 20
271.726232
 10
622.612406
 20
271.52059
 10
622.804256
 20
271.301169
 10
622.979679
 20
271.068073
 10
623.137437
 20
270.821408
 10
623.403719
 20
270.389509
 10
623.670628
 20
270.001002
 10
623.937598
 20
269.656108
 10
624.204065
 20
269.355051
 10
624.336933
 20
269.22103
 10
624.469463
 20
269.098051
 10
624.601585
 20
268.986142
 10
624.733228
 20
268.885331
 10
624.864322
 20
268.795645
 10
624.994795
 20
268.717112
 10
625.124578
 20
268.64976
 10
625.253599
 20
268.593616
 10
625.381789
 20
268.548709
 10
625.509076
 20
268.515067
 10
625.635389
 20
268.492715
 10
625.760659
 20
268.481684
 10
625.884815
 20
268.482
 10
626.007786
 20
268.49369
 10
626.129501
 20
268.516784
 10
626.249889
 20
268.551308
 10
626.368881
 20
268.59729
 10
626.486406
 20
268.654759
 10
626.602392
 20
268.723741
 10
626.71677
 20
268.804264
 10
626.829469
 20
268.896357
 10
626.940418
 20
269.000047
 10
627.049546
 20
269.115361
 10
627.156783
 20
269.242328
 10
627.393231
 20
269.560966
 10
627.587059
 20
269.866227
 10
627.661735
 20
270.003015
 10
627.71825
 20
270.123469
 10
627.754103
 20
270.223259
 10
627.76679
 20
270.298053
 10
627.778246
 20
270.371551
 10
627.81057
 20
270.467623
 10
627.861507
 20
270.582201
 10
627.928802
 20
270.711215
 10
628.103449
 20
270.996273
 10
628.316474
 20
271.290241
 10
628.424594
 20
271.420006
 10
628.534524
 20
271.536802
 10
628.646181
 20
271.640672
 10
628.75948
 20
271.731662
 10
628.874337
 20
271.809814
 10
628.990669
 20
271.875173
 10
629.10839
 20
271.927783
 10
629.227416
 20
271.967688
 10
629.347664
 20
271.994933
 10
629.469049
 20
272.00956
 10
629.591487
 20
272.011615
 10
629.714893
 20
272.001141
 10
629.839183
 20
271.978183
 10
629.964274
 20
271.942784
 10
630.09008
 20
271.894989
 10
630.216518
 20
271.834842
 10
630.343504
 20
271.762386
 10
630.470952
 20
271.677666
 10
630.59878
 20
271.580726
 10
630.726902
 20
271.47161
 10
630.855234
 20
271.350362
 10
630.983693
 20
271.217027
 10
631.112193
 20
271.071647
 10
631.240652
 20
270.914268
 10
631.497105
 20
270.563686
 10
631.752378
 20
270.165635
 10
632.005797
 20
269.720467
 10
632.256689
 20
269.228533
 10
632.378394
 20
268.990305
 10
632.508466
 20
268.760404
 10
632.645883
 20
268.539801
 10
632.789627
 20
268.329469
 10
632.938677
 20
268.130379
 10
633.092015
 20
267.943503
 10
633.248619
 20
267.769813
 10
633.407471
 20
267.61028
 10
633.567551
 20
267.465876
 10
633.727839
 20
267.337573
 10
633.887315
 20
267.226343
 10
634.04496
 20
267.133158
 10
634.199754
 20
267.058989
 10
634.350677
 20
267.004808
 10
634.496709
 20
266.971587
 10
634.636832
 20
266.960297
 10
634.748904
 20
266.970474
 10
634.865093
 20
267.000964
 10
634.985341
 20
267.0517
 10
635.109591
 20
267.122621
 10
635.237789
 20
267.21366
 10
635.369876
 20
267.324755
 10
635.505797
 20
267.45584
 10
635.645495
 20
267.606852
 10
635.788913
 20
267.777727
 10
635.935995
 20
267.968399
 10
636.086686
 20
268.178806
 10
636.240927
 20
268.408882
 10
636.559836
 20
268.927787
 10
636.892273
 20
269.5246
 10
637.046779
 20
269.805377
 10
637.205265
 20
270.075859
 10
637.363581
 20
270.328232
 10
637.517579
 20
270.554683
 10
637.66311
 20
270.747398
 10
637.796024
 20
270.898566
 10
637.912172
 20
271.000373
 10
637.962663
 20
271.030324
 10
638.007406
 20
271.045005
 10
638.243559
 20
271.075481
 10
638.453632
 20
271.086131
 10
638.640393
 20
271.076727
 10
638.806614
 20
271.047039
 10
638.955063
 20
270.996841
 10
639.088511
 20
270.925903
 10
639.209728
 20
270.833998
 10
639.321483
 20
270.720897
 10
639.426546
 20
270.586371
 10
639.527687
 20
270.430193
 10
639.627676
 20
270.252134
 10
639.729282
 20
270.051967
 10
639.948428
 20
269.58439
 10
640.207283
 20
269.025638
 10
640.374738
 20
268.681054
 10
640.540803
 20
268.358378
 10
640.705439
 20
268.057658
 10
640.868603
 20
267.778941
 10
641.030256
 20
267.522273
 10
641.190357
 20
267.287701
 10
641.348865
 20
267.075271
 10
641.505739
 20
266.885031
 10
641.660939
 20
266.717027
 10
641.814424
 20
266.571306
 10
641.966153
 20
266.447914
 10
642.116086
 20
266.346899
 10
642.264181
 20
266.268307
 10
642.410399
 20
266.212185
 10
642.554698
 20
266.178579
 10
642.697037
 20
266.167536
 10
642.861626
 20
266.181122
 10
643.030319
 20
266.219937
 10
643.202811
 20
266.281946
 10
643.378797
 20
266.365115
 10
643.557971
 20
266.467409
 10
643.740029
 20
266.586793
 10
643.924665
 20
266.721231
 10
644.111574
 20
266.86869
 10
644.49099
 20
267.194527
 10
644.875836
 20
267.548024
 10
645.65205
 20
268.272885
 10
645.787384
 20
268.388823
 10
645.921888
 20
268.49038
 10
646.05538
 20
268.577726
 10
646.187676
 20
268.651034
 10
646.318594
 20
268.710476
 10
646.447949
 20
268.756224
 10
646.575559
 20
268.78845
 10
646.701241
 20
268.807325
 10
646.824811
 20
268.813022
 10
646.946088
 20
268.805713
 10
647.064887
 20
268.785569
 10
647.181025
 20
268.752763
 10
647.294319
 20
268.707466
 10
647.404587
 20
268.649851
 10
647.511645
 20
268.580089
 10
647.61531
 20
268.498352
 10
647.715399
 20
268.404812
 10
647.811729
 20
268.299642
 10
647.904117
 20
268.183013
 10
647.992379
 20
268.055096
 10
648.076333
 20
267.916065
 10
648.155795
 20
267.766091
 10
648.230583
 20
267.605345
 10
648.300512
 20
267.434001
 10
648.365402
 20
267.252229
 10
648.425067
 20
267.060202
 10
648.479325
 20
266.858092
 10
648.527993
 20
266.64607
 10
648.570888
 20
266.424309
 10
648.607826
 20
266.19298
 10
648.663102
 20
265.702308
 10
648.690844
 20
265.497211
 10
648.739862
 20
265.287736
 10
648.809477
 20
265.076313
 10
648.899009
 20
264.865372
 10
649.007781
 20
264.657342
 10
649.135112
 20
264.454654
 10
649.280325
 20
264.259738
 10
649.44274
 20
264.075022
 10
649.621678
 20
263.902938
 10
649.81646
 20
263.745915
 10
650.026408
 20
263.606383
 10
650.250843
 20
263.486772
 10
650.489085
 20
263.389511
 10
650.740455
 20
263.317031
 10
650.870851
 20
263.290842
 10
651.004275
 20
263.27176
 10
651.140642
 20
263.260088
 10
651.279866
 20
263.25613
 10
651.40068
 20
263.273006
 10
651.562641
 20
263.321372
 10
651.75868
 20
263.397837
 10
651.981732
 20
263.49901
 10
652.224731
 20
263.621499
 10
652.480609
 20
263.761913
 10
652.742301
 20
263.916862
 10
653.00274
 20
264.082953
 10
653.267792
 20
264.249045
 10
653.542705
 20
264.403993
 10
653.819486
 20
264.544408
 10
654.090141
 20
264.666897
 10
654.346678
 20
264.76807
 10
654.581101
 20
264.844535
 10
654.785418
 20
264.892901
 10
654.951636
 20
264.909776
 10
655.112814
 20
264.897088
 10
655.275433
 20
264.859774
 10
655.438514
 20
264.798959
 10
655.601075
 20
264.715772
 10
655.762134
 20
264.611336
 10
655.92071
 20
264.486779
 10
656.075822
 20
264.343227
 10
656.226489
 20
264.181806
 10
656.371729
 20
264.003641
 10
656.510561
 20
263.80986
 10
656.642004
 20
263.601588
 10
656.765077
 20
263.379951
 10
656.878798
 20
263.146075
 10
656.982186
 20
262.901087
 10
657.074259
 20
262.646113
 10
657.154037
 20
262.382278
 10
657.220471
 20
262.169036
 10
657.303964
 20
261.948584
 10
657.401149
 20
261.727286
 10
657.50866
 20
261.511506
 10
657.623132
 20
261.307607
 10
657.741199
 20
261.121953
 10
657.859495
 20
260.960906
 10
657.974655
 20
260.83083
 10
658.145002
 20
260.671488
 10
658.225932
 20
260.606517
 10
658.306392
 20
260.550948
 10
658.388149
 20
260.50448
 10
658.472973
 20
260.466815
 10
658.562631
 20
260.437652
 10
658.658893
 20
260.416692
 10
658.763526
 20
260.403636
 10
658.8783
 20
260.398185
 10
659.145343
 20
260.408898
 10
659.47417
 20
260.446435
 10
659.878928
 20
260.508401
 10
660.26162
 20
260.566454
 10
660.647972
 20
260.616034
 10
661.034675
 20
260.657119
 10
661.41842
 20
260.689689
 10
661.7959
 20
260.713722
 10
662.163805
 20
260.729198
 10
662.518828
 20
260.736093
 10
662.85766
 20
260.734388
 10
663.176992
 20
260.724061
 10
663.473516
 20
260.705091
 10
663.743924
 20
260.677456
 10
663.984907
 20
260.641136
 10
664.193157
 20
260.596108
 10
664.365364
 20
260.542352
 10
664.498222
 20
260.479846
 10
664.548861
 20
260.445305
 10
664.588421
 20
260.408569
 10
664.668357
 20
260.311124
 10
664.737428
 20
260.209928
 10
664.796577
 20
260.104667
 10
664.846748
 20
259.995026
 10
664.888884
 20
259.880691
 10
664.923929
 20
259.761346
 10
664.976517
 20
259.506371
 10
665.01206
 20
259.227585
 10
665.038103
 20
258.922469
 10
665.091882
 20
258.223185
 10
665.151761
 20
257.693623
 10
665.230432
 20
257.220208
 10
665.277437
 20
257.004219
 10
665.329887
 20
256.801865
 10
665.38803
 20
256.613009
 10
665.452116
 20
256.437518
 10
665.522393
 20
256.275258
 10
665.599109
 20
256.126093
 10
665.682514
 20
255.98989
 10
665.772857
 20
255.866515
 10
665.870386
 20
255.755832
 10
665.97535
 20
255.657708
 10
666.087998
 20
255.572008
 10
666.208579
 20
255.498598
 10
666.337342
 20
255.437344
 10
666.474535
 20
255.38811
 10
666.620407
 20
255.350763
 10
666.775207
 20
255.325168
 10
666.939184
 20
255.311191
 10
667.112587
 20
255.308697
 10
667.295664
 20
255.317553
 10
667.488665
 20
255.337623
 10
667.691837
 20
255.368774
 10
667.905431
 20
255.410871
 10
668.129694
 20
255.463779
 10
668.364876
 20
255.527364
 10
668.868991
 20
255.686029
 10
669.419765
 20
255.885791
 10
669.902504
 20
256.068591
 10
670.274963
 20
256.200085
 10
670.559638
 20
256.281022
 10
670.676087
 20
256.302766
 10
670.779026
 20
256.312152
 10
670.871267
 20
256.309274
 10
670.955621
 20
256.294227
 10
671.034902
 20
256.267102
 10
671.11192
 20
256.227995
 10
671.270417
 20
256.114208
 10
671.453608
 20
255.953614
 10
671.621626
 20
255.789044
 10
671.689946
 20
255.707712
 10
671.748351
 20
255.623093
 10
671.797248
 20
255.532245
 10
671.837047
 20
255.432228
 10
671.868153
 20
255.3201
 10
671.890976
 20
255.192919
 10
671.905924
 20
255.047744
 10
671.913404
 20
254.881634
 10
671.907592
 20
254.474842
 10
671.876804
 20
253.949011
 10
671.824303
 20
253.280611
 10
671.768914
 20
252.584787
 10
671.736711
 20
252.045126
 10
671.730895
 20
251.824638
 10
671.732786
 20
251.632128
 10
671.743018
 20
251.463911
 10
671.762229
 20
251.316297
 10
671.791055
 20
251.1856
 10
671.830132
 20
251.068133
 10
671.880098
 20
250.960208
 10
671.941588
 20
250.858138
 10
672.015238
 20
250.758235
 10
672.101686
 20
250.656813
 10
672.31552
 20
250.434662
 10
672.467472
 20
250.29493
 10
672.627596
 20
250.171695
 10
672.796258
 20
250.064928
 10
672.973826
 20
249.974603
 10
673.160669
 20
249.900692
 10
673.357152
 20
249.843167
 10
673.563644
 20
249.802
 10
673.780513
 20
249.777164
 10
674.008126
 20
249.768632
 10
674.24685
 20
249.776376
 10
674.497054
 20
249.800367
 10
674.759104
 20
249.84058
 10
675.033368
 20
249.896985
 10
675.320214
 20
249.969556
 10
675.620009
 20
250.058265
 10
675.933121
 20
250.163083
 10
676.306256
 20
250.283738
 10
676.645576
 20
250.369195
 10
676.802942
 20
250.398261
 10
676.952318
 20
250.417971
 10
677.093858
 20
250.42814
 10
677.227717
 20
250.428584
 10
677.354049
 20
250.419116
 10
677.473008
 20
250.399551
 10
677.58475
 20
250.369705
 10
677.689429
 20
250.329392
 10
677.787199
 20
250.278427
 10
677.878215
 20
250.216624
 10
677.962631
 20
250.143798
 10
678.040602
 20
250.059764
 10
678.112281
 20
249.964336
 10
678.177825
 20
249.85733
 10
678.237387
 20
249.73856
 10
678.291121
 20
249.607841
 10
678.339183
 20
249.464987
 10
678.381726
 20
249.309814
 10
678.418905
 20
249.142136
 10
678.450875
 20
248.961767
 10
678.499805
 20
248.562218
 10
678.529752
 20
248.109685
 10
678.54195
 20
247.602685
 10
678.537637
 20
247.039737
 10
678.534672
 20
246.622599
 10
678.544974
 20
246.246675
 10
678.570307
 20
245.909993
 10
678.612435
 20
245.610578
 10
678.673122
 20
245.346458
 10
678.710976
 20
245.227016
 10
678.754131
 20
245.115658
 10
678.802807
 20
245.012137
 10
678.857226
 20
244.916205
 10
678.917607
 20
244.827618
 10
678.98417
 20
244.746127
 10
679.057137
 20
244.671486
 10
679.136728
 20
244.603448
 10
679.223163
 20
244.541767
 10
679.316663
 20
244.486196
 10
679.417448
 20
244.436489
 10
679.525738
 20
244.392398
 10
679.765717
 20
244.320079
 10
680.038365
 20
244.267266
 10
680.345444
 20
244.231986
 10
680.688718
 20
244.212265
 10
681.06995
 20
244.20613
 10
681.386667
 20
244.199832
 10
681.675678
 20
244.180288
 10
681.937988
 20
244.146525
 10
682.1746
 20
244.09757
 10
682.386517
 20
244.032451
 10
682.574742
 20
243.950194
 10
682.74028
 20
243.849826
 10
682.884132
 20
243.730374
 10
683.007303
 20
243.590865
 10
683.110796
 20
243.430326
 10
683.195615
 20
243.247784
 10
683.262762
 20
243.042266
 10
683.31324
 20
242.812799
 10
683.348054
 20
242.55841
 10
683.368207
 20
242.278125
 10
683.374702
 20
241.970973
 10
683.360572
 20
241.414134
 10
683.322101
 20
240.798908
 10
683.265163
 20
240.200061
 10
683.195634
 20
239.692362
 10
683.17241
 20
239.522332
 10
683.160252
 20
239.35385
 10
683.158904
 20
239.187169
 10
683.16811
 20
239.02254
 10
683.187615
 20
238.860216
 10
683.217161
 20
238.700449
 10
683.256495
 20
238.54349
 10
683.305358
 20
238.389593
 10
683.363496
 20
238.239007
 10
683.430653
 20
238.091987
 10
683.506572
 20
237.948784
 10
683.590997
 20
237.80965
 10
683.683673
 20
237.674836
 10
683.784343
 20
237.544596
 10
683.892752
 20
237.419181
 10
684.008643
 20
237.298843
 10
684.131761
 20
237.183835
 10
684.261849
 20
237.074407
 10
684.398652
 20
236.970814
 10
684.541914
 20
236.873305
 10
684.691378
 20
236.782134
 10
684.846789
 20
236.697553
 10
685.00789
 20
236.619813
 10
685.174426
 20
236.549168
 10
685.346141
 20
236.485867
 10
685.522778
 20
236.430165
 10
685.704082
 20
236.382312
 10
685.889797
 20
236.342562
 10
686.079667
 20
236.311165
 10
686.273436
 20
236.288374
 10
686.470847
 20
236.274442
 10
686.671645
 20
236.269619
 10
686.910934
 20
236.261997
 10
687.139941
 20
236.240252
 10
687.355026
 20
236.205404
 10
687.55255
 20
236.158477
 10
687.728872
 20
236.10049
 10
687.880354
 20
236.032467
 10
688.003355
 20
235.955427
 10
688.094235
 20
235.870392
 10
688.179426
 20
235.742849
 10
688.250061
 20
235.585467
 10
688.30637
 20
235.401593
 10
688.34858
 20
235.194574
 10
688.376919
 20
234.967756
 10
688.391617
 20
234.724485
 10
688.392902
 20
234.468107
 10
688.381001
 20
234.20197
 10
688.356144
 20
233.929419
 10
688.318558
 20
233.653802
 10
688.268472
 20
233.378463
 10
688.206114
 20
233.10675
 10
688.131713
 20
232.842009
 10
688.045497
 20
232.587587
 10
687.947695
 20
232.346829
 10
687.838534
 20
232.123083
 10
687.727111
 20
231.90661
 10
687.628781
 20
231.697217
 10
687.543632
 20
231.494799
 10
687.471752
 20
231.299252
 10
687.413232
 20
231.110473
 10
687.368161
 20
230.928357
 10
687.336627
 20
230.7528
 10
687.31872
 20
230.583698
 10
687.314528
 20
230.420948
 10
687.324142
 20
230.264445
 10
687.347651
 20
230.114085
 10
687.385142
 20
229.969764
 10
687.436707
 20
229.831379
 10
687.502433
 20
229.698824
 10
687.58241
 20
229.571997
 10
687.676728
 20
229.450793
 10
687.785474
 20
229.335107
 10
687.90874
 20
229.224837
 10
688.046612
 20
229.119878
 10
688.199182
 20
229.020125
 10
688.366538
 20
228.925476
 10
688.548769
 20
228.835825
 10
688.745964
 20
228.751069
 10
688.958213
 20
228.671105
 10
689.185605
 20
228.595826
 10
689.428229
 20
228.525131
 10
689.686173
 20
228.458915
 10
689.959528
 20
228.397073
 10
690.552825
 20
228.286098
 10
691.208833
 20
228.191373
 10
691.507572
 20
228.148581
 10
691.782391
 20
228.098604
 10
692.033538
 20
228.041242
 10
692.261259
 20
227.976295
 10
692.465799
 20
227.903565
 10
692.647407
 20
227.822851
 10
692.806328
 20
227.733954
 10
692.942809
 20
227.636673
 10
693.057096
 20
227.530811
 10
693.149436
 20
227.416165
 10
693.220074
 20
227.292538
 10
693.269258
 20
227.159729
 10
693.297235
 20
227.017539
 10
693.30425
 20
226.865768
 10
693.290549
 20
226.704217
 10
693.256381
 20
226.532685
 10
693.212278
 20
226.379251
 10
693.155533
 20
226.218635
 10
693.086861
 20
226.051628
 10
693.00698
 20
225.879021
 10
692.816456
 20
225.520166
 10
692.589694
 20
225.148394
 10
692.332429
 20
224.770027
 10
692.050394
 20
224.391388
 10
691.749322
 20
224.0188
 10
691.434948
 20
223.658587
 10
691.113004
 20
223.317071
 10
690.789225
 20
223.000576
 10
690.469344
 20
222.715425
 10
690.159095
 20
222.467941
 10
689.864212
 20
222.264446
 10
689.724324
 20
222.18117
 10
689.590428
 20
222.111264
 10
689.46324
 20
222.055516
 10
689.343477
 20
222.014718
 10
689.231855
 20
221.989659
 10
689.129092
 20
221.98113
 10
688.927906
 20
221.991266
 10
688.726313
 20
222.022179
 10
688.523383
 20
222.074623
 10
688.318185
 20
222.149355
 10
688.10979
 20
222.247132
 10
687.897266
 20
222.368708
 10
687.679684
 20
222.514839
 10
687.456114
 20
222.686283
 10
687.225625
 20
222.883794
 10
686.987286
 20
223.108129
 10
686.740168
 20
223.360044
 10
686.483339
 20
223.640293
 10
686.215871
 20
223.949635
 10
685.936833
 20
224.288823
 10
685.645293
 20
224.658615
 10
685.340323
 20
225.059766
 10
684.933889
 20
225.592089
 10
684.542011
 20
226.082364
 10
684.163249
 20
226.531639
 10
683.796165
 20
226.940965
 10
683.43932
 20
227.311392
 10
683.091276
 20
227.64397
 10
682.750592
 20
227.939749
 10
682.415832
 20
228.199779
 10
682.085555
 20
228.42511
 10
681.758323
 20
228.616793
 10
681.432697
 20
228.775877
 10
681.107239
 20
228.903412
 10
680.780509
 20
229.000449
 10
680.451069
 20
229.068038
 10
680.117479
 20
229.107228
 10
679.778303
 20
229.11907
 10
679.445343
 20
229.109179
 10
679.119279
 20
229.082439
 10
678.800171
 20
229.038876
 10
678.488075
 20
228.97852
 10
678.18305
 20
228.901399
 10
677.885155
 20
228.80754
 10
677.594448
 20
228.696973
 10
677.310986
 20
228.569725
 10
677.034829
 20
228.425825
 10
676.766035
 20
228.2653
 10
676.504661
 20
228.088179
 10
676.250767
 20
227.894491
 10
676.00441
 20
227.684263
 10
675.765648
 20
227.457524
 10
675.534541
 20
227.214302
 10
675.311146
 20
226.954626
 10
675.068843
 20
226.650782
 10
674.846993
 20
226.35492
 10
674.64492
 20
226.065185
 10
674.461947
 20
225.779723
 10
674.297399
 20
225.496676
 10
674.150599
 20
225.214192
 10
674.020871
 20
224.930414
 10
673.907541
 20
224.643487
 10
673.80993
 20
224.351556
 10
673.727364
 20
224.052767
 10
673.659166
 20
223.745263
 10
673.60466
 20
223.42719
 10
673.563171
 20
223.096692
 10
673.534022
 20
222.751915
 10
673.516537
 20
222.391004
 10
673.510041
 20
222.012102
 10
673.517099
 20
221.208697
 10
673.530307
 20
220.854816
 10
673.552013
 20
220.525315
 10
673.583751
 20
220.214566
 10
673.627057
 20
219.916945
 10
673.683464
 20
219.626823
 10
673.754508
 20
219.338576
 10
673.841723
 20
219.046575
 10
673.946644
 20
218.745196
 10
674.070805
 20
218.428811
 10
674.21574
 20
218.091794
 10
674.382985
 20
217.728519
 10
674.574074
 20
217.333359
 10
675.033921
 20
216.42488
 10
675.312909
 20
215.904067
 10
675.617924
 20
215.373399
 10
675.948531
 20
214.833426
 10
676.304291
 20
214.284694
 10
676.684768
 20
213.727753
 10
677.089523
 20
213.163151
 10
677.51812
 20
212.591436
 10
677.970122
 20
212.013157
 10
678.445091
 20
211.428863
 10
678.94259
 20
210.839101
 10
679.462181
 20
210.24442
 10
680.003428
 20
209.645368
 10
680.565894
 20
209.042495
 10
681.149139
 20
208.436348
 10
681.752729
 20
207.827475
 10
682.376225
 20
207.216426
 10
682.669061
 20
206.923143
 10
682.973096
 20
206.604297
 10
683.606992
 20
205.932806
 10
683.932966
 20
205.601606
 10
684.262367
 20
205.287731
 10
684.593252
 20
205.001903
 10
684.758644
 20
204.872859
 10
684.923678
 20
204.754846
 10
685.045812
 20
204.67957
 10
685.180542
 20
204.6091
 10
685.47293
 20
204.479614
 10
685.771115
 20
204.360452
 10
686.04537
 20
204.245674
 10
686.28384
 20
204.143274
 10
686.531723
 20
204.047514
 10
686.781778
 20
203.960506
 10
687.026761
 20
203.884364
 10
687.25943
 20
203.8212
 10
687.472543
 20
203.773124
 10
687.658858
 20
203.742251
 10
687.811131
 20
203.730691
 10
688.027592
 20
203.741064
 10
688.257341
 20
203.775375
 10
688.49892
 20
203.832749
 10
688.750871
 20
203.912312
 10
689.011738
 20
204.013186
 10
689.280064
 20
204.134497
 10
689.55439
 20
204.27537
 10
689.833261
 20
204.434928
 10
690.115217
 20
204.612297
 10
690.398804
 20
204.8066
 10
690.682562
 20
205.016963
 10
690.965034
 20
205.242509
 10
691.244765
 20
205.482364
 10
691.520295
 20
205.735652
 10
691.790168
 20
206.001498
 10
692.052927
 20
206.279025
 10
692.320091
 20
206.578071
 10
692.568605
 20
206.869262
 10
692.793082
 20
207.145352
 10
692.988135
 20
207.399096
 10
693.306771
 20
207.844816
 42
0.388382
 10
693.258187
 20
208.246864
 10
685.258684
 20
215.117595
 10
686.561798
 20
216.634794
 10
694.690147
 20
209.653398
 42
0.409892
 10
695.11028
 20
209.682169
 10
703.067075
 20
218.673839
 10
703.556728
 20
219.223339
 10
704.086088
 20
219.798074
 10
705.199593
 20
220.99834
 10
705.751573
 20
221.611416
 10
706.278926
 20
222.224815
 10
706.528342
 20
222.52969
 10
706.76557
 20
222.832311
 10
706.9886
 20
223.1319
 10
707.195421
 20
223.427677
 10
707.331133
 20
223.656278
 10
707.45997
 20
223.912977
 10
707.698429
 20
224.413655
 10
707.799473
 20
224.631367
 10
707.893738
 20
224.872458
 10
707.979161
 20
225.128936
 10
708.053679
 20
225.392807
 10
708.115229
 20
225.656079
 10
708.161747
 20
225.91076
 10
708.191171
 20
226.148856
 10
708.201438
 20
226.362374
 10
708.194221
 20
226.54897
 10
708.17335
 20
226.749492
 10
708.139992
 20
226.960842
 10
708.095315
 20
227.179918
 10
708.040486
 20
227.403621
 10
707.976674
 20
227.62885
 10
707.905047
 20
227.852504
 10
707.826771
 20
228.071482
 10
707.743016
 20
228.282686
 10
707.654948
 20
228.483013
 10
707.563736
 20
228.669364
 10
707.36686
 20
229.026981
 42
0.450526
 10
706.928375
 20
229.125482
 10
701.014452
 20
224.853175
 10
699.843266
 20
226.474385
 10
706.219751
 20
231.080854
 42
0.313901
 10
706.333088
 20
231.404476
 10
706.266966
 20
231.642043
 10
706.041524
 20
232.33506
 10
705.705614
 20
233.293189
 10
705.29182
 20
234.428357
 10
704.832728
 20
235.652492
 10
704.360922
 20
236.87752
 10
703.908988
 20
238.015368
 10
703.50951
 20
238.977963
 10
703.252406
 20
239.562954
 10
703.006637
 20
240.059621
 42
0.466565
 10
702.55983
 20
240.16811
 10
697.454441
 20
236.407344
 10
696.268267
 20
238.017621
 10
701.768847
 20
242.069495
 42
0.332294
 10
701.873004
 20
242.413158
 10
701.747826
 20
242.758928
 10
701.671093
 20
242.945066
 10
701.463001
 20
243.396907
 10
701.191708
 20
243.938448
 10
700.868774
 20
244.550028
 10
700.505758
 20
245.211987
 10
700.114219
 20
245.904662
 10
699.705717
 20
246.608392
 10
699.29181
 20
247.303516
 10
698.884059
 20
247.970371
 10
698.494023
 20
248.589297
 10
698.13326
 20
249.140632
 10
697.544823
 20
249.994203
 42
0.464059
 10
697.088836
 20
250.039155
 10
692.932581
 20
246.003302
 10
691.539303
 20
247.438146
 10
695.940144
 20
251.711499
 42
0.35021
 10
695.987324
 20
252.082855
 10
695.762235
 20
252.452173
 10
695.613096
 20
252.672483
 10
695.432011
 20
252.920997
 10
695.219416
 20
253.197182
 10
694.975749
 20
253.500504
 10
694.396941
 20
254.186424
 10
693.69908
 20
254.974491
 10
692.885655
 20
255.860434
 10
691.96016
 20
256.839984
 10
690.041873
 20
258.845473
 42
0.472499
 10
689.579666
 20
258.810653
 10
685.535685
 20
253.058864
 10
683.899594
 20
254.209171
 10
688.100923
 20
260.184756
 42
0.403628
 10
688.036843
 20
260.596297
 10
682.669146
 20
264.668955
 10
682.434562
 20
264.846311
 42
0.425361
 10
682.007649
 20
264.778732
 10
678.382634
 20
259.586047
 10
676.742708
 20
260.73088
 10
680.354608
 20
265.904777
 42
0.425836
 10
680.270491
 20
266.329084
 10
674.202479
 20
270.217906
 10
673.456808
 20
270.70096
 42
0.413194
 10
673.042484
 20
270.61316
 10
669.785236
 20
265.623241
 10
668.110468
 20
266.716472
 10
671.320566
 20
271.634158
 42
0.421922
 10
671.226686
 20
272.053575
 10
665.206646
 20
275.761665
 10
664.620642
 20
276.123481
 10
664.442311
 20
276.229078
 10
663.959985
 20
276.481462
 42
0.42943
 10
663.548259
 20
276.340828
 10
661.37187
 20
271.600509
 10
659.554284
 20
272.435004
 10
661.71615
 20
277.143691
 42
0.403785
 10
661.578347
 20
277.536856
 10
661.160258
 20
277.747211
 10
660.685931
 20
277.961811
 10
660.105073
 20
278.210217
 10
659.478779
 20
278.46188
 10
658.808949
 20
278.716131
 10
658.097483
 20
278.972305
 10
657.34628
 20
279.229733
 10
656.557241
 20
279.487748
 10
655.732266
 20
279.745684
 10
654.002828
 20
280.263482
 42
0.381369
 10
653.640972
 20
280.094109
 10
651.53529
 20
275.173278
 10
649.696561
 20
275.960092
 10
651.662649
 20
280.554702
 42
0.474666
 10
651.447154
 20
280.966598
 10
648.880019
 20
281.493473
 10
647.28756
 20
281.797363
 10
645.704504
 20
282.080258
 10
644.320443
 20
282.307124
 10
643.762283
 20
282.388598
 10
643.251079
 20
282.452108
 42
0.386363
 10
642.921299
 20
282.219753
 10
641.990713
 20
278.050796
 10
640.038751
 20
278.486509
 10
640.932628
 20
282.491011
 42
0.433625
 10
640.685792
 20
282.852827
 10
639.322983
 20
283.064095
 10
638.188791
 20
283.227497
 10
636.959891
 20
283.394624
 10
635.733104
 20
283.551932
 10
634.605251
 20
283.685879
 10
633.673152
 20
283.782922
 10
632.96895
 20
283.854915
 10
632.036998
 20
283.935417
 42
0.414962
 10
631.712228
 20
283.661584
 10
631.266148
 20
278.338847
 10
629.273134
 20
278.505875
 10
629.722005
 20
283.861907
 42
0.404097
 10
629.458454
 20
284.184865
 10
628.534408
 20
284.29467
 10
627.820898
 20
284.370495
 10
627.020923
 20
284.447314
 10
626.157729
 20
284.522047
 10
625.254563
 20
284.591614
 10
623.607668
 20
284.702538
 10
621.960466
 20
284.80899
 10
621.541201
 20
284.793247
 42
0.396773
 10
621.252533
 20
284.500171
 10
621.140821
 20
279.508885
 10
619.141321
 20
279.553637
 10
619.259337
 20
284.826549
 42
0.359535
 10
619.022712
 20
285.126508
 10
618.507688
 20
285.237681
 10
617.996386
 20
285.322041
 10
617.28879
 20
285.41504
 10
616.478381
 20
285.505387
 10
615.658646
 20
285.58179
 10
614.831933
 20
285.656403
 10
614.002527
 20
285.741874
 10
613.266812
 20
285.827658
 10
612.721176
 20
285.903206
 10
612.387591
 20
285.954263
 10
612.10472
 20
285.982858
 42
0.417987
 10
611.775705
 20
285.710709
 10
611.402333
 20
281.472982
 10
609.410051
 20
281.648516
 10
609.79106
 20
285.972913
 42
0.393231
 10
609.540026
 20
286.295409
 10
608.933687
 20
286.393287
 10
608.391006
 20
286.481621
 10
607.757335
 20
286.595938
 10
607.111473
 20
286.721469
 10
606.532217
 20
286.843442
 10
606.217
 20
286.910381
 10
605.935134
 20
286.962945
 10
605.684814
 20
287.000003
 10
605.20661
 20
287.044269
 42
0.436514
 10
604.879
 20
286.750577
 10
604.818342
 20
283.133803
 10
602.818624
 20
283.167341
 10
602.88609
 20
287.190059
 42
0.319929
 10
602.688723
 20
287.477003
 10
602.314865
 20
287.613053
 10
601.962725
 20
287.72135
 10
601.722965
 20
287.799694
 10
601.450082
 20
287.90162
 10
601.153568
 20
288.022835
 10
600.842915
 20
288.159045
 10
600.527611
 20
288.305958
 10
600.21715
 20
288.459282
 10
599.921022
 20
288.614722
 10
599.648718
 20
288.767987
 10
599.323279
 20
288.953586
 10
599.050433
 20
289.097237
 10
598.878054
 20
289.176222
 42
0.44521
 10
598.468791
 20
288.999283
 10
597.039272
 20
284.756743
 10
595.143972
 20
285.395362
 10
596.726599
 20
290.092297
 42
0.332321
 10
596.614763
 20
290.433564
 10
596.195725
 20
290.727963
 42
0.009236
 10
596.18654
 20
290.734166
 10
595.987898
 20
290.863035
 10
595.480888
 20
291.174562
 10
595.073418
 20
291.432165
 10
594.720154
 20
291.678785
 10
594.414372
 20
291.921191
 10
594.149347
 20
292.16615
 10
594.030016
 20
292.291702
 10
593.918354
 20
292.42043
 10
593.813518
 20
292.553181
 10
593.714669
 20
292.6908
 10
593.531568
 20
292.984028
 10
593.362326
 20
293.306881
 10
593.20744
 20
293.615116
 10
593.055402
 20
293.891486
 10
592.903736
 20
294.137273
 10
592.749972
 20
294.35376
 10
592.591635
 20
294.542228
 10
592.426253
 20
294.703961
 10
592.251351
 20
294.840241
 10
592.064458
 20
294.952351
 10
591.8631
 20
295.041572
 10
591.644803
 20
295.109188
 10
591.407095
 20
295.156481
 10
591.147503
 20
295.184734
 10
590.863552
 20
295.195228
 10
590.552771
 20
295.189247
 10
590.212686
 20
295.168073
 10
589.840823
 20
295.132987
 10
589.276207
 20
295.075523
 10
589.043476
 20
295.057726
 10
588.838288
 20
295.049631
 10
588.656513
 20
295.053046
 10
588.494019
 20
295.069778
 10
588.346675
 20
295.101636
 10
588.210351
 20
295.150429
 10
588.080915
 20
295.217964
 10
587.954237
 20
295.306049
 10
587.826185
 20
295.416493
 10
587.692628
 20
295.551104
 10
587.392477
 20
295.90006
 10
587.020736
 20
296.367383
 10
586.745294
 20
296.710257
 10
586.483744
 20
297.020763
 10
586.233536
 20
297.300391
 10
585.992117
 20
297.550634
 10
585.756937
 20
297.772983
 10
585.525444
 20
297.968929
 10
585.295085
 20
298.139965
 10
585.063311
 20
298.287582
 10
584.827568
 20
298.413271
 10
584.585305
 20
298.518524
 10
584.333971
 20
298.604833
 10
584.071015
 20
298.67369
 10
583.793884
 20
298.726585
 10
583.500027
 20
298.765012
 10
583.186893
 20
298.79046
 10
582.851929
 20
298.804422
 10
582.349178
 20
298.820424
 10
582.142566
 20
298.833605
 10
581.961204
 20
298.853717
 10
581.801648
 20
298.88337
 10
581.660455
 20
298.925171
 10
581.534179
 20
298.981731
 10
581.419377
 20
299.055656
 10
581.312604
 20
299.149557
 10
581.210416
 20
299.266042
 10
581.10937
 20
299.407719
 10
581.00602
 20
299.577197
 10
580.778635
 20
300.009991
 10
580.500707
 20
300.585295
 10
580.311978
 20
300.964906
 10
580.125753
 20
301.307336
 10
579.940517
 20
301.613483
 10
579.754756
 20
301.884245
 10
579.566956
 20
302.120518
 10
579.375605
 20
302.3232
 10
579.179187
 20
302.493189
 10
579.078605
 20
302.566205
 10
578.976189
 20
302.631383
 10
578.87175
 20
302.688837
 10
578.765097
 20
302.738678
 10
578.656043
 20
302.78102
 10
578.544398
 20
302.815973
 10
578.429972
 20
302.843651
 10
578.312576
 20
302.864164
 10
578.068119
 20
302.88415
 10
577.809512
 20
302.876828
 10
577.535242
 20
302.843094
 10
577.243795
 20
302.783848
 10
576.933656
 20
302.699986
 10
576.677106
 20
302.630829
 10
576.436613
 20
302.582792
 10
576.21077
 20
302.556797
 10
575.998172
 20
302.553767
 10
575.797412
 20
302.574622
 10
575.607085
 20
302.620285
 10
575.425783
 20
302.691678
 10
575.252102
 20
302.789721
 10
575.084636
 20
302.915338
 10
574.921977
 20
303.06945
 10
574.762721
 20
303.252978
 10
574.60546
 20
303.466845
 10
574.44879
 20
303.711973
 10
574.291304
 20
303.989282
 10
574.131596
 20
304.299695
 10
573.96826
 20
304.644135
 10
573.835262
 20
304.92564
 10
573.706501
 20
305.177327
 10
573.579589
 20
305.400561
 10
573.45214
 20
305.596706
 10
573.321766
 20
305.767127
 10
573.186081
 20
305.913188
 10
573.042696
 20
306.036254
 10
572.889227
 20
306.13769
 10
572.723285
 20
306.21886
 10
572.542483
 20
306.28113
 10
572.344435
 20
306.325862
 10
572.126753
 20
306.354423
 10
571.887051
 20
306.368177
 10
571.622941
 20
306.368488
 10
571.332037
 20
306.356721
 10
571.011952
 20
306.334241
 10
570.808324
 20
306.322085
 10
570.623253
 20
306.321787
 10
570.455072
 20
306.335337
 10
570.302112
 20
306.364719
 10
570.162706
 20
306.411924
 10
570.035185
 20
306.478936
 10
569.917882
 20
306.567745
 10
569.809128
 20
306.680336
 10
569.707255
 20
306.818699
 10
569.610596
 20
306.984819
 10
569.517482
 20
307.180685
 10
569.426245
 20
307.408284
 10
569.335217
 20
307.669602
 10
569.242731
 20
307.966629
 10
569.04671
 20
308.675753
 10
568.995744
 20
308.861535
 10
568.942167
 20
309.030735
 10
568.881573
 20
309.187191
 10
568.809551
 20
309.334741
 10
568.721696
 20
309.477222
 10
568.613598
 20
309.618473
 10
568.48085
 20
309.762331
 10
568.319043
 20
309.912633
 10
568.12377
 20
310.073219
 10
567.890622
 20
310.247925
 10
567.615192
 20
310.44059
 10
567.293072
 20
310.655051
 10
566.491126
 20
311.164713
 10
565.449522
 20
311.807615
 10
564.648385
 20
312.288464
 10
563.781901
 20
312.802304
 10
562.922033
 20
313.326286
 10
562.517068
 20
313.58494
 10
562.140744
 20
313.837561
 10
561.800503
 20
314.086701
 10
561.442411
 20
314.367048
 10
560.757028
 20
314.914167
 10
560.428714
 20
315.182244
 10
560.025083
 20
315.532489
 10
559.56193
 20
315.950076
 10
559.05505
 20
316.420177
 10
558.520238
 20
316.927966
 10
557.973287
 20
317.458614
 10
557.429993
 20
317.997295
 10
556.906151
 20
318.529181
 10
556.301264
 20
319.130118
 10
555.642634
 20
319.772071
 10
555.314638
 20
320.099723
 10
554.998972
 20
320.427181
 10
554.704226
 20
320.750964
 10
554.438989
 20
321.067589
 10
554.299456
 20
321.253142
 10
554.159765
 20
321.455762
 10
553.883157
 20
321.891619
 10
553.615659
 20
322.333994
 10
553.363766
 20
322.741719
 10
553.134673
 20
323.082999
 10
552.895618
 20
323.411014
 10
552.653644
 20
323.717896
 10
552.415795
 20
323.995778
 10
552.189115
 20
324.236792
 10
551.980646
 20
324.43307
 10
551.797432
 20
324.576745
 10
551.717497
 20
324.626397
 10
551.646517
 20
324.659949
 10
551.331751
 20
324.767092
 10
551.034365
 20
324.842858
 10
550.754764
 20
324.887527
 10
550.493354
 20
324.901381
 10
550.369596
 20
324.896841
 10
550.250538
 20
324.884702
 10
550.13623
 20
324.865
 10
550.026723
 20
324.837771
 10
549.922067
 20
324.803049
 10
549.822313
 20
324.76087
 10
549.727512
 20
324.711268
 10
549.637713
 20
324.65428
 10
549.552969
 20
324.589939
 10
549.473328
 20
324.518282
 10
549.398843
 20
324.439344
 10
549.329564
 20
324.353159
 10
549.265541
 20
324.259763
 10
549.206825
 20
324.159192
 10
549.153466
 20
324.05148
 10
549.105516
 20
323.936662
 10
549.026042
 20
323.685851
 10
548.968808
 20
323.407041
 10
548.93422
 20
323.100512
 10
548.922682
 20
322.766547
 10
548.927355
 20
322.632875
 10
548.9412
 20
322.489465
 10
548.995918
 20
322.174174
 10
549.085855
 20
321.822144
 10
549.210028
 20
321.434848
 10
549.367455
 20
321.01376
 10
549.557156
 20
320.560352
 10
549.778148
 20
320.076096
 10
550.029449
 20
319.562465
 10
550.310077
 20
319.020931
 10
550.619052
 20
318.452968
 10
550.95539
 20
317.860047
 10
551.31811
 20
317.243642
 10
551.70623
 20
316.605224
 10
552.118769
 20
315.946266
 10
552.554744
 20
315.268242
 10
553.013174
 20
314.572623
 10
553.493077
 20
313.860882
 10
553.993471
 20
313.134491
 10
554.513375
 20
312.394924
 10
555.051806
 20
311.643653
 10
555.607783
 20
310.88215
 10
556.180323
 20
310.111889
 10
556.768446
 20
309.33434
 10
557.371169
 20
308.550978
 10
557.987511
 20
307.763275
 10
558.616489
 20
306.972702
 10
559.257122
 20
306.180734
 10
559.908428
 20
305.388842
 10
560.569425
 20
304.598499
 10
561.239131
 20
303.811178
 10
561.916565
 20
303.02835
 10
562.600745
 20
302.25149
 10
563.18804
 20
301.598829
 10
563.678341
 20
301.079566
 10
563.896736
 20
300.862748
 10
564.102424
 20
300.670628
 10
564.299251
 20
300.500322
 10
564.491064
 20
300.348946
 10
564.681711
 20
300.213617
 10
564.875037
 20
300.09145
 10
565.074891
 20
299.979561
 10
565.28512
 20
299.875068
 10
565.509569
 20
299.775085
 10
565.752086
 20
299.676729
 10
566.306713
 20
299.473365
 10
566.857751
 20
299.274659
 10
567.294853
 20
299.099631
 10
567.477023
 20
299.016171
 10
567.638322
 20
298.93284
 10
567.781286
 20
298.847707
 10
567.908454
 20
298.758843
 10
568.022364
 20
298.664317
 10
568.125552
 20
298.562198
 10
568.220556
 20
298.450556
 10
568.309914
 20
298.327462
 10
568.396162
 20
298.190985
 10
568.48184
 20
298.039194
 10
568.661629
 20
297.681951
 10
568.786643
 20
297.432458
 10
568.914577
 20
297.199861
 10
569.04668
 20
296.983118
 10
569.1842
 20
296.781183
 10
569.328387
 20
296.593015
 10
569.480488
 20
296.41757
 10
569.641751
 20
296.253804
 10
569.813427
 20
296.100675
 10
569.996762
 20
295.957138
 10
570.193006
 20
295.822151
 10
570.403407
 20
295.69467
 10
570.629214
 20
295.573653
 10
570.871674
 20
295.458054
 10
571.132038
 20
295.346832
 10
571.411552
 20
295.238943
 10
571.711466
 20
295.133343
 10
571.963291
 20
295.044828
 10
572.195162
 20
294.955234
 10
572.408962
 20
294.862781
 10
572.606573
 20
294.76569
 10
572.789875
 20
294.662181
 10
572.960751
 20
294.550477
 10
573.121082
 20
294.428796
 10
573.272751
 20
294.295361
 10
573.417639
 20
294.148392
 10
573.557627
 20
293.986109
 10
573.694598
 20
293.806734
 10
573.830433
 20
293.608486
 10
573.967014
 20
293.389588
 10
574.106222
 20
293.148259
 10
574.400049
 20
292.591193
 10
574.575625
 20
292.25869
 10
574.739001
 20
291.989257
 10
574.819346
 20
291.875474
 10
574.900518
 20
291.774199
 10
574.98381
 20
291.684343
 10
575.070514
 20
291.60482
 10
575.161922
 20
291.534544
 10
575.259327
 20
291.472426
 10
575.364021
 20
291.417381
 10
575.477297
 20
291.36832
 10
575.734763
 20
291.283808
 10
576.042063
 20
291.210194
 10
576.403034
 20
291.129784
 10
576.736725
 20
291.046544
 10
577.045289
 20
290.959073
 10
577.33088
 20
290.865972
 10
577.595654
 20
290.76584
 10
577.841764
 20
290.657277
 10
578.071365
 20
290.538883
 10
578.286611
 20
290.409257
 10
578.489657
 20
290.266998
 10
578.682656
 20
290.110707
 10
578.867764
 20
289.938984
 10
579.047134
 20
289.750427
 10
579.222921
 20
289.543637
 10
579.397279
 20
289.317214
 10
579.572362
 20
289.069757
 10
579.750326
 20
288.799865
 10
579.952386
 20
288.489147
 10
580.140948
 20
288.211838
 10
580.319117
 20
287.966085
 10
580.489998
 20
287.750035
 10
580.656695
 20
287.561836
 10
580.822313
 20
287.399635
 10
580.989959
 20
287.261581
 10
581.162735
 20
287.14582
 10
581.343748
 20
287.050499
 10
581.536103
 20
286.973768
 10
581.742903
 20
286.913772
 10
581.967255
 20
286.86866
 10
582.212263
 20
286.836578
 10
582.481032
 20
286.815676
 10
582.776667
 20
286.804099
 10
583.102273
 20
286.799995
 10
583.671557
 20
286.783084
 10
584.18189
 20
286.740033
 10
584.397515
 20
286.71074
 10
584.577481
 20
286.677354
 10
584.714814
 20
286.640689
 10
584.802541
 20
286.601558
 10
584.879187
 20
286.539367
 10
584.963256
 20
286.450787
 10
585.053041
 20
286.339173
 10
585.146835
 20
286.207878
 10
585.339624
 20
285.899668
 10
585.527973
 20
285.552995
 10
585.698231
 20
285.194694
 10
585.836745
 20
284.851603
 10
585.889832
 20
284.694148
 10
585.929864
 20
284.550559
 10
585.955135
 20
284.424191
 10
585.963938
 20
284.318399
 10
585.976969
 20
284.223848
 10
586.014319
 20
284.10635
 10
586.073366
 20
283.970572
 10
586.151494
 20
283.821179
 10
586.246083
 20
283.662837
 10
586.354514
 20
283.500213
 10
586.474169
 20
283.337972
 10
586.602428
 20
283.18078
 10
586.811423
 20
282.948916
 10
586.909223
 20
282.853538
 10
587.006975
 20
282.770655
 10
587.107988
 20
282.699363
 10
587.215577
 20
282.638756
 10
587.333053
 20
282.587929
 10
587.463727
 20
282.545977
 10
587.610912
 20
282.511996
 10
587.77792
 20
282.485079
 10
588.184651
 20
282.448821
 10
588.710416
 20
282.429962
 10
589.381712
 20
282.421261
 10
589.992305
 20
282.411998
 10
590.488215
 20
282.392871
 10
590.884701
 20
282.360685
 10
591.19702
 20
282.312247
 10
591.326386
 20
282.280935
 10
591.440432
 20
282.244362
 10
591.541066
 20
282.20213
 10
591.630195
 20
282.153838
 10
591.709726
 20
282.099088
 10
591.781567
 20
282.03748
 10
591.847625
 20
281.968615
 10
591.909807
 20
281.892095
 10
591.987779
 20
281.779259
 10
592.060853
 20
281.654693
 10
592.127404
 20
281.522502
 10
592.18581
 20
281.386794
 10
592.234448
 20
281.251674
 10
592.271695
 20
281.121248
 10
592.295928
 20
280.999624
 10
592.305523
 20
280.890908
 10
592.317823
 20
280.709826
 10
592.347808
 20
280.522496
 10
592.394252
 20
280.330842
 10
592.455933
 20
280.136789
 10
592.531626
 20
279.942263
 10
592.620107
 20
279.749189
 10
592.720152
 20
279.559491
 10
592.830537
 20
279.375096
 10
592.950038
 20
279.197929
 10
593.077431
 20
279.029914
 10
593.211492
 20
278.872976
 10
593.350996
 20
278.729041
 10
593.494721
 20
278.600034
 10
593.641441
 20
278.487881
 10
593.789933
 20
278.394505
 10
593.938972
 20
278.321833
 10
594.172165
 20
278.232238
 10
594.379131
 20
278.170791
 10
594.57021
 20
278.138142
 10
594.755742
 20
278.134945
 10
594.946065
 20
278.161852
 10
595.151519
 20
278.219514
 10
595.382444
 20
278.308584
 10
595.649177
 20
278.429715
 10
595.963655
 20
278.572985
 10
596.250389
 20
278.688462
 10
596.510997
 20
278.775158
 10
596.747094
 20
278.832082
 10
596.960297
 20
278.858244
 10
597.058818
 20
278.85948
 10
597.152222
 20
278.852654
 10
597.240711
 20
278.837642
 10
597.324486
 20
278.814321
 10
597.40375
 20
278.782567
 10
597.478704
 20
278.742257
 10
597.549552
 20
278.693266
 10
597.616494
 20
278.63547
 10
597.679733
 20
278.568747
 10
597.739472
 20
278.492972
 10
597.849253
 20
278.313771
 10
597.947455
 20
278.096878
 10
598.035694
 20
277.841303
 10
598.115586
 20
277.546057
 10
598.188748
 20
277.210147
 10
598.256795
 20
276.832586
 10
598.307095
 20
276.595481
 10
598.379991
 20
276.34628
 10
598.472034
 20
276.092431
 10
598.579775
 20
275.841382
 10
598.699766
 20
275.600582
 10
598.828558
 20
275.377479
 10
598.962703
 20
275.179521
 10
599.098751
 20
275.014156
 10
599.293449
 20
274.814489
 10
599.471751
 20
274.658045
 10
599.557787
 20
274.594963
 10
599.643363
 20
274.541403
 10
599.729692
 20
274.49694
 10
599.817987
 20
274.461145
 10
599.909461
 20
274.43359
 10
600.005327
 20
274.41385
 10
600.215087
 20
274.396099
 10
600.456969
 20
274.404473
 10
600.740678
 20
274.435552
 10
600.966757
 20
274.479602
 10
601.232811
 20
274.554625
 10
601.529075
 20
274.656555
 10
601.845781
 20
274.781322
 10
602.173165
 20
274.92486
 10
602.50146
 20
275.083098
 10
602.8209
 20
275.251971
 10
603.121719
 20
275.427409
 10
603.531695
 20
275.673711
 10
603.874797
 20
275.863605
 10
604.165898
 20
276.00122
 10
604.296596
 20
276.051715
 10
604.419871
 20
276.09069
 10
604.537583
 20
276.118661
 10
604.651589
 20
276.136145
 10
604.76375
 20
276.143658
 10
604.875924
 20
276.141716
 10
604.989971
 20
276.130837
 10
605.10775
 20
276.111537
 10
605.361938
 20
276.049737
 10
605.551141
 20
275.983548
 10
605.732973
 20
275.894444
 10
605.906758
 20
275.783626
 10
606.07182
 20
275.652295
 10
606.227484
 20
275.501651
 10
606.373074
 20
275.332896
 10
606.507916
 20
275.147231
 10
606.631332
 20
274.945856
 10
606.742647
 20
274.729972
 10
606.841187
 20
274.50078
 10
606.926275
 20
274.259482
 10
606.997235
 20
274.007278
 10
607.053393
 20
273.745369
 10
607.094072
 20
273.474956
 10
607.118597
 20
273.19724
 10
607.126293
 20
272.913422
 10
607.121831
 20
272.691053
 10
607.109846
 20
272.476975
 10
607.090195
 20
272.27108
 10
607.062735
 20
272.073256
 10
607.027325
 20
271.883393
 10
606.983822
 20
271.701381
 10
606.932084
 20
271.52711
 10
606.871969
 20
271.360469
 10
606.803334
 20
271.201348
 10
606.726038
 20
271.049638
 10
606.639937
 20
270.905227
 10
606.544891
 20
270.768006
 10
606.440755
 20
270.637863
 10
606.32739
 20
270.51469
 10
606.204651
 20
270.398376
 10
606.072396
 20
270.28881
 10
605.930485
 20
270.185883
 10
605.778774
 20
270.089483
 10
605.61712
 20
269.999501
 10
605.445383
 20
269.915827
 10
605.263419
 20
269.83835
 10
605.071086
 20
269.76696
 10
604.868243
 20
269.701547
 10
604.654746
 20
269.642
 10
604.430454
 20
269.588209
 10
604.195224
 20
269.540065
 10
603.691383
 20
269.460273
 10
603.142084
 20
269.401743
 10
602.546189
 20
269.363591
 10
602.433305
 20
269.343378
 10
602.297479
 20
269.294006
 10
602.143866
 20
269.218738
 10
601.977621
 20
269.120837
 10
601.8039
 20
269.003565
 10
601.627855
 20
268.870185
 10
601.454643
 20
268.723959
 10
601.289418
 20
268.56815
 10
601.090589
 20
268.357171
 10
600.925249
 20
268.153563
 10
600.791246
 20
267.952447
 10
600.68643
 20
267.748941
 10
600.60865
 20
267.538168
 10
600.555756
 20
267.315246
 10
600.525596
 20
267.075298
 10
600.516021
 20
266.813442
 10
600.521108
 20
266.609752
 10
600.536482
 20
266.410998
 10
600.56231
 20
266.217048
 10
600.598761
 20
266.027773
 10
600.646002
 20
265.843044
 10
600.704203
 20
265.662729
 10
600.77353
 20
265.4867
 10
600.854152
 20
265.314826
 10
600.946237
 20
265.146978
 10
601.049954
 20
264.983025
 10
601.165469
 20
264.822837
 10
601.292952
 20
264.666284
 10
601.432571
 20
264.513237
 10
601.584493
 20
264.363566
 10
601.748887
 20
264.21714
 10
601.92592
 20
264.07383
 10
602.115761
 20
263.933505
 10
602.318578
 20
263.796036
 10
602.53454
 20
263.661293
 10
602.763813
 20
263.529146
 10
603.006566
 20
263.399464
 10
603.262968
 20
263.272118
 10
603.533186
 20
263.146979
 10
603.817389
 20
263.023915
 10
604.42842
 20
262.783496
 10
605.097405
 20
262.549821
 10
605.825691
 20
262.321851
 10
606.614621
 20
262.098546
 10
607.226001
 20
261.944836
 10
607.887015
 20
261.7853
 10
608.543513
 20
261.611833
 10
608.853147
 20
261.517343
 10
609.141346
 20
261.416331
 10
609.343011
 20
261.328587
 10
609.554892
 20
261.221458
 10
609.960218
 20
261.007824
 10
610.176915
 20
260.895393
 10
610.373286
 20
260.783847
 10
610.550115
 20
260.671899
 10
610.70818
 20
260.558264
 10
610.848265
 20
260.441656
 10
610.971149
 20
260.320787
 10
611.077615
 20
260.194373
 10
611.168443
 20
260.061127
 10
611.244414
 20
259.919762
 10
611.30631
 20
259.768994
 10
611.354913
 20
259.607535
 10
611.391002
 20
259.4341
 10
611.415359
 20
259.247402
 10
611.428766
 20
259.046156
 10
611.432004
 20
258.829075
 10
611.425853
 20
258.594873
 10
611.405491
 20
258.291307
 10
611.371501
 20
258.001305
 10
611.324017
 20
257.724919
 10
611.263167
 20
257.462202
 10
611.189082
 20
257.213207
 10
611.101893
 20
256.977985
 10
611.001731
 20
256.75659
 10
610.888726
 20
256.549075
 10
610.763008
 20
256.355491
 10
610.624709
 20
256.175891
 10
610.473958
 20
256.010329
 10
610.310886
 20
255.858857
 10
610.135625
 20
255.721527
 10
609.948303
 20
255.598391
 10
609.749052
 20
255.489504
 10
609.538003
 20
255.394916
 10
609.315285
 20
255.314681
 10
609.08103
 20
255.248852
 10
608.835368
 20
255.197481
 10
608.57843
 20
255.16062
 10
608.310345
 20
255.138323
 10
608.031246
 20
255.130641
 10
607.741261
 20
255.137628
 10
607.440522
 20
255.159336
 10
607.12916
 20
255.195817
 10
606.807304
 20
255.247125
 10
606.475086
 20
255.313312
 10
606.132636
 20
255.394431
 10
605.780084
 20
255.490533
 10
605.417561
 20
255.601673
 10
605.045198
 20
255.727901
 10
604.663124
 20
255.869272
 10
603.915818
 20
256.169956
 10
603.12325
 20
256.511991
 10
602.313284
 20
256.881676
 10
601.513782
 20
257.265307
 10
600.75261
 20
257.649182
 10
600.05763
 20
258.019597
 10
599.456707
 20
258.362851
 10
599.200223
 20
258.52001
 10
598.977703
 20
258.66524
 10
598.762355
 20
258.803121
 10
598.55022
 20
258.92269
 10
598.341667
 20
259.024273
 10
598.137066
 20
259.108196
 10
597.936785
 20
259.174784
 10
597.741196
 20
259.224362
 10
597.550666
 20
259.257258
 10
597.365566
 20
259.273796
 10
597.186264
 20
259.274302
 10
597.013131
 20
259.259101
 10
596.846536
 20
259.22852
 10
596.686848
 20
259.182885
 10
596.534436
 20
259.12252
 10
596.389671
 20
259.047752
 10
596.252921
 20
258.958906
 10
596.124556
 20
258.856308
 10
596.004945
 20
258.740283
 10
595.894458
 20
258.611159
 10
595.793464
 20
258.469259
 10
595.702333
 20
258.31491
 10
595.621434
 20
258.148438
 10
595.551137
 20
257.970168
 10
595.491811
 20
257.780426
 10
595.443825
 20
257.579537
 10
595.407549
 20
257.367828
 10
595.383352
 20
257.145624
 10
595.371604
 20
256.913251
 10
595.372675
 20
256.671035
 10
595.386933
 20
256.4193
 10
595.414748
 20
256.158373
 10
595.456489
 20
255.88858
 10
595.512527
 20
255.610247
 10
595.598828
 20
255.289226
 10
595.714964
 20
254.960653
 10
595.859886
 20
254.625366
 10
596.032543
 20
254.284202
 10
596.231887
 20
253.938
 10
596.456868
 20
253.587598
 10
596.706435
 20
253.233833
 10
596.979539
 20
252.877544
 10
597.27513
 20
252.519568
 10
597.592159
 20
252.160745
 10
597.929575
 20
251.801911
 10
598.28633
 20
251.443905
 10
598.661373
 20
251.087565
 10
599.053654
 20
250.733729
 10
599.462125
 20
250.383235
 10
599.885734
 20
250.036921
 10
600.323433
 20
249.695625
 10
600.774172
 20
249.360185
 10
601.236901
 20
249.031438
 10
601.71057
 20
248.710224
 10
602.194129
 20
248.397381
 10
602.686529
 20
248.093745
 10
603.186721
 20
247.800155
 10
603.693653
 20
247.51745
 10
604.206278
 20
247.246467
 10
604.723544
 20
246.988044
 10
605.244402
 20
246.74302
 10
605.767803
 20
246.512232
 10
606.292696
 20
246.296518
 10
606.818033
 20
246.096717
 10
607.342762
 20
245.913666
 10
607.865835
 20
245.748203
 10
608.375822
 20
245.609323
 10
608.920866
 20
245.489945
 10
609.517934
 20
245.388176
 10
610.183993
 20
245.302122
 10
610.936009
 20
245.229889
 10
611.790951
 20
245.169582
 10
612.765786
 20
245.119309
 10
613.877479
 20
245.077175
 10
614.375554
 20
245.078532
 10
614.908588
 20
245.103909
 10
615.463542
 20
245.138633
 10
616.02738
 20
245.168036
 10
616.587063
 20
245.177447
 10
616.861273
 20
245.170071
 10
617.129555
 20
245.152196
 10
617.390279
 20
245.121988
 10
617.641817
 20
245.077613
 10
617.882538
 20
245.017237
 10
618.110813
 20
244.939027
 10
618.174402
 20
244.906969
 10
618.2362
 20
244.863805
 10
618.354744
 20
244.755586
 10
618.467077
 20
244.637223
 10
618.573833
 20
244.531571
 10
618.682426
 20
244.419464
 10
618.776028
 20
244.289175
 10
618.854679
 20
244.143249
 10
618.918417
 20
243.984232
 10
618.967282
 20
243.814669
 10
619.001314
 20
243.637105
 10
619.020551
 20
243.454086
 10
619.025034
 20
243.268156
 10
619.014801
 20
243.081862
 10
618.989892
 20
242.897747
 10
618.950346
 20
242.718359
 10
618.896202
 20
242.54624
 10
618.8275
 20
242.383938
 10
618.744279
 20
242.233997
 10
618.646578
 20
242.098963
 10
618.534437
 20
241.98138
 10
618.463139
 20
241.922766
 10
618.38266
 20
241.867878
 10
618.292523
 20
241.816614
 10
618.192253
 20
241.768868
 10
617.959411
 20
241.683518
 10
617.680331
 20
241.610995
 10
617.351208
 20
241.550466
 10
616.968237
 20
241.5011
 10
616.527614
 20
241.462064
 10
616.025534
 20
241.432526
 10
615.494117
 20
241.401294
 10
615.032249
 20
241.359637
 10
614.631104
 20
241.305481
 10
614.281854
 20
241.236749
 10
613.975674
 20
241.151367
 10
613.703735
 20
241.047259
 10
613.457211
 20
240.922348
 10
613.227275
 20
240.77456
 10
613.060088
 20
240.642437
 10
612.903202
 20
240.492226
 10
612.757101
 20
240.325368
 10
612.622268
 20
240.143303
 10
612.499187
 20
239.947472
 10
612.388342
 20
239.739315
 10
612.290216
 20
239.520271
 10
612.205293
 20
239.291782
 10
612.134057
 20
239.055287
 10
612.076992
 20
238.812227
 10
612.03458
 20
238.564041
 10
612.007306
 20
238.312171
 10
611.995653
 20
238.058056
 10
612.000106
 20
237.803137
 10
612.021147
 20
237.548853
 10
612.059261
 20
237.296645
 10
612.124827
 20
237.004716
 10
612.215005
 20
236.695735
 10
612.328308
 20
236.372197
 10
612.463246
 20
236.036601
 10
612.618333
 20
235.691443
 10
612.79208
 20
235.339221
 10
612.982999
 20
234.982431
 10
613.189603
 20
234.623571
 10
613.410404
 20
234.265137
 10
613.643913
 20
233.909627
 10
613.888643
 20
233.559538
 10
614.143106
 20
233.217367
 10
614.405814
 20
232.885611
 10
614.67528
 20
232.566767
 10
614.950014
 20
232.263333
 10
615.22853
 20
231.977804
 10
615.50774
 20
231.708995
 10
615.783
 20
231.456832
 10
616.054736
 20
231.221296
 10
616.323375
 20
231.002364
 10
616.589347
 20
230.800016
 10
616.853077
 20
230.614231
 10
617.114993
 20
230.444986
 10
617.375523
 20
230.292263
 10
617.635094
 20
230.156038
 10
617.894134
 20
230.036291
 10
618.15307
 20
229.933
 10
618.41233
 20
229.846146
 10
618.672341
 20
229.775706
 10
618.93353
 20
229.721659
 10
619.196326
 20
229.683985
 10
619.461155
 20
229.662661
 10
619.728445
 20
229.657668
 10
619.998623
 20
229.668983
 10
620.272117
 20
229.696586
 10
620.549355
 20
229.740456
 10
620.830763
 20
229.800571
 10
621.11677
 20
229.87691
 10
621.407802
 20
229.969452
 10
621.704288
 20
230.078176
 10
622.006654
 20
230.203062
 10
622.315328
 20
230.344086
 10
622.630738
 20
230.501229
 10
622.953312
 20
230.67447
 10
623.283475
 20
230.863787
 10
623.621657
 20
231.069159
 10
623.968284
 20
231.290565
 10
624.323784
 20
231.527984
 10
624.83893
 20
231.890894
 10
625.214025
 20
232.175117
  0
LWPOLYLINE
  5
2F
330
1F
100
AcDbEntity
  8
0
100
AcDbPolyline
 90
      274
 70
   128
 43
0.0
 10
585.793084
 20
259.173139
 10
585.944232
 20
259.207388
 10
586.091159
 20
259.251055
 10
586.233828
 20
259.304061
 10
586.3722
 20
259.366324
 10
586.506237
 20
259.437764
 10
586.6359
 20
259.5183
 10
586.761151
 20
259.607853
 10
586.881952
 20
259.706341
 10
586.998265
 20
259.813684
 10
587.110051
 20
259.929801
 10
587.217272
 20
260.054611
 10
587.319889
 20
260.188035
 10
587.417864
 20
260.329992
 10
587.511159
 20
260.4804
 10
587.599736
 20
260.639181
 10
587.683557
 20
260.806252
 10
587.762582
 20
260.981533
 10
587.836773
 20
261.164944
 10
587.970504
 20
261.555834
 10
588.08444
 20
261.978276
 10
588.178277
 20
262.431626
 10
588.251708
 20
262.91524
 10
588.304426
 20
263.428474
 10
588.336124
 20
263.970682
 10
588.346496
 20
264.54122
 10
588.339081
 20
265.102129
 10
588.31469
 20
265.589887
 10
588.26889
 20
266.024724
 10
588.236576
 20
266.228618
 10
588.197248
 20
266.426868
 10
588.150349
 20
266.622002
 10
588.095328
 20
266.816548
 10
587.958697
 20
267.213994
 10
587.782921
 20
267.639433
 10
587.563566
 20
268.113095
 10
587.384642
 20
268.465906
 10
587.175363
 20
268.84592
 10
586.943337
 20
269.241183
 10
586.696174
 20
269.639739
 10
586.441483
 20
270.029635
 10
586.186874
 20
270.398915
 10
585.939956
 20
270.735624
 10
585.708338
 20
271.027807
 10
585.467415
 20
271.321707
 10
585.254923
 20
271.592624
 10
585.069894
 20
271.844797
 10
584.911364
 20
272.082462
 10
584.778367
 20
272.309856
 10
584.669937
 20
272.531217
 10
584.585109
 20
272.750783
 10
584.522916
 20
272.972789
 10
584.482393
 20
273.201475
 10
584.462575
 20
273.441075
 10
584.462495
 20
273.695829
 10
584.481188
 20
273.969973
 10
584.517689
 20
274.267744
 10
584.571031
 20
274.593379
 10
584.724377
 20
275.345193
 10
584.809418
 20
275.750173
 10
584.879172
 20
276.127444
 10
584.933297
 20
276.479277
 10
584.971451
 20
276.807947
 10
584.993294
 20
277.115726
 10
584.998483
 20
277.404887
 10
584.986677
 20
277.677705
 10
584.957535
 20
277.936453
 10
584.910715
 20
278.183402
 10
584.845875
 20
278.420828
 10
584.762675
 20
278.651003
 10
584.660773
 20
278.8762
 10
584.539827
 20
279.098693
 10
584.399496
 20
279.320755
 10
584.239438
 20
279.544659
 10
584.059313
 20
279.772678
 10
583.919491
 20
279.935221
 10
583.771813
 20
280.093314
 10
583.616608
 20
280.246839
 10
583.454205
 20
280.395678
 10
583.284936
 20
280.539714
 10
583.109129
 20
280.678829
 10
582.927115
 20
280.812903
 10
582.739223
 20
280.94182
 10
582.347129
 20
281.183709
 10
581.935486
 20
281.40355
 10
581.506934
 20
281.600399
 10
581.064112
 20
281.773313
 10
580.609661
 20
281.921346
 10
580.14622
 20
282.043555
 10
579.67643
 20
282.138995
 10
579.20293
 20
282.206723
 10
578.72836
 20
282.245793
 10
578.491499
 20
282.254287
 10
578.255361
 20
282.255262
 10
578.020274
 20
282.248601
 10
577.786571
 20
282.234185
 10
577.554579
 20
282.211897
 10
577.32463
 20
282.181618
 10
577.03568
 20
282.1247
 10
576.751113
 20
282.041732
 10
576.471769
 20
281.933545
 10
576.198491
 20
281.800968
 10
575.932121
 20
281.644832
 10
575.673502
 20
281.465964
 10
575.423476
 20
281.265196
 10
575.182885
 20
281.043357
 10
574.952571
 20
280.801277
 10
574.733376
 20
280.539785
 10
574.526143
 20
280.259711
 10
574.331713
 20
279.961884
 10
574.150929
 20
279.647136
 10
573.984634
 20
279.316294
 10
573.833668
 20
278.970189
 10
573.698875
 20
278.60965
 10
573.594336
 20
278.328611
 10
573.476148
 20
278.051726
 10
573.345906
 20
277.780924
 10
573.205208
 20
277.518132
 10
573.055651
 20
277.265281
 10
572.898832
 20
277.024298
 10
572.736349
 20
276.797112
 10
572.569797
 20
276.585652
 10
572.400774
 20
276.391847
 10
572.230877
 20
276.217625
 10
572.061703
 20
276.064915
 10
571.894849
 20
275.935646
 10
571.731912
 20
275.831746
 10
571.57449
 20
275.755143
 10
571.424178
 20
275.707768
 10
571.352188
 20
275.695642
 10
571.282574
 20
275.691547
 10
571.191909
 20
275.686357
 10
571.087507
 20
275.671097
 10
570.840995
 20
275.612229
 10
570.550047
 20
275.518666
 10
570.22167
 20
275.39413
 10
569.862871
 20
275.242345
 10
569.48066
 20
275.067032
 10
569.082044
 20
274.871915
 10
568.674031
 20
274.660716
 10
568.263628
 20
274.437158
 10
567.857844
 20
274.204964
 10
567.463686
 20
273.967857
 10
567.088163
 20
273.729558
 10
566.738282
 20
273.493792
 10
566.421051
 20
273.26428
 10
566.143478
 20
273.044745
 10
565.912572
 20
272.838911
 10
565.674212
 20
272.59665
 10
565.441763
 20
272.335483
 10
565.216121
 20
272.057183
 10
564.998183
 20
271.763525
 10
564.788844
 20
271.456283
 10
564.589001
 20
271.137231
 10
564.39955
 20
270.808144
 10
564.221389
 20
270.470795
 10
564.055412
 20
270.126959
 10
563.902517
 20
269.77841
 10
563.763599
 20
269.426922
 10
563.639556
 20
269.07427
 10
563.531283
 20
268.722227
 10
563.439676
 20
268.372567
 10
563.365633
 20
268.027066
 10
563.310049
 20
267.687496
 10
563.265411
 20
267.323295
 10
563.244156
 20
267.024087
 10
563.243515
 20
266.894374
 10
563.250184
 20
266.775533
 10
563.264649
 20
266.66577
 10
563.287397
 20
266.563294
 10
563.318917
 20
266.466312
 10
563.359697
 20
266.373032
 10
563.410223
 20
266.281662
 10
563.470984
 20
266.190409
 10
563.625159
 20
266.001085
 10
563.826125
 20
265.790723
 10
563.991123
 20
265.641647
 10
564.168868
 20
265.510427
 10
564.357383
 20
265.397178
 10
564.554693
 20
265.302015
 10
564.758822
 20
265.225053
 10
564.967794
 20
265.166406
 10
565.179633
 20
265.12619
 10
565.392362
 20
265.10452
 10
565.604007
 20
265.10151
 10
565.81259
 20
265.117275
 10
566.016135
 20
265.151931
 10
566.212668
 20
265.205592
 10
566.400211
 20
265.278373
 10
566.576789
 20
265.37039
 10
566.740425
 20
265.481756
 10
566.889145
 20
265.612587
 10
567.017818
 20
265.754444
 10
567.190739
 20
265.965149
 10
567.639063
 20
266.552246
 10
568.173588
 20
267.292155
 10
568.733788
 20
268.103154
 10
569.050796
 20
268.565712
 10
569.344806
 20
268.973381
 10
569.624241
 20
269.32913
 10
569.761127
 20
269.488462
 10
569.897529
 20
269.635927
 10
570.0345
 20
269.771895
 10
570.173093
 20
269.896739
 10
570.314363
 20
270.010827
 10
570.459361
 20
270.114533
 10
570.609141
 20
270.208226
 10
570.764756
 20
270.292277
 10
570.92726
 20
270.367058
 10
571.097706
 20
270.432939
 10
571.277146
 20
270.490291
 10
571.466634
 20
270.539486
 10
571.667224
 20
270.580894
 10
571.879968
 20
270.614886
 10
572.105919
 20
270.641833
 10
572.346131
 20
270.662106
 10
572.87355
 20
270.684114
 10
573.47065
 20
270.683877
 10
574.145857
 20
270.664363
 10
576.117001
 20
270.560852
 42
0.334805
 10
576.416452
 20
270.762954
 10
577.577185
 20
274.141094
 10
579.468645
 20
273.491186
 10
578.322697
 20
270.156076
 42
0.369069
 10
578.465886
 20
269.793541
 10
579.817228
 20
269.077054
 10
580.169187
 20
268.880928
 10
580.53388
 20
268.657729
 10
580.900725
 20
268.41522
 10
581.259142
 20
268.161161
 10
581.59855
 20
267.903314
 10
581.908369
 20
267.649442
 10
582.178018
 20
267.407306
 10
582.396916
 20
267.184668
 10
582.70098
 20
266.842905
 10
582.824
 20
266.694387
 10
582.929478
 20
266.553585
 10
583.018763
 20
266.415106
 10
583.093205
 20
266.273556
 10
583.154153
 20
266.123542
 10
583.202956
 20
265.95967
 10
583.240964
 20
265.776546
 10
583.269526
 20
265.568777
 10
583.289992
 20
265.330968
 10
583.303711
 20
265.057727
 10
583.316305
 20
264.38337
 10
583.318104
 20
263.502557
 10
583.310136
 20
263.190606
 10
583.290784
 20
262.858528
 10
583.245249
 20
262.162329
 10
583.232727
 20
261.812375
 10
583.236142
 20
261.470628
 10
583.262325
 20
261.144173
 10
583.286088
 20
260.988893
 10
583.318104
 20
260.840092
 10
583.366738
 20
260.711718
 10
583.438937
 20
260.580979
 10
583.58934
 20
260.333284
 10
583.664188
 20
260.211969
 10
583.757139
 20
260.092046
 10
583.86611
 20
259.97461
 10
583.989019
 20
259.860758
 10
584.123784
 20
259.751587
 10
584.268321
 20
259.648192
 10
584.42055
 20
259.551671
 10
584.578386
 20
259.463118
 10
584.739749
 20
259.383631
 10
584.902555
 20
259.314305
 10
585.064721
 20
259.256237
 10
585.224167
 20
259.210524
 10
585.378808
 20
259.178261
 10
585.526563
 20
259.160546
 10
585.665349
 20
259.158473
 10
585.793084
 20
259.173139
  0
LWPOLYLINE
  5
30
330
1F
100
AcDbEntity
  8
0
100
AcDbPolyline
 90
      310
 70
   128
 43
0.0
 10
654.218752
 20
206.546755
 10
654.423417
 20
206.592927
 10
654.642791
 20
206.659965
 10
654.874196
 20
206.746145
 10
655.114952
 20
206.849743
 10
655.362379
 20
206.969035
 10
655.613799
 20
207.102297
 10
655.866532
 20
207.247805
 10
656.117898
 20
207.403835
 10
656.365218
 20
207.568664
 10
656.605813
 20
207.740567
 10
656.837004
 20
207.917821
 10
657.056111
 20
208.098701
 10
657.260454
 20
208.281484
 10
657.447355
 20
208.464445
 10
657.614134
 20
208.645861
 10
657.758112
 20
208.824009
 10
658.077385
 20
209.267946
 10
658.368738
 20
209.710373
 10
658.63278
 20
210.153682
 10
658.870118
 20
210.600266
 10
659.081361
 20
211.052519
 10
659.267115
 20
211.512833
 10
659.427988
 20
211.983601
 10
659.56459
 20
212.467217
 10
659.677526
 20
212.966073
 10
659.767406
 20
213.482563
 10
659.834836
 20
214.019079
 10
659.880426
 20
214.578015
 10
659.904781
 20
215.161764
 10
659.908512
 20
215.772718
 10
659.892224
 20
216.413271
 10
659.856526
 20
217.085815
 10
659.787864
 20
218.253825
 10
659.729186
 20
219.477774
 10
659.686722
 20
220.612414
 10
659.666699
 20
221.512494
 10
659.666747
 20
221.892804
 10
659.676866
 20
222.235247
 10
659.701012
 20
222.54486
 10
659.743137
 20
222.82668
 10
659.807194
 20
223.085743
 10
659.848682
 20
223.208315
 10
659.897136
 20
223.327086
 10
659.95305
 20
223.442686
 10
660.016918
 20
223.555746
 10
660.089233
 20
223.666893
 10
660.170491
 20
223.776759
 10
660.36181
 20
223.995162
 10
660.594827
 20
224.215992
 10
660.873496
 20
224.444286
 10
661.20177
 20
224.685079
 10
661.583602
 20
224.94341
 10
662.022945
 20
225.224314
 10
663.089979
 20
225.873989
 10
663.524802
 20
226.141229
 10
663.921382
 20
226.400054
 10
664.280382
 20
226.651379
 10
664.602466
 20
226.896119
 10
664.888295
 20
227.135186
 10
665.138533
 20
227.369495
 10
665.353842
 20
227.599961
 10
665.534885
 20
227.827496
 10
665.682324
 20
228.053016
 10
665.796823
 20
228.277434
 10
665.841927
 20
228.389515
 10
665.879044
 20
228.501664
 10
665.908258
 20
228.613994
 10
665.92965
 20
228.726621
 10
665.943304
 20
228.839657
 10
665.949303
 20
228.953217
 10
665.938667
 20
229.182368
 10
665.898403
 20
229.414988
 10
665.829175
 20
229.65199
 10
665.780519
 20
229.827332
 10
665.736209
 20
230.014053
 10
665.708567
 20
230.109741
 10
665.67347
 20
230.205948
 10
665.628073
 20
230.301897
 10
665.569528
 20
230.396813
 10
659.202358
 20
236.400922
 10
659.046865
 20
236.527554
 10
658.881695
 20
236.668282
 10
658.710999
 20
236.799435
 10
658.624875
 20
236.854024
 10
658.538925
 20
236.897343
 10
658.309851
 20
236.985145
 10
658.109526
 20
237.036875
 10
658.016897
 20
237.049126
 10
657.92756
 20
237.052252
 10
657.840216
 20
237.04622
 10
657.753565
 20
237.030994
 10
657.66631
 20
237.006539
 10
657.577152
 20
236.972819
 10
657.38793
 20
236.877444
 10
657.175511
 20
236.744588
 10
656.929506
 20
236.573968
 10
656.842047
 20
236.505034
 10
656.746619
 20
236.417506
 10
656.535255
 20
236.191485
 10
656.302218
 20
235.905535
 10
656.054312
 20
235.569286
 10
655.798341
 20
235.192368
 10
655.541108
 20
234.784411
 10
655.289417
 20
234.355044
 10
655.050073
 20
233.913897
 10
654.813207
 20
233.477457
 10
654.558523
 20
233.041932
 10
654.294005
 20
232.618882
 10
654.027637
 20
232.219868
 10
653.767404
 20
231.856451
 10
653.521291
 20
231.54019
 10
653.297281
 20
231.282645
 10
653.196061
 20
231.179505
 10
653.10336
 20
231.095378
 10
652.816782
 20
230.859464
 10
652.690189
 20
230.764782
 10
652.567976
 20
230.684651
 10
652.445078
 20
230.618349
 10
652.316431
 20
230.565152
 10
652.176971
 20
230.524336
 10
652.021634
 20
230.495178
 10
651.845357
 20
230.476954
 10
651.643074
 20
230.46894
 10
651.409723
 20
230.470414
 10
651.140238
 20
230.480651
 10
650.472615
 20
230.52452
 10
649.599691
 20
230.594761
 10
648.219818
 20
230.695411
 10
646.930346
 20
230.762797
 10
646.32083
 20
230.784034
 10
645.735497
 20
230.796979
 10
645.174874
 20
230.801639
 10
644.63949
 20
230.798021
 10
644.129871
 20
230.786134
 10
643.646546
 20
230.765985
 10
643.190042
 20
230.737583
 10
642.760886
 20
230.700935
 10
642.359607
 20
230.656048
 10
641.986731
 20
230.602931
 10
641.642787
 20
230.541592
 10
641.328302
 20
230.472038
 10
641.050904
 20
230.398312
 10
640.774829
 20
230.314063
 10
640.500508
 20
230.219689
 10
640.228372
 20
230.115586
 10
639.958852
 20
230.002152
 10
639.692378
 20
229.879784
 10
639.429382
 20
229.74888
 10
639.170295
 20
229.609835
 10
638.915547
 20
229.463049
 10
638.665569
 20
229.308918
 10
638.420792
 20
229.147839
 10
638.181647
 20
228.980209
 10
637.948564
 20
228.806426
 10
637.721976
 20
228.626886
 10
637.502312
 20
228.441988
 10
637.290003
 20
228.252128
 10
637.08548
 20
228.057704
 10
636.889175
 20
227.859113
 10
636.701517
 20
227.656751
 10
636.522939
 20
227.451017
 10
636.35387
 20
227.242307
 10
636.194742
 20
227.031019
 10
636.045985
 20
226.817549
 10
635.90803
 20
226.602296
 10
635.781309
 20
226.385656
 10
635.666252
 20
226.168027
 10
635.56329
 20
225.949805
 10
635.472853
 20
225.731389
 10
635.395373
 20
225.513175
 10
635.331281
 20
225.29556
 10
635.281007
 20
225.078942
 10
635.244982
 20
224.863718
 10
635.212341
 20
224.566998
 10
635.204035
 20
224.314582
 10
635.21041
 20
224.201203
 10
635.224553
 20
224.094358
 10
635.247025
 20
223.992533
 10
635.278388
 20
223.894215
 10
635.319203
 20
223.79789
 10
635.37003
 20
223.702043
 10
635.431433
 20
223.605161
 10
635.503971
 20
223.50573
 10
635.684701
 20
223.293164
 10
635.916711
 20
223.052235
 10
636.148355
 20
222.837206
 10
636.382479
 20
222.653177
 10
636.619439
 20
222.500174
 10
636.859589
 20
222.378222
 10
636.980971
 20
222.328897
 10
637.103284
 20
222.287345
 10
637.226572
 20
222.253568
 10
637.350879
 20
222.227569
 10
637.47625
 20
222.209351
 10
637.60273
 20
222.198917
 10
637.730362
 20
222.196271
 10
637.859191
 20
222.201415
 10
637.989261
 20
222.214354
 10
638.120616
 20
222.235088
 10
638.387362
 20
222.299961
 10
638.659783
 20
222.396057
 10
638.938234
 20
222.523403
 10
639.22307
 20
222.682022
 10
639.514646
 20
222.87194
 10
639.813317
 20
223.093182
 10
640.119438
 20
223.345771
 10
640.431655
 20
223.608802
 10
640.7382
 20
223.852298
 10
641.039919
 20
224.076625
 10
641.33766
 20
224.282149
 10
641.632269
 20
224.469234
 10
641.924592
 20
224.638248
 10
642.215476
 20
224.789555
 10
642.505768
 20
224.923522
 10
642.796314
 20
225.040515
 10
643.087961
 20
225.140899
 10
643.381555
 20
225.22504
 10
643.677944
 20
225.293304
 10
643.977974
 20
225.346056
 10
644.282491
 20
225.383663
 10
644.592342
 20
225.40649
 10
644.908373
 20
225.414903
 10
645.199597
 20
225.411309
 10
645.481397
 20
225.39768
 10
645.755369
 20
225.373447
 10
646.02311
 20
225.338038
 10
646.286215
 20
225.290882
 10
646.54628
 20
225.23141
 10
646.804903
 20
225.159049
 10
647.063679
 20
225.073231
 10
647.324204
 20
224.973383
 10
647.588075
 20
224.858935
 10
647.856888
 20
224.729317
 10
648.132239
 20
224.583958
 10
648.415724
 20
224.422287
 10
648.708939
 20
224.243733
 10
649.013481
 20
224.047726
 10
649.330946
 20
223.833696
 10
650.12677
 20
223.31079
 42
0.355711
 10
650.503704
 20
223.349441
 10
653.761963
 20
226.609604
 10
655.176589
 20
225.195804
 10
651.951993
 20
221.969322
 42
0.378022
 10
651.927293
 20
221.573184
 10
652.601712
 20
220.705215
 10
652.923469
 20
220.277679
 10
653.215899
 20
219.84513
 10
653.478764
 20
219.408661
 10
653.711824
 20
218.969369
 10
653.914838
 20
218.528347
 10
654.087567
 20
218.086691
 10
654.229772
 20
217.645496
 10
654.341213
 20
217.205856
 10
654.385322
 20
216.986961
 10
654.42165
 20
216.768866
 10
654.450167
 20
216.551707
 10
654.470844
 20
216.335621
 10
654.483649
 20
216.120745
 10
654.488554
 20
215.907216
 10
654.485529
 20
215.69517
 10
654.474543
 20
215.484745
 10
654.455566
 20
215.276078
 10
654.428569
 20
215.069304
 10
654.393521
 20
214.864562
 10
654.350393
 20
214.661987
 10
654.299154
 20
214.461718
 10
654.239775
 20
214.26389
 10
654.172226
 20
214.06864
 10
654.096476
 20
213.876106
 10
653.992872
 20
213.65403
 10
653.84915
 20
213.384238
 10
653.671822
 20
213.077112
 10
653.467399
 20
212.743034
 10
653.242391
 20
212.392386
 10
653.003311
 20
212.035551
 10
652.756669
 20
211.68291
 10
652.508976
 20
211.344846
 10
652.269337
 20
211.015522
 10
652.045774
 20
210.687929
 10
651.843181
 20
210.370693
 10
651.666452
 20
210.072439
 10
651.520478
 20
209.801795
 10
651.410153
 20
209.567386
 10
651.340369
 20
209.377837
 10
651.32221
 20
209.302581
 10
651.316021
 20
209.241775
 10
651.320602
 20
209.104769
 10
651.33412
 20
208.968031
 10
651.356236
 20
208.831874
 10
651.386613
 20
208.696612
 10
651.424913
 20
208.562559
 10
651.470797
 20
208.430028
 10
651.583968
 20
208.170791
 10
651.723421
 20
207.921411
 10
651.886454
 20
207.684397
 10
652.070361
 20
207.462262
 10
652.27244
 20
207.257514
 10
652.489986
 20
207.072664
 10
652.720294
 20
206.910224
 10
652.960662
 20
206.772703
 10
653.208385
 20
206.662612
 10
653.33416
 20
206.618637
 10
653.46076
 20
206.582461
 10
653.587846
 20
206.554398
 10
653.715082
 20
206.534761
 10
653.842128
 20
206.523864
 10
653.968647
 20
206.522022
 10
654.094301
 20
206.529548
 10
654.218752
 20
206.546755
  0
LWPOLYLINE
  5
31
330
1F
100
AcDbEntity
  8
0
100
AcDbPolyline
 90
      271
 70
   128
 43
0.0
 10
552.229563
 20
272.589305
 10
552.525601
 20
272.656668
 10
552.819047
 20
272.734479
 10
553.109919
 20
272.822755
 10
553.398236
 20
272.921512
 10
553.684019
 20
273.030769
 10
553.967284
 20
273.150542
 10
554.248053
 20
273.280849
 10
554.526344
 20
273.421706
 10
554.802175
 20
273.57313
 10
555.075567
 20
273.735139
 10
555.346538
 20
273.90775
 10
555.615107
 20
274.09098
 10
555.881294
 20
274.284846
 10
556.145117
 20
274.489365
 10
556.406596
 20
274.704554
 10
556.66575
 20
274.930431
 10
556.922597
 20
275.167012
 10
557.177157
 20
275.414315
 10
557.42945
 20
275.672357
 10
557.679493
 20
275.941154
 10
557.927307
 20
276.220725
 10
558.17291
 20
276.511085
 10
558.416321
 20
276.812253
 10
558.65756
 20
277.124246
 10
558.896646
 20
277.447079
 10
559.133598
 20
277.780772
 10
559.368434
 20
278.12534
 10
559.601174
 20
278.480801
 10
560.060443
 20
279.22447
 10
560.511556
 20
280.011915
 10
561.909562
 20
282.542782
 10
562.712259
 20
283.218206
 10
562.858917
 20
283.337214
 10
563.002346
 20
283.443431
 10
563.14549
 20
283.537412
 10
563.291294
 20
283.619711
 10
563.442702
 20
283.690884
 10
563.602656
 20
283.751485
 10
563.774103
 20
283.802068
 10
563.959984
 20
283.84319
 10
564.163245
 20
283.875404
 10
564.38683
 20
283.899265
 10
564.633681
 20
283.915329
 10
564.906745
 20
283.92415
 10
565.543282
 20
283.922282
 10
566.319993
 20
283.898099
 10
566.60101
 20
283.893058
 10
566.876851
 20
283.900161
 10
567.146578
 20
283.919075
 10
567.409254
 20
283.949467
 10
567.663943
 20
283.991005
 10
567.909707
 20
284.043354
 10
568.145611
 20
284.106184
 10
568.370716
 20
284.17916
 10
568.584086
 20
284.26195
 10
568.784784
 20
284.354221
 10
568.971873
 20
284.455641
 10
569.144416
 20
284.565876
 10
569.301476
 20
284.684593
 10
569.442117
 20
284.81146
 10
569.565401
 20
284.946145
 10
569.670391
 20
285.088313
 10
569.724548
 20
285.184037
 10
569.775181
 20
285.29964
 10
569.822293
 20
285.433796
 10
569.865884
 20
285.585182
 10
569.942511
 20
285.934344
 10
570.005074
 20
286.336529
 10
570.053586
 20
286.781138
 10
570.088058
 20
287.257575
 10
570.108503
 20
287.755243
 10
570.114932
 20
288.263545
 10
570.107357
 20
288.771884
 10
570.08579
 20
289.269662
 10
570.050243
 20
289.746283
 10
570.000728
 20
290.19115
 10
569.937257
 20
290.593665
 10
569.859842
 20
290.943231
 10
569.815909
 20
291.094847
 10
569.768495
 20
291.229252
 10
569.7176
 20
291.345122
 10
569.663228
 20
291.441131
 10
569.551768
 20
291.588873
 10
569.417761
 20
291.727513
 10
569.262677
 20
291.856634
 10
569.087985
 20
291.975821
 10
568.895156
 20
292.084656
 10
568.685659
 20
292.182723
 10
568.460964
 20
292.269606
 10
568.222542
 20
292.344889
 10
567.971862
 20
292.408154
 10
567.710394
 20
292.458986
 10
567.439609
 20
292.496968
 10
567.160977
 20
292.521684
 10
566.875966
 20
292.532717
 10
566.586048
 20
292.529651
 10
566.292692
 20
292.51207
 10
565.997369
 20
292.479557
 10
565.547299
 20
292.43165
 10
565.332557
 20
292.419462
 10
565.12416
 20
292.415513
 10
564.921725
 20
292.420099
 10
564.724865
 20
292.433516
 10
564.533194
 20
292.456059
 10
564.346326
 20
292.488026
 10
564.163877
 20
292.529711
 10
563.985458
 20
292.581412
 10
563.810686
 20
292.643424
 10
563.639174
 20
292.716043
 10
563.470536
 20
292.799565
 10
563.304386
 20
292.894287
 10
563.140339
 20
293.000504
 10
562.978009
 20
293.118512
 10
562.817009
 20
293.248609
 10
562.656955
 20
293.391088
 10
562.497459
 20
293.546248
 10
562.338137
 20
293.714383
 10
562.178603
 20
293.89579
 10
562.01847
 20
294.090765
 10
561.694867
 20
294.522603
 10
561.36424
 20
295.012265
 10
561.023504
 20
295.562121
 10
560.669571
 20
296.174538
 10
560.299354
 20
296.851884
 10
560.013608
 20
297.369095
 10
559.71711
 20
297.870729
 10
559.410414
 20
298.356182
 10
559.094068
 20
298.824855
 10
558.768625
 20
299.276143
 10
558.434634
 20
299.709446
 10
558.092648
 20
300.124161
 10
557.743216
 20
300.519687
 10
557.38689
 20
300.895421
 10
557.02422
 20
301.250761
 10
556.655758
 20
301.585106
 10
556.282054
 20
301.897853
 10
555.903659
 20
302.188401
 10
555.521125
 20
302.456147
 10
555.135001
 20
302.700489
 10
554.745839
 20
302.920825
 10
554.456676
 20
303.06956
 10
554.170101
 20
303.206335
 10
553.886547
 20
303.331215
 10
553.606447
 20
303.444264
 10
553.330233
 20
303.545545
 10
553.058339
 20
303.635121
 10
552.791198
 20
303.713057
 10
552.529242
 20
303.779417
 10
552.272905
 20
303.834263
 10
552.022619
 20
303.877659
 10
551.778818
 20
303.90967
 10
551.541934
 20
303.930358
 10
551.3124
 20
303.939788
 10
551.090649
 20
303.938024
 10
550.877114
 20
303.925128
 10
550.672228
 20
303.901164
 10
550.476424
 20
303.866197
 10
550.290134
 20
303.82029
 10
550.113793
 20
303.763506
 10
549.947832
 20
303.69591
 10
549.792685
 20
303.617564
 10
549.648785
 20
303.528533
 10
549.516564
 20
303.42888
 10
549.396455
 20
303.318669
 10
549.288892
 20
303.197964
 10
549.194307
 20
303.066828
 10
549.113133
 20
302.925324
 10
549.045803
 20
302.773518
 10
548.992751
 20
302.611472
 10
548.954408
 20
302.439249
 10
548.931209
 20
302.256914
 10
548.923585
 20
302.064531
 10
548.931929
 20
301.866096
 10
548.957642
 20
301.672841
 10
549.002695
 20
301.482499
 10
549.069057
 20
301.2928
 10
549.158697
 20
301.101478
 10
549.273587
 20
300.906265
 10
549.415696
 20
300.704893
 10
549.586993
 20
300.495093
 10
549.789449
 20
300.274599
 10
550.025033
 20
300.041142
 10
550.295715
 20
299.792455
 10
550.603465
 20
299.526269
 10
550.950252
 20
299.240317
 10
551.338048
 20
298.932332
 10
552.24454
 20
298.241187
 10
552.847498
 20
297.78161
 10
553.4027
 20
297.338939
 10
553.91279
 20
296.909581
 10
554.38041
 20
296.489944
 10
554.808201
 20
296.076437
 10
555.198806
 20
295.665467
 10
555.554867
 20
295.253442
 10
555.879027
 20
294.836771
 10
556.173928
 20
294.411862
 10
556.442211
 20
293.975121
 10
556.68652
 20
293.522959
 10
556.909496
 20
293.051782
 10
557.113781
 20
292.557998
 10
557.302019
 20
292.038016
 10
557.476851
 20
291.488244
 10
557.640918
 20
290.905089
 10
557.783979
 20
290.38094
 10
557.849637
 20
290.16858
 10
558.064082
 20
289.580289
 42
0.31519
 10
558.345968
 20
289.383033
 10
562.622412
 20
289.38343
 10
562.622598
 20
287.38343
 10
558.389928
 20
287.383037
 42
0.341052
 10
558.099731
 20
287.158994
 10
557.920277
 20
286.473318
 10
557.729778
 20
285.76034
 10
557.526028
 20
285.088461
 10
557.306212
 20
284.453751
 10
557.189401
 20
284.149106
 10
557.067518
 20
283.852281
 10
556.940212
 20
283.562784
 10
556.80713
 20
283.280123
 10
556.667922
 20
283.003809
 10
556.522236
 20
282.733349
 10
556.369719
 20
282.468252
 10
556.210021
 20
282.208028
 10
556.042789
 20
281.952185
 10
555.867671
 20
281.700233
 10
555.684316
 20
281.451679
 10
555.492373
 20
281.206033
 10
555.291488
 20
280.962805
 10
555.081311
 20
280.721502
 10
554.861491
 20
280.481633
 10
554.631674
 20
280.242709
 10
554.140646
 20
279.765725
 10
553.605414
 20
279.286623
 10
553.023163
 20
278.801473
 10
552.39108
 20
278.306346
 10
551.706352
 20
277.797314
 10
549.536383
 20
276.220726
 10
549.229327
 20
275.546812
 10
549.152864
 20
275.370597
 10
549.0881
 20
275.202571
 10
549.035117
 20
275.041877
 10
548.994001
 20
274.887663
 10
548.964835
 20
274.739073
 10
548.947703
 20
274.595252
 10
548.942688
 20
274.455347
 10
548.949876
 20
274.318503
 10
548.969349
 20
274.183865
 10
549.001192
 20
274.050579
 10
549.045488
 20
273.917791
 10
549.102322
 20
273.784645
 10
549.171777
 20
273.650287
 10
549.253937
 20
273.513863
 10
549.348887
 20
273.374518
 10
549.45671
 20
273.231398
 10
549.574248
 20
273.090471
 10
549.694261
 20
272.964132
 10
549.817812
 20
272.852136
 10
549.945964
 20
272.754235
 10
550.079779
 20
272.670184
 10
550.220322
 20
272.599736
 10
550.368654
 20
272.542646
 10
550.525838
 20
272.498667
 10
550.692938
 20
272.467553
 10
550.871017
 20
272.449058
 10
551.061137
 20
272.442936
 10
551.264362
 20
272.448941
 10
551.481753
 20
272.466827
 10
551.714376
 20
272.496346
 10
551.963291
 20
272.537254
 10
552.229563
 20
272.589305
  0
LWPOLYLINE
  5
32
330
1F
100
AcDbEntity
  8
0
100
AcDbPolyline
 90
      223
 70
   128
 43
0.0
 10
594.049305
 20
233.64028
 10
594.217877
 20
233.640285
 10
594.376012
 20
233.648554
 10
594.525291
 20
233.66617
 10
594.667291
 20
233.694216
 10
594.803591
 20
233.733776
 10
594.935769
 20
233.785932
 10
595.065403
 20
233.851769
 10
595.194073
 20
233.93237
 10
595.323355
 20
234.028817
 10
595.454829
 20
234.142195
 10
595.590073
 20
234.273587
 10
595.730665
 20
234.424075
 10
596.034208
 20
234.786676
 10
596.378085
 20
235.238665
 10
596.608302
 20
235.555083
 10
596.724847
 20
235.73406
 42
0.400224
 10
596.649027
 20
236.141018
 10
593.511542
 20
238.405624
 10
594.682062
 20
240.027315
 10
597.960691
 20
237.660833
 42
0.395282
 10
598.367592
 20
237.713064
 10
599.194194
 20
238.714054
 10
599.506284
 20
239.114372
 10
599.762844
 20
239.47885
 10
599.869693
 20
239.649732
 10
599.961931
 20
239.814153
 10
600.039314
 20
239.972945
 10
600.101599
 20
240.126943
 10
600.148543
 20
240.276978
 10
600.179903
 20
240.423884
 10
600.195436
 20
240.568493
 10
600.194898
 20
240.711639
 10
600.178047
 20
240.854154
 10
600.14464
 20
240.996871
 10
600.094433
 20
241.140624
 10
600.027183
 20
241.286245
 10
599.942648
 20
241.434567
 10
599.840583
 20
241.586423
 10
599.720747
 20
241.742645
 10
599.582895
 20
241.904068
 10
599.426785
 20
242.071523
 10
599.252174
 20
242.245844
 10
598.846475
 20
242.618415
 10
598.363853
 20
243.028443
 10
597.802363
 20
243.482592
 10
597.160061
 20
243.987525
 10
593.389727
 20
246.784462
 10
593.187833
 20
246.903803
 10
592.975579
 20
247.015192
 10
592.759321
 20
247.116185
 10
592.545413
 20
247.204343
 10
592.340209
 20
247.277222
 10
592.150066
 20
247.332382
 10
591.981336
 20
247.36738
 10
591.840376
 20
247.379775
 10
591.645616
 20
247.390804
 10
591.439523
 20
247.423795
 10
591.220304
 20
247.479872
 10
590.986168
 20
247.56016
 10
590.735323
 20
247.665786
 10
590.465978
 20
247.797875
 10
590.17634
 20
247.957552
 10
589.864618
 20
248.145943
 10
589.529021
 20
248.364174
 10
589.167756
 20
248.613369
 10
588.779032
 20
248.894654
 10
588.361057
 20
249.209156
 10
587.430187
 20
249.942308
 10
586.360813
 20
250.82183
 10
585.021509
 20
251.924179
 10
583.523915
 20
253.123919
 10
582.771645
 20
253.713263
 10
582.046866
 20
254.270499
 10
581.371932
 20
254.776806
 10
580.769198
 20
255.213366
 10
579.767794
 20
255.918108
 10
578.683619
 20
256.671091
 10
577.592326
 20
257.413519
 10
576.569573
 20
258.086597
 10
576.224952
 20
258.292236
 10
575.816619
 20
258.510024
 10
575.360149
 20
258.734024
 10
574.871112
 20
258.958301
 10
574.365084
 20
259.176921
 10
573.857636
 20
259.383946
 10
573.364341
 20
259.573443
 10
572.900772
 20
259.739475
 10
572.239501
 20
259.959048
 10
571.656366
 20
260.130879
 10
571.380956
 20
260.20067
 10
571.109308
 20
260.26066
 10
570.836164
 20
260.31156
 10
570.556268
 20
260.354081
 10
570.264361
 20
260.388936
 10
569.955186
 20
260.416835
 10
569.264005
 20
260.454613
 10
568.440664
 20
260.473106
 10
567.443104
 20
260.478005
 10
566.416092
 20
260.474873
 10
565.609526
 20
260.4616
 10
564.984952
 20
260.43237
 10
564.728893
 20
260.409955
 10
564.503912
 20
260.38137
 10
564.3052
 20
260.345889
 10
564.127951
 20
260.302784
 10
563.967358
 20
260.251329
 10
563.818613
 20
260.190797
 10
563.676911
 20
260.120461
 10
563.537442
 20
260.039594
 10
563.245982
 20
259.843361
 10
563.043721
 20
259.68867
 10
562.853942
 20
259.522662
 10
562.677297
 20
259.346771
 10
562.514435
 20
259.162429
 10
562.366007
 20
258.971072
 10
562.232663
 20
258.774133
 10
562.115054
 20
258.573046
 10
562.013828
 20
258.369245
 10
561.929637
 20
258.164164
 10
561.863132
 20
257.959236
 10
561.814961
 20
257.755896
 10
561.785775
 20
257.555577
 10
561.776225
 20
257.359714
 10
561.786961
 20
257.169739
 10
561.818633
 20
256.987088
 10
561.871891
 20
256.813194
 10
561.959535
 20
256.604475
 10
562.057622
 20
256.414582
 10
562.167971
 20
256.242776
 10
562.2924
 20
256.088316
 10
562.432726
 20
255.950464
 10
562.590769
 20
255.828479
 10
562.768346
 20
255.721623
 10
562.967275
 20
255.629155
 10
563.189375
 20
255.550335
 10
563.436463
 20
255.484424
 10
563.710357
 20
255.430683
 10
564.012875
 20
255.388372
 10
564.345836
 20
255.35675
 10
564.711058
 20
255.33508
 10
565.110358
 20
255.322619
 10
565.545555
 20
255.31863
 10
565.944793
 20
255.31492
 10
566.336981
 20
255.303602
 10
566.722794
 20
255.284393
 10
567.102902
 20
255.257012
 10
567.477979
 20
255.221176
 10
567.848695
 20
255.176605
 10
568.215724
 20
255.123016
 10
568.579737
 20
255.060127
 10
568.941406
 20
254.987656
 10
569.301403
 20
254.905322
 10
569.660401
 20
254.812842
 10
570.019072
 20
254.709934
 10
570.378087
 20
254.596317
 10
570.738119
 20
254.471709
 10
571.099839
 20
254.335827
 10
571.463921
 20
254.18839
 10
571.831035
 20
254.029116
 10
572.201855
 20
253.857723
 10
572.577052
 20
253.673929
 10
572.957298
 20
253.477452
 10
573.343265
 20
253.26801
 10
573.735626
 20
253.045322
 10
574.135052
 20
252.809105
 10
574.542216
 20
252.559078
 10
575.382444
 20
252.016463
 10
576.261688
 20
251.415224
 10
577.185324
 20
250.753104
 10
578.158729
 20
250.027849
 10
578.992182
 20
249.40816
 10
579.893996
 20
248.744462
 10
580.788072
 20
248.071075
 10
581.208428
 20
247.741473
 10
581.598313
 20
247.422318
 10
582.777817
 20
246.441162
 10
583.405984
 20
245.912486
 10
584.036906
 20
245.36511
 10
584.653441
 20
244.804057
 10
584.950956
 20
244.519971
 10
585.238446
 20
244.23435
 10
585.513768
 20
243.947821
 10
585.77478
 20
243.661012
 10
586.019339
 20
243.374552
 10
586.245302
 20
243.089068
 10
586.354289
 20
242.918087
 10
586.453329
 20
242.722145
 10
586.545477
 20
242.521853
 10
586.633787
 20
242.337822
 10
586.711825
 20
242.157212
 10
586.784628
 20
241.931304
 10
586.850602
 20
241.669149
 10
586.908154
 20
241.379795
 10
586.95569
 20
241.072293
 10
586.991617
 20
240.755693
 10
587.014342
 20
240.439044
 10
587.022271
 20
240.131397
 10
587.026528
 20
239.666234
 10
587.046907
 20
239.297242
 10
587.066709
 20
239.141255
 10
587.094819
 20
239.000246
 10
587.132666
 20
238.871191
 10
587.181675
 20
238.751069
 10
587.243272
 20
238.636859
 10
587.318885
 20
238.525538
 10
587.409939
 20
238.414085
 10
587.51786
 20
238.299477
 10
587.790012
 20
238.04871
 10
588.14675
 20
237.749063
 10
589.539056
 20
236.608088
 10
590.679815
 20
235.691298
 10
591.601302
 20
234.976225
 10
591.989905
 20
234.687312
 10
592.335793
 20
234.440403
 10
592.643001
 20
234.23269
 10
592.915563
 20
234.061364
 10
593.157515
 20
233.923618
 10
593.372889
 20
233.816642
 10
593.56572
 20
233.737629
 10
593.740044
 20
233.68377
 10
593.899894
 20
233.652256
 10
594.049305
 20
233.64028
  0
LWPOLYLINE
  5
33
330
1F
100
AcDbEntity
  8
0
100
AcDbPolyline
 90
      222
 70
   128
 43
0.0
 10
599.421752
 20
224.964206
 10
599.119926
 20
224.257108
 10
598.944269
 20
223.774508
 10
598.867291
 20
223.53296
 10
598.800262
 20
223.298131
 10
598.745218
 20
223.075187
 10
598.704194
 20
222.869293
 10
598.679227
 20
222.685612
 10
598.672352
 20
222.52931
 10
598.681588
 20
222.435809
 10
598.704789
 20
222.329331
 10
598.740406
 20
222.213582
 10
598.786886
 20
222.09227
 10
598.842681
 20
221.969101
 10
598.906239
 20
221.847783
 10
598.976008
 20
221.732022
 10
599.050439
 20
221.625525
 10
599.420112
 20
221.137629
 10
600.20598
 20
220.818714
 10
601.033102
 20
220.459117
 10
601.889412
 20
220.078379
 10
602.762845
 20
219.696043
 10
603.641337
 20
219.331649
 10
604.078709
 20
219.162288
 10
604.512821
 20
219.004741
 10
604.942165
 20
218.861451
 10
605.365233
 20
218.73486
 10
605.780517
 20
218.627411
 10
606.186508
 20
218.541547
 10
606.347551
 20
218.525981
 10
606.522843
 20
218.52771
 10
606.861721
 20
218.541547
 10
607.017224
 20
218.555047
 10
607.200702
 20
218.59374
 10
607.405392
 20
218.654912
 10
607.624533
 20
218.73585
 10
607.851361
 20
218.833842
 10
608.079116
 20
218.946173
 10
608.301035
 20
219.070132
 10
608.510357
 20
219.203005
 10
608.760468
 20
219.36143
 10
609.011882
 20
219.497351
 10
609.265929
 20
219.611187
 10
609.523943
 20
219.703352
 10
609.787254
 20
219.774266
 10
610.057195
 20
219.824342
 10
610.335099
 20
219.854
 10
610.622296
 20
219.863655
 10
610.802378
 20
219.856247
 10
611.016273
 20
219.834633
 10
611.262223
 20
219.799382
 10
611.538469
 20
219.751062
 10
612.17481
 20
219.617491
 10
612.911225
 20
219.438468
 10
613.73364
 20
219.21854
 10
614.627984
 20
218.962257
 10
615.580183
 20
218.674166
 10
616.576164
 20
218.358816
 10
617.601856
 20
218.020756
 10
618.643186
 20
217.664533
 10
619.68608
 20
217.294695
 10
620.716467
 20
216.915792
 10
621.720273
 20
216.532372
 10
622.683427
 20
216.148982
 10
623.591854
 20
215.770171
 10
624.431484
 20
215.400488
 10
625.204546
 20
215.033702
 10
625.960922
 20
214.643716
 10
626.698452
 20
214.232333
 10
627.414979
 20
213.801352
 10
628.108345
 20
213.352577
 10
628.776391
 20
212.887807
 10
629.41696
 20
212.408844
 10
630.027893
 20
211.91749
 10
630.607032
 20
211.415545
 10
631.15222
 20
210.904811
 10
631.411407
 20
210.646711
 10
631.661298
 20
210.38709
 10
631.901621
 20
210.126171
 10
632.132107
 20
209.864181
 10
632.352487
 20
209.601345
 10
632.562491
 20
209.337888
 10
632.761848
 20
209.074035
 10
632.95029
 20
208.81001
 10
633.127546
 20
208.546041
 10
633.293347
 20
208.28235
 10
633.447422
 20
208.019164
 10
633.589503
 20
207.756709
 10
633.726362
 20
207.505467
 10
633.868842
 20
207.267977
 10
634.016534
 20
207.044579
 10
634.169027
 20
206.835611
 10
634.325912
 20
206.641413
 10
634.48678
 20
206.462324
 10
634.651219
 20
206.298681
 10
634.818822
 20
206.150825
 10
634.989178
 20
206.019095
 10
635.161876
 20
205.903829
 10
635.336509
 20
205.805366
 10
635.512665
 20
205.724045
 10
635.689935
 20
205.660205
 10
635.867909
 20
205.614186
 10
636.046178
 20
205.586326
 10
636.224332
 20
205.576964
 10
636.348986
 20
205.583163
 10
636.472811
 20
205.601426
 10
636.595516
 20
205.631249
 10
636.716809
 20
205.672128
 10
636.8364
 20
205.72356
 10
636.953997
 20
205.785041
 10
637.069308
 20
205.856069
 10
637.182042
 20
205.93614
 10
637.291908
 20
206.024749
 10
637.398614
 20
206.121395
 10
637.601382
 20
206.33678
 10
637.788014
 20
206.578267
 10
637.956181
 20
206.84183
 10
638.103549
 20
207.123439
 10
638.22779
 20
207.419069
 10
638.326571
 20
207.72469
 10
638.397562
 20
208.036277
 10
638.421908
 20
208.193049
 10
638.438432
 20
208.349802
 10
638.446843
 20
208.506032
 10
638.446849
 20
208.661236
 10
638.43816
 20
208.814911
 10
638.420483
 20
208.966554
 10
638.393528
 20
209.11566
 10
638.357003
 20
209.261726
 10
638.261709
 20
209.561588
 10
638.142842
 20
209.880785
 10
638.001988
 20
210.216724
 10
637.840731
 20
210.566814
 10
637.660655
 20
210.928465
 10
637.463347
 20
211.299084
 10
637.250392
 20
211.676079
 10
637.023373
 20
212.056861
 10
636.783876
 20
212.438836
 10
636.533486
 20
212.819415
 10
636.273788
 20
213.196004
 10
636.006367
 20
213.566013
 10
635.732807
 20
213.926851
 10
635.454695
 20
214.275926
 10
635.173615
 20
214.610646
 10
634.891151
 20
214.928421
 10
634.594255
 20
215.245555
 10
634.289991
 20
215.556738
 10
633.977696
 20
215.862334
 10
633.656706
 20
216.162705
 10
633.326358
 20
216.458213
 10
632.98599
 20
216.749223
 10
632.634938
 20
217.036096
 10
632.272538
 20
217.319195
 10
631.898128
 20
217.598883
 10
631.511044
 20
217.875524
 10
631.110623
 20
218.149479
 10
630.696203
 20
218.421111
 10
630.267119
 20
218.690784
 10
629.822709
 20
218.95886
 10
629.362309
 20
219.225703
 10
628.885256
 20
219.491673
 10
628.390888
 20
219.757136
 10
627.87854
 20
220.022453
 10
627.34755
 20
220.287987
 10
626.797255
 20
220.554101
 10
625.636094
 20
221.089521
 10
624.389754
 20
221.631614
 10
623.052928
 20
222.183284
 10
621.62031
 20
222.747432
 10
620.086596
 20
223.326962
 10
618.446479
 20
223.924775
 10
617.799954
 20
224.142076
 10
617.106469
 20
224.355409
 10
616.383915
 20
224.570842
 10
615.650184
 20
224.794446
 10
614.923166
 20
225.03229
 10
614.567766
 20
225.158449
 10
614.220754
 20
225.290445
 10
613.884366
 20
225.429036
 10
613.560839
 20
225.57498
 10
613.252409
 20
225.729037
 10
612.961312
 20
225.891965
 10
612.793584
 20
226.003585
 10
612.625772
 20
226.135571
 10
612.293695
 20
226.438515
 10
611.972686
 20
226.756543
 10
611.670348
 20
227.045402
 10
611.303905
 20
227.354198
 10
611.112969
 20
227.500803
 10
610.915064
 20
227.643196
 10
610.708821
 20
227.782113
 10
610.49287
 20
227.918292
 10
610.026369
 20
228.185384
 10
609.504608
 20
228.450371
 10
608.916633
 20
228.719149
 10
608.251489
 20
228.997616
 10
607.498224
 20
229.291669
 10
603.647221
 20
230.725803
 10
603.396765
 20
230.804607
 10
603.160903
 20
230.858832
 10
602.938582
 20
230.887691
 10
602.728751
 20
230.890396
 10
602.530357
 20
230.866161
 10
602.342349
 20
230.814198
 10
602.251911
 20
230.777572
 10
602.163674
 20
230.73372
 10
601.993282
 20
230.623939
 10
601.83012
 20
230.484068
 10
601.673135
 20
230.31332
 10
601.521277
 20
230.110907
 10
601.373494
 20
229.876043
 10
601.228733
 20
229.607939
 10
601.085942
 20
229.305809
 10
600.94407
 20
228.968865
 10
600.802064
 20
228.596321
 10
600.577999
 20
227.956532
 10
600.386843
 20
227.355002
 42
0.413427
 10
600.581128
 20
226.978479
 10
604.225918
 20
225.80944
 10
603.615084
 20
223.905003
 10
599.789292
 20
225.132096
 42
0.387212
 10
599.421752
 20
224.964206
  0
LWPOLYLINE
  5
34
330
1F
100
AcDbEntity
  8
0
100
AcDbPolyline
 90
      224
 70
   128
 43
0.0
 10
587.30243
 20
216.960856
 10
586.625396
 20
216.967664
 10
583.979563
 20
218.958751
 10
582.933274
 20
219.758943
 10
582.011029
 20
220.490906
 10
581.217595
 20
221.15027
 10
580.87067
 20
221.451362
 10
580.557735
 20
221.732666
 10
580.279386
 20
221.993634
 10
580.036217
 20
222.233722
 10
579.828824
 20
222.452382
 10
579.657803
 20
222.649068
 10
579.52375
 20
222.823235
 10
579.427261
 20
222.974335
 10
579.36893
 20
223.101823
 10
579.354261
 20
223.156541
 10
579.349354
 20
223.205152
 10
579.335443
 20
223.286543
 10
579.295574
 20
223.394433
 10
579.232542
 20
223.524175
 10
579.149143
 20
223.671122
 10
579.048173
 20
223.830627
 10
578.932426
 20
223.998045
 10
578.804698
 20
224.168727
 10
578.667785
 20
224.338029
 10
578.338196
 20
224.75377
 10
578.162814
 20
224.965207
 10
577.986215
 20
225.148028
 10
577.752145
 20
225.347888
 10
577.493038
 20
225.546125
 10
577.216231
 20
225.742023
 10
576.929062
 20
225.934864
 10
576.352988
 20
226.30851
 10
575.823514
 20
226.661328
 10
572.954082
 20
228.731227
 10
570.088938
 20
230.807029
 10
569.338265
 20
231.365744
 10
568.578405
 20
231.95102
 10
567.830057
 20
232.545212
 10
567.113922
 20
233.130672
 10
566.450698
 20
233.689753
 10
565.861086
 20
234.204808
 10
565.365784
 20
234.65819
 10
564.985493
 20
235.032252
 10
564.712109
 20
235.325945
 10
564.418105
 20
235.658674
 10
564.108759
 20
236.023206
 10
563.789351
 20
236.412308
 10
563.141462
 20
237.23529
 10
562.51667
 20
238.069759
 10
561.957207
 20
238.857853
 10
561.715172
 20
239.216428
 10
561.505304
 20
239.541711
 10
561.332885
 20
239.826469
 10
561.203193
 20
240.06347
 10
561.121506
 20
240.24548
 10
561.100315
 20
240.313604
 10
561.093104
 20
240.365268
 10
561.085427
 20
240.420254
 10
561.063425
 20
240.504446
 10
560.982615
 20
240.74367
 10
560.863017
 20
241.04938
 10
560.716971
 20
241.388019
 10
560.597325
 20
241.665746
 10
560.480172
 20
241.962067
 10
560.366232
 20
242.274001
 10
560.256228
 20
242.598567
 10
560.050909
 20
243.273679
 10
559.869984
 20
243.963562
 10
559.719221
 20
244.644375
 10
559.656954
 20
244.97393
 10
559.604391
 20
245.292277
 10
559.562254
 20
245.596436
 10
559.531263
 20
245.883426
 10
559.512139
 20
246.150269
 10
559.505604
 20
246.393983
 10
559.513034
 20
246.636943
 10
559.535226
 20
246.873124
 10
559.572036
 20
247.10229
 10
559.623319
 20
247.324204
 10
559.688931
 20
247.538632
 10
559.768726
 20
247.745338
 10
559.862559
 20
247.944087
 10
559.970286
 20
248.134643
 10
560.091763
 20
248.316771
 10
560.226843
 20
248.490236
 10
560.375383
 20
248.654801
 10
560.537237
 20
248.810232
 10
560.712261
 20
248.956292
 10
560.90031
 20
249.092747
 10
561.101239
 20
249.219361
 10
561.314903
 20
249.335899
 10
561.598093
 20
249.464594
 10
561.734398
 20
249.515038
 10
561.867287
 20
249.556119
 10
561.996844
 20
249.587766
 10
562.123154
 20
249.609908
 10
562.246301
 20
249.622476
 10
562.366367
 20
249.625398
 10
562.483437
 20
249.618604
 10
562.597595
 20
249.602023
 10
562.708924
 20
249.575585
 10
562.817509
 20
249.539219
 10
562.923432
 20
249.492855
 10
563.026779
 20
249.436421
 10
563.127632
 20
249.369848
 10
563.226076
 20
249.293065
 10
563.322195
 20
249.206001
 10
563.416071
 20
249.108585
 10
563.50779
 20
249.000747
 10
563.597434
 20
248.882417
 10
563.770836
 20
248.613997
 10
563.936946
 20
248.302759
 10
564.096437
 20
247.94814
 10
564.249978
 20
247.549573
 10
564.398239
 20
247.106495
 10
564.541892
 20
246.618341
 10
564.661121
 20
246.206809
 10
564.794375
 20
245.779586
 10
564.937165
 20
245.349119
 10
565.084998
 20
244.927856
 10
565.233384
 20
244.528242
 10
565.37783
 20
244.162724
 10
565.513846
 20
243.843748
 10
565.63694
 20
243.583761
 10
565.819787
 20
243.239364
 10
566.019545
 20
242.891785
 10
566.236134
 20
242.541093
 10
566.469476
 20
242.187359
 10
566.719492
 20
241.830652
 10
566.986102
 20
241.471043
 10
567.269229
 20
241.1086
 10
567.568794
 20
240.743393
 10
567.884716
 20
240.375493
 10
568.216919
 20
240.004969
 10
568.565322
 20
239.631891
 10
568.929847
 20
239.256328
 10
569.310415
 20
238.878351
 10
569.706948
 20
238.498029
 10
570.119365
 20
238.115433
 10
570.547589
 20
237.73063
 10
570.991541
 20
237.343693
 10
571.451142
 20
236.954689
 10
571.926313
 20
236.56369
 10
572.416974
 20
236.170764
 10
572.923048
 20
235.775982
 10
573.444456
 20
235.379414
 10
573.981118
 20
234.981128
 10
574.532956
 20
234.581195
 10
575.681843
 20
233.776668
 10
576.890487
 20
232.966389
 10
578.158256
 20
232.150917
 10
579.484521
 20
231.330811
 10
580.549085
 20
230.697981
 10
581.009459
 20
230.437
 10
581.427681
 20
230.211274
 10
581.808093
 20
230.019531
 10
582.155035
 20
229.860497
 10
582.472847
 20
229.732898
 10
582.765872
 20
229.635459
 10
583.038449
 20
229.566908
 10
583.294919
 20
229.52597
 10
583.539623
 20
229.51137
 10
583.776901
 20
229.521837
 10
584.011095
 20
229.556094
 10
584.246545
 20
229.612869
 10
584.487592
 20
229.690888
 10
584.738577
 20
229.788877
 10
584.956679
 20
229.871798
 10
585.179326
 20
229.941144
 10
585.401222
 20
229.996115
 10
585.617072
 20
230.035907
 10
585.82158
 20
230.059721
 10
586.009449
 20
230.066754
 10
586.175384
 20
230.056206
 10
586.314088
 20
230.027275
 10
586.889979
 20
229.848005
 10
589.855125
 20
227.700505
 10
590.546717
 20
227.193776
 10
591.155015
 20
226.733124
 10
591.682295
 20
226.313065
 10
592.130834
 20
225.928117
 10
592.326286
 20
225.747095
 10
592.502906
 20
225.572794
 10
592.660979
 20
225.404529
 10
592.800789
 20
225.241613
 10
592.922621
 20
225.083363
 10
593.026758
 20
224.929091
 10
593.113487
 20
224.778112
 10
593.183091
 20
224.629742
 10
593.235854
 20
224.483294
 10
593.272062
 20
224.338083
 10
593.291998
 20
224.193423
 10
593.295948
 20
224.04863
 10
593.284196
 20
223.903017
 10
593.257026
 20
223.755899
 10
593.214723
 20
223.606591
 10
593.157571
 20
223.454406
 10
593.085855
 20
223.29866
 10
592.99986
 20
223.138667
 10
592.89987
 20
222.973742
 10
592.786169
 20
222.803199
 10
592.518774
 20
222.442516
 10
591.829423
 20
221.596284
 42
-0.404805
 10
591.414949
 20
221.54718
 10
588.276295
 20
223.939933
 10
587.063761
 20
222.349411
 10
590.18092
 20
219.973044
 42
-0.405343
 10
590.243033
 20
219.559916
 10
589.92853
 20
219.120289
 10
589.599307
 20
218.686727
 10
589.247853
 20
218.24513
 10
588.906261
 20
217.836763
 10
588.606626
 20
217.50289
 10
588.482573
 20
217.376784
 10
588.381044
 20
217.284776
 10
588.286557
 20
217.218479
 10
588.171696
 20
217.156897
 10
588.040886
 20
217.101361
 10
587.89855
 20
217.053199
 10
587.749112
 20
217.013738
 10
587.596997
 20
216.984309
 10
587.446629
 20
216.966238
 10
587.30243
 20
216.960856
  0
LWPOLYLINE
  5
35
330
1F
100
AcDbEntity
  8
0
100
AcDbPolyline
 90
      447
 70
   128
 43
0.0
 10
567.305787
 20
218.872385
 10
565.878473
 20
220.273376
 10
569.240909
 20
223.698988
 42
0.38346
 10
569.258457
 20
224.099768
 10
568.951819
 20
224.472379
 10
568.706667
 20
224.751232
 10
568.409863
 20
225.074661
 10
568.069625
 20
225.433534
 10
567.291714
 20
226.221086
 10
566.136846
 20
227.380774
 10
565.5857
 20
227.949596
 10
565.051739
 20
228.511578
 10
564.534709
 20
229.0671
 10
564.034354
 20
229.616543
 10
563.55042
 20
230.160288
 10
563.082651
 20
230.698715
 10
562.630792
 20
231.232205
 10
562.194589
 20
231.761139
 10
561.773786
 20
232.285897
 10
561.368129
 20
232.806861
 10
560.977362
 20
233.32441
 10
560.60123
 20
233.838926
 10
560.239479
 20
234.35079
 10
559.891854
 20
234.860381
 10
559.558099
 20
235.368081
 10
559.237959
 20
235.874271
 10
558.93118
 20
236.379331
 10
558.637506
 20
236.883641
 10
558.356683
 20
237.387583
 10
558.088456
 20
237.891537
 10
557.832568
 20
238.395884
 10
557.588767
 20
238.901005
 10
557.356796
 20
239.40728
 10
557.1364
 20
239.91509
 10
556.927325
 20
240.424816
 10
556.729315
 20
240.936838
 10
556.542116
 20
241.451537
 10
556.365473
 20
241.969295
 10
556.19913
 20
242.49049
 10
556.042832
 20
243.015505
 10
555.86338
 20
243.647065
 10
555.707604
 20
244.237089
 10
555.576937
 20
244.821897
 10
555.521466
 20
245.123695
 10
555.472809
 20
245.437809
 10
555.431144
 20
245.76878
 10
555.396651
 20
246.121147
 10
555.369509
 20
246.499451
 10
555.349896
 20
246.908231
 10
555.337992
 20
247.352028
 10
555.333975
 20
247.835381
 10
555.338024
 20
248.362831
 10
555.350318
 20
248.938918
 10
555.390432
 20
249.838408
 10
555.4584
 20
250.813026
 10
555.54435
 20
251.786375
 10
555.638413
 20
252.682057
 10
555.710759
 20
253.224347
 10
555.80587
 20
253.806585
 10
555.914755
 20
254.386483
 10
556.028425
 20
254.921755
 10
556.146111
 20
255.409012
 10
556.280531
 20
255.909119
 10
556.430067
 20
256.419444
 10
556.5931
 20
256.937353
 10
556.768014
 20
257.460215
 10
556.953189
 20
257.985396
 10
557.347855
 20
259.032185
 10
557.764153
 20
260.056658
 10
558.189141
 20
261.037754
 10
558.609876
 20
261.95441
 10
559.013413
 20
262.785564
 10
559.174973
 20
263.116957
 10
559.315869
 20
263.424431
 10
559.436171
 20
263.709599
 10
559.535949
 20
263.974074
 10
559.615273
 20
264.219466
 10
559.674212
 20
264.447389
 10
559.712837
 20
264.659454
 10
559.731217
 20
264.857274
 10
559.729422
 20
265.042459
 10
559.707522
 20
265.216624
 10
559.665587
 20
265.381378
 10
559.603686
 20
265.538335
 10
559.521889
 20
265.689106
 10
559.420266
 20
265.835304
 10
559.298888
 20
265.97854
 10
559.157822
 20
266.120426
 10
559.025723
 20
266.238275
 10
558.893419
 20
266.343663
 10
558.760765
 20
266.436511
 10
558.627613
 20
266.516737
 10
558.493818
 20
266.584258
 10
558.359232
 20
266.638994
 10
558.22371
 20
266.680863
 10
558.087105
 20
266.709784
 10
557.94927
 20
266.725675
 10
557.810059
 20
266.728454
 10
557.669325
 20
266.71804
 10
557.526923
 20
266.694352
 10
557.382705
 20
266.657308
 10
557.236525
 20
266.606826
 10
557.088237
 20
266.542825
 10
556.937694
 20
266.465224
 10
556.78475
 20
266.373941
 10
556.629258
 20
266.268894
 10
556.471072
 20
266.150003
 10
556.310045
 20
266.017184
 10
556.146031
 20
265.870358
 10
555.978883
 20
265.709443
 10
555.634601
 20
265.345017
 10
555.276027
 20
264.923255
 10
554.90199
 20
264.443505
 10
554.511317
 20
263.905115
 10
554.102837
 20
263.307433
 10
553.627023
 20
262.574495
 10
553.174359
 20
261.839931
 10
552.744851
 20
261.103782
 10
552.338504
 20
260.366087
 10
551.955326
 20
259.626889
 10
551.595323
 20
258.886227
 10
551.2585
 20
258.144142
 10
550.944864
 20
257.400674
 10
550.654422
 20
256.655865
 10
550.387179
 20
255.909754
 10
550.143142
 20
255.162382
 10
549.922317
 20
254.41379
 10
549.724711
 20
253.664018
 10
549.550329
 20
252.913107
 10
549.399178
 20
252.161097
 10
549.271264
 20
251.40803
 10
549.166593
 20
250.653945
 10
549.085173
 20
249.898883
 10
549.027008
 20
249.142885
 10
548.992105
 20
248.385991
 10
548.980471
 20
247.628242
 10
548.992111
 20
246.869678
 10
549.027033
 20
246.110341
 10
549.085241
 20
245.35027
 10
549.166743
 20
244.589506
 10
549.271545
 20
243.82809
 10
549.399653
 20
243.066062
 10
549.551073
 20
242.303463
 10
549.725812
 20
241.540334
 10
549.923876
 20
240.776714
 10
550.14527
 20
240.012645
 10
550.390002
 20
239.248167
 10
550.52174
 20
238.872602
 10
550.66849
 20
238.486282
 10
550.829642
 20
238.09012
 10
551.004581
 20
237.685027
 10
551.192696
 20
237.271914
 10
551.393373
 20
236.851693
 10
551.606001
 20
236.425275
 10
551.829966
 20
235.993572
 10
552.309459
 20
235.117957
 10
552.826951
 20
234.232138
 10
553.377541
 20
233.34341
 10
553.956329
 20
232.459062
 10
554.558412
 20
231.586388
 10
555.178892
 20
230.732679
 10
555.812866
 20
229.905227
 10
556.455435
 20
229.111325
 10
556.77841
 20
228.729233
 10
557.101696
 20
228.358263
 10
557.42468
 20
227.999327
 10
557.74675
 20
227.653335
 10
558.067293
 20
227.3212
 10
558.385695
 20
227.003832
 10
558.701346
 20
226.702144
 10
559.013631
 20
226.417047
 10
559.374555
 20
226.090786
 10
559.71046
 20
225.776797
 10
560.021217
 20
225.47443
 10
560.306698
 20
225.183038
 10
560.566776
 20
224.901972
 10
560.801321
 20
224.630583
 10
561.010206
 20
224.368224
 10
561.193303
 20
224.114247
 10
561.350484
 20
223.868003
 10
561.481621
 20
223.628845
 10
561.586585
 20
223.396123
 10
561.665249
 20
223.16919
 10
561.717485
 20
222.947397
 10
561.743164
 20
222.730097
 10
561.742158
 20
222.516641
 10
561.71434
 20
222.306381
 10
561.659582
 20
222.098669
 10
561.577754
 20
221.892856
 10
561.46873
 20
221.688294
 10
561.332381
 20
221.484336
 10
561.16858
 20
221.280333
 10
560.977197
 20
221.075636
 10
560.758105
 20
220.869598
 10
560.511176
 20
220.66157
 10
560.236282
 20
220.450905
 10
559.933295
 20
220.236953
 10
559.602086
 20
220.019067
 10
559.242528
 20
219.796599
 10
558.854493
 20
219.5689
 10
558.437852
 20
219.335322
 10
557.518242
 20
218.847938
 10
554.947171
 20
217.399114
 10
554.79703
 20
217.27005
 10
554.656154
 20
217.129144
 10
554.525063
 20
216.977854
 10
554.404276
 20
216.817641
 10
554.294313
 20
216.649966
 10
554.195692
 20
216.476288
 10
554.108933
 20
216.298068
 10
554.034555
 20
216.116766
 10
553.973077
 20
215.933842
 10
553.925019
 20
215.750757
 10
553.890899
 20
215.568969
 10
553.871238
 20
215.389941
 10
553.866555
 20
215.21513
 10
553.877367
 20
215.045999
 10
553.904196
 20
214.884007
 10
553.94756
 20
214.730614
 10
554.001878
 20
214.572503
 10
554.059776
 20
214.421397
 10
554.133207
 20
214.275802
 10
554.179482
 20
214.204605
 10
554.234121
 20
214.134227
 10
561.137284
 20
207.789011
 10
561.331852
 20
207.632431
 10
561.522923
 20
207.490845
 10
561.710627
 20
207.364322
 10
561.895094
 20
207.252933
 10
562.076453
 20
207.156749
 10
562.254834
 20
207.075839
 10
562.430366
 20
207.010273
 10
562.60318
 20
206.960121
 10
562.773406
 20
206.925453
 10
562.941172
 20
206.90634
 10
563.106609
 20
206.902852
 10
563.269846
 20
206.915058
 10
563.431013
 20
206.943028
 10
563.59024
 20
206.986833
 10
563.747656
 20
207.046544
 10
563.903391
 20
207.122228
 10
564.057576
 20
207.213958
 10
564.210339
 20
207.321803
 10
564.36181
 20
207.445833
 10
564.512119
 20
207.586118
 10
564.661396
 20
207.742728
 10
564.80977
 20
207.915734
 10
564.957372
 20
208.105204
 10
565.10433
 20
208.31121
 10
565.250775
 20
208.533822
 10
565.396837
 20
208.773109
 10
565.542644
 20
209.029142
 10
565.688327
 20
209.30199
 10
565.979839
 20
209.898415
 10
566.272411
 20
210.562943
 10
566.629125
 20
211.380799
 10
566.97523
 20
212.109504
 10
567.144752
 20
212.441133
 10
567.31216
 20
212.751327
 10
567.477633
 20
213.040367
 10
567.64135
 20
213.308538
 10
567.803491
 20
213.556125
 10
567.964235
 20
213.783409
 10
568.123761
 20
213.990677
 10
568.282248
 20
214.17821
 10
568.439876
 20
214.346294
 10
568.596825
 20
214.495211
 10
568.753272
 20
214.625246
 10
568.909399
 20
214.736683
 10
569.107469
 20
214.850273
 10
569.208803
 20
214.896134
 10
569.311912
 20
214.934601
 10
569.416979
 20
214.965594
 10
569.524187
 20
214.989037
 10
569.633718
 20
215.00485
 10
569.745755
 20
215.012954
 10
569.86048
 20
215.01327
 10
569.978075
 20
215.005721
 10
570.222608
 20
214.966712
 10
570.480813
 20
214.895297
 10
570.754151
 20
214.790846
 10
571.044081
 20
214.652733
 10
571.352063
 20
214.480327
 10
571.679557
 20
214.273
 10
572.028024
 20
214.030123
 10
572.398923
 20
213.751069
 10
572.793714
 20
213.435207
 10
573.213857
 20
213.081909
 10
573.660813
 20
212.690547
 10
574.304475
 20
212.127486
 10
574.951471
 20
211.582253
 10
575.601635
 20
211.054918
 10
576.254802
 20
210.545548
 10
576.910806
 20
210.054211
 10
577.569484
 20
209.580976
 10
578.230668
 20
209.12591
 10
578.894195
 20
208.689081
 10
579.5599
 20
208.270558
 10
580.227616
 20
207.870409
 10
580.897178
 20
207.488702
 10
581.568423
 20
207.125505
 10
582.241184
 20
206.780886
 10
582.915295
 20
206.454914
 10
583.590593
 20
206.147655
 10
584.266912
 20
205.85918
 10
584.944087
 20
205.589554
 10
585.621952
 20
205.338848
 10
586.300342
 20
205.107128
 10
586.979092
 20
204.894463
 10
587.658038
 20
204.700921
 10
588.337013
 20
204.52657
 10
589.015853
 20
204.371479
 10
589.694392
 20
204.235714
 10
590.372465
 20
204.119345
 10
591.049908
 20
204.02244
 10
591.726554
 20
203.945067
 10
592.402239
 20
203.887293
 10
593.076798
 20
203.849187
 10
593.750065
 20
203.830817
 10
594.421875
 20
203.832251
 10
595.092063
 20
203.853557
 10
595.636102
 20
203.88368
 10
596.171777
 20
203.922956
 10
596.700264
 20
203.971625
 10
597.222737
 20
204.02993
 10
597.740371
 20
204.098111
 10
598.254342
 20
204.17641
 10
598.765825
 20
204.265067
 10
599.275994
 20
204.364324
 10
599.786024
 20
204.474422
 10
600.297091
 20
204.595601
 10
600.81037
 20
204.728104
 10
601.327035
 20
204.872171
 10
601.848262
 20
205.028043
 10
602.375226
 20
205.195962
 10
602.909102
 20
205.376168
 10
603.451064
 20
205.568903
 10
603.929297
 20
205.749501
 10
604.411763
 20
205.944038
 10
604.897189
 20
206.151586
 10
605.384302
 20
206.371217
 10
605.871829
 20
206.602001
 10
606.358496
 20
206.84301
 10
606.843029
 20
207.093315
 10
607.324157
 20
207.351989
 10
607.800606
 20
207.618101
 10
608.271101
 20
207.890724
 10
608.734371
 20
208.168928
 10
609.189142
 20
208.451786
 10
609.63414
 20
208.738368
 10
610.068092
 20
209.027746
 10
610.489726
 20
209.318991
 10
610.897768
 20
209.611174
 10
611.290944
 20
209.903368
 10
611.667982
 20
210.194642
 10
612.027607
 20
210.484069
 10
612.368548
 20
210.77072
 10
612.68953
 20
211.053666
 10
612.989281
 20
211.331979
 10
613.266527
 20
211.604729
 10
613.519995
 20
211.870989
 10
613.748412
 20
212.129829
 10
613.950503
 20
212.380322
 10
614.124998
 20
212.621537
 10
614.270621
 20
212.852548
 10
614.3861
 20
213.072424
 10
614.470161
 20
213.280237
 10
614.521531
 20
213.47506
 10
614.53456
 20
213.567309
 10
614.538938
 20
213.655962
 10
614.526778
 20
213.86621
 10
614.490984
 20
214.068147
 10
614.432582
 20
214.260626
 10
614.3526
 20
214.442495
 10
614.252065
 20
214.612606
 10
614.132003
 20
214.769809
 10
613.993443
 20
214.912954
 10
613.837411
 20
215.040893
 10
613.664934
 20
215.152475
 10
613.47704
 20
215.246551
 10
613.274755
 20
215.321971
 10
613.059106
 20
215.377587
 10
612.831122
 20
215.412248
 10
612.591828
 20
215.424805
 10
612.342252
 20
215.414108
 10
612.083422
 20
215.379008
 10
611.852556
 20
215.328377
 10
611.626728
 20
215.259452
 10
611.272155
 20
215.1194
 10
610.909872
 20
214.963003
 10
610.541024
 20
214.792488
 10
610.166753
 20
214.610085
 10
609.406515
 20
214.218531
 10
608.638304
 20
213.806174
 10
607.871263
 20
213.390845
 10
607.114537
 20
212.990377
 10
606.37727
 20
212.622602
 10
606.018792
 20
212.456547
 10
605.668607
 20
212.305353
 10
605.261061
 20
212.151907
 10
604.815264
 20
212.003848
 10
603.95221
 20
211.728273
 10
603.095555
 20
211.456095
 10
602.225875
 20
211.210713
 10
601.346109
 20
210.992345
 10
600.459198
 20
210.801212
 10
599.568085
 20
210.637531
 10
598.675709
 20
210.501524
 10
597.785013
 20
210.393409
 10
596.898936
 20
210.313406
 10
596.02042
 20
210.261734
 10
595.152406
 20
210.238613
 10
594.297836
 20
210.244262
 10
593.459649
 20
210.278901
 10
593.047619
 20
210.30716
 10
592.640787
 20
210.342749
 10
592.239522
 20
210.385695
 10
591.844191
 20
210.436025
 10
591.455163
 20
210.493768
 10
591.072803
 20
210.55895
 10
590.69748
 20
210.631599
 10
590.329563
 20
210.711742
 10
589.898256
 20
210.815434
 10
589.46525
 20
210.928112
 10
589.030619
 20
211.049736
 10
588.594433
 20
211.18027
 10
588.156765
 20
211.319674
 10
587.717687
 20
211.467911
 10
587.277269
 20
211.624943
 10
586.835585
 20
211.790731
 10
586.392706
 20
211.965237
 10
585.948705
 20
212.148422
 10
585.05762
 20
212.540681
 10
584.162905
 20
212.967202
 10
583.265137
 20
213.427679
 10
582.36489
 20
213.921807
 10
581.462739
 20
214.449281
 10
580.55926
 20
215.009796
 10
579.655027
 20
215.603045
 10
578.750616
 20
216.228724
 10
577.846601
 20
216.886528
 10
576.943558
 20
217.57615
 10
576.042063
 20
218.297287
 10
571.889015
 20
221.696741
 10
571.089102
 20
222.34058
 42
0.385684
 10
570.686901
 20
222.317026
 10
567.305787
 20
218.872385
  0
LWPOLYLINE
  5
36
330
1F
100
AcDbEntity
  8
0
100
AcDbPolyline
 90
      431
 70
   128
 43
0.0
 10
406.633882
 20
326.115452
 10
406.535261
 20
325.431291
 10
406.497763
 20
325.106042
 10
406.427796
 20
324.296807
 10
406.360917
 20
323.253686
 10
406.292783
 20
321.95
 10
406.125414
 20
318.510417
 10
406.670641
 20
317.643926
 10
406.797864
 20
317.453326
 10
406.930506
 20
317.278722
 10
407.070416
 20
317.119337
 10
407.219438
 20
316.974394
 10
407.37942
 20
316.843117
 10
407.552208
 20
316.724728
 10
407.739648
 20
316.61845
 10
407.943587
 20
316.523507
 10
408.165872
 20
316.439123
 10
408.408347
 20
316.364519
 10
408.672861
 20
316.298919
 10
408.961259
 20
316.241547
 10
409.275388
 20
316.191625
 10
409.617095
 20
316.148376
 10
409.988225
 20
316.111025
 10
410.390625
 20
316.078793
 10
410.892943
 20
316.037266
 10
411.306311
 20
315.98769
 10
411.646976
 20
315.924137
 10
411.795122
 20
315.885266
 10
411.931185
 20
315.840678
 10
412.057195
 20
315.78963
 10
412.175185
 20
315.731383
 10
412.287183
 20
315.665194
 10
412.395223
 20
315.590324
 10
412.607547
 20
315.411571
 10
412.828404
 20
315.189196
 10
412.949735
 20
315.045762
 10
413.073121
 20
314.872871
 10
413.198092
 20
314.671768
 10
413.324183
 20
314.443699
 10
413.450926
 20
314.189908
 10
413.577854
 20
313.911641
 10
413.704499
 20
313.610143
 10
413.830394
 20
313.286658
 10
413.955073
 20
312.942432
 10
414.078067
 20
312.57871
 10
414.19891
 20
312.196738
 10
414.317134
 20
311.797759
 10
414.543856
 20
310.953764
 10
414.754497
 20
310.056687
 10
414.777971
 20
309.971075
 10
414.812701
 20
309.875951
 10
414.913176
 20
309.661165
 10
415.050421
 20
309.420331
 10
415.218936
 20
309.161451
 10
415.413219
 20
308.892529
 10
415.627769
 20
308.621568
 10
415.857086
 20
308.35657
 10
416.095669
 20
308.105537
 10
416.479008
 20
307.726571
 10
416.788664
 20
307.441437
 10
416.924817
 20
307.330449
 10
417.053296
 20
307.238588
 10
417.177681
 20
307.164411
 10
417.301557
 20
307.106476
 10
417.428504
 20
307.063338
 10
417.562104
 20
307.033554
 10
417.70594
 20
307.01568
 10
417.863593
 20
307.008274
 10
418.23468
 20
307.019089
 10
418.704021
 20
307.054452
 10
419.064967
 20
307.093027
 10
419.401136
 20
307.147208
 10
419.714727
 20
307.217744
 10
420.00794
 20
307.305382
 10
420.282976
 20
307.41087
 10
420.542034
 20
307.534955
 10
420.787315
 20
307.678385
 10
421.021018
 20
307.841908
 10
421.500803
 20
308.199507
 10
421.938955
 20
308.508626
 10
422.340299
 20
308.769094
 10
422.70966
 20
308.980737
 10
422.883854
 20
309.068196
 10
423.051861
 20
309.143384
 10
423.214285
 20
309.20628
 10
423.371728
 20
309.256861
 10
423.524793
 20
309.295108
 10
423.674084
 20
309.320997
 10
423.820203
 20
309.334507
 10
423.963754
 20
309.335617
 10
424.105339
 20
309.324305
 10
424.245562
 20
309.30055
 10
424.385026
 20
309.26433
 10
424.524334
 20
309.215623
 10
424.664088
 20
309.154409
 10
424.804892
 20
309.080664
 10
424.947349
 20
308.994368
 10
425.092062
 20
308.8955
 10
425.239634
 20
308.784037
 10
425.390668
 20
308.659958
 10
425.705535
 20
308.373865
 10
426.041486
 20
308.03705
 10
426.403347
 20
307.649339
 10
426.711465
 20
307.317798
 10
427.003016
 20
307.018885
 10
427.280534
 20
306.751405
 10
427.546551
 20
306.514161
 10
427.8036
 20
306.305957
 10
428.054212
 20
306.125597
 10
428.300922
 20
305.971886
 10
428.54626
 20
305.843627
 10
428.792761
 20
305.739625
 10
429.042957
 20
305.658683
 10
429.299379
 20
305.599605
 10
429.564562
 20
305.561196
 10
429.841036
 20
305.54226
 10
430.131336
 20
305.5416
 10
430.437994
 20
305.55802
 10
430.763542
 20
305.590326
 10
431.228995
 20
305.653705
 10
431.81176
 20
305.745045
 10
432.437416
 20
305.852126
 10
433.031545
 20
305.962729
 10
434.373506
 20
306.225252
 10
459.20625
 20
306.406331
 10
459.867708
 20
306.553867
 10
460.291558
 20
306.635347
 10
460.956634
 20
306.748138
 10
461.771778
 20
306.877337
 10
462.645833
 20
307.00804
 10
463.564661
 20
307.154964
 10
464.494442
 20
307.330827
 10
465.433272
 20
307.534935
 10
466.379246
 20
307.766596
 10
467.330458
 20
308.025119
 10
468.285005
 20
308.309809
 10
469.240981
 20
308.619975
 10
470.196481
 20
308.954923
 10
471.149601
 20
309.313962
 10
472.098437
 20
309.696399
 10
473.041082
 20
310.10154
 10
473.975632
 20
310.528694
 10
474.900183
 20
310.977168
 10
475.81283
 20
311.446269
 10
476.711668
 20
311.935305
 10
477.594792
 20
312.443583
 10
478.509198
 20
312.992936
 10
479.387769
 20
313.538621
 10
480.239224
 20
314.087689
 10
481.072284
 20
314.647186
 10
481.895668
 20
315.224162
 10
482.718098
 20
315.825665
 10
483.548293
 20
316.458744
 10
484.394973
 20
317.130445
 10
485.26686
 20
317.847819
 10
486.172672
 20
318.617913
 10
487.121131
 20
319.447776
 10
488.120957
 20
320.344457
 10
489.18087
 20
321.315002
 10
490.30959
 20
322.366462
 10
491.515838
 20
323.505884
 10
492.808333
 20
324.740317
 10
497.570833
 20
329.309835
 10
499.110986
 20
330.595068
 10
499.440908
 20
330.863722
 10
499.788398
 20
331.134607
 10
500.143012
 20
331.400345
 10
500.494306
 20
331.653561
 10
500.831834
 20
331.886876
 10
501.145155
 20
332.092915
 10
501.423822
 20
332.264299
 10
501.657391
 20
332.393653
 10
501.907308
 20
332.529839
 10
502.148869
 20
332.678621
 10
502.381002
 20
332.838681
 10
502.602635
 20
333.008697
 10
502.812696
 20
333.187349
 10
503.010114
 20
333.373316
 10
503.193817
 20
333.56528
 10
503.362734
 20
333.761918
 10
503.515791
 20
333.961911
 10
503.651919
 20
334.163939
 10
503.770044
 20
334.366682
 10
503.869095
 20
334.568818
 10
503.948
 20
334.769028
 10
504.005688
 20
334.965992
 10
504.041087
 20
335.158388
 10
504.053125
 20
335.344898
 10
504.048879
 20
335.51662
 10
504.036204
 20
335.685998
 10
504.015192
 20
335.852999
 10
503.985934
 20
336.01759
 10
503.948524
 20
336.179736
 10
503.903053
 20
336.339405
 10
503.849614
 20
336.496562
 10
503.7883
 20
336.651175
 10
503.719202
 20
336.80321
 10
503.642413
 20
336.952633
 10
503.558026
 20
337.099411
 10
503.466132
 20
337.24351
 10
503.366824
 20
337.384897
 10
503.260194
 20
337.523539
 10
503.025338
 20
337.79245
 10
502.762302
 20
338.049977
 10
502.471826
 20
338.295852
 10
502.154648
 20
338.529805
 10
501.811506
 20
338.75157
 10
501.443138
 20
338.960879
 10
501.050285
 20
339.157462
 10
500.633683
 20
339.341053
 10
500.194072
 20
339.511383
 10
499.732191
 20
339.668184
 10
499.248777
 20
339.811188
 10
498.744569
 20
339.940128
 10
498.220306
 20
340.054735
 10
497.676727
 20
340.154741
 10
497.11457
 20
340.239878
 10
496.534573
 20
340.309878
 10
495.937476
 20
340.364474
 10
495.324016
 20
340.403396
 10
494.694932
 20
340.426378
 10
494.050964
 20
340.433151
 10
493.392849
 20
340.423448
 10
492.721325
 20
340.396999
 10
492.037133
 20
340.353537
 10
491.341009
 20
340.292795
 10
490.633693
 20
340.214503
 10
489.770811
 20
340.091512
 10
488.552056
 20
339.89491
 10
487.139476
 20
339.651778
 10
485.695116
 20
339.389197
 10
481.329491
 20
338.49309
 10
479.993279
 20
338.148989
 10
478.123958
 20
337.683777
 10
477.575809
 20
337.540832
 10
476.878119
 20
337.34529
 10
475.148485
 20
336.831322
 10
473.163799
 20
336.211684
 10
471.1528
 20
335.55619
 10
466.4306
 20
333.980061
 10
464.226163
 20
333.62706
 10
463.699561
 20
333.548257
 10
463.16605
 20
333.479332
 10
462.625959
 20
333.420246
 10
462.079618
 20
333.370962
 10
461.527354
 20
333.331439
 10
460.969498
 20
333.30164
 10
460.406378
 20
333.281526
 10
459.838324
 20
333.271058
 10
459.265664
 20
333.270199
 10
458.688727
 20
333.278908
 10
458.107843
 20
333.297148
 10
457.523341
 20
333.324881
 10
456.935549
 20
333.362067
 10
456.344797
 20
333.408668
 10
455.751414
 20
333.464645
 10
455.155729
 20
333.52996
 10
454.558071
 20
333.604574
 10
453.958769
 20
333.688449
 10
453.358153
 20
333.781545
 10
452.75655
 20
333.883826
 10
452.154291
 20
333.995251
 10
451.551704
 20
334.115782
 10
450.949118
 20
334.245381
 10
450.346863
 20
334.384009
 10
449.745268
 20
334.531627
 10
449.144661
 20
334.688198
 10
448.545371
 20
334.853681
 10
447.947729
 20
335.02804
 10
447.352062
 20
335.211234
 10
446.758701
 20
335.403227
 10
446.167973
 20
335.603978
 10
445.580208
 20
335.813449
 10
442.871819
 20
336.898672
 10
442.671952
 20
337.001516
 10
442.467384
 20
337.085736
 10
442.282124
 20
337.142642
 10
442.204235
 20
337.158136
 10
442.140177
 20
337.163542
 10
442.031002
 20
337.185142
 10
441.823811
 20
337.247051
 10
441.163645
 20
337.474427
 10
440.256218
 20
337.810944
 10
439.198068
 20
338.221875
 10
436.528172
 20
339.280208
 10
435.60011
 20
339.280208
 10
435.325025
 20
339.268823
 10
435.051469
 20
339.23489
 10
434.779931
 20
339.178746
 10
434.510903
 20
339.100726
 10
434.244874
 20
339.001166
 10
433.982335
 20
338.880403
 10
433.723777
 20
338.738771
 10
433.46969
 20
338.576607
 10
433.220565
 20
338.394246
 10
432.976891
 20
338.192024
 10
432.73916
 20
337.970277
 10
432.507862
 20
337.729341
 10
432.283487
 20
337.469552
 10
432.066526
 20
337.191245
 10
431.85747
 20
336.894756
 10
431.656808
 20
336.580422
 10
431.462049
 20
336.269072
 10
431.263882
 20
335.969392
 10
431.067822
 20
335.688598
 10
430.879384
 20
335.433909
 10
430.704085
 20
335.212543
 10
430.547438
 20
335.031718
 10
430.414959
 20
334.898653
 10
430.312163
 20
334.820565
 10
430.215272
 20
334.77095
 10
430.118829
 20
334.730794
 10
430.022842
 20
334.70009
 10
429.927318
 20
334.67883
 10
429.832263
 20
334.667006
 10
429.737685
 20
334.664612
 10
429.64359
 20
334.67164
 10
429.549987
 20
334.688082
 10
429.45688
 20
334.71393
 10
429.364279
 20
334.749178
 10
429.272189
 20
334.793817
 10
429.180617
 20
334.84784
 10
429.089571
 20
334.91124
 10
428.999057
 20
334.984009
 10
428.819655
 20
335.157624
 10
428.642466
 20
335.368625
 10
428.467547
 20
335.616951
 10
428.294952
 20
335.902543
 10
428.124739
 20
336.22534
 10
427.956962
 20
336.585283
 10
427.791677
 20
336.98231
 10
427.628941
 20
337.416363
 10
427.468809
 20
337.88738
 10
427.37417
 20
338.157973
 10
427.270534
 20
338.41305
 10
427.157164
 20
338.653313
 10
427.033321
 20
338.879464
 10
426.898267
 20
339.092207
 10
426.751263
 20
339.292242
 10
426.591572
 20
339.480272
 10
426.418455
 20
339.657
 10
426.231174
 20
339.823128
 10
426.028991
 20
339.979358
 10
425.811167
 20
340.126393
 10
425.576965
 20
340.264934
 10
425.325645
 20
340.395684
 10
425.056471
 20
340.519346
 10
424.768703
 20
340.636621
 10
424.461603
 20
340.748213
 10
424.295278
 20
340.799517
 10
424.126763
 20
340.839954
 10
423.956268
 20
340.869648
 10
423.784006
 20
340.888722
 10
423.610188
 20
340.8973
 10
423.435025
 20
340.895506
 10
423.258728
 20
340.883464
 10
423.08151
 20
340.861296
 10
422.903582
 20
340.829128
 10
422.725156
 20
340.787082
 10
422.546442
 20
340.735282
 10
422.367652
 20
340.673852
 10
422.188998
 20
340.602915
 10
422.010692
 20
340.522596
 10
421.832944
 20
340.433018
 10
421.655966
 20
340.334305
 10
421.479971
 20
340.22658
 10
421.305168
 20
340.109967
 10
421.131771
 20
339.984589
 10
420.959989
 20
339.850572
 10
420.790035
 20
339.708037
 10
420.622121
 20
339.557109
 10
420.456457
 20
339.397912
 10
420.293256
 20
339.230569
 10
419.975086
 20
338.87194
 10
419.669303
 20
338.482213
 10
419.377598
 20
338.062377
 10
419.101665
 20
337.613421
 10
418.842991
 20
337.170228
 10
418.606499
 20
336.780263
 10
418.385803
 20
336.440481
 10
418.174518
 20
336.147841
 10
417.966259
 20
335.899298
 10
417.861268
 20
335.790612
 10
417.754639
 20
335.69181
 10
417.645574
 20
335.602511
 10
417.533275
 20
335.522335
 10
417.416943
 20
335.4509
 10
417.29578
 20
335.387828
 10
417.168988
 20
335.332737
 10
417.035769
 20
335.285248
 10
416.895325
 20
335.244979
 10
416.746857
 20
335.211551
 10
416.422659
 20
335.163694
 10
416.056789
 20
335.138635
 10
415.642862
 20
335.133331
 10
415.174493
 20
335.144738
 10
414.048887
 20
335.205515
 10
413.192469
 20
335.25017
 10
412.420163
 20
335.267551
 10
412.063804
 20
335.264774
 10
411.726377
 20
335.253692
 10
411.407181
 20
335.233809
 10
411.105518
 20
335.20463
 10
410.820688
 20
335.165658
 10
410.551993
 20
335.116398
 10
410.298733
 20
335.056355
 10
410.06021
 20
334.985033
 10
409.835723
 20
334.901937
 10
409.624574
 20
334.80657
 10
409.426064
 20
334.698438
 10
409.239494
 20
334.577044
 10
409.064164
 20
334.441894
 10
408.899375
 20
334.29249
 10
408.744429
 20
334.128339
 10
408.598626
 20
333.948944
 10
408.461267
 20
333.75381
 10
408.331653
 20
333.542441
 10
408.209085
 20
333.314341
 10
408.092864
 20
333.069015
 10
407.98229
 20
332.805968
 10
407.876665
 20
332.524703
 10
407.775289
 20
332.224725
 10
407.677463
 20
331.905539
 10
407.489666
 20
331.207559
 10
407.30768
 20
330.426798
 10
406.933863
 20
328.725569
 42
0.425376
 10
407.173655
 20
328.365942
 10
417.147124
 20
326.568224
 10
416.792342
 20
324.599944
 10
406.98403
 20
326.367892
 42
0.424553
 10
406.633882
 20
326.115452
  0
LWPOLYLINE
  5
37
330
1F
100
AcDbEntity
  8
0
100
AcDbPolyline
 90
      280
 70
   128
 43
0.0
 10
394.242751
 20
315.732292
 10
394.411852
 20
315.738475
 10
394.585037
 20
315.7566
 10
394.760978
 20
315.786031
 10
394.938345
 20
315.82613
 10
395.11581
 20
315.87626
 10
395.292044
 20
315.935784
 10
395.465719
 20
316.004066
 10
395.635506
 20
316.080468
 10
395.800076
 20
316.164353
 10
395.9581
 20
316.255085
 10
396.108251
 20
316.352026
 10
396.249198
 20
316.454539
 10
396.379614
 20
316.561989
 10
396.49817
 20
316.673737
 10
396.603537
 20
316.789146
 10
396.694386
 20
316.90758
 10
396.733517
 20
316.978782
 10
396.770182
 20
317.074149
 10
396.803568
 20
317.189525
 10
396.832861
 20
317.320752
 10
396.875912
 20
317.614135
 10
396.892823
 20
317.921044
 10
396.887378
 20
318.026647
 10
396.869391
 20
318.137207
 10
396.838103
 20
318.253816
 10
396.792753
 20
318.377566
 10
396.73258
 20
318.509546
 10
396.656824
 20
318.650849
 10
396.564725
 20
318.802566
 10
396.455521
 20
318.965788
 10
396.182761
 20
319.331112
 10
395.832458
 20
319.755552
 10
395.39853
 20
320.247837
 10
394.874893
 20
320.816697
 10
394.372284
 20
321.32423
 10
393.821049
 20
321.863818
 10
393.549088
 20
322.140918
 10
393.29124
 20
322.420373
 10
393.056263
 20
322.700299
 10
392.852912
 20
322.978807
 10
392.773133
 20
323.110543
 10
392.698214
 20
323.255556
 10
392.560034
 20
323.569681
 10
392.432534
 20
323.889716
 10
392.309876
 20
324.184195
 10
392.213784
 20
324.421844
 10
392.125409
 20
324.689062
 10
392.045058
 20
324.982172
 10
391.973036
 20
325.297497
 10
391.90965
 20
325.631359
 10
391.855204
 20
325.980083
 10
391.810006
 20
326.339991
 10
391.77436
 20
326.707405
 10
391.748574
 20
327.07865
 10
391.732951
 20
327.450047
 10
391.727798
 20
327.817921
 10
391.733422
 20
328.178593
 10
391.750127
 20
328.528387
 10
391.77822
 20
328.863626
 10
391.818006
 20
329.180633
 10
391.869792
 20
329.475731
 10
391.887515
 20
329.578344
 10
391.911862
 20
329.85263
 42
0.302407
 10
391.752814
 20
330.144603
 10
387.737983
 20
332.25869
 10
388.669827
 20
334.028342
 10
392.550569
 20
331.984861
 42
0.308439
 10
393.01357
 20
332.137575
 10
393.080814
 20
332.191032
 10
393.590568
 20
332.630997
 10
393.808468
 20
332.812243
 10
394.06617
 20
333.009639
 10
394.354142
 20
333.21684
 10
394.662853
 20
333.427502
 10
394.982772
 20
333.63528
 10
395.304366
 20
333.833829
 10
395.618104
 20
334.016806
 10
395.914455
 20
334.177865
 10
396.332679
 20
334.386515
 10
396.710759
 20
334.551016
 10
396.892594
 20
334.618241
 10
397.073811
 20
334.676264
 10
397.257551
 20
334.725698
 10
397.446952
 20
334.767154
 10
397.645153
 20
334.801245
 10
397.855295
 20
334.828582
 10
398.323959
 20
334.865443
 10
398.878058
 20
334.882632
 10
399.542708
 20
334.885045
 10
400.551639
 20
334.864947
 10
401.636224
 20
334.817857
 10
402.666239
 20
334.750806
 10
403.120087
 20
334.711991
 10
403.511458
 20
334.670821
 10
404.03401
 20
334.612678
 10
404.451733
 20
334.578082
 10
404.783732
 20
334.57001
 10
404.923556
 20
334.576852
 10
405.049114
 20
334.591443
 10
405.162793
 20
334.614154
 10
405.266982
 20
334.645358
 10
405.364069
 20
334.685427
 10
405.456443
 20
334.734735
 10
405.546491
 20
334.793652
 10
405.636601
 20
334.862552
 10
405.826563
 20
335.031789
 10
405.972854
 20
335.18515
 10
406.096953
 20
335.347517
 10
406.199686
 20
335.521123
 10
406.281883
 20
335.7082
 10
406.344372
 20
335.91098
 10
406.387982
 20
336.131696
 10
406.41354
 20
336.372579
 10
406.421875
 20
336.635862
 10
406.407679
 20
336.905962
 10
406.364993
 20
337.168929
 10
406.293675
 20
337.4249
 10
406.193578
 20
337.674011
 10
406.06456
 20
337.916402
 10
405.906475
 20
338.152207
 10
405.719179
 20
338.381566
 10
405.502528
 20
338.604616
 10
405.256377
 20
338.821492
 10
404.980582
 20
339.032334
 10
404.674998
 20
339.237277
 10
404.339482
 20
339.43646
 10
403.973888
 20
339.630019
 10
403.578073
 20
339.818092
 10
403.151891
 20
340.000816
 10
402.695199
 20
340.178328
 10
402.109208
 20
340.383878
 10
401.547552
 20
340.555672
 10
401.005857
 20
340.693193
 10
400.741129
 20
340.74894
 10
400.479751
 20
340.795925
 10
400.221177
 20
340.834084
 10
399.96486
 20
340.863352
 10
399.710253
 20
340.883664
 10
399.45681
 20
340.894957
 10
399.203985
 20
340.897166
 10
398.95123
 20
340.890225
 10
398.697999
 20
340.874071
 10
398.443745
 20
340.848639
 10
398.187922
 20
340.813865
 10
397.929983
 20
340.769684
 10
397.669382
 20
340.716031
 10
397.405571
 20
340.652842
 10
397.138004
 20
340.580052
 10
396.866134
 20
340.497598
 10
396.307301
 20
340.303435
 10
395.724697
 20
340.069838
 10
395.113951
 20
339.79629
 10
394.470687
 20
339.482275
 10
393.790535
 20
339.127277
 10
393.314734
 20
338.877215
 10
392.875257
 20
338.65886
 10
392.466764
 20
338.471892
 10
392.083914
 20
338.315988
 10
391.721368
 20
338.190826
 10
391.373787
 20
338.096085
 10
391.035829
 20
338.031443
 10
390.702156
 20
337.996579
 10
390.367427
 20
337.99117
 10
390.026303
 20
338.014896
 10
389.673444
 20
338.067433
 10
389.30351
 20
338.148461
 10
388.911161
 20
338.257657
 10
388.491058
 20
338.394701
 10
388.03786
 20
338.55927
 10
387.546228
 20
338.751042
 10
386.794969
 20
339.038646
 10
386.457031
 20
339.156332
 10
386.140819
 20
339.256981
 10
385.843779
 20
339.340873
 10
385.563361
 20
339.408289
 10
385.297011
 20
339.459508
 10
385.042178
 20
339.49481
 10
384.79631
 20
339.514477
 10
384.556855
 20
339.518787
 10
384.321261
 20
339.508021
 10
384.086975
 20
339.48246
 10
383.851446
 20
339.442384
 10
383.612122
 20
339.388072
 10
383.36645
 20
339.319804
 10
383.111878
 20
339.237862
 10
382.79628
 20
339.121124
 10
382.495948
 20
338.991565
 10
382.210964
 20
338.849272
 10
381.94141
 20
338.694329
 10
381.687365
 20
338.526824
 10
381.448911
 20
338.346843
 10
381.226129
 20
338.15447
 10
381.019101
 20
337.949792
 10
380.827908
 20
337.732895
 10
380.65263
 20
337.503864
 10
380.493349
 20
337.262786
 10
380.350146
 20
337.009746
 10
380.223101
 20
336.744831
 10
380.112298
 20
336.468126
 10
380.017815
 20
336.179717
 10
379.939735
 20
335.87969
 10
379.893389
 20
335.656969
 10
379.856873
 20
335.437386
 10
379.830251
 20
335.220833
 10
379.813589
 20
335.007205
 10
379.806951
 20
334.796396
 10
379.810402
 20
334.588299
 10
379.824005
 20
334.382809
 10
379.847826
 20
334.179819
 10
379.88193
 20
333.979223
 10
379.92638
 20
333.780916
 10
379.981242
 20
333.584791
 10
380.046579
 20
333.390742
 10
380.122458
 20
333.198663
 10
380.208941
 20
333.008449
 10
380.306094
 20
332.819992
 10
380.413982
 20
332.633187
 10
380.532669
 20
332.447928
 10
380.662219
 20
332.264109
 10
380.802697
 20
332.081624
 10
380.954168
 20
331.900366
 10
381.116697
 20
331.72023
 10
381.290347
 20
331.541109
 10
381.475184
 20
331.362898
 10
381.671272
 20
331.18549
 10
381.878675
 20
331.00878
 10
382.097459
 20
330.832661
 10
382.569426
 20
330.481772
 10
383.087689
 20
330.131976
 10
383.652765
 20
329.782424
 10
384.032326
 20
329.548936
 10
384.398549
 20
329.308454
 10
384.742553
 20
329.06786
 10
385.055455
 20
328.834039
 10
385.328372
 20
328.613874
 10
385.552422
 20
328.414248
 10
385.718722
 20
328.242045
 10
385.777441
 20
328.168379
 10
385.818391
 20
328.104149
 10
385.88477
 20
327.943027
 10
385.955661
 20
327.704258
 10
386.028873
 20
327.399393
 10
386.102212
 20
327.039983
 10
386.173486
 20
326.637579
 10
386.240501
 20
326.203732
 10
386.301066
 20
325.749993
 10
386.352987
 20
325.287913
 10
386.413755
 20
324.784831
 10
386.493412
 20
324.284633
 10
386.591231
 20
323.789052
 10
386.706483
 20
323.299821
 10
386.838439
 20
322.818672
 10
386.98637
 20
322.34734
 10
387.149548
 20
321.887555
 10
387.327244
 20
321.441051
 10
387.518729
 20
321.009561
 10
387.723276
 20
320.594819
 10
387.940154
 20
320.198555
 10
388.168637
 20
319.822504
 10
388.407995
 20
319.468398
 10
388.657499
 20
319.13797
 10
388.91642
 20
318.832954
 10
389.184031
 20
318.55508
 10
389.474163
 20
318.285178
 10
389.783805
 20
318.018789
 10
390.109522
 20
317.757832
 10
390.447875
 20
317.504224
 10
390.795429
 20
317.259884
 10
391.148746
 20
317.026729
 10
391.504389
 20
316.806677
 10
391.858921
 20
316.601646
 10
392.208906
 20
316.413553
 10
392.550905
 20
316.244317
 10
392.881483
 20
316.095856
 10
393.197202
 20
315.970087
 10
393.494625
 20
315.868928
 10
393.770316
 20
315.794298
 10
394.020837
 20
315.748113
 10
394.242751
 20
315.732292
  0
LWPOLYLINE
  5
38
330
1F
100
AcDbEntity
  8
0
100
AcDbPolyline
 90
      479
 70
   128
 43
0.0
 10
492.458459
 20
214.959592
 10
493.400778
 20
214.959848
 10
494.327894
 20
214.985758
 10
495.241335
 20
215.037678
 10
496.142628
 20
215.115963
 10
497.033301
 20
215.220968
 10
497.914881
 20
215.35305
 10
498.788896
 20
215.512563
 10
499.656875
 20
215.699862
 10
500.520343
 20
215.915303
 10
501.380829
 20
216.159241
 10
502.239861
 20
216.432032
 10
503.098966
 20
216.73403
 10
503.959671
 20
217.065591
 10
504.823505
 20
217.427071
 10
505.691994
 20
217.818825
 10
506.566667
 20
218.241208
 10
507.018388
 20
218.471137
 10
507.469502
 20
218.710214
 10
507.919805
 20
218.958265
 10
508.369089
 20
219.215119
 10
508.817151
 20
219.480601
 10
509.263783
 20
219.754539
 10
509.70878
 20
220.03676
 10
510.151937
 20
220.327091
 10
510.593047
 20
220.62536
 10
511.031905
 20
220.931393
 10
511.468305
 20
221.245018
 10
511.902042
 20
221.566062
 10
512.760702
 20
222.229713
 10
513.606239
 20
222.920965
 10
514.437008
 20
223.638434
 10
515.251363
 20
224.380737
 10
516.047658
 20
225.146492
 10
516.824247
 20
225.934314
 10
517.579484
 20
226.742821
 10
517.948582
 20
227.154399
 10
518.311724
 20
227.57063
 10
518.668706
 20
227.991341
 10
519.019322
 20
228.416359
 10
519.363365
 20
228.84551
 10
519.70063
 20
229.278623
 10
519.87903
 20
229.523107
 10
520.060956
 20
229.789309
 10
520.438718
 20
230.350114
 10
520.636219
 20
230.626342
 10
520.840578
 20
230.887537
 10
521.052628
 20
231.124512
 10
521.161797
 20
231.231045
 10
521.273201
 20
231.328079
 10
521.430252
 20
231.453358
 10
521.61132
 20
231.589393
 10
521.797969
 20
231.716702
 10
521.971761
 20
231.815799
 10
522.124565
 20
231.880569
 10
522.283796
 20
231.931946
 10
522.444028
 20
231.971396
 10
522.599836
 20
232.000385
 10
522.876481
 20
232.032845
 10
523.07033
 20
232.041059
 10
523.263873
 20
232.035351
 10
523.503491
 20
232.010699
 10
523.621355
 20
231.987738
 10
523.727672
 20
231.955805
 10
523.814751
 20
231.913488
 10
523.848673
 20
231.887994
 10
523.874903
 20
231.859375
 10
527.797482
 20
225.90625
 10
528.311935
 20
225.446372
 10
528.432638
 20
225.35052
 10
528.5788
 20
225.254387
 10
528.744823
 20
225.160557
 10
528.925109
 20
225.071614
 10
529.114059
 20
224.990142
 10
529.306075
 20
224.918724
 10
529.495558
 20
224.859945
 10
529.67691
 20
224.816389
 10
529.936339
 20
224.773173
 10
530.051783
 20
224.76278
 10
530.16012
 20
224.761033
 10
530.263152
 20
224.768811
 10
530.362683
 20
224.786992
 10
530.460517
 20
224.816453
 10
530.558457
 20
224.858073
 10
530.658307
 20
224.912729
 10
530.76187
 20
224.981299
 10
530.987351
 20
225.163695
 10
531.249328
 20
225.412283
 10
531.562231
 20
225.734086
 10
531.821852
 20
226.01886
 10
532.164097
 20
226.412616
 10
533.037885
 20
227.45596
 10
534.06644
 20
228.721905
 10
535.13261
 20
230.068235
 10
537.638068
 20
233.276019
 10
537.668189
 20
233.314583
 10
537.72222
 20
233.430082
 10
537.759432
 20
233.540192
 10
537.790858
 20
233.692498
 10
537.82753
 20
233.934585
 10
537.844006
 20
234.081725
 10
537.851107
 20
234.226057
 10
537.848589
 20
234.367697
 10
537.836207
 20
234.50676
 10
537.813719
 20
234.643362
 10
537.780881
 20
234.777617
 10
537.737449
 20
234.909641
 10
537.68318
 20
235.03955
 10
537.617829
 20
235.167458
 10
537.541153
 20
235.29348
 10
537.452908
 20
235.417733
 10
537.352851
 20
235.540331
 10
537.240738
 20
235.66139
 10
537.116326
 20
235.781025
 10
536.979369
 20
235.899351
 10
536.829626
 20
236.016484
 10
536.666852
 20
236.132538
 10
536.490803
 20
236.24763
 10
536.301236
 20
236.361874
 10
536.097908
 20
236.475385
 10
535.64899
 20
236.700673
 10
535.1421
 20
236.924414
 10
534.575289
 20
237.147532
 10
533.946607
 20
237.370948
 10
533.254105
 20
237.595585
 10
532.495833
 20
237.822366
 10
530.114583
 20
238.508524
 10
529.679828
 20
238.716034
 10
529.457352
 20
238.828712
 10
529.260583
 20
238.949103
 10
529.196385
 20
239.001562
 10
529.140857
 20
239.061178
 10
529.093375
 20
239.126892
 10
529.053315
 20
239.197641
 10
528.992958
 20
239.350002
 10
528.954786
 20
239.509771
 10
528.933799
 20
239.66846
 10
528.924999
 20
239.817576
 10
528.923958
 20
240.053137
 10
528.938617
 20
240.170191
 10
528.98202
 20
240.32034
 10
529.053303
 20
240.502215
 10
529.151605
 20
240.714449
 10
529.276063
 20
240.955674
 10
529.425815
 20
241.22452
 10
529.797749
 20
241.839605
 10
530.260509
 20
242.54876
 10
530.807194
 20
243.341037
 10
531.430906
 20
244.205491
 10
532.124745
 20
245.131176
 10
532.593398
 20
245.757914
 10
533.045877
 20
246.388027
 10
533.482192
 20
247.021551
 10
533.902357
 20
247.658527
 10
534.306384
 20
248.29899
 10
534.694284
 20
248.942981
 10
535.06607
 20
249.590535
 10
535.421753
 20
250.241692
 10
535.761348
 20
250.89649
 10
536.084864
 20
251.554966
 10
536.392316
 20
252.217158
 10
536.683714
 20
252.883105
 10
536.959071
 20
253.552844
 10
537.218399
 20
254.226413
 10
537.461711
 20
254.903851
 10
537.689019
 20
255.585195
 10
537.900334
 20
256.270484
 10
538.095669
 20
256.959754
 10
538.275036
 20
257.653045
 10
538.438448
 20
258.350395
 10
538.585916
 20
259.05184
 10
538.717453
 20
259.75742
 10
538.833071
 20
260.467172
 10
538.932782
 20
261.181134
 10
539.016599
 20
261.899345
 10
539.084533
 20
262.621841
 10
539.136596
 20
263.348662
 10
539.172802
 20
264.079845
 10
539.193162
 20
264.815428
 10
539.197687
 20
265.555449
 10
539.186392
 20
266.299947
 10
539.159287
 20
267.048958
 10
539.11863
 20
267.754587
 10
539.062642
 20
268.455135
 10
538.991303
 20
269.150646
 10
538.904594
 20
269.841163
 10
538.802496
 20
270.526729
 10
538.68499
 20
271.207388
 10
538.552055
 20
271.883182
 10
538.403674
 20
272.554157
 10
538.239827
 20
273.220354
 10
538.060494
 20
273.881817
 10
537.865656
 20
274.53859
 10
537.655295
 20
275.190717
 10
537.42939
 20
275.838239
 10
537.187922
 20
276.481201
 10
536.930873
 20
277.119646
 10
536.658223
 20
277.753618
 10
536.369953
 20
278.383159
 10
536.066043
 20
279.008314
 10
535.746474
 20
279.629125
 10
535.411227
 20
280.245637
 10
535.060283
 20
280.857891
 10
534.693622
 20
281.465933
 10
534.311226
 20
282.069804
 10
533.913074
 20
282.669549
 10
533.499148
 20
283.265211
 10
533.069429
 20
283.856833
 10
532.623897
 20
284.444458
 10
532.162532
 20
285.028131
 10
531.685317
 20
285.607894
 10
531.19223
 20
286.18379
 10
530.683254
 20
286.755864
 10
530.158369
 20
287.324158
 10
529.504702
 20
288.007557
 10
528.88104
 20
288.635931
 10
528.286604
 20
289.209772
 10
527.720618
 20
289.72957
 10
527.182303
 20
290.195817
 10
526.670882
 20
290.609003
 10
526.185577
 20
290.969621
 10
525.72561
 20
291.278161
 10
525.504885
 20
291.413055
 10
525.290203
 20
291.535115
 10
525.081467
 20
291.6444
 10
524.878579
 20
291.740973
 10
524.681442
 20
291.824895
 10
524.48996
 20
291.896228
 10
524.304034
 20
291.955032
 10
524.123567
 20
292.001369
 10
523.948463
 20
292.035301
 10
523.778625
 20
292.05689
 10
523.613953
 20
292.066195
 10
523.454353
 20
292.063279
 10
523.299726
 20
292.048204
 10
523.149976
 20
292.02103
 10
523.005004
 20
291.981819
 10
522.864714
 20
291.930633
 10
522.696323
 20
291.855535
 10
522.540792
 20
291.775049
 10
522.398126
 20
291.689144
 10
522.268331
 20
291.597791
 10
522.151412
 20
291.500962
 10
522.047376
 20
291.398627
 10
521.956228
 20
291.290757
 10
521.877974
 20
291.177324
 10
521.812619
 20
291.058297
 10
521.76017
 20
290.933648
 10
521.720631
 20
290.803348
 10
521.694008
 20
290.667368
 10
521.680307
 20
290.525678
 10
521.679535
 20
290.37825
 10
521.691695
 20
290.225054
 10
521.716795
 20
290.066061
 10
521.75484
 20
289.901243
 10
521.805835
 20
289.730569
 10
521.869786
 20
289.554011
 10
521.946699
 20
289.371541
 10
522.036579
 20
289.183128
 10
522.139433
 20
288.988743
 10
522.255265
 20
288.788358
 10
522.384082
 20
288.581944
 10
522.680692
 20
288.15091
 10
523.029309
 20
287.695408
 10
523.429977
 20
287.215206
 10
523.882742
 20
286.71007
 10
524.542213
 20
285.983763
 10
525.165882
 20
285.26893
 10
525.755306
 20
284.563021
 10
526.312041
 20
283.863487
 10
526.837645
 20
283.167776
 10
527.333675
 20
282.473338
 10
527.80169
 20
281.777623
 10
528.243245
 20
281.078081
 10
528.659898
 20
280.37216
 10
529.053208
 20
279.657312
 10
529.42473
 20
278.930984
 10
529.776023
 20
278.190628
 10
530.108643
 20
277.433692
 10
530.424148
 20
276.657626
 10
530.724095
 20
275.859881
 10
531.010042
 20
275.037904
 10
531.214492
 20
274.410586
 10
531.399653
 20
273.806059
 10
531.56612
 20
273.219789
 10
531.714486
 20
272.647243
 10
531.845345
 20
272.083887
 10
531.959292
 20
271.525187
 10
532.05692
 20
270.966611
 10
532.138823
 20
270.403623
 10
532.205595
 20
269.83169
 10
532.25783
 20
269.246279
 10
532.296121
 20
268.642855
 10
532.321064
 20
268.016886
 10
532.333251
 20
267.363837
 10
532.333277
 20
266.679175
 10
532.321735
 20
265.958365
 10
532.29922
 20
265.196875
 10
532.17244
 20
261.625
 10
531.616138
 20
259.501871
 10
531.491158
 20
259.040201
 10
531.357742
 20
258.577059
 10
531.215816
 20
258.112305
 10
531.065305
 20
257.645799
 10
530.906135
 20
257.177399
 10
530.738233
 20
256.706967
 10
530.375933
 20
255.759439
 10
529.977812
 20
254.802093
 10
529.543277
 20
253.833804
 10
529.071734
 20
252.853449
 10
528.562591
 20
251.859905
 10
528.015255
 20
250.852047
 10
527.429132
 20
249.828752
 10
526.803629
 20
248.788896
 10
526.138154
 20
247.731356
 10
525.432112
 20
246.655009
 10
524.684912
 20
245.55873
 10
523.895959
 20
244.441396
 10
523.06466
 20
243.301883
 10
521.359119
 20
240.999653
 42
0.410398
 10
521.418467
 20
240.582365
 10
525.283779
 20
237.639988
 10
524.072377
 20
236.048604
 10
520.203144
 20
238.993964
 42
0.396099
 10
519.794491
 20
238.951463
 10
517.071543
 20
235.801964
 10
516.129536
 20
234.724513
 10
515.188506
 20
233.690021
 10
514.248083
 20
232.698323
 10
513.307893
 20
231.749254
 10
512.83777
 20
231.290654
 10
512.367567
 20
230.842649
 10
511.897236
 20
230.405219
 10
511.426732
 20
229.978343
 10
510.956007
 20
229.562001
 10
510.485016
 20
229.156171
 10
510.013713
 20
228.760834
 10
509.542049
 20
228.375969
 10
509.06998
 20
228.001554
 10
508.597459
 20
227.63757
 10
508.12444
 20
227.283996
 10
507.650875
 20
226.94081
 10
507.176718
 20
226.607994
 10
506.701924
 20
226.285525
 10
506.226445
 20
225.973383
 10
505.750235
 20
225.671549
 10
505.273248
 20
225.38
 10
504.795437
 20
225.098716
 10
504.316756
 20
224.827678
 10
503.837159
 20
224.566863
 10
503.356598
 20
224.316253
 10
502.875028
 20
224.075825
 10
502.392402
 20
223.845559
 10
501.908673
 20
223.625435
 10
501.423796
 20
223.415433
 10
500.937723
 20
223.21553
 10
500.450409
 20
223.025708
 10
499.961807
 20
222.845944
 10
499.47187
 20
222.67622
 10
498.980552
 20
222.516513
 10
498.487806
 20
222.366803
 10
497.993587
 20
222.227071
 10
497.497847
 20
222.097294
 10
497.000541
 20
221.977453
 10
496.501622
 20
221.867527
 10
496.001042
 20
221.767495
 10
495.498757
 20
221.677336
 10
494.994719
 20
221.597031
 10
494.488882
 20
221.526557
 10
493.9812
 20
221.465896
 10
493.471626
 20
221.415026
 10
492.960114
 20
221.373926
 10
492.446617
 20
221.342576
 10
491.931088
 20
221.320955
 10
491.413483
 20
221.309043
 10
490.893753
 20
221.306819
 10
490.371852
 20
221.314263
 10
489.847735
 20
221.331353
 10
489.321355
 20
221.358069
 10
488.792664
 20
221.394391
 10
488.261618
 20
221.440298
 10
487.728168
 20
221.495769
 10
487.19227
 20
221.560783
 10
486.653876
 20
221.635321
 10
486.11294
 20
221.719361
 10
485.569416
 20
221.812883
 10
484.97649
 20
221.92512
 10
484.388711
 20
222.046972
 10
483.806812
 20
222.178195
 10
483.231526
 20
222.318545
 10
482.663588
 20
222.467777
 10
482.10373
 20
222.625649
 10
481.552687
 20
222.791915
 10
481.011191
 20
222.966333
 10
480.479977
 20
223.148657
 10
479.959778
 20
223.338645
 10
479.451327
 20
223.536052
 10
478.955358
 20
223.740634
 10
478.472605
 20
223.952147
 10
478.003801
 20
224.170348
 10
477.54968
 20
224.394991
 10
477.110975
 20
224.625835
 10
474.181947
 20
226.208224
 10
473.905356
 20
226.350017
 10
473.639801
 20
226.472708
 10
473.384842
 20
226.576295
 10
473.140045
 20
226.660773
 10
472.904971
 20
226.726139
 10
472.679184
 20
226.772391
 10
472.462246
 20
226.799525
 10
472.25372
 20
226.807537
 10
472.053169
 20
226.796424
 10
471.860156
 20
226.766183
 10
471.674243
 20
226.71681
 10
471.494994
 20
226.648303
 10
471.321971
 20
226.560658
 10
471.154738
 20
226.453871
 10
470.992857
 20
226.327939
 10
470.83589
 20
226.18286
 10
470.718539
 20
226.05843
 10
470.613522
 20
225.932167
 10
470.520846
 20
225.804057
 10
470.440517
 20
225.674087
 10
470.372541
 20
225.542245
 10
470.316924
 20
225.408519
 10
470.273673
 20
225.272894
 10
470.242793
 20
225.135359
 10
470.224291
 20
224.995901
 10
470.218173
 20
224.854506
 10
470.224445
 20
224.711163
 10
470.243113
 20
224.565859
 10
470.274184
 20
224.41858
 10
470.317663
 20
224.269314
 10
470.373557
 20
224.118049
 10
470.441871
 20
223.964771
 10
470.522613
 20
223.809467
 10
470.615788
 20
223.652126
 10
470.721402
 20
223.492734
 10
470.839462
 20
223.331279
 10
470.969973
 20
223.167747
 10
471.112942
 20
223.002126
 10
471.268375
 20
222.834404
 10
471.436278
 20
222.664567
 10
471.809519
 20
222.318498
 10
472.232715
 20
221.963819
 10
472.705914
 20
221.600427
 10
473.229167
 20
221.228219
 10
473.797797
 20
220.844139
 10
474.36722
 20
220.472621
 10
474.937565
 20
220.113621
 10
475.508961
 20
219.767099
 10
476.081538
 20
219.433013
 10
476.655424
 20
219.111319
 10
477.230748
 20
218.801977
 10
477.807638
 20
218.504944
 10
478.386225
 20
218.220179
 10
478.966637
 20
217.947638
 10
479.549003
 20
217.68728
 10
480.133452
 20
217.439063
 10
480.720113
 20
217.202946
 10
481.309114
 20
216.978885
 10
481.900586
 20
216.766839
 10
482.494656
 20
216.566766
 10
483.091454
 20
216.378623
 10
483.691109
 20
216.20237
 10
484.293749
 20
216.037963
 10
484.899505
 20
215.88536
 10
485.508504
 20
215.744521
 10
486.120875
 20
215.615402
 10
486.736748
 20
215.497961
 10
487.356252
 20
215.392157
 10
487.979515
 20
215.297947
 10
488.606667
 20
215.21529
 10
489.237836
 20
215.144143
 10
489.873152
 20
215.084464
 10
490.512743
 20
215.036212
 10
491.156739
 20
214.999344
 10
491.805268
 20
214.973818
 10
492.458459
 20
214.959592
  0
LWPOLYLINE
  5
39
330
1F
100
AcDbEntity
  8
0
100
AcDbPolyline
 90
      212
 70
   128
 43
0.0
 10
413.996194
 20
255.931934
 10
413.534875
 20
255.908058
 10
413.287744
 20
255.906932
 10
412.678048
 20
255.923021
 10
412.161263
 20
255.945978
 10
411.732315
 20
255.980334
 10
411.378776
 20
256.029819
 10
411.226401
 20
256.061402
 10
411.08822
 20
256.098164
 10
410.962677
 20
256.140576
 10
410.84822
 20
256.189101
 10
410.743293
 20
256.244206
 10
410.646346
 20
256.306358
 10
410.555825
 20
256.376024
 10
410.470174
 20
256.453669
 10
410.387843
 20
256.53976
 10
410.307276
 20
256.634763
 10
409.782928
 20
257.286024
 10
409.873661
 20
261.296319
 10
409.905396
 20
262.398121
 10
409.948952
 20
263.335722
 10
410.007779
 20
264.133988
 10
410.043996
 20
264.488639
 10
410.085324
 20
264.81778
 10
410.132194
 20
265.124519
 10
410.185037
 20
265.411964
 10
410.244285
 20
265.683223
 10
410.310367
 20
265.941403
 10
410.383716
 20
266.189614
 10
410.464761
 20
266.430962
 10
410.553936
 20
266.668557
 10
410.65167
 20
266.905506
 10
410.83093
 20
267.285843
 10
411.032331
 20
267.693229
 10
411.215221
 20
268.106477
 10
411.28702
 20
268.308677
 10
411.338946
 20
268.504397
 10
411.396778
 20
268.822333
 10
411.440521
 20
269.153383
 10
411.47163
 20
269.495737
 10
411.491558
 20
269.847579
 10
411.501758
 20
270.207097
 10
411.503684
 20
270.572478
 10
411.488526
 20
271.313579
 10
411.457713
 20
272.056377
 10
411.422871
 20
272.786368
 10
411.39563
 20
273.489046
 10
411.387616
 20
274.14991
 10
411.41943
 20
276.400882
 10
411.444615
 20
277.458564
 10
411.476492
 20
278.473145
 10
411.51545
 20
279.446204
 10
411.561869
 20
280.379318
 10
411.616131
 20
281.274065
 10
411.678621
 20
282.132021
 10
411.749722
 20
282.954763
 10
411.829817
 20
283.74387
 10
411.919288
 20
284.500919
 10
412.01852
 20
285.227486
 10
412.127894
 20
285.92515
 10
412.247794
 20
286.595487
 10
412.378604
 20
287.240075
 10
412.520706
 20
287.860491
 10
412.674483
 20
288.458313
 10
412.840319
 20
289.035118
 10
413.018596
 20
289.592484
 10
413.209699
 20
290.131988
 10
413.414008
 20
290.655206
 10
413.63191
 20
291.163717
 10
413.863784
 20
291.659098
 10
414.110016
 20
292.142926
 10
414.370988
 20
292.616778
 10
414.647082
 20
293.082233
 10
414.938684
 20
293.540866
 10
415.246175
 20
293.994256
 10
415.569939
 20
294.44398
 10
415.910359
 20
294.891615
 10
416.267817
 20
295.33874
 10
416.642696
 20
295.786929
 10
417.140277
 20
296.354026
 10
417.367171
 20
296.598697
 10
417.58255
 20
296.8196
 10
417.788725
 20
297.018343
 10
417.98801
 20
297.196539
 10
418.182718
 20
297.355797
 10
418.375161
 20
297.49773
 10
418.567652
 20
297.623947
 10
418.762503
 20
297.736059
 10
418.962026
 20
297.83568
 10
419.168533
 20
297.924417
 10
419.38434
 20
298.003882
 10
419.611755
 20
298.075687
 10
419.853093
 20
298.141443
 10
420.110665
 20
298.20276
 10
420.310658
 20
298.235786
 10
420.51687
 20
298.247776
 10
420.72718
 20
298.239803
 10
420.939462
 20
298.21294
 10
421.151593
 20
298.168262
 10
421.361451
 20
298.106843
 10
421.566911
 20
298.029757
 10
421.765849
 20
297.938078
 10
421.956142
 20
297.83288
 10
422.135667
 20
297.715237
 10
422.3023
 20
297.586225
 10
422.453918
 20
297.446916
 10
422.588397
 20
297.298383
 10
422.703613
 20
297.141704
 10
422.797444
 20
296.977949
 10
422.867764
 20
296.808195
 10
422.915226
 20
296.650422
 10
422.949108
 20
296.497029
 10
422.968451
 20
296.345813
 10
422.972297
 20
296.194573
 10
422.959683
 20
296.041104
 10
422.929654
 20
295.883202
 10
422.881248
 20
295.718665
 10
422.813509
 20
295.54529
 10
422.725474
 20
295.360874
 10
422.616185
 20
295.163211
 10
422.484683
 20
294.950102
 10
422.33001
 20
294.719341
 10
421.94731
 20
294.196053
 10
421.460411
 20
293.575722
 10
421.147617
 20
293.173396
 10
420.847706
 20
292.7616
 10
420.560557
 20
292.339748
 10
420.286049
 20
291.907256
 10
420.024063
 20
291.463537
 10
419.774476
 20
291.008006
 10
419.537169
 20
290.540079
 10
419.312022
 20
290.059168
 10
419.098913
 20
289.56469
 10
418.897721
 20
289.056057
 10
418.708326
 20
288.532686
 10
418.530609
 20
287.993989
 10
418.364447
 20
287.439383
 10
418.209721
 20
286.86828
 10
418.06631
 20
286.280097
 10
417.934093
 20
285.674247
 10
417.812949
 20
285.050145
 10
417.702758
 20
284.407205
 10
417.6034
 20
283.744841
 10
417.514754
 20
283.06247
 10
417.436699
 20
282.359503
 10
417.369114
 20
281.635358
 10
417.311879
 20
280.889448
 10
417.264874
 20
280.121186
 10
417.227977
 20
279.329989
 10
417.201068
 20
278.51527
 10
417.184027
 20
277.676444
 10
417.176734
 20
276.812925
 10
417.179065
 20
275.924129
 10
417.190904
 20
275.009468
 10
417.212127
 20
274.068359
 10
417.242614
 20
273.100215
 10
417.311655
 20
271.497666
 10
417.352643
 20
270.815531
 10
417.39988
 20
270.20548
 10
417.454816
 20
269.662004
 10
417.518907
 20
269.179598
 10
417.593604
 20
268.752751
 10
417.68036
 20
268.375958
 10
417.780629
 20
268.043709
 10
417.895861
 20
267.7505
 10
418.027513
 20
267.49082
 10
418.177033
 20
267.259163
 10
418.345876
 20
267.050021
 10
418.535496
 20
266.857886
 10
418.747343
 20
266.677252
 10
418.982873
 20
266.502609
 10
419.182853
 20
266.354289
 10
419.3808
 20
266.191813
 10
419.571569
 20
266.020462
 10
419.750014
 20
265.845515
 10
419.910987
 20
265.672252
 10
420.049344
 20
265.505953
 10
420.159935
 20
265.351897
 10
420.237616
 20
265.215365
 10
420.526153
 20
264.604404
 10
420.455196
 20
261.529712
 10
420.418891
 20
260.20537
 10
420.374266
 20
259.136833
 10
420.316485
 20
258.292387
 10
420.28115
 20
257.944286
 10
420.240713
 20
257.640315
 10
420.194567
 20
257.376508
 10
420.14211
 20
257.148902
 10
420.082737
 20
256.953532
 10
420.015844
 20
256.786432
 10
419.940824
 20
256.64364
 10
419.857075
 20
256.52119
 10
419.763992
 20
256.415118
 10
419.660969
 20
256.321459
 10
419.605364
 20
256.282272
 10
419.535433
 20
256.243784
 10
419.35675
 20
256.169764
 10
419.133234
 20
256.101131
 10
418.873197
 20
256.039617
 10
418.584954
 20
255.986952
 10
418.276817
 20
255.944867
 10
417.957099
 20
255.915095
 10
417.634115
 20
255.899365
 10
417.119143
 20
255.890295
 10
416.911001
 20
255.894397
 10
416.732812
 20
255.908121
 10
416.53123
 20
255.943292
 42
-0.375144
 10
416.283005
 20
256.250083
 10
416.431186
 20
260.196976
 10
414.432595
 20
260.272011
 10
414.280477
 20
256.220278
 42
-0.388312
 10
413.996194
 20
255.931934
  0
LWPOLYLINE
  5
3A
330
1F
100
AcDbEntity
  8
0
100
AcDbPolyline
 90
      457
 70
   128
 43
0.0
 10
450.730094
 20
225.161105
 10
451.490942
 20
225.193097
 10
452.24868
 20
225.243177
 10
453.003233
 20
225.311312
 10
453.75453
 20
225.397471
 10
454.502495
 20
225.501622
 10
455.247055
 20
225.623731
 10
455.988137
 20
225.763768
 10
456.725667
 20
225.921699
 10
457.459571
 20
226.097492
 10
458.189777
 20
226.291115
 10
458.91621
 20
226.502536
 10
459.638797
 20
226.731723
 10
460.357464
 20
226.978643
 10
461.072138
 20
227.243264
 10
461.782746
 20
227.525554
 10
462.489213
 20
227.82548
 10
463.191465
 20
228.143011
 10
463.889431
 20
228.478114
 10
464.583035
 20
228.830757
 10
465.272205
 20
229.200907
 10
465.956866
 20
229.588533
 10
466.636946
 20
229.993602
 10
467.31237
 20
230.416082
 10
467.983065
 20
230.85594
 10
468.648958
 20
231.313145
 10
469.309975
 20
231.787664
 10
469.966042
 20
232.279465
 10
470.617086
 20
232.788516
 10
471.263034
 20
233.314784
 10
471.903811
 20
233.858237
 10
472.539344
 20
234.418843
 10
473.16956
 20
234.99657
 10
474.094158
 20
235.843342
 10
475.002196
 20
236.639703
 10
475.897372
 20
237.387819
 10
476.341291
 20
237.744462
 10
476.78338
 20
238.089854
 10
477.224102
 20
238.424267
 10
477.663918
 20
238.747972
 10
478.10329
 20
239.061238
 10
478.542681
 20
239.364337
 10
478.982551
 20
239.657538
 10
479.423364
 20
239.941113
 10
479.865582
 20
240.215333
 10
480.309666
 20
240.480466
 10
480.756078
 20
240.736785
 10
481.20528
 20
240.984559
 10
481.657735
 20
241.22406
 10
482.113905
 20
241.455557
 10
482.57425
 20
241.679322
 10
483.039234
 20
241.895625
 10
483.509319
 20
242.104735
 10
483.984966
 20
242.306925
 10
484.466638
 20
242.502464
 10
484.954796
 20
242.691623
 10
485.449902
 20
242.874673
 10
485.952419
 20
243.051884
 10
486.462809
 20
243.223527
 10
486.981533
 20
243.389871
 10
488.045833
 20
243.707749
 10
488.781051
 20
243.912194
 10
489.503029
 20
244.102658
 10
490.214388
 20
244.27955
 10
490.917747
 20
244.443282
 10
491.615725
 20
244.594262
 10
492.310941
 20
244.732903
 10
493.006016
 20
244.859613
 10
493.703568
 20
244.974802
 10
494.406217
 20
245.078882
 10
495.116582
 20
245.172262
 10
495.837283
 20
245.255353
 10
496.570939
 20
245.328564
 10
497.320169
 20
245.392306
 10
498.087593
 20
245.446988
 10
498.87583
 20
245.493022
 10
499.6875
 20
245.530818
 10
503.391667
 20
245.682771
 10
504.379209
 20
246.225516
 10
504.585899
 20
246.348863
 10
504.790283
 20
246.489881
 10
504.991301
 20
246.647137
 10
505.187894
 20
246.819202
 10
505.379002
 20
247.004642
 10
505.563565
 20
247.202028
 10
505.740525
 20
247.409928
 10
505.908823
 20
247.62691
 10
506.067398
 20
247.851544
 10
506.215191
 20
248.082397
 10
506.351144
 20
248.31804
 10
506.474196
 20
248.557041
 10
506.583288
 20
248.797968
 10
506.677361
 20
249.03939
 10
506.755356
 20
249.279876
 10
506.816213
 20
249.517995
 10
506.865225
 20
249.71648
 10
506.92302
 20
249.906774
 10
506.989185
 20
250.088717
 10
507.063304
 20
250.262149
 10
507.144965
 20
250.426911
 10
507.233754
 20
250.582842
 10
507.329255
 20
250.729783
 10
507.431056
 20
250.867573
 10
507.538742
 20
250.996053
 10
507.6519
 20
251.115062
 10
507.770115
 20
251.224441
 10
507.892974
 20
251.32403
 10
508.020062
 20
251.413669
 10
508.150965
 20
251.493198
 10
508.28527
 20
251.562457
 10
508.422562
 20
251.621286
 10
508.562428
 20
251.669526
 10
508.704454
 20
251.707015
 10
508.848225
 20
251.733595
 10
508.993327
 20
251.749106
 10
509.139347
 20
251.753387
 10
509.285871
 20
251.746278
 10
509.432485
 20
251.727621
 10
509.578774
 20
251.697254
 10
509.724325
 20
251.655018
 10
509.868723
 20
251.600753
 10
510.011556
 20
251.534298
 10
510.152408
 20
251.455495
 10
510.290865
 20
251.364183
 10
510.426515
 20
251.260202
 10
510.558942
 20
251.143393
 10
510.687734
 20
251.013595
 10
510.840647
 20
250.856158
 10
510.995267
 20
250.711148
 10
511.15241
 20
250.578248
 10
511.312891
 20
250.457142
 10
511.477529
 20
250.347514
 10
511.647138
 20
250.249045
 10
511.822537
 20
250.161421
 10
512.004542
 20
250.084324
 10
512.193968
 20
250.017438
 10
512.391634
 20
249.960447
 10
512.598355
 20
249.913033
 10
512.814948
 20
249.874881
 10
513.04223
 20
249.845673
 10
513.281017
 20
249.825094
 10
513.532127
 20
249.812826
 10
513.796374
 20
249.808553
 10
513.999765
 20
249.81354
 10
514.200607
 20
249.828963
 10
514.39873
 20
249.854648
 10
514.593966
 20
249.890425
 10
514.786145
 20
249.93612
 10
514.975099
 20
249.991562
 10
515.160657
 20
250.056578
 10
515.34265
 20
250.130996
 10
515.52091
 20
250.214643
 10
515.695267
 20
250.307349
 10
515.865552
 20
250.408939
 10
516.031595
 20
250.519243
 10
516.193227
 20
250.638088
 10
516.350279
 20
250.765302
 10
516.502582
 20
250.900712
 10
516.649967
 20
251.044147
 10
516.792263
 20
251.195434
 10
516.929303
 20
251.354401
 10
517.060916
 20
251.520876
 10
517.186934
 20
251.694686
 10
517.307187
 20
251.875659
 10
517.421506
 20
252.063624
 10
517.529721
 20
252.258408
 10
517.631664
 20
252.459839
 10
517.727165
 20
252.667744
 10
517.816054
 20
252.881951
 10
517.898164
 20
253.102289
 10
517.973323
 20
253.328585
 10
518.041364
 20
253.560666
 10
518.102117
 20
253.798361
 10
518.155412
 20
254.041497
 10
518.201081
 20
254.289903
 10
518.265388
 20
254.605601
 10
518.350635
 20
254.906723
 10
518.456654
 20
255.193112
 10
518.583276
 20
255.464612
 10
518.730334
 20
255.721066
 10
518.897659
 20
255.962317
 10
519.085083
 20
256.188208
 10
519.292439
 20
256.398584
 10
519.519559
 20
256.593287
 10
519.766274
 20
256.772161
 10
520.032417
 20
256.935049
 10
520.317819
 20
257.081794
 10
520.622312
 20
257.212241
 10
520.945729
 20
257.326231
 10
521.287902
 20
257.423609
 10
521.648662
 20
257.504218
 10
522.0603
 20
257.588738
 10
522.44911
 20
257.67744
 10
522.816055
 20
257.770788
 10
523.1621
 20
257.869249
 10
523.48821
 20
257.973286
 10
523.79535
 20
258.083365
 10
524.084484
 20
258.199951
 10
524.356577
 20
258.323508
 10
524.612593
 20
258.454502
 10
524.853498
 20
258.593398
 10
525.080255
 20
258.740661
 10
525.29383
 20
258.896755
 10
525.495188
 20
259.062146
 10
525.685292
 20
259.237298
 10
525.865109
 20
259.422677
 10
526.035601
 20
259.618748
 10
526.145573
 20
259.758928
 10
526.247329
 20
259.902841
 10
526.340847
 20
260.050717
 10
526.426108
 20
260.20279
 10
526.503091
 20
260.359291
 10
526.571775
 20
260.520452
 10
526.632141
 20
260.686504
 10
526.684167
 20
260.857681
 10
526.727835
 20
261.034213
 10
526.763122
 20
261.216333
 10
526.790009
 20
261.404273
 10
526.808476
 20
261.598264
 10
526.818502
 20
261.798539
 10
526.820067
 20
262.00533
 10
526.81315
 20
262.218868
 10
526.797731
 20
262.439385
 10
526.77379
 20
262.667114
 10
526.741306
 20
262.902285
 10
526.650628
 20
263.395887
 10
526.525535
 20
263.922044
 10
526.365864
 20
264.482614
 10
526.171452
 20
265.07945
 10
525.942136
 20
265.71441
 10
525.677752
 20
266.389348
 10
525.235635
 20
267.447037
 42
0.388267
 10
524.868316
 20
267.617353
 10
515.012037
 20
264.497703
 10
514.408519
 20
266.404471
 10
523.889557
 20
269.405352
 42
0.379264
 10
524.093868
 20
269.746774
 10
524.053451
 20
269.961845
 10
523.973881
 20
270.256654
 10
523.85874
 20
270.621333
 10
523.711999
 20
271.043945
 10
523.537627
 20
271.512552
 10
523.339597
 20
272.015216
 10
523.121878
 20
272.540002
 10
522.024963
 20
275.11875
 10
521.704148
 20
275.527767
 10
521.470908
 20
275.80313
 10
521.35111
 20
275.928092
 10
521.228992
 20
276.044589
 10
521.104407
 20
276.152631
 10
520.977203
 20
276.252229
 10
520.847233
 20
276.343393
 10
520.714345
 20
276.426134
 10
520.578391
 20
276.500463
 10
520.439221
 20
276.56639
 10
520.296685
 20
276.623925
 10
520.150634
 20
276.67308
 10
520.000918
 20
276.713865
 10
519.847388
 20
276.74629
 10
519.689893
 20
276.770366
 10
519.528286
 20
276.786103
 10
519.362415
 20
276.793513
 10
519.192132
 20
276.792605
 10
519.017286
 20
276.783391
 10
518.837729
 20
276.76588
 10
518.463881
 20
276.706013
 10
518.069391
 20
276.613088
 10
517.653062
 20
276.487189
 10
517.213699
 20
276.328402
 10
516.750103
 20
276.136811
 10
516.26108
 20
275.9125
 10
515.802306
 20
275.70034
 10
515.367087
 20
275.515489
 10
514.953378
 20
275.357896
 10
514.559131
 20
275.227505
 10
514.182302
 20
275.124264
 10
513.820844
 20
275.04812
 10
513.472711
 20
274.99902
 10
513.135857
 20
274.976909
 10
512.808236
 20
274.981736
 10
512.487802
 20
275.013447
 10
512.172508
 20
275.071989
 10
511.86031
 20
275.157308
 10
511.54916
 20
275.269352
 10
511.237014
 20
275.408066
 10
510.921824
 20
275.573398
 10
510.601544
 20
275.765295
 10
510.289767
 20
275.957711
 10
509.986348
 20
276.134055
 10
509.691039
 20
276.294251
 10
509.403592
 20
276.438221
 10
509.12376
 20
276.565889
 10
508.851296
 20
276.677178
 10
508.585951
 20
276.77201
 10
508.327479
 20
276.850309
 10
508.075631
 20
276.911997
 10
507.83016
 20
276.956997
 10
507.590819
 20
276.985233
 10
507.357359
 20
276.996628
 10
507.129534
 20
276.991104
 10
506.907095
 20
276.968584
 10
506.689795
 20
276.928992
 10
506.477387
 20
276.872249
 10
506.269622
 20
276.798281
 10
506.066254
 20
276.707008
 10
505.867034
 20
276.598355
 10
505.671716
 20
276.472244
 10
505.480051
 20
276.328598
 10
505.291792
 20
276.16734
 10
505.106691
 20
275.988394
 10
504.924501
 20
275.791682
 10
504.744974
 20
275.577126
 10
504.567863
 20
275.344651
 10
504.392919
 20
275.094179
 10
504.219896
 20
274.825633
 10
504.048546
 20
274.538936
 10
503.878621
 20
274.234011
 10
503.709873
 20
273.910782
 10
503.542056
 20
273.56917
 10
503.371814
 20
273.223157
 10
503.19665
 20
272.886794
 10
503.021569
 20
272.568414
 10
502.85157
 20
272.276347
 10
502.691658
 20
272.018926
 10
502.546833
 20
271.804481
 10
502.422099
 20
271.641345
 10
502.322458
 20
271.537849
 10
502.173727
 20
271.42788
 10
502.017595
 20
271.338435
 10
501.85445
 20
271.26943
 10
501.684676
 20
271.220782
 10
501.508661
 20
271.192408
 10
501.32679
 20
271.184224
 10
501.13945
 20
271.196148
 10
500.947026
 20
271.228097
 10
500.749906
 20
271.279987
 10
500.548475
 20
271.351736
 10
500.343119
 20
271.443259
 10
500.134225
 20
271.554475
 10
499.922179
 20
271.6853
 10
499.707367
 20
271.83565
 10
499.490175
 20
272.005444
 10
499.27099
 20
272.194597
 10
498.925954
 20
272.499645
 10
498.636895
 20
272.733684
 10
498.507013
 20
272.82648
 10
498.383511
 20
272.904408
 10
498.263853
 20
272.968431
 10
498.1455
 20
273.01951
 10
498.025915
 20
273.058607
 10
497.902561
 20
273.086685
 10
497.772898
 20
273.104704
 10
497.634391
 20
273.113627
 10
497.320689
 20
273.10803
 10
496.941153
 20
273.077588
 10
496.715579
 20
273.051004
 10
496.494729
 20
273.014287
 10
496.275949
 20
272.966006
 10
496.05658
 20
272.904726
 10
495.833969
 20
272.829016
 10
495.605457
 20
272.737442
 10
495.368389
 20
272.62857
 10
495.120108
 20
272.500969
 10
494.857959
 20
272.353205
 10
494.579284
 20
272.183845
 10
494.281428
 20
271.991456
 10
493.961735
 20
271.774605
 10
493.24621
 20
271.261785
 10
492.411458
 20
270.633921
 10
492.162141
 20
270.45262
 10
491.875415
 20
270.261893
 10
491.548467
 20
270.060401
 10
491.178481
 20
269.846806
 10
490.762643
 20
269.619769
 10
490.29814
 20
269.377952
 10
489.782156
 20
269.120017
 10
489.211877
 20
268.844624
 10
487.897176
 20
268.236113
 10
486.331521
 20
267.541712
 10
484.492399
 20
266.750712
 10
482.357292
 20
265.852407
 10
476.536458
 20
263.404515
 10
475.468772
 20
262.932463
 10
474.22421
 20
262.355271
 10
472.957429
 20
261.746005
 10
471.823086
 20
261.177731
 10
470.857436
 20
260.671375
 10
469.950145
 20
260.175787
 10
469.096178
 20
259.686909
 10
468.290502
 20
259.200682
 10
467.528082
 20
258.713049
 10
466.803885
 20
258.21995
 10
466.112875
 20
257.717329
 10
465.450019
 20
257.201126
 10
464.810283
 20
256.667285
 10
464.188632
 20
256.111745
 10
463.580032
 20
255.530451
 10
462.97945
 20
254.919342
 10
462.381851
 20
254.274362
 10
461.782201
 20
253.591452
 10
461.175465
 20
252.866554
 10
460.55661
 20
252.09561
 10
458.127764
 20
248.92061
 10
457.772537
 20
248.384466
 10
457.211411
 20
247.50819
 10
456.521433
 20
246.413179
 10
455.77965
 20
245.220833
 10
453.352407
 20
241.323902
 10
453.108392
 20
240.929156
 10
452.908565
 20
240.583616
 10
452.773547
 20
240.324519
 10
452.736785
 20
240.239022
 10
452.723958
 20
240.189099
 10
452.723958
 20
240.04081
 10
448.835916
 20
234.108333
 10
447.474155
 20
232.520833
 10
447.201504
 20
232.195546
 10
446.942428
 20
231.871463
 10
446.697482
 20
231.54961
 10
446.46722
 20
231.231012
 10
446.252196
 20
230.916695
 10
446.052963
 20
230.607683
 10
445.870076
 20
230.305004
 10
445.704088
 20
230.009681
 10
445.555554
 20
229.722741
 10
445.425028
 20
229.445208
 10
445.313062
 20
229.178109
 10
445.220212
 20
228.922469
 10
445.147031
 20
228.679314
 10
445.094073
 20
228.449668
 10
445.061892
 20
228.234557
 10
445.051042
 20
228.035007
 10
445.055125
 20
227.944584
 10
445.067174
 20
227.851348
 10
445.113952
 20
227.657712
 10
445.188948
 20
227.456649
 10
445.289733
 20
227.250711
 10
445.413878
 20
227.042452
 10
445.558955
 20
226.834423
 10
445.722535
 20
226.629176
 10
445.90219
 20
226.429263
 10
446.095491
 20
226.237237
 10
446.300011
 20
226.055649
 10
446.513319
 20
225.887051
 10
446.732989
 20
225.733997
 10
446.956591
 20
225.599037
 10
447.181697
 20
225.484724
 10
447.405878
 20
225.39361
 10
447.626706
 20
225.328247
 10
447.866407
 20
225.283127
 10
448.173914
 20
225.243559
 10
448.536499
 20
225.210226
 10
448.941434
 20
225.183816
 10
449.37599
 20
225.165013
 10
449.827438
 20
225.154503
 10
450.283049
 20
225.152972
 10
450.730094
 20
225.161105
  0
LWPOLYLINE
  5
3B
330
1F
100
AcDbEntity
  8
0
100
AcDbPolyline
 90
      346
 70
   128
 43
0.0
 10
391.827358
 20
251.320388
 42
0.258569
 10
391.964699
 20
251.576755
 10
391.885526
 20
257.135803
 10
393.885324
 20
257.164285
 10
393.96528
 20
251.55015
 42
0.2197
 10
394.073942
 20
251.323335
 10
394.851169
 20
250.679901
 10
395.196864
 20
250.425618
 10
395.606725
 20
250.147016
 10
396.08621
 20
249.836468
 10
397.275894
 20
249.089034
 10
399.552355
 20
247.665569
 10
400.407427
 20
247.481928
 10
400.594022
 20
247.449105
 10
400.796765
 20
247.426347
 10
401.009167
 20
247.413589
 10
401.224743
 20
247.410767
 10
401.437006
 20
247.417817
 10
401.639467
 20
247.434674
 10
401.825641
 20
247.461275
 10
401.989039
 20
247.497556
 10
402.208193
 20
247.564546
 10
402.422864
 20
247.643883
 10
402.632571
 20
247.735151
 10
402.83683
 20
247.837936
 10
403.03516
 20
247.951822
 10
403.227077
 20
248.076396
 10
403.412101
 20
248.211241
 10
403.589747
 20
248.355943
 10
403.759534
 20
248.510088
 10
403.920979
 20
248.673259
 10
404.073601
 20
248.845042
 10
404.216916
 20
249.025023
 10
404.350442
 20
249.212786
 10
404.473696
 20
249.407915
 10
404.586197
 20
249.609998
 10
404.687462
 20
249.818617
 10
404.797234
 20
250.083855
 10
404.885954
 20
250.345939
 10
404.95364
 20
250.604782
 10
405.000307
 20
250.860299
 10
405.025973
 20
251.112404
 10
405.030656
 20
251.361011
 10
405.014372
 20
251.606034
 10
404.977138
 20
251.847387
 10
404.918972
 20
252.084984
 10
404.839891
 20
252.318741
 10
404.739911
 20
252.548569
 10
404.619051
 20
252.774385
 10
404.477326
 20
252.996101
 10
404.314754
 20
253.213633
 10
404.131353
 20
253.426893
 10
403.927139
 20
253.635797
 10
403.689009
 20
253.870668
 10
403.475425
 20
254.094902
 10
403.284853
 20
254.3129
 10
403.115759
 20
254.529064
 10
402.966611
 20
254.747796
 10
402.835873
 20
254.973498
 10
402.722012
 20
255.210572
 10
402.623495
 20
255.46342
 10
402.538788
 20
255.736444
 10
402.466357
 20
256.034045
 10
402.404669
 20
256.360626
 10
402.352189
 20
256.720589
 10
402.307385
 20
257.118334
 10
402.268721
 20
257.558266
 10
402.203684
 20
258.582292
 10
402.149947
 20
259.499438
 10
402.118212
 20
259.870795
 10
402.077874
 20
260.189582
 10
401.908423
 20
261.054694
 42
0.360633
 10
401.611891
 20
261.297021
 10
396.946453
 20
261.263945
 10
396.932274
 20
263.263895
 10
401.806313
 20
263.298449
 42
0.401676
 10
402.103993
 20
263.587673
 10
402.146845
 20
264.78063
 10
402.149023
 20
265.265529
 10
402.129799
 20
266.463316
 10
402.061904
 20
269.812739
 42
0.410359
 10
401.759839
 20
270.106651
 10
396.977402
 20
270.072746
 10
396.963223
 20
272.072696
 10
401.7213
 20
272.106428
 42
0.400864
 10
402.023778
 20
272.641512
 10
402.032251
 20
272.738329
 10
402.062769
 20
273.526432
 10
402.064719
 20
274.053426
 10
402.035686
 20
278.612541
 42
0.414425
 10
401.733565
 20
278.910623
 10
396.947314
 20
278.876691
 10
396.933135
 20
280.876641
 10
401.55705
 20
280.909422
 42
0.357816
 10
401.849569
 20
281.152986
 10
401.979543
 20
281.831648
 10
402.016976
 20
282.179818
 10
402.039681
 20
282.589999
 10
402.051341
 20
283.067619
 10
402.069969
 20
287.542454
 42
0.417513
 10
401.767845
 20
287.843695
 10
396.917325
 20
287.809307
 10
396.903146
 20
289.809257
 10
401.845447
 20
289.844295
 42
0.408406
 10
402.143296
 20
290.140454
 10
402.159487
 20
291.407183
 10
402.154163
 20
292.20351
 10
402.136474
 20
293.176562
 10
402.05868
 20
296.704396
 42
0.409839
 10
401.756626
 20
296.997775
 10
396.884251
 20
296.963232
 10
396.870072
 20
298.963182
 10
401.766164
 20
298.997893
 42
0.388184
 10
402.088617
 20
299.58242
 10
402.068874
 20
299.423027
 10
402.144961
 20
300.263062
 10
402.196241
 20
301.180208
 10
402.336232
 20
303.958333
 10
402.767933
 20
304.752083
 10
402.870833
 20
304.926911
 10
402.99811
 20
305.119742
 10
403.144741
 20
305.32423
 10
403.305704
 20
305.534027
 10
403.475977
 20
305.742789
 10
403.650536
 20
305.944168
 10
403.824361
 20
306.131818
 10
403.992428
 20
306.299393
 10
404.12276
 20
306.428908
 10
404.24404
 20
306.561003
 10
404.356274
 20
306.695567
 10
404.459467
 20
306.832489
 10
404.553628
 20
306.971657
 10
404.638762
 20
307.112959
 10
404.714876
 20
307.256284
 10
404.781976
 20
307.401521
 10
404.840069
 20
307.548558
 10
404.889162
 20
307.697284
 10
404.929261
 20
307.847587
 10
404.960373
 20
307.999355
 10
404.982504
 20
308.152478
 10
404.995661
 20
308.306843
 10
404.999851
 20
308.46234
 10
404.995079
 20
308.618856
 10
404.981353
 20
308.77628
 10
404.95868
 20
308.934501
 10
404.927065
 20
309.093407
 10
404.886515
 20
309.252887
 10
404.837037
 20
309.412829
 10
404.778638
 20
309.573122
 10
404.711324
 20
309.733654
 10
404.635101
 20
309.894314
 10
404.549976
 20
310.054991
 10
404.455956
 20
310.215572
 10
404.353048
 20
310.375946
 10
404.241257
 20
310.536002
 10
403.991055
 20
310.854714
 10
403.705404
 20
311.170816
 10
403.529972
 20
311.342722
 10
403.346649
 20
311.503226
 10
403.156225
 20
311.652037
 10
402.959492
 20
311.788864
 10
402.757238
 20
311.913415
 10
402.550256
 20
312.025399
 10
402.339335
 20
312.124526
 10
402.125267
 20
312.210503
 10
401.908842
 20
312.283041
 10
401.69085
 20
312.341848
 10
401.472083
 20
312.386632
 10
401.253331
 20
312.417103
 10
401.035384
 20
312.43297
 10
400.819033
 20
312.433941
 10
400.60507
 20
312.419725
 10
400.394283
 20
312.390032
 10
400.272812
 20
312.344593
 10
400.063933
 20
312.239612
 10
399.427033
 20
311.879155
 10
398.569757
 20
311.364921
 10
397.578275
 20
310.753173
 10
395.537384
 20
309.462175
 10
394.660317
 20
308.895448
 10
393.84378
 20
308.357449
 42
0.256643
 10
393.708879
 20
308.101933
 10
393.802
 20
302.519805
 10
391.802278
 20
302.486445
 10
391.519688
 20
308.219363
 10
391.604595
 20
308.152964
 42
0.234938
 10
391.587246
 20
308.243671
 10
390.775016
 20
308.837252
 10
389.094595
 20
310.012957
 10
387.196267
 20
311.310926
 10
385.733884
 20
312.292708
 10
384.502359
 20
312.291719
 10
384.202079
 20
312.283176
 10
383.914067
 20
312.257931
 10
383.638075
 20
312.215823
 10
383.373851
 20
312.156693
 10
383.121146
 20
312.080379
 10
382.879711
 20
311.986721
 10
382.649294
 20
311.875559
 10
382.429647
 20
311.746731
 10
382.22052
 20
311.600078
 10
382.021662
 20
311.435439
 10
381.832823
 20
311.252653
 10
381.653754
 20
311.05156
 10
381.484206
 20
310.831999
 10
381.323927
 20
310.59381
 10
381.172668
 20
310.336832
 10
381.030179
 20
310.060904
 10
380.901575
 20
309.777662
 10
380.79437
 20
309.50287
 10
380.708664
 20
309.235846
 10
380.644556
 20
308.975904
 10
380.602146
 20
308.722361
 10
380.581532
 20
308.474533
 10
380.582813
 20
308.231737
 10
380.60609
 20
307.993287
 10
380.651461
 20
307.7585
 10
380.719025
 20
307.526692
 10
380.808882
 20
307.297179
 10
380.92113
 20
307.069277
 10
381.05587
 20
306.842302
 10
381.2132
 20
306.61557
 10
381.39322
 20
306.388397
 10
381.596028
 20
306.160099
 10
382.108045
 20
305.59744
 10
382.320011
 20
305.346659
 10
382.505363
 20
305.108696
 10
382.666158
 20
304.87789
 10
382.804457
 20
304.648582
 10
382.922318
 20
304.41511
 10
383.0218
 20
304.171815
 10
383.104962
 20
303.913035
 10
383.173864
 20
303.63311
 10
383.230565
 20
303.32638
 10
383.277124
 20
302.987185
 10
383.315601
 20
302.609862
 10
383.348054
 20
302.188753
 10
383.403125
 20
301.192533
 10
383.451782
 20
300.271319
 10
383.4813
 20
299.898319
 10
383.519527
 20
299.578126
 10
383.606088
 20
299.11601
 42
0.362966
 10
383.903087
 20
298.871251
 10
388.77077
 20
298.905761
 10
388.784948
 20
296.905811
 10
383.885925
 20
296.871079
 42
0.399303
 10
383.588343
 20
296.584308
 10
383.490994
 20
294.377544
 10
383.461804
 20
293.176562
 10
383.397969
 20
290.021713
 42
0.422238
 10
383.700034
 20
289.715652
 10
388.803844
 20
289.751836
 10
388.818022
 20
287.751886
 10
383.884979
 20
287.716913
 42
0.405271
 10
383.587189
 20
287.423982
 10
383.540149
 20
285.426021
 10
383.522728
 20
281.084905
 42
0.417469
 10
383.824852
 20
280.783708
 10
388.833833
 20
280.81922
 10
388.848011
 20
278.81927
 10
383.959924
 20
278.784616
 42
0.375701
 10
383.664435
 20
278.522373
 10
383.546019
 20
277.58879
 10
383.515651
 20
277.181002
 10
383.495002
 20
276.705848
 10
383.467788
 20
275.532157
 10
383.406009
 20
272.28442
 42
0.421882
 10
383.708082
 20
271.978722
 10
388.863921
 20
272.015275
 10
388.878099
 20
270.015325
 10
383.93534
 20
269.980283
 42
0.395773
 10
383.637941
 20
269.697165
 10
383.552258
 20
268.176292
 10
383.540407
 20
267.698937
 10
383.52252
 20
263.472229
 42
0.417533
 10
383.824644
 20
263.170967
 10
388.832972
 20
263.206474
 10
388.84715
 20
261.206524
 10
383.818478
 20
261.170873
 42
0.394226
 10
383.521175
 20
260.889359
 10
383.37064
 20
258.45
 10
383.172202
 20
255.329811
 10
383.140517
 20
255.261026
 10
383.062776
 20
255.145347
 10
382.789716
 20
254.798165
 10
382.394195
 20
254.337984
 10
381.917388
 20
253.814526
 10
381.545659
 20
253.409747
 10
381.257469
 20
253.07204
 10
381.141429
 20
252.921326
 10
381.042347
 20
252.778964
 10
380.958914
 20
252.64215
 10
380.889821
 20
252.508078
 10
380.833759
 20
252.373943
 10
380.789419
 20
252.23694
 10
380.755491
 20
252.094263
 10
380.730668
 20
251.943108
 10
380.703097
 20
251.604142
 10
380.696234
 20
251.1976
 10
380.700667
 20
250.991459
 10
380.713869
 20
250.789653
 10
380.735693
 20
250.592326
 10
380.765993
 20
250.399624
 10
380.804622
 20
250.211692
 10
380.851435
 20
250.028674
 10
380.906285
 20
249.850715
 10
380.969025
 20
249.67796
 10
381.039509
 20
249.510554
 10
381.117592
 20
249.348642
 10
381.203125
 20
249.192369
 10
381.295964
 20
249.04188
 10
381.395962
 20
248.897319
 10
381.502973
 20
248.758831
 10
381.616849
 20
248.626562
 10
381.737445
 20
248.500656
 10
381.864615
 20
248.381258
 10
381.998212
 20
248.268513
 10
382.138089
 20
248.162566
 10
382.284101
 20
248.063562
 10
382.436101
 20
247.971646
 10
382.593943
 20
247.886962
 10
382.75748
 20
247.809656
 10
382.926566
 20
247.739872
 10
383.101055
 20
247.677755
 10
383.2808
 20
247.62345
 10
383.465655
 20
247.577103
 10
383.655474
 20
247.538857
 10
383.85011
 20
247.508858
 10
384.049417
 20
247.487251
 10
384.253248
 20
247.474181
 10
384.461458
 20
247.469792
 10
384.686683
 20
247.473145
 10
384.900552
 20
247.484671
 10
385.107833
 20
247.50657
 10
385.313295
 20
247.541045
 10
385.521704
 20
247.590295
 10
385.737829
 20
247.65652
 10
385.966438
 20
247.741923
 10
386.212297
 20
247.848704
 10
386.480176
 20
247.979063
 10
386.774841
 20
248.135201
 10
387.101061
 20
248.31932
 10
387.463603
 20
248.533619
 10
388.316725
 20
249.061563
 10
389.372349
 20
249.73664
 10
391.827358
 20
251.320388
  0
LWPOLYLINE
  5
3C
330
1F
100
AcDbEntity
  8
0
100
AcDbPolyline
 90
     1332
 70
   128
 43
0.0
 10
395.023019
 20
214.926042
 10
395.222367
 20
214.945194
 10
395.517394
 20
215.000086
 10
395.893846
 20
215.086869
 10
396.337466
 20
215.201693
 10
396.834
 20
215.340709
 10
397.369193
 20
215.50007
 10
397.928789
 20
215.675926
 10
398.498535
 20
215.864428
 10
401.2625
 20
216.802813
 10
402.585417
 20
217.063118
 10
402.890275
 20
217.117724
 10
403.250289
 20
217.173146
 10
404.082642
 20
217.280301
 10
404.976189
 20
217.372319
 10
405.824642
 20
217.436933
 10
406.490487
 20
217.483729
 10
407.099427
 20
217.542716
 10
407.653918
 20
217.615312
 10
408.156417
 20
217.70294
 10
408.609381
 20
217.807019
 10
408.818055
 20
217.865672
 10
409.015267
 20
217.92897
 10
409.201323
 20
217.997091
 10
409.37653
 20
218.070213
 10
409.541197
 20
218.148512
 10
409.695628
 20
218.232168
 10
409.840133
 20
218.321357
 10
409.975018
 20
218.416257
 10
410.10059
 20
218.517045
 10
410.217156
 20
218.623899
 10
410.325023
 20
218.736996
 10
410.424498
 20
218.856515
 10
410.515889
 20
218.982632
 10
410.599502
 20
219.115525
 10
410.675644
 20
219.255372
 10
410.744624
 20
219.402351
 10
410.806746
 20
219.556638
 10
410.86232
 20
219.718411
 10
410.911652
 20
219.887849
 10
410.955048
 20
220.065127
 10
411.025264
 20
220.44392
 10
411.068409
 20
220.69113
 10
411.124401
 20
220.952194
 10
411.190888
 20
221.219223
 10
411.265519
 20
221.484326
 10
411.345944
 20
221.739612
 10
411.429811
 20
221.977191
 10
411.514769
 20
222.189174
 10
411.598467
 20
222.367669
 10
411.695628
 20
222.525402
 10
411.829228
 20
222.697113
 10
411.994585
 20
222.879484
 10
412.187019
 20
223.069195
 10
412.401847
 20
223.26293
 10
412.634388
 20
223.45737
 10
412.879961
 20
223.649197
 10
413.133884
 20
223.835094
 10
413.391477
 20
224.011742
 10
413.648057
 20
224.175823
 10
413.898943
 20
224.324019
 10
414.139454
 20
224.453012
 10
414.364908
 20
224.559485
 10
414.570625
 20
224.640119
 10
414.751922
 20
224.691596
 10
414.83195
 20
224.705364
 10
414.904118
 20
224.710598
 10
414.995939
 20
224.718358
 10
415.098937
 20
224.738646
 10
415.209619
 20
224.770086
 10
415.32449
 20
224.8113
 10
415.728058
 20
224.984547
 42
0.458268
 10
415.864918
 20
225.417928
 10
413.862808
 20
228.657702
 10
415.564152
 20
229.709096
 10
417.978165
 20
225.802787
 42
0.276106
 10
418.25145
 20
225.661041
 10
418.598291
 20
225.681986
 10
418.740782
 20
225.699375
 10
419.065026
 20
225.761895
 10
419.449214
 20
225.860227
 10
419.902462
 20
225.992961
 10
420.433884
 20
226.158684
 10
424.532639
 20
227.463959
 42
0.476952
 10
424.7023
 20
227.89827
 10
422.293191
 20
232.128738
 10
424.031145
 20
233.118444
 10
426.583417
 20
228.636576
 42
0.385144
 10
426.965727
 20
228.510789
 10
427.224421
 20
228.62551
 10
427.689864
 20
228.859767
 10
428.25085
 20
229.161276
 10
428.87966
 20
229.514777
 10
429.548573
 20
229.905009
 10
430.229871
 20
230.316713
 10
430.895833
 20
230.734628
 10
432.541278
 20
231.802941
 42
0.406724
 10
432.633637
 20
232.21142
 10
429.499297
 20
237.321218
 10
431.204123
 20
238.366956
 10
434.228447
 20
233.436514
 42
0.45379
 10
434.673606
 20
233.360749
 10
435.026386
 20
233.648031
 10
435.302015
 20
233.887069
 10
435.608683
 20
234.16509
 10
436.293644
 20
234.817082
 10
437.038285
 20
235.562006
 10
437.799623
 20
236.357862
 10
438.534675
 20
237.16265
 10
438.878911
 20
237.555268
 10
439.200457
 20
237.934369
 10
440.465242
 20
239.454162
 42
0.385929
 10
440.448091
 20
239.856877
 10
435.99067
 20
244.369919
 10
437.413624
 20
245.775337
 10
441.456302
 20
241.682214
 42
0.426434
 10
441.889241
 20
241.688523
 10
441.917717
 20
241.719087
 10
442.017912
 20
241.849206
 10
442.249053
 20
242.189521
 10
442.622016
 20
242.790974
 10
443.127447
 20
243.657836
 10
443.69902
 20
244.674134
 10
444.270408
 20
245.723896
 10
444.706908
 20
246.548604
 10
444.877689
 20
246.886689
 10
445.016471
 20
247.182371
 10
445.122989
 20
247.440982
 10
445.287256
 20
247.944683
 42
0.32479
 10
445.178753
 20
248.280128
 10
441.031655
 20
251.303029
 10
442.209739
 20
252.919235
 10
446.090848
 20
250.090218
 42
0.464725
 10
446.536304
 20
250.199318
 10
450.070587
 20
257.323072
 42
0.390913
 10
449.956277
 20
257.7136
 10
445.7612
 20
260.232507
 10
446.79075
 20
261.947157
 10
451.058593
 20
259.384558
 42
0.382521
 10
451.523721
 20
259.554711
 10
451.449289
 20
259.452243
 10
451.922771
 20
260.079471
 10
452.488276
 20
260.786474
 10
453.212695
 20
261.672181
 10
454.01659
 20
262.638507
 10
455.661433
 20
264.598947
 42
0.405015
 10
455.63158
 20
265.015406
 10
451.586995
 20
268.631996
 10
452.920125
 20
270.12289
 10
456.906939
 20
266.557957
 42
0.404508
 10
457.323772
 20
266.574299
 10
462.580099
 20
272.073292
 42
0.398194
 10
462.582138
 20
272.485724
 10
458.813665
 20
276.507015
 10
460.273009
 20
277.874609
 10
464.010097
 20
273.886809
 42
0.360919
 10
464.579871
 20
273.959879
 10
464.524901
 20
273.930662
 10
465.006617
 20
274.231988
 10
465.271645
 20
274.428737
 10
465.570312
 20
274.670676
 10
466.291683
 20
275.288779
 10
468.466667
 20
277.173887
 10
469.458854
 20
277.835124
 10
470.08091
 20
278.259368
 42
0.41857
 10
470.157188
 20
278.679909
 10
467.085717
 20
283.042892
 10
468.721115
 20
284.194186
 10
471.869466
 20
279.721993
 42
0.402603
 10
472.277572
 20
279.6427
 10
472.545515
 20
279.815804
 10
472.850032
 20
280.026174
 10
473.058925
 20
280.161783
 10
473.362147
 20
280.340049
 10
474.194047
 20
280.794142
 10
475.230661
 20
281.327636
 10
476.35692
 20
281.87971
 10
477.261879
 20
282.317643
 10
477.625181
 20
282.504594
 10
477.932959
 20
282.677722
 10
478.720243
 20
283.186576
 42
0.344404
 10
478.841235
 20
283.535665
 10
477.102213
 20
288.617302
 10
478.994477
 20
289.264866
 10
480.764642
 20
284.092223
 42
0.382353
 10
481.113872
 20
283.896571
 10
482.093643
 20
284.115392
 10
483.018913
 20
284.333535
 10
484.077083
 20
284.592145
 10
487.746811
 20
285.427621
 10
488.326054
 20
285.532587
 42
0.400995
 10
488.569875
 20
285.867837
 10
487.814209
 20
291.476534
 10
489.796299
 20
291.743584
 10
490.520341
 20
286.369615
 42
0.313663
 10
490.751865
 20
286.116975
 10
491.21744
 20
286.012327
 10
491.407787
 20
285.982155
 10
491.619402
 20
285.959245
 10
492.111626
 20
285.931766
 10
492.704491
 20
285.922995
 10
493.408379
 20
285.926037
 10
499.431656
 20
285.973182
 42
0.448704
 10
499.727
 20
286.310317
 10
499.01399
 20
292.02475
 10
500.998602
 20
292.272376
 10
502.162691
 20
285.703063
 10
502.075916
 20
285.721933
 42
0.333241
 10
502.047174
 20
285.612355
 10
502.728792
 20
285.502361
 10
503.222026
 20
285.44108
 10
504.037741
 20
285.326955
 10
505.155399
 20
285.144831
 10
506.427812
 20
284.919785
 10
510.241028
 20
284.196177
 42
0.481977
 10
510.59674
 20
284.502365
 10
510.346303
 20
291.060076
 10
512.344847
 20
291.1364
 10
512.948895
 20
283.59806
 10
513.036403
 20
283.568866
 42
0.330252
 10
512.849135
 20
283.508018
 10
513.675989
 20
283.290953
 10
513.948709
 20
283.230972
 10
514.255756
 20
283.172763
 10
514.934085
 20
283.068512
 10
515.286
 20
283.025893
 10
515.6335
 20
282.991896
 10
516.099139
 20
282.957155
 10
516.486493
 20
282.940702
 10
516.807163
 20
282.944307
 10
517.072752
 20
282.969743
 10
517.188516
 20
282.991202
 10
517.29486
 20
283.018782
 10
517.393235
 20
283.052706
 10
517.485089
 20
283.093194
 10
517.571874
 20
283.140469
 10
517.655039
 20
283.194752
 10
517.816313
 20
283.325227
 10
517.928765
 20
283.444365
 10
518.027456
 20
283.585841
 10
518.112389
 20
283.749735
 10
518.183567
 20
283.936126
 10
518.240991
 20
284.145094
 10
518.284664
 20
284.376717
 10
518.31459
 20
284.631075
 10
518.33077
 20
284.908248
 10
518.333207
 20
285.208314
 10
518.321904
 20
285.531353
 10
518.296863
 20
285.877444
 10
518.258087
 20
286.246666
 10
518.205578
 20
286.6391
 10
518.139339
 20
287.054823
 10
518.059373
 20
287.493916
 10
517.965681
 20
287.956458
 10
517.768883
 20
288.928617
 10
517.503426
 20
290.300254
 10
517.20409
 20
291.889056
 10
516.90566
 20
293.512708
 10
515.809381
 20
299.022935
 42
0.411417
 10
515.459424
 20
299.259176
 10
504.79749
 20
297.243678
 10
504.425996
 20
299.208874
 10
515.157165
 20
301.237459
 42
0.422253
 10
515.394584
 20
301.596009
 10
515.107326
 20
302.916496
 10
515.021832
 20
303.356346
 10
514.950062
 20
303.766596
 10
514.891943
 20
304.149277
 10
514.847402
 20
304.506422
 10
514.816365
 20
304.840062
 10
514.798759
 20
305.152229
 10
514.794511
 20
305.444954
 10
514.803546
 20
305.720269
 10
514.825792
 20
305.980206
 10
514.861175
 20
306.226796
 10
514.909622
 20
306.462071
 10
514.971059
 20
306.688063
 10
515.045413
 20
306.906803
 10
515.132611
 20
307.120323
 10
515.28871
 20
307.447892
 10
515.368492
 20
307.593331
 10
515.451581
 20
307.728492
 10
515.539589
 20
307.854839
 10
515.634129
 20
307.973837
 10
515.736815
 20
308.086948
 10
515.849261
 20
308.195638
 10
515.973078
 20
308.301369
 10
516.10988
 20
308.405607
 10
516.261282
 20
308.509816
 10
516.428894
 20
308.615458
 10
516.819207
 20
308.836903
 10
517.293725
 20
309.081654
 10
517.967313
 20
309.403851
 10
518.573779
 20
309.667703
 10
518.831069
 20
309.769241
 10
519.046653
 20
309.845982
 10
519.212222
 20
309.894522
 10
519.319467
 20
309.911458
 10
519.415555
 20
309.922876
 10
519.549147
 20
309.955598
 10
519.714177
 20
310.00733
 10
519.904578
 20
310.075778
 10
520.337227
 20
310.253646
 10
520.798561
 20
310.470846
 10
521.12714
 20
310.641096
 10
521.440881
 20
310.814436
 10
521.739826
 20
310.99096
 10
522.024017
 20
311.170759
 10
522.293496
 20
311.353928
 10
522.548305
 20
311.540559
 10
522.788486
 20
311.730744
 10
523.01408
 20
311.924578
 10
523.22513
 20
312.122151
 10
523.421678
 20
312.323558
 10
523.603766
 20
312.528891
 10
523.771435
 20
312.738243
 10
523.924728
 20
312.951707
 10
524.063687
 20
313.169375
 10
524.188353
 20
313.391341
 10
524.298768
 20
313.617698
 10
524.394975
 20
313.848538
 10
524.477016
 20
314.083954
 10
524.544932
 20
314.324038
 10
524.598765
 20
314.568885
 10
524.638557
 20
314.818587
 10
524.664351
 20
315.073235
 10
524.676188
 20
315.332925
 10
524.67411
 20
315.597747
 10
524.65816
 20
315.867796
 10
524.628378
 20
316.143163
 10
524.584808
 20
316.423943
 10
524.527491
 20
316.710227
 10
524.456469
 20
317.002108
 10
524.371783
 20
317.29968
 10
524.273477
 20
317.603035
 10
524.161592
 20
317.912266
 10
524.031861
 20
318.268943
 10
523.920611
 20
318.608117
 10
523.827864
 20
318.930359
 10
523.753642
 20
319.236238
 10
523.697969
 20
319.526323
 10
523.660866
 20
319.801184
 10
523.642355
 20
320.06139
 10
523.64246
 20
320.307511
 10
523.661203
 20
320.540115
 10
523.698606
 20
320.759773
 10
523.754691
 20
320.967054
 10
523.829481
 20
321.162527
 10
523.922999
 20
321.346763
 10
524.035266
 20
321.520329
 10
524.166306
 20
321.683796
 10
524.31614
 20
321.837734
 10
524.546296
 20
322.041039
 10
524.658388
 20
322.124229
 10
524.775544
 20
322.196193
 10
524.903055
 20
322.25774
 10
525.046214
 20
322.309682
 10
525.210311
 20
322.352829
 10
525.400637
 20
322.387993
 10
525.622486
 20
322.415983
 10
525.881147
 20
322.43761
 10
526.530073
 20
322.465021
 10
527.389748
 20
322.476711
 10
528.502502
 20
322.479167
 10
529.641357
 20
322.481402
 10
530.520856
 20
322.493947
 10
530.87985
 20
322.506821
 10
531.193809
 20
322.525555
 10
531.469335
 20
322.551244
 10
531.713027
 20
322.584982
 10
531.931489
 20
322.627864
 10
532.131321
 20
322.680984
 10
532.319124
 20
322.745437
 10
532.5015
 20
322.822317
 10
532.68505
 20
322.912718
 10
532.876376
 20
323.017734
 10
533.308758
 20
323.275993
 10
533.588726
 20
323.459285
 10
533.854899
 20
323.658082
 10
534.106689
 20
323.871382
 10
534.343507
 20
324.098187
 10
534.564764
 20
324.337497
 10
534.769871
 20
324.588313
 10
534.958238
 20
324.849636
 10
535.129278
 20
325.120464
 10
535.282402
 20
325.399801
 10
535.417019
 20
325.686644
 10
535.532542
 20
325.979996
 10
535.628382
 20
326.278857
 10
535.703948
 20
326.582227
 10
535.758654
 20
326.889106
 10
535.791909
 20
327.198496
 10
535.803125
 20
327.509396
 10
535.80013
 20
327.793613
 10
535.75441
 20
328.81292
 42
0.464299
 10
535.391366
 20
329.092713
 10
529.910067
 20
327.908632
 10
529.487765
 20
329.863538
 10
534.963526
 20
331.046424
 42
0.463378
 10
535.124597
 20
331.587527
 10
535.164118
 20
331.467316
 10
534.96464
 20
331.990757
 10
534.835025
 20
332.277752
 10
534.683676
 20
332.581207
 10
534.51296
 20
332.896573
 10
534.325246
 20
333.2193
 10
534.122902
 20
333.544838
 10
533.908296
 20
333.868636
 10
533.683796
 20
334.186145
 10
533.45177
 20
334.492815
 10
533.214586
 20
334.784095
 10
532.974613
 20
335.055436
 10
532.762121
 20
335.279439
 10
532.546948
 20
335.495339
 10
532.329144
 20
335.703114
 10
532.108761
 20
335.902746
 10
531.88585
 20
336.094213
 10
531.660463
 20
336.277497
 10
531.43265
 20
336.452577
 10
531.202464
 20
336.619433
 10
530.969956
 20
336.778047
 10
530.735176
 20
336.928396
 10
530.498177
 20
337.070463
 10
530.25901
 20
337.204226
 10
530.017725
 20
337.329667
 10
529.774376
 20
337.446764
 10
529.529012
 20
337.555499
 10
529.281685
 20
337.655851
 10
529.032447
 20
337.7478
 10
528.781349
 20
337.831327
 10
528.528442
 20
337.906412
 10
528.273777
 20
337.973034
 10
528.017407
 20
338.031174
 10
527.759383
 20
338.080812
 10
527.499755
 20
338.121928
 10
527.238575
 20
338.154502
 10
526.975895
 20
338.178515
 10
526.711765
 20
338.193946
 10
526.446238
 20
338.200775
 10
526.179364
 20
338.198983
 10
525.911196
 20
338.18855
 10
525.641784
 20
338.169455
 10
525.371179
 20
338.14168
 10
525.099434
 20
338.105203
 10
524.777322
 20
338.045768
 10
524.473158
 20
337.965629
 10
524.185235
 20
337.862833
 10
523.911849
 20
337.735427
 10
523.651294
 20
337.581458
 10
523.401864
 20
337.398973
 10
522.63577
 20
336.719243
 42
0.116605
 10
522.556359
 20
336.606321
 10
515.564783
 20
319.139043
 10
513.708001
 20
319.882251
 10
520.123399
 20
335.910046
 42
0.387331
 10
519.981652
 20
336.288537
 10
519.569007
 20
336.499906
 10
519.310093
 20
336.610683
 10
519.020761
 20
336.716037
 10
518.704243
 20
336.815157
 10
518.363773
 20
336.907229
 10
518.002583
 20
336.991442
 10
517.623905
 20
337.066985
 10
517.230972
 20
337.133043
 10
516.827017
 20
337.188806
 10
516.415272
 20
337.233461
 10
515.99897
 20
337.266197
 10
515.581343
 20
337.2862
 10
515.165625
 20
337.292659
 10
514.77354
 20
337.287525
 10
514.397532
 20
337.273032
 10
514.037288
 20
337.248851
 10
513.692494
 20
337.214652
 10
513.362835
 20
337.170105
 10
513.048
 20
337.11488
 10
512.747673
 20
337.048647
 10
512.46154
 20
336.971077
 10
512.189288
 20
336.881839
 10
511.930604
 20
336.780604
 10
511.685172
 20
336.667041
 10
511.45268
 20
336.540822
 10
511.232814
 20
336.401616
 10
511.025259
 20
336.249093
 10
510.829703
 20
336.082923
 10
510.64583
 20
335.902777
 10
510.473328
 20
335.708324
 10
510.311883
 20
335.499235
 10
510.16118
 20
335.27518
 10
510.020906
 20
335.035829
 10
509.890747
 20
334.780852
 10
509.770389
 20
334.50992
 10
509.659519
 20
334.222702
 10
509.557823
 20
333.918869
 10
509.464986
 20
333.59809
 10
509.380695
 20
333.260036
 10
509.304637
 20
332.904377
 10
509.236497
 20
332.530784
 10
509.175961
 20
332.138925
 10
509.122716
 20
331.728472
 10
509.076448
 20
331.299095
 10
509.036844
 20
330.850463
 10
508.953814
 20
329.915688
 10
508.856023
 20
329.023619
 10
508.742536
 20
328.171293
 10
508.612418
 20
327.355744
 10
508.464735
 20
326.574008
 10
508.298551
 20
325.823121
 10
508.112932
 20
325.100117
 10
507.906943
 20
324.402032
 10
507.679649
 20
323.725902
 10
507.430117
 20
323.068761
 10
507.15741
 20
322.427646
 10
506.860594
 20
321.799591
 10
506.538735
 20
321.181632
 10
506.190898
 20
320.570804
 10
505.816148
 20
319.964143
 10
505.41355
 20
319.358683
 10
505.180991
 20
319.037545
 10
504.917513
 20
318.704171
 10
504.625892
 20
318.361029
 10
504.308901
 20
318.010586
 10
503.969317
 20
317.655309
 10
503.609913
 20
317.297665
 10
503.233465
 20
316.940121
 10
502.842748
 20
316.585143
 10
502.440536
 20
316.235199
 10
502.029605
 20
315.892755
 10
501.612729
 20
315.560279
 10
501.192683
 20
315.240237
 10
500.772243
 20
314.935096
 10
500.354182
 20
314.647323
 10
499.941276
 20
314.379385
 10
499.5363
 20
314.133749
 10
498.810278
 20
313.700483
 10
498.160395
 20
313.290234
 10
497.582608
 20
312.896204
 10
497.319488
 20
312.703146
 10
497.072875
 20
312.511593
 10
496.842265
 20
312.320695
 10
496.627153
 20
312.129602
 10
496.427033
 20
311.937465
 10
496.241399
 20
311.743433
 10
496.069747
 20
311.546657
 10
495.911571
 20
311.346286
 10
495.766365
 20
311.141472
 10
495.633625
 20
310.931363
 10
495.512845
 20
310.715111
 10
495.40352
 20
310.491865
 10
495.305143
 20
310.260775
 10
495.217211
 20
310.020992
 10
495.139218
 20
309.771665
 10
495.070657
 20
309.511946
 10
495.011025
 20
309.240983
 10
494.959815
 20
308.957927
 10
494.916522
 20
308.661929
 10
494.880642
 20
308.352138
 10
494.829095
 20
307.687778
 10
494.801131
 20
306.95805
 10
494.792708
 20
306.156153
 10
494.769179
 20
305.762038
 10
494.765129
 20
305.33787
 10
494.768249
 20
304.895429
 10
494.766227
 20
304.446492
 10
494.746752
 20
304.00284
 10
494.726622
 20
303.786676
 10
494.697513
 20
303.57625
 10
494.657885
 20
303.373035
 10
494.606199
 20
303.178503
 10
494.540917
 20
302.994126
 10
494.460499
 20
302.821376
 10
494.392651
 20
302.722043
 10
494.302294
 20
302.633282
 10
494.192187
 20
302.554821
 10
494.065088
 20
302.486386
 10
493.923757
 20
302.427705
 10
493.770951
 20
302.378506
 10
493.609431
 20
302.338515
 10
493.441954
 20
302.307461
 10
493.27128
 20
302.28507
 10
493.100168
 20
302.27107
 10
492.931375
 20
302.265188
 10
492.767661
 20
302.267153
 10
492.611785
 20
302.27669
 10
492.466506
 20
302.293528
 10
492.334582
 20
302.317393
 10
492.218772
 20
302.348014
 10
492.163053
 20
302.37227
 10
492.0986
 20
302.412007
 10
491.946584
 20
302.534348
 10
491.768904
 20
302.707879
 10
491.571741
 20
302.925445
 10
491.361275
 20
303.179887
 10
491.143687
 20
303.46405
 10
490.925157
 20
303.770777
 10
490.711867
 20
304.092911
 10
490.431274
 20
304.523731
 10
490.161323
 20
304.917746
 10
489.9004
 20
305.276199
 10
489.646893
 20
305.600332
 10
489.39919
 20
305.89139
 10
489.155676
 20
306.150616
 10
488.91474
 20
306.379252
 10
488.674768
 20
306.578543
 10
488.434148
 20
306.749732
 10
488.191267
 20
306.894061
 10
487.944511
 20
307.012775
 10
487.692269
 20
307.107117
 10
487.432927
 20
307.178329
 10
487.164872
 20
307.227656
 10
486.886491
 20
307.25634
 10
486.596173
 20
307.265625
 10
486.266367
 20
307.25725
 10
485.960906
 20
307.231465
 10
485.678739
 20
307.187278
 10
485.418817
 20
307.1237
 10
485.18009
 20
307.039738
 10
484.961508
 20
306.934403
 10
484.762021
 20
306.806703
 10
484.58058
 20
306.655647
 10
484.416134
 20
306.480245
 10
484.267633
 20
306.279506
 10
484.134029
 20
306.052439
 10
484.01427
 20
305.798053
 10
483.907308
 20
305.515356
 10
483.812092
 20
305.203359
 10
483.727573
 20
304.861071
 10
483.6527
 20
304.4875
 10
483.512479
 20
303.801961
 10
483.342771
 20
303.108925
 10
483.164978
 20
302.489236
 10
483.079737
 20
302.23216
 10
483.0005
 20
302.023735
 10
482.883924
 20
301.757958
 10
482.775517
 20
301.553272
 10
482.720803
 20
301.471729
 10
482.663843
 20
301.402927
 10
482.603207
 20
301.346022
 10
482.537467
 20
301.30017
 10
482.465193
 20
301.264527
 10
482.384956
 20
301.238249
 10
482.295325
 20
301.220493
 10
482.194873
 20
301.210413
 10
481.955785
 20
301.209909
 10
481.656257
 20
301.229985
 10
481.501685
 20
301.245964
 10
481.357154
 20
301.268094
 10
481.220308
 20
301.298219
 10
481.088795
 20
301.338183
 10
480.960261
 20
301.38983
 10
480.832353
 20
301.455004
 10
480.702717
 20
301.535549
 10
480.569
 20
301.633309
 10
480.428847
 20
301.750128
 10
480.279906
 20
301.88785
 10
479.946245
 20
302.233379
 10
479.549188
 20
302.684648
 10
479.069908
 20
303.256408
 10
478.69741
 20
303.738464
 10
478.304296
 20
304.266504
 10
478.100498
 20
304.527438
 10
477.892136
 20
304.775472
 10
477.679404
 20
305.002476
 10
477.4625
 20
305.200316
 10
477.409311
 20
305.237264
 10
477.333487
 20
305.279043
 10
477.122091
 20
305.370343
 10
476.844618
 20
305.460726
 10
476.686199
 20
305.501359
 10
476.517377
 20
305.536703
 10
476.340188
 20
305.565073
 10
476.156673
 20
305.584783
 10
475.96887
 20
305.594146
 10
475.778816
 20
305.591475
 10
475.58855
 20
305.575086
 10
475.400111
 20
305.54329
 10
475.215538
 20
305.494403
 10
475.036867
 20
305.426737
 10
474.37541
 20
305.131438
 10
474.099422
 20
304.998839
 10
473.857402
 20
304.868283
 10
473.647454
 20
304.73378
 10
473.467685
 20
304.589336
 10
473.388525
 20
304.511514
 10
473.316199
 20
304.42896
 10
473.25047
 20
304.340925
 10
473.191102
 20
304.246659
 10
473.137858
 20
304.145414
 10
473.0905
 20
304.036441
 10
473.048792
 20
303.918991
 10
473.012497
 20
303.792314
 10
472.9552
 20
303.508286
 10
472.916713
 20
303.178364
 10
472.895142
 20
302.796556
 10
472.888592
 20
302.35687
 10
472.895169
 20
301.853314
 10
472.912978
 20
301.279895
 10
472.956528
 20
300.650005
 10
473.015286
 20
299.970395
 10
473.037254
 20
299.627933
 10
473.047288
 20
299.292228
 10
473.040141
 20
298.969674
 10
473.010569
 20
298.666667
 10
472.969098
 20
298.490773
 10
472.904297
 20
298.306013
 10
472.767974
 20
297.952596
 10
472.696866
 20
297.780013
 10
472.605285
 20
297.620761
 10
472.493115
 20
297.47474
 10
472.360241
 20
297.341847
 10
472.206546
 20
297.221981
 10
472.031915
 20
297.115039
 10
471.836233
 20
297.020919
 10
471.619383
 20
296.939521
 10
471.350278
 20
296.857141
 10
471.118487
 20
296.803684
 10
470.911971
 20
296.780786
 10
470.81443
 20
296.781309
 10
470.718693
 20
296.790087
 10
470.623256
 20
296.807323
 10
470.526615
 20
296.833223
 10
470.323699
 20
296.911833
 10
470.097908
 20
297.027556
 10
469.837203
 20
297.182028
 10
469.456616
 20
297.436937
 10
469.068068
 20
297.730693
 10
468.717102
 20
298.026961
 10
468.569943
 20
298.164681
 10
468.449259
 20
298.289404
 10
468.305166
 20
298.437184
 10
468.142331
 20
298.583563
 10
467.963082
 20
298.727419
 10
467.769745
 20
298.867628
 10
467.564647
 20
299.003069
 10
467.350115
 20
299.13262
 10
467.128477
 20
299.255159
 10
466.90206
 20
299.369563
 10
466.673189
 20
299.47471
 10
466.444194
 20
299.569478
 10
466.217399
 20
299.652746
 10
465.995134
 20
299.72339
 10
465.779723
 20
299.780289
 10
465.573496
 20
299.82232
 10
465.378778
 20
299.848362
 10
465.197897
 20
299.857292
 10
465.001312
 20
299.843573
 10
464.80141
 20
299.803381
 10
464.599702
 20
299.738164
 10
464.397697
 20
299.64937
 10
464.196907
 20
299.538446
 10
463.998842
 20
299.406841
 10
463.805012
 20
299.256002
 10
463.616927
 20
299.087376
 10
463.436099
 20
298.902412
 10
463.264038
 20
298.702557
 10
463.102254
 20
298.489258
 10
462.952258
 20
298.263965
 10
462.815559
 20
298.028124
 10
462.69367
 20
297.783183
 10
462.5881
 20
297.53059
 10
462.500359
 20
297.271793
 10
462.419903
 20
296.965094
 10
462.360008
 20
296.645852
 10
462.320484
 20
296.306159
 10
462.301137
 20
295.938104
 10
462.301777
 20
295.533778
 10
462.322212
 20
295.085271
 10
462.36225
 20
294.584674
 10
462.4217
 20
294.024077
 10
462.485406
 20
293.389823
 10
462.518871
 20
292.825653
 10
462.523502
 20
292.569342
 10
462.519658
 20
292.329944
 10
462.507035
 20
292.107254
 10
462.485328
 20
291.901071
 10
462.454232
 20
291.711192
 10
462.413444
 20
291.537413
 10
462.362657
 20
291.379531
 10
462.301567
 20
291.237344
 10
462.229871
 20
291.110649
 10
462.147262
 20
290.999242
 10
462.053436
 20
290.902921
 10
461.948088
 20
290.821483
 10
461.830914
 20
290.754725
 10
461.70161
 20
290.702444
 10
461.559869
 20
290.664437
 10
461.405388
 20
290.640501
 10
461.237862
 20
290.630433
 10
461.056985
 20
290.634031
 10
460.862455
 20
290.65109
 10
460.653965
 20
290.681409
 10
460.43121
 20
290.724785
 10
460.193887
 20
290.781013
 10
459.941691
 20
290.849893
 10
459.674316
 20
290.931219
 10
459.092813
 20
291.130404
 10
458.446941
 20
291.376944
 10
457.99689
 20
291.548069
 10
457.563058
 20
291.697681
 10
457.145742
 20
291.826024
 10
456.745237
 20
291.933338
 10
456.361839
 20
292.019866
 10
455.995845
 20
292.08585
 10
455.647551
 20
292.131532
 10
455.317254
 20
292.157154
 10
455.005248
 20
292.162958
 10
454.711831
 20
292.149185
 10
454.437299
 20
292.116079
 10
454.181947
 20
292.06388
 10
453.946072
 20
291.992831
 10
453.729971
 20
291.903173
 10
453.533939
 20
291.79515
 10
453.358272
 20
291.669002
 10
453.203268
 20
291.524973
 10
453.069221
 20
291.363303
 10
452.956428
 20
291.184234
 10
452.865185
 20
290.98801
 10
452.795789
 20
290.774871
 10
452.748535
 20
290.54506
 10
452.72372
 20
290.298819
 10
452.72164
 20
290.03639
 10
452.742591
 20
289.758014
 10
452.78687
 20
289.463934
 10
452.854772
 20
289.154392
 10
452.946594
 20
288.82963
 10
453.062631
 20
288.489889
 10
453.203181
 20
288.135412
 10
453.368538
 20
287.766441
 10
453.559
 20
287.383217
 10
453.788057
 20
286.93188
 10
453.966448
 20
286.551339
 10
454.09724
 20
286.229524
 10
454.183501
 20
285.954368
 10
454.21089
 20
285.830515
 10
454.228297
 20
285.713801
 10
454.236104
 20
285.602717
 10
454.234694
 20
285.495755
 10
454.224452
 20
285.391406
 10
454.205761
 20
285.288161
 10
454.144564
 20
285.078951
 10
454.060419
 20
284.864694
 10
454.016775
 20
284.776176
 10
453.969599
 20
284.699045
 10
453.917026
 20
284.632535
 10
453.857194
 20
284.575883
 10
453.788239
 20
284.528322
 10
453.708297
 20
284.489088
 10
453.615506
 20
284.457417
 10
453.508
 20
284.432543
 10
453.241395
 20
284.400126
 10
452.893573
 20
284.385718
 10
452.449626
 20
284.3832
 10
452.122994
 20
284.39328
 10
451.787804
 20
284.420851
 10
451.45069
 20
284.464586
 10
451.118286
 20
284.523158
 10
450.797225
 20
284.595241
 10
450.494142
 20
284.679509
 10
450.21567
 20
284.774635
 10
449.968443
 20
284.879293
 10
449.732093
 20
284.986947
 10
449.505544
 20
285.080579
 10
449.288474
 20
285.160195
 10
449.08056
 20
285.225799
 10
448.881482
 20
285.277396
 10
448.690917
 20
285.314992
 10
448.508544
 20
285.33859
 10
448.334041
 20
285.348197
 10
448.167087
 20
285.343817
 10
448.007359
 20
285.325455
 10
447.854536
 20
285.293115
 10
447.708297
 20
285.246804
 10
447.568319
 20
285.186525
 10
447.43428
 20
285.112284
 10
447.30586
 20
285.024085
 10
447.182737
 20
284.921934
 10
447.032258
 20
284.77567
 10
446.900653
 20
284.625953
 10
446.787892
 20
284.472199
 10
446.693944
 20
284.313827
 10
446.618779
 20
284.150253
 10
446.562367
 20
283.980897
 10
446.524678
 20
283.805176
 10
446.505681
 20
283.622507
 10
446.505346
 20
283.432308
 10
446.523644
 20
283.233997
 10
446.560544
 20
283.026993
 10
446.616016
 20
282.810711
 10
446.690029
 20
282.584571
 10
446.782554
 20
282.34799
 10
446.89356
 20
282.100386
 10
447.023017
 20
281.841176
 10
447.254529
 20
281.368484
 10
447.351346
 20
281.145583
 10
447.43545
 20
280.931525
 10
447.506776
 20
280.72622
 10
447.565258
 20
280.529578
 10
447.610831
 20
280.341507
 10
447.643431
 20
280.161919
 10
447.662991
 20
279.990722
 10
447.669447
 20
279.827826
 10
447.662732
 20
279.673141
 10
447.642783
 20
279.526576
 10
447.609532
 20
279.388042
 10
447.562917
 20
279.257447
 10
447.50287
 20
279.134702
 10
447.429326
 20
279.019716
 10
447.342222
 20
278.912399
 10
447.24149
 20
278.81266
 10
447.127066
 20
278.720409
 10
446.998884
 20
278.635556
 10
446.85688
 20
278.55801
 10
446.700988
 20
278.487681
 10
446.531142
 20
278.424479
 10
446.347278
 20
278.368314
 10
446.14933
 20
278.319094
 10
445.937233
 20
278.27673
 10
445.710921
 20
278.241132
 10
445.47033
 20
278.212209
 10
444.946047
 20
278.174025
 10
444.363861
 20
278.161458
 10
443.918439
 20
278.151269
 10
443.498619
 20
278.120887
 10
443.104839
 20
278.070591
 10
442.737536
 20
278.00066
 10
442.397147
 20
277.911372
 10
442.084109
 20
277.803008
 10
441.79886
 20
277.675844
 10
441.666793
 20
277.6053
 10
441.541836
 20
277.530162
 10
441.424046
 20
277.450462
 10
441.313475
 20
277.366238
 10
441.21018
 20
277.277523
 10
441.114215
 20
277.184353
 10
441.025633
 20
277.086761
 10
440.944491
 20
276.984784
 10
440.870842
 20
276.878456
 10
440.804742
 20
276.767811
 10
440.746244
 20
276.652886
 10
440.695404
 20
276.533714
 10
440.652276
 20
276.41033
 10
440.616915
 20
276.282769
 10
440.589376
 20
276.151067
 10
440.569712
 20
276.015257
 10
440.55798
 20
275.875376
 10
440.554232
 20
275.731457
 10
440.567933
 20
275.581811
 10
440.606768
 20
275.390849
 10
440.668026
 20
275.166423
 10
440.748993
 20
274.916384
 10
440.846955
 20
274.648585
 10
440.959201
 20
274.370876
 10
441.083018
 20
274.09111
 10
441.215691
 20
273.817138
 10
441.423568
 20
273.387781
 10
441.591518
 20
272.995035
 10
441.718368
 20
272.636917
 10
441.766014
 20
272.470223
 10
441.802946
 20
272.311443
 10
441.829016
 20
272.160329
 10
441.844078
 20
272.016633
 10
441.847985
 20
271.880106
 10
441.840591
 20
271.750502
 10
441.821749
 20
271.627572
 10
441.791312
 20
271.511068
 10
441.749134
 20
271.400743
 10
441.695068
 20
271.296348
 10
441.628967
 20
271.197637
 10
441.550686
 20
271.10436
 10
441.460076
 20
271.016271
 10
441.356993
 20
270.933122
 10
441.241288
 20
270.854663
 10
441.112815
 20
270.780649
 10
440.971429
 20
270.71083
 10
440.816981
 20
270.64496
 10
440.649326
 20
270.582789
 10
440.468316
 20
270.524072
 10
440.065648
 20
270.416001
 10
439.607803
 20
270.318767
 10
439.09361
 20
270.230385
 10
438.729281
 20
270.168324
 10
438.385904
 20
270.099065
 10
438.063592
 20
270.022717
 10
437.762455
 20
269.939388
 10
437.482607
 20
269.849188
 10
437.224159
 20
269.752223
 10
436.987223
 20
269.648603
 10
436.771913
 20
269.538437
 10
436.578339
 20
269.421831
 10
436.406614
 20
269.298896
 10
436.256851
 20
269.169739
 10
436.129161
 20
269.03447
 10
436.023656
 20
268.893195
 10
435.940449
 20
268.746024
 10
435.879652
 20
268.593065
 10
435.841376
 20
268.434427
 10
435.823951
 20
268.301121
 10
435.817066
 20
268.174275
 10
435.820165
 20
268.052712
 10
435.832692
 20
267.935257
 10
435.854089
 20
267.820734
 10
435.883801
 20
267.707965
 10
435.965942
 20
267.482989
 10
436.074664
 20
267.25092
 10
436.205516
 20
267.002349
 10
436.354046
 20
266.727867
 10
436.515802
 20
266.418064
 10
436.680627
 20
266.080269
 10
436.838287
 20
265.73589
 10
436.984216
 20
265.396637
 10
437.11385
 20
265.074219
 10
437.222622
 20
264.780345
 10
437.305969
 20
264.526727
 10
437.359325
 20
264.325073
 10
437.378125
 20
264.187094
 10
437.36953
 20
264.057033
 10
437.343831
 20
263.930182
 10
437.301161
 20
263.80664
 10
437.241648
 20
263.68651
 10
437.165425
 20
263.569893
 10
437.072621
 20
263.45689
 10
436.963369
 20
263.347603
 10
436.837798
 20
263.242132
 10
436.696039
 20
263.140579
 10
436.538223
 20
263.043046
 10
436.364481
 20
262.949632
 10
436.174944
 20
262.860441
 10
435.969743
 20
262.775573
 10
435.749007
 20
262.695129
 10
435.512869
 20
262.619211
 10
435.261458
 20
262.54792
 10
434.926759
 20
262.45517
 10
434.615573
 20
262.361126
 10
434.326965
 20
262.265183
 10
434.059994
 20
262.166734
 10
433.813723
 20
262.06517
 10
433.587214
 20
261.959885
 10
433.379529
 20
261.850273
 10
433.189729
 20
261.735725
 10
433.016875
 20
261.615636
 10
432.860031
 20
261.489398
 10
432.718257
 20
261.356403
 10
432.590616
 20
261.216046
 10
432.476168
 20
261.067718
 10
432.373977
 20
260.910813
 10
432.283103
 20
260.744724
 10
432.202608
 20
260.568844
 10
432.094735
 20
260.292332
 10
432.020712
 20
260.044773
 10
431.996775
 20
259.925551
 10
431.981759
 20
259.806007
 10
431.975815
 20
259.683621
 10
431.979095
 20
259.555872
 10
431.991754
 20
259.42024
 10
432.013942
 20
259.274206
 10
432.087519
 20
258.940847
 10
432.201046
 20
258.535635
 10
432.355743
 20
258.038408
 10
432.541658
 20
257.437733
 10
432.683784
 20
256.93053
 10
432.783889
 20
256.502013
 10
432.843736
 20
256.137399
 10
432.859114
 20
255.974434
 10
432.86509
 20
255.821902
 10
432.861885
 20
255.677952
 10
432.849718
 20
255.540738
 10
432.828811
 20
255.40841
 10
432.799384
 20
255.279122
 10
432.715854
 20
255.022271
 10
432.66703
 20
254.924484
 10
432.595699
 20
254.823764
 10
432.504177
 20
254.721385
 10
432.394782
 20
254.618622
 10
432.269831
 20
254.516751
 10
432.13164
 20
254.417047
 10
431.982527
 20
254.320786
 10
431.824808
 20
254.229243
 10
431.660801
 20
254.143694
 10
431.492823
 20
254.065413
 10
431.32319
 20
253.995676
 10
431.154219
 20
253.935759
 10
430.988228
 20
253.886936
 10
430.827533
 20
253.850484
 10
430.674452
 20
253.827677
 10
430.531301
 20
253.819792
 10
430.415047
 20
253.805587
 10
430.284993
 20
253.764876
 10
430.14553
 20
253.700513
 10
430.001048
 20
253.615352
 10
429.855938
 20
253.512249
 10
429.714592
 20
253.394057
 10
429.581399
 20
253.263631
 10
429.460753
 20
253.123827
 10
429.311012
 20
252.915786
 10
429.24748
 20
252.811284
 10
429.191098
 20
252.704485
 10
429.14156
 20
252.593906
 10
429.09856
 20
252.478068
 10
429.061792
 20
252.355488
 10
429.03095
 20
252.224684
 10
428.985817
 20
251.932479
 10
428.960713
 20
251.589601
 10
428.953187
 20
251.184196
 10
428.960792
 20
250.704412
 10
428.971414
 20
250.17368
 10
428.966695
 20
249.751936
 10
428.956727
 20
249.575502
 10
428.940696
 20
249.418598
 10
428.917861
 20
249.27865
 10
428.887479
 20
249.153085
 10
428.848807
 20
249.039332
 10
428.801104
 20
248.934817
 10
428.743628
 20
248.836968
 10
428.675635
 20
248.743212
 10
428.596383
 20
248.650977
 10
428.505131
 20
248.55769
 10
428.283655
 20
248.357669
 10
428.122993
 20
248.232462
 10
427.943918
 20
248.115655
 10
427.752436
 20
248.009805
 10
427.554555
 20
247.917467
 10
427.35628
 20
247.841199
 10
427.163619
 20
247.783557
 10
426.982579
 20
247.747097
 10
426.819165
 20
247.734375
 10
426.64925
 20
247.727104
 10
426.450254
 20
247.705105
 10
426.230501
 20
247.668094
 10
425.998319
 20
247.615791
 10
425.762033
 20
247.547914
 10
425.529971
 20
247.464181
 10
425.310458
 20
247.36431
 10
425.111821
 20
247.24802
 10
424.848254
 20
247.055278
 10
424.739778
 20
246.961787
 10
424.645341
 20
246.868273
 10
424.56382
 20
246.773278
 10
424.49409
 20
246.675347
 10
424.435028
 20
246.573022
 10
424.385508
 20
246.464847
 10
424.344406
 20
246.349363
 10
424.310599
 20
246.225114
 10
424.260371
 20
245.944495
 10
424.225831
 20
245.611332
 10
424.197984
 20
245.21397
 10
424.173134
 20
244.900417
 10
424.139467
 20
244.616583
 10
424.095709
 20
244.3612
 10
424.040589
 20
244.132998
 10
423.972832
 20
243.93071
 10
423.891167
 20
243.753066
 10
423.79432
 20
243.598798
 10
423.681018
 20
243.466638
 10
423.549988
 20
243.355318
 10
423.399958
 20
243.263568
 10
423.229655
 20
243.190121
 10
423.037805
 20
243.133707
 10
422.823136
 20
243.093059
 10
422.584374
 20
243.066907
 10
422.320248
 20
243.053984
 10
422.029483
 20
243.053021
 10
421.751988
 20
243.051215
 10
421.493171
 20
243.036521
 10
421.251754
 20
243.008024
 10
421.026461
 20
242.964809
 10
420.816014
 20
242.905961
 10
420.619137
 20
242.830564
 10
420.434553
 20
242.737703
 10
420.260983
 20
242.626464
 10
420.097153
 20
242.495932
 10
419.941784
 20
242.345191
 10
419.793599
 20
242.173326
 10
419.651323
 20
241.979422
 10
419.513676
 20
241.762565
 10
419.379383
 20
241.521838
 10
419.247167
 20
241.256328
 10
419.11575
 20
240.965119
 10
419.026789
 20
240.769969
 10
418.93457
 20
240.590847
 10
418.837394
 20
240.426629
 10
418.73356
 20
240.276191
 10
418.621367
 20
240.138409
 10
418.499115
 20
240.012159
 10
418.365103
 20
239.896317
 10
418.21763
 20
239.789759
 10
418.054997
 20
239.691361
 10
417.875502
 20
239.6
 10
417.677445
 20
239.514551
 10
417.459124
 20
239.43389
 10
417.218841
 20
239.356893
 10
416.954893
 20
239.282437
 10
416.349204
 20
239.136649
 10
416.261648
 20
239.11262
 10
416.16633
 20
239.077767
 10
415.955759
 20
238.978009
 10
415.724199
 20
238.842216
 10
415.478362
 20
238.675233
 10
415.224955
 20
238.4819
 10
414.970687
 20
238.26706
 10
414.722269
 20
238.035554
 10
414.486409
 20
237.792226
 10
414.142872
 20
237.424592
 10
413.85711
 20
237.143055
 10
413.728281
 20
237.031001
 10
413.60476
 20
236.936186
 10
413.483501
 20
236.857181
 10
413.361459
 20
236.792558
 10
413.235589
 20
236.740887
 10
413.102844
 20
236.700741
 10
412.96018
 20
236.670691
 10
412.804551
 20
236.649308
 10
412.442218
 20
236.626828
 10
411.99148
 20
236.621875
 10
411.539732
 20
236.616961
 10
411.176829
 20
236.594397
 10
411.020954
 20
236.572829
 10
410.878
 20
236.542448
 10
410.744871
 20
236.501788
 10
410.618471
 20
236.449381
 10
410.495704
 20
236.383761
 10
410.373473
 20
236.303462
 10
410.248681
 20
236.207016
 10
410.118232
 20
236.092956
 10
409.827978
 20
235.80613
 10
409.477939
 20
235.43125
 10
409.252216
 20
235.192079
 10
409.029767
 20
234.968953
 10
408.816311
 20
234.766756
 10
408.617564
 20
234.590371
 10
408.439243
 20
234.444682
 10
408.287066
 20
234.334573
 10
408.16675
 20
234.264926
 10
408.120327
 20
234.246802
 10
408.084012
 20
234.240625
 10
407.984496
 20
234.255512
 10
407.87836
 20
234.299048
 10
407.766699
 20
234.369544
 10
407.65061
 20
234.465313
 10
407.531188
 20
234.584667
 10
407.409531
 20
234.725917
 10
407.286733
 20
234.887375
 10
407.16389
 20
235.067354
 10
407.042099
 20
235.264165
 10
406.922456
 20
235.476119
 10
406.806057
 20
235.70153
 10
406.693997
 20
235.938709
 10
406.587373
 20
236.185968
 10
406.48728
 20
236.441619
 10
406.394815
 20
236.703973
 10
406.311074
 20
236.971343
 10
406.208838
 20
237.296826
 10
406.095545
 20
237.614871
 10
405.971849
 20
237.924528
 10
405.838398
 20
238.224851
 10
405.695844
 20
238.51489
 10
405.544839
 20
238.793698
 10
405.386033
 20
239.060326
 10
405.220077
 20
239.313826
 10
405.047622
 20
239.55325
 10
404.869319
 20
239.777649
 10
404.685819
 20
239.986077
 10
404.497774
 20
240.177583
 10
404.305833
 20
240.351221
 10
404.110648
 20
240.506042
 10
403.91287
 20
240.641097
 10
403.713151
 20
240.755439
 10
403.551371
 20
240.832478
 10
403.379389
 20
240.899103
 10
403.190155
 20
240.955282
 10
402.97662
 20
241.000983
 10
402.731736
 20
241.036174
 10
402.448453
 20
241.060823
 10
402.119724
 20
241.0749
 10
401.7385
 20
241.078373
 10
401.29773
 20
241.071209
 10
400.790368
 20
241.053377
 10
399.547669
 20
240.985583
 10
397.954011
 20
240.874738
 10
395.953006
 20
240.720588
 10
395.03975
 20
240.662773
 10
393.713515
 20
240.597145
 10
392.152132
 20
240.531771
 10
390.533429
 20
240.474719
 10
386.683525
 20
240.353018
 10
385.985454
 20
240.087611
 10
385.825165
 20
240.021077
 10
385.677533
 20
239.946491
 10
385.540942
 20
239.860717
 10
385.41378
 20
239.760623
 10
385.294432
 20
239.643074
 10
385.181283
 20
239.504935
 10
385.072721
 20
239.343074
 10
384.967131
 20
239.154356
 10
384.862899
 20
238.935646
 10
384.758411
 20
238.683811
 10
384.652053
 20
238.395717
 10
384.542211
 20
238.068229
 10
384.305618
 20
237.282538
 10
383.451894
 20
234.17988
 42
0.465722
 10
383.712416
 20
233.801669
 10
398.214543
 20
232.406562
 10
398.023027
 20
230.415752
 10
383.099592
 20
231.85139
 42
0.37276
 10
382.779426
 20
231.623927
 10
382.503184
 20
230.492553
 10
382.189406
 20
229.305112
 10
382.104579
 20
228.969195
 10
382.031112
 20
228.623922
 10
381.969003
 20
228.272417
 10
381.918249
 20
227.917806
 10
381.878847
 20
227.563216
 10
381.850795
 20
227.211771
 10
381.834088
 20
226.866598
 10
381.828725
 20
226.530822
 10
381.834701
 20
226.207569
 10
381.852016
 20
225.899964
 10
381.880665
 20
225.611134
 10
381.920645
 20
225.344203
 10
381.971955
 20
225.102299
 10
382.03459
 20
224.888545
 10
382.108547
 20
224.706068
 10
382.193825
 20
224.557995
 10
382.572026
 20
224.018038
 10
391.594773
 20
216.38125
 10
392.953121
 20
215.653646
 10
393.240507
 20
215.507486
 10
393.536687
 20
215.371131
 10
393.833172
 20
215.247566
 10
394.121471
 20
215.139775
 10
394.393096
 20
215.050743
 10
394.639555
 20
214.983454
 10
394.852359
 20
214.940892
 10
395.023019
 20
214.926042
  0
LWPOLYLINE
  5
3D
330
1F
100
AcDbEntity
  8
0
100
AcDbPolyline
 90
        2
 70
   128
 43
0.0
 10
406.618
 20
325.939727
 10
406.575159
 20
325.708074
  0
LWPOLYLINE
  5
3E
330
1F
100
AcDbEntity
  8
0
100
AcDbPolyline
 90
      212
 70
   128
 43
0.0
 10
423.916868
 20
272.72232
 10
423.545089
 20
272.996484
 10
423.353324
 20
273.152371
 10
422.892188
 20
273.551548
 10
422.507236
 20
273.8971
 10
422.197419
 20
274.195747
 10
421.955496
 20
274.458257
 10
421.857732
 20
274.579326
 10
421.774226
 20
274.695397
 10
421.704074
 20
274.807818
 10
421.64637
 20
274.917933
 10
421.600208
 20
275.02709
 10
421.564685
 20
275.136633
 10
421.538895
 20
275.247909
 10
421.521932
 20
275.362264
 10
421.512892
 20
275.481043
 10
421.510869
 20
275.605592
 10
421.518613
 20
276.441667
 10
424.132541
 20
279.484375
 10
424.855963
 20
280.316022
 10
425.484368
 20
281.013231
 10
426.036196
 20
281.593036
 10
426.289155
 20
281.844235
 10
426.529883
 20
282.072471
 10
426.760686
 20
282.279873
 10
426.983868
 20
282.468571
 10
427.201734
 20
282.640693
 10
427.416588
 20
282.798369
 10
427.630736
 20
282.943729
 10
427.846481
 20
283.078901
 10
428.066129
 20
283.206015
 10
428.291985
 20
283.3272
 10
428.671819
 20
283.507523
 10
429.085928
 20
283.694712
 10
429.489445
 20
283.898174
 10
429.673209
 20
284.008947
 10
429.8375
 20
284.127316
 10
430.083879
 20
284.336421
 10
430.327686
 20
284.564601
 10
430.568895
 20
284.809533
 10
430.807479
 20
285.068893
 10
431.043411
 20
285.340358
 10
431.276667
 20
285.621604
 10
431.735039
 20
286.204146
 10
432.182385
 20
286.79793
 10
432.618493
 20
287.384369
 10
433.043152
 20
287.944872
 10
433.456151
 20
288.460853
 10
434.908569
 20
290.180845
 10
435.59894
 20
290.982538
 10
436.267147
 20
291.746666
 10
436.914489
 20
292.474203
 10
437.542261
 20
293.166127
 10
438.15176
 20
293.823414
 10
438.744283
 20
294.447041
 10
439.321126
 20
295.037983
 10
439.883586
 20
295.597217
 10
440.432961
 20
296.12572
 10
440.970546
 20
296.624468
 10
441.497638
 20
297.094437
 10
442.015534
 20
297.536604
 10
442.525531
 20
297.951945
 10
443.028925
 20
298.341437
 10
443.527013
 20
298.706056
 10
444.021092
 20
299.046778
 10
444.512459
 20
299.36458
 10
445.00241
 20
299.660438
 10
445.492241
 20
299.935329
 10
445.983251
 20
300.190229
 10
446.476734
 20
300.426115
 10
446.973989
 20
300.643962
 10
447.476311
 20
300.844748
 10
447.984997
 20
301.029449
 10
448.501345
 20
301.19904
 10
449.02665
 20
301.354499
 10
449.56221
 20
301.496802
 10
450.109322
 20
301.626925
 10
450.669281
 20
301.745846
 10
451.243384
 20
301.854539
 10
451.987769
 20
301.977325
 10
452.318374
 20
302.022553
 10
452.624999
 20
302.05671
 10
452.910454
 20
302.079574
 10
453.177548
 20
302.090923
 10
453.429092
 20
302.090536
 10
453.667895
 20
302.078191
 10
453.896766
 20
302.053667
 10
454.118515
 20
302.016742
 10
454.335952
 20
301.967196
 10
454.551885
 20
301.904806
 10
454.769126
 20
301.82935
 10
454.990482
 20
301.740608
 10
455.218764
 20
301.638358
 10
455.456781
 20
301.522379
 10
455.63234
 20
301.421053
 10
455.799363
 20
301.299519
 10
455.956891
 20
301.159952
 10
456.103961
 20
301.004532
 10
456.239615
 20
300.835435
 10
456.362892
 20
300.654838
 10
456.472831
 20
300.464918
 10
456.568472
 20
300.267854
 10
456.648855
 20
300.065823
 10
456.713019
 20
299.861001
 10
456.760004
 20
299.655567
 10
456.788851
 20
299.451697
 10
456.798597
 20
299.251568
 10
456.788284
 20
299.05736
 10
456.75695
 20
298.871247
 10
456.703636
 20
298.695409
 10
456.64025
 20
298.543333
 10
456.569144
 20
298.403257
 10
456.48818
 20
298.274086
 10
456.395219
 20
298.154727
 10
456.28812
 20
298.044084
 10
456.164746
 20
297.941062
 10
456.022957
 20
297.844567
 10
455.860615
 20
297.753503
 10
455.675579
 20
297.666777
 10
455.465711
 20
297.583292
 10
455.228872
 20
297.501956
 10
454.962923
 20
297.421672
 10
454.335138
 20
297.259882
 10
453.565244
 20
297.089166
 10
453.068229
 20
296.976547
 10
452.575167
 20
296.848435
 10
452.085593
 20
296.704454
 10
451.599042
 20
296.544229
 10
451.11505
 20
296.367382
 10
450.633151
 20
296.173539
 10
450.152882
 20
295.962322
 10
449.673778
 20
295.733356
 10
449.195374
 20
295.486265
 10
448.717205
 20
295.220672
 10
448.238807
 20
294.936202
 10
447.759715
 20
294.632477
 10
447.279465
 20
294.309123
 10
446.797592
 20
293.965762
 10
446.313632
 20
293.60202
 10
445.827119
 20
293.217519
 10
445.337589
 20
292.811884
 10
444.844577
 20
292.384738
 10
444.34762
 20
291.935705
 10
443.846252
 20
291.46441
 10
443.340008
 20
290.970475
 10
442.828425
 20
290.453526
 10
442.311037
 20
289.913185
 10
441.787379
 20
289.349077
 10
441.256988
 20
288.760826
 10
440.719398
 20
288.148055
 10
440.174145
 20
287.510388
 10
439.620765
 20
286.847449
 10
439.058792
 20
286.158863
 10
438.487762
 20
285.444252
 10
437.907211
 20
284.703241
 10
437.316673
 20
283.935454
 10
436.353528
 20
282.652768
 10
435.952527
 20
282.099427
 10
435.602081
 20
281.597849
 10
435.299817
 20
281.142854
 10
435.043367
 20
280.729264
 10
434.830359
 20
280.351897
 10
434.658423
 20
280.005577
 10
434.525188
 20
279.685122
 10
434.428285
 20
279.385355
 10
434.365343
 20
279.101095
 10
434.33399
 20
278.827163
 10
434.331857
 20
278.558381
 10
434.356574
 20
278.289568
 10
434.405769
 20
278.015546
 10
434.477073
 20
277.731135
 10
434.537591
 20
277.489622
 10
434.587559
 20
277.238455
 10
434.626347
 20
276.98498
 10
434.653327
 20
276.736543
 10
434.667869
 20
276.50049
 10
434.669343
 20
276.284167
 10
434.657119
 20
276.09492
 10
434.630568
 20
275.940096
 10
434.466088
 20
275.284754
 10
432.460914
 20
272.952794
 10
431.592799
 20
271.952006
 10
430.880513
 20
271.154252
 10
430.3002
 20
270.538082
 10
430.052078
 20
270.291388
 10
429.828004
 20
270.082045
 10
429.624994
 20
269.907373
 10
429.440067
 20
269.76469
 10
429.270241
 20
269.651315
 10
429.112534
 20
269.564566
 10
428.963963
 20
269.501763
 10
428.821547
 20
269.460223
 10
428.682303
 20
269.437265
 10
428.54325
 20
269.430208
 10
428.475406
 20
269.435185
 10
428.39693
 20
269.449789
 10
428.211843
 20
269.505907
 10
427.995514
 20
269.594628
 10
427.755466
 20
269.712018
 10
427.499226
 20
269.85414
 10
427.234318
 20
270.017061
 10
426.968267
 20
270.196846
 10
426.708598
 20
270.389559
 10
426.304733
 20
270.709201
 10
426.146425
 20
270.844399
 10
426.017377
 20
270.968037
 10
425.883848
 20
271.123093
 42
-0.375144
 10
425.886553
 20
271.517718
 10
428.504677
 20
274.474972
 10
427.007209
 20
275.800714
 10
424.319541
 20
272.764907
 42
-0.388312
 10
423.916868
 20
272.72232
  0
ENDSEC
  0
SECTION
  2
OBJECTS
  0
DICTIONARY
  5
C
330
0
100
AcDbDictionary
281
     1
  3
ACAD_GROUP
350
D
  3
ACAD_LAYOUT
350
1A
  3
ACAD_MLINESTYLE
350
17
  3
ACAD_PLOTSETTINGS
350
19
  3
ACAD_PLOTSTYLENAME
350
E
  0
DICTIONARY
  5
D
102
{ACAD_REACTORS
330
C
102
}
330
C
100
AcDbDictionary
281
     1
  0
DICTIONARY
  5
1A
102
{ACAD_REACTORS
330
C
102
}
330
C
100
AcDbDictionary
281
     1
  3
Layout1
350
1E
  3
Layout2
350
26
  3
Model
350
22
  0
DICTIONARY
  5
17
102
{ACAD_REACTORS
330
C
102
}
330
C
100
AcDbDictionary
281
     1
  3
Standard
350
18
  0
DICTIONARY
  5
19
102
{ACAD_REACTORS
330
C
102
}
330
C
100
AcDbDictionary
281
     1
  0
ACDBDICTIONARYWDFLT
  5
E
102
{ACAD_REACTORS
330
C
102
}
330
C
100
AcDbDictionary
281
     1
  3
Normal
350
F
100
AcDbDictionaryWithDefault
340
F
  0
LAYOUT
  5
1E
102
{ACAD_REACTORS
330
1A
102
}
330
1A
100
AcDbPlotSettings
  1

  2

  4

  6

 40
0.0
 41
0.0
 42
0.0
 43
0.0
 44
0.0
 45
0.0
 46
0.0
 47
0.0
 48
0.0
 49
0.0
140
0.0
141
0.0
142
1.0
143
1.0
 70
   688
 72
     0
 73
     0
 74
     5
  7

 75
    16
147
1.0
148
0.0
149
0.0
100
AcDbLayout
  1
Layout1
 70
     1
 71
     1
 10
0.0
 20
0.0
 11
420.0
 21
297.0
 12
0.0
 22
0.0
 32
0.0
 14
1.000000E+20
 24
1.000000E+20
 34
1.000000E+20
 15
-1.000000E+20
 25
-1.000000E+20
 35
-1.000000E+20
146
0.0
 13
0.0
 23
0.0
 33
0.0
 16
1.0
 26
0.0
 36
0.0
 17
0.0
 27
1.0
 37
0.0
 76
     0
330
1B
  0
LAYOUT
  5
26
102
{ACAD_REACTORS
330
1A
102
}
330
1A
100
AcDbPlotSettings
  1

  2

  4

  6

 40
0.0
 41
0.0
 42
0.0
 43
0.0
 44
0.0
 45
0.0
 46
0.0
 47
0.0
 48
0.0
 49
0.0
140
0.0
141
0.0
142
1.0
143
1.0
 70
   688
 72
     0
 73
     0
 74
     5
  7

 75
    16
147
1.0
148
0.0
149
0.0
100
AcDbLayout
  1
Layout2
 70
     1
 71
     2
 10
0.0
 20
0.0
 11
0.0
 21
0.0
 12
0.0
 22
0.0
 32
0.0
 14
0.0
 24
0.0
 34
0.0
 15
0.0
 25
0.0
 35
0.0
146
0.0
 13
0.0
 23
0.0
 33
0.0
 16
1.0
 26
0.0
 36
0.0
 17
0.0
 27
1.0
 37
0.0
 76
     0
330
23
  0
LAYOUT
  5
22
102
{ACAD_REACTORS
330
1A
102
}
330
1A
100
AcDbPlotSettings
  1

  2

  4

  6

 40
0.0
 41
0.0
 42
0.0
 43
0.0
 44
0.0
 45
0.0
 46
0.0
 47
0.0
 48
0.0
 49
0.0
140
0.0
141
0.0
142
1.0
143
1.0
 70
  1712
 72
     0
 73
     0
 74
     0
  7

 75
     0
147
1.0
148
0.0
149
0.0
100
AcDbLayout
  1
Model
 70
     1
 71
     0
 10
0.0
 20
0.0
 11
0.0
 21
0.0
 12
0.0
 22
0.0
 32
0.0
 14
0.0
 24
0.0
 34
0.0
 15
0.0
 25
0.0
 35
0.0
146
0.0
 13
0.0
 23
0.0
 33
0.0
 16
1.0
 26
0.0
 36
0.0
 17
0.0
 27
1.0
 37
0.0
 76
     0
330
1F
  0
MLINESTYLE
  5
18
102
{ACAD_REACTORS
330
17
102
}
330
17
100
AcDbMlineStyle
  2
Standard
 70
     0
  3

 62
   256
 51
90.0
 52
90.0
 71
     2
 49
1.0
 62
   256
  6
BYLAYER
 49
-1.0
 62
   256
  6
BYLAYER
  0
ACDBPLACEHOLDER
  5
F
102
{ACAD_REACTORS
330
E
102
}
330
E
  0
ENDSEC
  0
EOF
