  0
SECTION
  2
ENTITIES
  0
POLYLINE
  5
3E8
  100
AcDbEntity
  8
Layer 1
  62
0
  100
AcDb2dPolyline
 66
     1
  10
0
  20
0
  30
0
  70
1
  0
VERTEX
  5
3E9
  100
AcDbEntity
  8
Layer 1
  62
0
  100
AcDb2dVertex
  10
2.04700
  20
1.64100
  30
0.00000
  42
-0.1264
  70
32
  0
VERTEX
  5
3EA
  100
AcDbEntity
  8
Layer 1
  62
0
  100
AcDb2dVertex
  10
2.04311
  20
1.63159
  30
0.00000
  42
-0.0451
  70
32
  0
VERTEX
  5
3EB
  100
AcDbEntity
  8
Layer 1
  62
0
  100
AcDb2dVertex
  10
2.02012
  20
1.60388
  30
0.00000
  42
-0.0134
  70
32
  0
VERTEX
  5
3EC
  100
AcDbEntity
  8
Layer 1
  62
0
  100
AcDb2dVertex
  10
1.99200
  20
1.57600
  30
0.00000
  70
32
  0
VERTEX
  5
3ED
  100
AcDbEntity
  8
Layer 1
  62
0
  100
AcDb2dVertex
  10
1.98600
  20
1.55700
  30
0.00000
  70
32
  0
VERTEX
  5
3EE
  100
AcDbEntity
  8
Layer 1
  62
0
  100
AcDb2dVertex
  10
1.99050
  20
1.52950
  30
0.00000
  42
-0.0243
  70
32
  0
VERTEX
  5
3EF
  100
AcDbEntity
  8
Layer 1
  62
0
  100
AcDb2dVertex
  10
1.99200
  20
1.51700
  30
0.00000
  42
-0.1541
  70
32
  0
VERTEX
  5
3F0
  100
AcDbEntity
  8
Layer 1
  62
0
  100
AcDb2dVertex
  10
1.96876
  20
1.44375
  30
0.00000
  42
-0.0773
  70
32
  0
VERTEX
  5
3F1
  100
AcDbEntity
  8
Layer 1
  62
0
  100
AcDb2dVertex
  10
1.92373
  20
1.39712
  30
0.00000
  70
32
  0
VERTEX
  5
3F2
  100
AcDbEntity
  8
Layer 1
  62
0
  100
AcDb2dVertex
  10
1.91700
  20
1.39200
  30
0.00000
  42
-0.0724
  70
32
  0
VERTEX
  5
3F3
  100
AcDbEntity
  8
Layer 1
  62
0
  100
AcDb2dVertex
  10
1.83861
  20
1.34968
  30
0.00000
  42
-0.0854
  70
32
  0
VERTEX
  5
3F4
  100
AcDbEntity
  8
Layer 1
  62
0
  100
AcDb2dVertex
  10
1.76700
  20
1.33700
  30
0.00000
  42
-0.0788
  70
32
  0
VERTEX
  5
3F5
  100
AcDbEntity
  8
Layer 1
  62
0
  100
AcDb2dVertex
  10
1.74455
  20
1.33966
  30
0.00000
  42
-0.2075
  70
32
  0
VERTEX
  5
3F6
  100
AcDbEntity
  8
Layer 1
  62
0
  100
AcDb2dVertex
  10
1.73670
  20
1.34563
  30
0.00000
  42
-0.1075
  70
32
  0
VERTEX
  5
3F7
  100
AcDbEntity
  8
Layer 1
  62
0
  100
AcDb2dVertex
  10
1.73600
  20
1.34900
  30
0.00000
  42
-0.1753
  70
32
  0
VERTEX
  5
3F8
  100
AcDbEntity
  8
Layer 1
  62
0
  100
AcDb2dVertex
  10
1.73700
  20
1.35400
  30
0.00000
  42
-0.0080
  70
32
  0
VERTEX
  5
3F9
  100
AcDbEntity
  8
Layer 1
  62
0
  100
AcDb2dVertex
  10
1.84900
  20
1.38900
  30
0.00000
  42
0.0625
  70
32
  0
VERTEX
  5
3FA
  100
AcDbEntity
  8
Layer 1
  62
0
  100
AcDb2dVertex
  10
1.90948
  20
1.42297
  30
0.00000
  42
0.0976
  70
32
  0
VERTEX
  5
3FB
  100
AcDbEntity
  8
Layer 1
  62
0
  100
AcDb2dVertex
  10
1.94550
  20
1.46221
  30
0.00000
  42
0.1354
  70
32
  0
VERTEX
  5
3FC
  100
AcDbEntity
  8
Layer 1
  62
0
  100
AcDb2dVertex
  10
1.95900
  20
1.51200
  30
0.00000
  42
0.1118
  70
32
  0
VERTEX
  5
3FD
  100
AcDbEntity
  8
Layer 1
  62
0
  100
AcDb2dVertex
  10
1.95015
  20
1.54682
  30
0.00000
  42
0.0388
  70
32
  0
VERTEX
  5
3FE
  100
AcDbEntity
  8
Layer 1
  62
0
  100
AcDb2dVertex
  10
1.93600
  20
1.57100
  30
0.00000
  70
32
  0
VERTEX
  5
3FF
  100
AcDbEntity
  8
Layer 1
  62
0
  100
AcDb2dVertex
  10
1.95900
  20
1.59100
  30
0.00000
  70
32
  0
VERTEX
  5
400
  100
AcDbEntity
  8
Layer 1
  62
0
  100
AcDb2dVertex
  10
1.93600
  20
1.57100
  30
0.00000
  42
0.0774
  70
32
  0
VERTEX
  5
401
  100
AcDbEntity
  8
Layer 1
  62
0
  100
AcDb2dVertex
  10
1.89994
  20
1.59974
  30
0.00000
  42
0.1256
  70
32
  0
VERTEX
  5
402
  100
AcDbEntity
  8
Layer 1
  62
0
  100
AcDb2dVertex
  10
1.86600
  20
1.60900
  30
0.00000
  42
0.1143
  70
32
  0
VERTEX
  5
403
  100
AcDbEntity
  8
Layer 1
  62
0
  100
AcDb2dVertex
  10
1.82395
  20
1.59829
  30
0.00000
  42
0.0688
  70
32
  0
VERTEX
  5
404
  100
AcDbEntity
  8
Layer 1
  62
0
  100
AcDb2dVertex
  10
1.77729
  20
1.56562
  30
0.00000
  70
32
  0
VERTEX
  5
405
  100
AcDbEntity
  8
Layer 1
  62
0
  100
AcDb2dVertex
  10
1.76700
  20
1.55600
  30
0.00000
  42
0.0547
  70
32
  0
VERTEX
  5
406
  100
AcDbEntity
  8
Layer 1
  62
0
  100
AcDb2dVertex
  10
1.71889
  20
1.49769
  30
0.00000
  42
0.0656
  70
32
  0
VERTEX
  5
407
  100
AcDbEntity
  8
Layer 1
  62
0
  100
AcDb2dVertex
  10
1.69900
  20
1.45600
  30
0.00000
  42
-0.0532
  70
32
  0
VERTEX
  5
408
  100
AcDbEntity
  8
Layer 1
  62
0
  100
AcDb2dVertex
  10
1.68838
  20
1.42881
  30
0.00000
  42
-0.1543
  70
32
  0
VERTEX
  5
409
  100
AcDbEntity
  8
Layer 1
  62
0
  100
AcDb2dVertex
  10
1.68244
  20
1.42229
  30
0.00000
  70
32
  0
VERTEX
  5
40A
  100
AcDbEntity
  8
Layer 1
  62
0
  100
AcDb2dVertex
  10
1.68100
  20
1.42200
  30
0.00000
  42
-0.2326
  70
32
  0
VERTEX
  5
40B
  100
AcDbEntity
  8
Layer 1
  62
0
  100
AcDb2dVertex
  10
1.67140
  20
1.42567
  30
0.00000
  42
-0.1728
  70
32
  0
VERTEX
  5
40C
  100
AcDbEntity
  8
Layer 1
  62
0
  100
AcDb2dVertex
  10
1.66900
  20
1.43400
  30
0.00000
  42
-0.1153
  70
32
  0
VERTEX
  5
40D
  100
AcDbEntity
  8
Layer 1
  62
0
  100
AcDb2dVertex
  10
1.68532
  20
1.50025
  30
0.00000
  42
-0.0725
  70
32
  0
VERTEX
  5
40E
  100
AcDbEntity
  8
Layer 1
  62
0
  100
AcDb2dVertex
  10
1.72775
  20
1.56034
  30
0.00000
  70
32
  0
VERTEX
  5
40F
  100
AcDbEntity
  8
Layer 1
  62
0
  100
AcDb2dVertex
  10
1.73800
  20
1.57100
  30
0.00000
  42
-0.0682
  70
32
  0
VERTEX
  5
410
  100
AcDbEntity
  8
Layer 1
  62
0
  100
AcDb2dVertex
  10
1.79954
  20
1.61901
  30
0.00000
  42
-0.1021
  70
32
  0
VERTEX
  5
411
  100
AcDbEntity
  8
Layer 1
  62
0
  100
AcDb2dVertex
  10
1.86270
  20
1.64026
  30
0.00000
  42
-0.0211
  70
32
  0
VERTEX
  5
412
  100
AcDbEntity
  8
Layer 1
  62
0
  100
AcDb2dVertex
  10
1.87400
  20
1.64100
  30
0.00000
  42
-0.0883
  70
32
  0
VERTEX
  5
413
  100
AcDbEntity
  8
Layer 1
  62
0
  100
AcDb2dVertex
  10
1.91400
  20
1.63100
  30
0.00000
  42
0.0573
  70
32
  0
VERTEX
  5
414
  100
AcDbEntity
  8
Layer 1
  62
0
  100
AcDb2dVertex
  10
1.93757
  20
1.62235
  30
0.00000
  70
32
  0
VERTEX
  5
415
  100
AcDbEntity
  8
Layer 1
  62
0
  100
AcDb2dVertex
  10
1.94100
  20
1.62200
  30
0.00000
  42
0.0959
  70
32
  0
VERTEX
  5
416
  100
AcDbEntity
  8
Layer 1
  62
0
  100
AcDb2dVertex
  10
1.95213
  20
1.62585
  30
0.00000
  42
0.0334
  70
32
  0
VERTEX
  5
417
  100
AcDbEntity
  8
Layer 1
  62
0
  100
AcDb2dVertex
  10
1.98200
  20
1.64400
  30
0.00000
  42
-0.0416
  70
32
  0
VERTEX
  5
418
  100
AcDbEntity
  8
Layer 1
  62
0
  100
AcDb2dVertex
  10
2.01697
  20
1.66427
  30
0.00000
  42
-0.0475
  70
32
  0
VERTEX
  5
419
  100
AcDbEntity
  8
Layer 1
  62
0
  100
AcDb2dVertex
  10
2.02200
  20
1.66600
  30
0.00000
  42
-0.1480
  70
32
  0
VERTEX
  5
41A
  100
AcDbEntity
  8
Layer 1
  62
0
  100
AcDb2dVertex
  10
2.03895
  20
1.66080
  30
0.00000
  42
-0.2150
  70
32
  0
VERTEX
  5
41B
  100
AcDbEntity
  8
Layer 1
  62
0
  100
AcDb2dVertex
  10
2.04677
  20
1.64544
  30
0.00000
  70
32
  0
VERTEX
  5
41C
  100
AcDbEntity
  8
Layer 1
  62
0
  100
AcDb2dVertex
  10
2.04700
  20
1.64100
  30
0.00000
  70
32
  0
SEQEND
  5
41D
  100
AcDbEntity
  8
Layer 1
  62
0
  0
POLYLINE
  5
41E
  100
AcDbEntity
  8
Layer 1
  62
0
  100
AcDb2dPolyline
 66
     1
  10
0
  20
0
  30
0
  70
1
  0
VERTEX
  5
41F
  100
AcDbEntity
  8
Layer 1
  62
0
  100
AcDb2dVertex
  10
2.04600
  20
1.37700
  30
0.00000
  42
-0.2380
  70
32
  0
VERTEX
  5
420
  100
AcDbEntity
  8
Layer 1
  62
0
  100
AcDb2dVertex
  10
2.04071
  20
1.36783
  30
0.00000
  42
-0.0821
  70
32
  0
VERTEX
  5
421
  100
AcDbEntity
  8
Layer 1
  62
0
  100
AcDb2dVertex
  10
2.02187
  20
1.35886
  30
0.00000
  70
32
  0
VERTEX
  5
422
  100
AcDbEntity
  8
Layer 1
  62
0
  100
AcDb2dVertex
  10
2.01600
  20
1.35700
  30
0.00000
  42
0.0833
  70
32
  0
VERTEX
  5
423
  100
AcDbEntity
  8
Layer 1
  62
0
  100
AcDb2dVertex
  10
1.98929
  20
1.34635
  30
0.00000
  42
0.1257
  70
32
  0
VERTEX
  5
424
  100
AcDbEntity
  8
Layer 1
  62
0
  100
AcDb2dVertex
  10
1.98200
  20
1.33900
  30
0.00000
  70
32
  0
VERTEX
  5
425
  100
AcDbEntity
  8
Layer 1
  62
0
  100
AcDb2dVertex
  10
2.00900
  20
1.27500
  30
0.00000
  42
-0.1516
  70
32
  0
VERTEX
  5
426
  100
AcDbEntity
  8
Layer 1
  62
0
  100
AcDb2dVertex
  10
2.00176
  20
1.25665
  30
0.00000
  42
-0.2217
  70
32
  0
VERTEX
  5
427
  100
AcDbEntity
  8
Layer 1
  62
0
  100
AcDb2dVertex
  10
1.98600
  20
1.25000
  30
0.00000
  42
-0.1542
  70
32
  0
VERTEX
  5
428
  100
AcDbEntity
  8
Layer 1
  62
0
  100
AcDb2dVertex
  10
1.96803
  20
1.25678
  30
0.00000
  42
-0.0743
  70
32
  0
VERTEX
  5
429
  100
AcDbEntity
  8
Layer 1
  62
0
  100
AcDb2dVertex
  10
1.94900
  20
1.27600
  30
0.00000
  42
0.0464
  70
32
  0
VERTEX
  5
42A
  100
AcDbEntity
  8
Layer 1
  62
0
  100
AcDb2dVertex
  10
1.92863
  20
1.29930
  30
0.00000
  42
0.1453
  70
32
  0
VERTEX
  5
42B
  100
AcDbEntity
  8
Layer 1
  62
0
  100
AcDb2dVertex
  10
1.92400
  20
1.30200
  30
0.00000
  42
0.1400
  70
32
  0
VERTEX
  5
42C
  100
AcDbEntity
  8
Layer 1
  62
0
  100
AcDb2dVertex
  10
1.91479
  20
1.29793
  30
0.00000
  42
0.0587
  70
32
  0
VERTEX
  5
42D
  100
AcDbEntity
  8
Layer 1
  62
0
  100
AcDb2dVertex
  10
1.89600
  20
1.28000
  30
0.00000
  42
-0.0316
  70
32
  0
VERTEX
  5
42E
  100
AcDbEntity
  8
Layer 1
  62
0
  100
AcDb2dVertex
  10
1.87513
  20
1.25917
  30
0.00000
  42
-0.1422
  70
32
  0
VERTEX
  5
42F
  100
AcDbEntity
  8
Layer 1
  62
0
  100
AcDb2dVertex
  10
1.87100
  20
1.25700
  30
0.00000
  70
32
  0
VERTEX
  5
430
  100
AcDbEntity
  8
Layer 1
  62
0
  100
AcDb2dVertex
  10
1.85900
  20
1.26000
  30
0.00000
  70
32
  0
VERTEX
  5
431
  100
AcDbEntity
  8
Layer 1
  62
0
  100
AcDb2dVertex
  10
1.82400
  20
1.31500
  30
0.00000
  42
-0.1778
  70
32
  0
VERTEX
  5
432
  100
AcDbEntity
  8
Layer 1
  62
0
  100
AcDb2dVertex
  10
1.82654
  20
1.32455
  30
0.00000
  42
-0.1705
  70
32
  0
VERTEX
  5
433
  100
AcDbEntity
  8
Layer 1
  62
0
  100
AcDb2dVertex
  10
1.83100
  20
1.32700
  30
0.00000
  70
32
  0
VERTEX
  5
434
  100
AcDbEntity
  8
Layer 1
  62
0
  100
AcDb2dVertex
  10
1.92700
  20
1.35900
  30
0.00000
  70
32
  0
VERTEX
  5
435
  100
AcDbEntity
  8
Layer 1
  62
0
  100
AcDb2dVertex
  10
1.94200
  20
1.33200
  30
0.00000
  70
32
  0
VERTEX
  5
436
  100
AcDbEntity
  8
Layer 1
  62
0
  100
AcDb2dVertex
  10
1.92700
  20
1.35900
  30
0.00000
  42
-0.0116
  70
32
  0
VERTEX
  5
437
  100
AcDbEntity
  8
Layer 1
  62
0
  100
AcDb2dVertex
  10
1.99100
  20
1.43200
  30
0.00000
  42
0.0314
  70
32
  0
VERTEX
  5
438
  100
AcDbEntity
  8
Layer 1
  62
0
  100
AcDb2dVertex
  10
2.00400
  20
1.43700
  30
0.00000
  42
-0.1801
  70
32
  0
VERTEX
  5
439
  100
AcDbEntity
  8
Layer 1
  62
0
  100
AcDb2dVertex
  10
2.01132
  20
1.43307
  30
0.00000
  42
-0.0630
  70
32
  0
VERTEX
  5
43A
  100
AcDbEntity
  8
Layer 1
  62
0
  100
AcDb2dVertex
  10
2.02651
  20
1.41279
  30
0.00000
  42
-0.0213
  70
32
  0
VERTEX
  5
43B
  100
AcDbEntity
  8
Layer 1
  62
0
  100
AcDb2dVertex
  10
2.04600
  20
1.37700
  30
0.00000
  70
32
  0
SEQEND
  5
43C
  100
AcDbEntity
  8
Layer 1
  62
0
  0
POLYLINE
  5
43D
  100
AcDbEntity
  8
Layer 1
  62
0
  100
AcDb2dPolyline
 66
     1
  10
0
  20
0
  30
0
  70
1
  0
VERTEX
  5
43E
  100
AcDbEntity
  8
Layer 1
  62
0
  100
AcDb2dVertex
  10
1.85600
  20
1.57600
  30
0.00000
  42
-0.0987
  70
32
  0
VERTEX
  5
43F
  100
AcDbEntity
  8
Layer 1
  62
0
  100
AcDb2dVertex
  10
1.84170
  20
1.50913
  30
0.00000
  42
-0.0637
  70
32
  0
VERTEX
  5
440
  100
AcDbEntity
  8
Layer 1
  62
0
  100
AcDb2dVertex
  10
1.80123
  20
1.44051
  30
0.00000
  70
32
  0
VERTEX
  5
441
  100
AcDbEntity
  8
Layer 1
  62
0
  100
AcDb2dVertex
  10
1.79700
  20
1.43500
  30
0.00000
  42
-0.0627
  70
32
  0
VERTEX
  5
442
  100
AcDbEntity
  8
Layer 1
  62
0
  100
AcDb2dVertex
  10
1.74943
  20
1.38466
  30
0.00000
  42
-0.0986
  70
32
  0
VERTEX
  5
443
  100
AcDbEntity
  8
Layer 1
  62
0
  100
AcDb2dVertex
  10
1.70181
  20
1.35898
  30
0.00000
  42
-0.0703
  70
32
  0
VERTEX
  5
444
  100
AcDbEntity
  8
Layer 1
  62
0
  100
AcDb2dVertex
  10
1.67400
  20
1.35500
  30
0.00000
  42
-0.0398
  70
32
  0
VERTEX
  5
445
  100
AcDbEntity
  8
Layer 1
  62
0
  100
AcDb2dVertex
  10
1.66100
  20
1.35637
  30
0.00000
  70
32
  0
VERTEX
  5
446
  100
AcDbEntity
  8
Layer 1
  62
0
  100
AcDb2dVertex
  10
1.64200
  20
1.36000
  30
0.00000
  42
0.0667
  70
32
  0
VERTEX
  5
447
  100
AcDbEntity
  8
Layer 1
  62
0
  100
AcDb2dVertex
  10
1.61100
  20
1.36500
  30
0.00000
  42
0.1214
  70
32
  0
VERTEX
  5
448
  100
AcDbEntity
  8
Layer 1
  62
0
  100
AcDb2dVertex
  10
1.60118
  20
1.36116
  30
0.00000
  42
0.0387
  70
32
  0
VERTEX
  5
449
  100
AcDbEntity
  8
Layer 1
  62
0
  100
AcDb2dVertex
  10
1.57169
  20
1.33859
  30
0.00000
  70
32
  0
VERTEX
  5
44A
  100
AcDbEntity
  8
Layer 1
  62
0
  100
AcDb2dVertex
  10
1.57100
  20
1.33800
  30
0.00000
  42
-0.0451
  70
32
  0
VERTEX
  5
44B
  100
AcDbEntity
  8
Layer 1
  62
0
  100
AcDb2dVertex
  10
1.54018
  20
1.31496
  30
0.00000
  42
-0.1174
  70
32
  0
VERTEX
  5
44C
  100
AcDbEntity
  8
Layer 1
  62
0
  100
AcDb2dVertex
  10
1.52628
  20
1.31000
  30
0.00000
  70
32
  0
VERTEX
  5
44D
  100
AcDbEntity
  8
Layer 1
  62
0
  100
AcDb2dVertex
  10
1.52600
  20
1.31000
  30
0.00000
  42
-0.1777
  70
32
  0
VERTEX
  5
44E
  100
AcDbEntity
  8
Layer 1
  62
0
  100
AcDb2dVertex
  10
1.51097
  20
1.31447
  30
0.00000
  42
-0.1952
  70
32
  0
VERTEX
  5
44F
  100
AcDbEntity
  8
Layer 1
  62
0
  100
AcDb2dVertex
  10
1.50431
  20
1.32854
  30
0.00000
  70
32
  0
VERTEX
  5
450
  100
AcDbEntity
  8
Layer 1
  62
0
  100
AcDb2dVertex
  10
1.50400
  20
1.33400
  30
0.00000
  42
-0.1163
  70
32
  0
VERTEX
  5
451
  100
AcDbEntity
  8
Layer 1
  62
0
  100
AcDb2dVertex
  10
1.50792
  20
1.34428
  30
0.00000
  42
-0.0432
  70
32
  0
VERTEX
  5
452
  100
AcDbEntity
  8
Layer 1
  62
0
  100
AcDb2dVertex
  10
1.53100
  20
1.37500
  30
0.00000
  42
0.0530
  70
32
  0
VERTEX
  5
453
  100
AcDbEntity
  8
Layer 1
  62
0
  100
AcDb2dVertex
  10
1.55416
  20
1.40375
  30
0.00000
  42
0.1225
  70
32
  0
VERTEX
  5
454
  100
AcDbEntity
  8
Layer 1
  62
0
  100
AcDb2dVertex
  10
1.55900
  20
1.41678
  30
0.00000
  70
32
  0
VERTEX
  5
455
  100
AcDbEntity
  8
Layer 1
  62
0
  100
AcDb2dVertex
  10
1.55900
  20
1.41700
  30
0.00000
  42
0.0779
  70
32
  0
VERTEX
  5
456
  100
AcDbEntity
  8
Layer 1
  62
0
  100
AcDb2dVertex
  10
1.55451
  20
1.43771
  30
0.00000
  70
32
  0
VERTEX
  5
457
  100
AcDbEntity
  8
Layer 1
  62
0
  100
AcDb2dVertex
  10
1.55300
  20
1.44200
  30
0.00000
  42
-0.0800
  70
32
  0
VERTEX
  5
458
  100
AcDbEntity
  8
Layer 1
  62
0
  100
AcDb2dVertex
  10
1.54701
  20
1.46838
  30
0.00000
  70
32
  0
VERTEX
  5
459
  100
AcDbEntity
  8
Layer 1
  62
0
  100
AcDb2dVertex
  10
1.54700
  20
1.46900
  30
0.00000
  42
-0.1229
  70
32
  0
VERTEX
  5
45A
  100
AcDbEntity
  8
Layer 1
  62
0
  100
AcDb2dVertex
  10
1.56324
  20
1.53077
  30
0.00000
  42
-0.0762
  70
32
  0
VERTEX
  5
45B
  100
AcDbEntity
  8
Layer 1
  62
0
  100
AcDb2dVertex
  10
1.60500
  20
1.58541
  30
0.00000
  42
-0.0178
  70
32
  0
VERTEX
  5
45C
  100
AcDbEntity
  8
Layer 1
  62
0
  100
AcDb2dVertex
  10
1.62300
  20
1.60200
  30
0.00000
  42
-0.0604
  70
32
  0
VERTEX
  5
45D
  100
AcDbEntity
  8
Layer 1
  62
0
  100
AcDb2dVertex
  10
1.68981
  20
1.64700
  30
0.00000
  42
-0.0961
  70
32
  0
VERTEX
  5
45E
  100
AcDbEntity
  8
Layer 1
  62
0
  100
AcDb2dVertex
  10
1.75726
  20
1.66654
  30
0.00000
  42
-0.0193
  70
32
  0
VERTEX
  5
45F
  100
AcDbEntity
  8
Layer 1
  62
0
  100
AcDb2dVertex
  10
1.76900
  20
1.66700
  30
0.00000
  42
-0.2779
  70
32
  0
VERTEX
  5
460
  100
AcDbEntity
  8
Layer 1
  62
0
  100
AcDb2dVertex
  10
1.77740
  20
1.66306
  30
0.00000
  42
-0.1360
  70
32
  0
VERTEX
  5
461
  100
AcDbEntity
  8
Layer 1
  62
0
  100
AcDb2dVertex
  10
1.77900
  20
1.65600
  30
0.00000
  42
0.0565
  70
32
  0
VERTEX
  5
462
  100
AcDbEntity
  8
Layer 1
  62
0
  100
AcDb2dVertex
  10
1.65700
  20
1.59100
  30
0.00000
  42
0.0639
  70
32
  0
VERTEX
  5
463
  100
AcDbEntity
  8
Layer 1
  62
0
  100
AcDb2dVertex
  10
1.60976
  20
1.54740
  30
0.00000
  42
0.1004
  70
32
  0
VERTEX
  5
464
  100
AcDbEntity
  8
Layer 1
  62
0
  100
AcDb2dVertex
  10
1.58720
  20
1.50624
  30
0.00000
  42
0.0703
  70
32
  0
VERTEX
  5
465
  100
AcDbEntity
  8
Layer 1
  62
0
  100
AcDb2dVertex
  10
1.58400
  20
1.48400
  30
0.00000
  42
0.0813
  70
32
  0
VERTEX
  5
466
  100
AcDbEntity
  8
Layer 1
  62
0
  100
AcDb2dVertex
  10
1.58939
  20
1.44485
  30
0.00000
  42
0.1776
  70
32
  0
VERTEX
  5
467
  100
AcDbEntity
  8
Layer 1
  62
0
  100
AcDb2dVertex
  10
1.61200
  20
1.41500
  30
0.00000
  42
0.0675
  70
32
  0
VERTEX
  5
468
  100
AcDbEntity
  8
Layer 1
  62
0
  100
AcDb2dVertex
  10
1.64844
  20
1.39253
  30
0.00000
  42
0.0986
  70
32
  0
VERTEX
  5
469
  100
AcDbEntity
  8
Layer 1
  62
0
  100
AcDb2dVertex
  10
1.67400
  20
1.38700
  30
0.00000
  42
0.1397
  70
32
  0
VERTEX
  5
46A
  100
AcDbEntity
  8
Layer 1
  62
0
  100
AcDb2dVertex
  10
1.71965
  20
1.40072
  30
0.00000
  42
0.0792
  70
32
  0
VERTEX
  5
46B
  100
AcDbEntity
  8
Layer 1
  62
0
  100
AcDb2dVertex
  10
1.75916
  20
1.43580
  30
0.00000
  42
0.0271
  70
32
  0
VERTEX
  5
46C
  100
AcDbEntity
  8
Layer 1
  62
0
  100
AcDb2dVertex
  10
1.77900
  20
1.46200
  30
0.00000
  42
0.0707
  70
32
  0
VERTEX
  5
46D
  100
AcDbEntity
  8
Layer 1
  62
0
  100
AcDb2dVertex
  10
1.82778
  20
1.55729
  30
0.00000
  42
0.0264
  70
32
  0
VERTEX
  5
46E
  100
AcDbEntity
  8
Layer 1
  62
0
  100
AcDb2dVertex
  10
1.83600
  20
1.58700
  30
0.00000
  42
-0.1410
  70
32
  0
VERTEX
  5
46F
  100
AcDbEntity
  8
Layer 1
  62
0
  100
AcDb2dVertex
  10
1.84034
  20
1.59420
  30
0.00000
  42
-0.3931
  70
32
  0
VERTEX
  5
470
  100
AcDbEntity
  8
Layer 1
  62
0
  100
AcDb2dVertex
  10
1.84485
  20
1.59327
  30
0.00000
  70
32
  0
VERTEX
  5
471
  100
AcDbEntity
  8
Layer 1
  62
0
  100
AcDb2dVertex
  10
1.84600
  20
1.59200
  30
0.00000
  70
32
  0
VERTEX
  5
472
  100
AcDbEntity
  8
Layer 1
  62
0
  100
AcDb2dVertex
  10
1.85600
  20
1.57600
  30
0.00000
  70
32
  0
SEQEND
  5
473
  100
AcDbEntity
  8
Layer 1
  62
0
  0
POLYLINE
  5
474
  100
AcDbEntity
  8
Layer 1
  62
0
  100
AcDb2dPolyline
 66
     1
  10
0
  20
0
  30
0
  70
1
  0
VERTEX
  5
475
  100
AcDbEntity
  8
Layer 1
  62
0
  100
AcDb2dVertex
  10
1.57400
  20
1.63200
  30
0.00000
  70
32
  0
VERTEX
  5
476
  100
AcDbEntity
  8
Layer 1
  62
0
  100
AcDb2dVertex
  10
1.57400
  20
1.61400
  30
0.00000
  42
-0.0693
  70
32
  0
VERTEX
  5
477
  100
AcDbEntity
  8
Layer 1
  62
0
  100
AcDb2dVertex
  10
1.57139
  20
1.58869
  30
0.00000
  42
-0.1807
  70
32
  0
VERTEX
  5
478
  100
AcDbEntity
  8
Layer 1
  62
0
  100
AcDb2dVertex
  10
1.56593
  20
1.58008
  30
0.00000
  42
-0.1413
  70
32
  0
VERTEX
  5
479
  100
AcDbEntity
  8
Layer 1
  62
0
  100
AcDb2dVertex
  10
1.56200
  20
1.57900
  30
0.00000
  42
-0.0579
  70
32
  0
VERTEX
  5
47A
  100
AcDbEntity
  8
Layer 1
  62
0
  100
AcDb2dVertex
  10
1.53819
  20
1.58329
  30
0.00000
  70
32
  0
VERTEX
  5
47B
  100
AcDbEntity
  8
Layer 1
  62
0
  100
AcDb2dVertex
  10
1.53200
  20
1.58500
  30
0.00000
  42
0.0790
  70
32
  0
VERTEX
  5
47C
  100
AcDbEntity
  8
Layer 1
  62
0
  100
AcDb2dVertex
  10
1.50356
  20
1.59197
  30
0.00000
  70
32
  0
VERTEX
  5
47D
  100
AcDbEntity
  8
Layer 1
  62
0
  100
AcDb2dVertex
  10
1.50200
  20
1.59200
  30
0.00000
  42
0.2540
  70
32
  0
VERTEX
  5
47E
  100
AcDbEntity
  8
Layer 1
  62
0
  100
AcDb2dVertex
  10
1.49127
  20
1.58566
  30
0.00000
  42
0.0977
  70
32
  0
VERTEX
  5
47F
  100
AcDbEntity
  8
Layer 1
  62
0
  100
AcDb2dVertex
  10
1.48378
  20
1.56610
  30
0.00000
  42
0.0276
  70
32
  0
VERTEX
  5
480
  100
AcDbEntity
  8
Layer 1
  62
0
  100
AcDb2dVertex
  10
1.48100
  20
1.54800
  30
0.00000
  42
-0.0823
  70
32
  0
VERTEX
  5
481
  100
AcDbEntity
  8
Layer 1
  62
0
  100
AcDb2dVertex
  10
1.47532
  20
1.51974
  30
0.00000
  42
-0.1795
  70
32
  0
VERTEX
  5
482
  100
AcDbEntity
  8
Layer 1
  62
0
  100
AcDb2dVertex
  10
1.46383
  20
1.50620
  30
0.00000
  42
-0.1188
  70
32
  0
VERTEX
  5
483
  100
AcDbEntity
  8
Layer 1
  62
0
  100
AcDb2dVertex
  10
1.45400
  20
1.50400
  30
0.00000
  42
-0.3121
  70
32
  0
VERTEX
  5
484
  100
AcDbEntity
  8
Layer 1
  62
0
  100
AcDb2dVertex
  10
1.43194
  20
1.51774
  30
0.00000
  42
-0.0954
  70
32
  0
VERTEX
  5
485
  100
AcDbEntity
  8
Layer 1
  62
0
  100
AcDb2dVertex
  10
1.42628
  20
1.54260
  30
0.00000
  70
32
  0
VERTEX
  5
486
  100
AcDbEntity
  8
Layer 1
  62
0
  100
AcDb2dVertex
  10
1.42600
  20
1.54800
  30
0.00000
  42
0.0609
  70
32
  0
VERTEX
  5
487
  100
AcDbEntity
  8
Layer 1
  62
0
  100
AcDb2dVertex
  10
1.42198
  20
1.57936
  30
0.00000
  42
0.1462
  70
32
  0
VERTEX
  5
488
  100
AcDbEntity
  8
Layer 1
  62
0
  100
AcDb2dVertex
  10
1.41590
  20
1.59023
  30
0.00000
  42
0.1753
  70
32
  0
VERTEX
  5
489
  100
AcDbEntity
  8
Layer 1
  62
0
  100
AcDb2dVertex
  10
1.41100
  20
1.59200
  30
0.00000
  42
0.0760
  70
32
  0
VERTEX
  5
48A
  100
AcDbEntity
  8
Layer 1
  62
0
  100
AcDb2dVertex
  10
1.38231
  20
1.58614
  30
0.00000
  70
32
  0
VERTEX
  5
48B
  100
AcDbEntity
  8
Layer 1
  62
0
  100
AcDb2dVertex
  10
1.37900
  20
1.58500
  30
0.00000
  42
-0.0532
  70
32
  0
VERTEX
  5
48C
  100
AcDbEntity
  8
Layer 1
  62
0
  100
AcDb2dVertex
  10
1.35052
  20
1.57721
  30
0.00000
  70
32
  0
VERTEX
  5
48D
  100
AcDbEntity
  8
Layer 1
  62
0
  100
AcDb2dVertex
  10
1.34700
  20
1.57700
  30
0.00000
  42
-0.3441
  70
32
  0
VERTEX
  5
48E
  100
AcDbEntity
  8
Layer 1
  62
0
  100
AcDb2dVertex
  10
1.33942
  20
1.58335
  30
0.00000
  70
32
  0
VERTEX
  5
48F
  100
AcDbEntity
  8
Layer 1
  62
0
  100
AcDb2dVertex
  10
1.33900
  20
1.58500
  30
0.00000
  42
-0.0225
  70
32
  0
VERTEX
  5
490
  100
AcDbEntity
  8
Layer 1
  62
0
  100
AcDb2dVertex
  10
1.33600
  20
1.60500
  30
0.00000
  70
32
  0
VERTEX
  5
491
  100
AcDbEntity
  8
Layer 1
  62
0
  100
AcDb2dVertex
  10
1.33509
  20
1.61190
  30
0.00000
  42
-0.0265
  70
32
  0
VERTEX
  5
492
  100
AcDbEntity
  8
Layer 1
  62
0
  100
AcDb2dVertex
  10
1.33400
  20
1.62200
  30
0.00000
  42
-0.0744
  70
32
  0
VERTEX
  5
493
  100
AcDbEntity
  8
Layer 1
  62
0
  100
AcDb2dVertex
  10
1.33729
  20
1.65025
  30
0.00000
  42
-0.1674
  70
32
  0
VERTEX
  5
494
  100
AcDbEntity
  8
Layer 1
  62
0
  100
AcDb2dVertex
  10
1.34482
  20
1.66188
  30
0.00000
  42
-0.1530
  70
32
  0
VERTEX
  5
495
  100
AcDbEntity
  8
Layer 1
  62
0
  100
AcDb2dVertex
  10
1.35200
  20
1.66400
  30
0.00000
  42
-0.0538
  70
32
  0
VERTEX
  5
496
  100
AcDbEntity
  8
Layer 1
  62
0
  100
AcDb2dVertex
  10
1.37820
  20
1.65967
  30
0.00000
  42
-0.0176
  70
32
  0
VERTEX
  5
497
  100
AcDbEntity
  8
Layer 1
  62
0
  100
AcDb2dVertex
  10
1.45700
  20
1.63600
  30
0.00000
  70
32
  0
VERTEX
  5
498
  100
AcDbEntity
  8
Layer 1
  62
0
  100
AcDb2dVertex
  10
1.45600
  20
1.60200
  30
0.00000
  70
32
  0
VERTEX
  5
499
  100
AcDbEntity
  8
Layer 1
  62
0
  100
AcDb2dVertex
  10
1.45700
  20
1.63600
  30
0.00000
  42
-0.0277
  70
32
  0
VERTEX
  5
49A
  100
AcDbEntity
  8
Layer 1
  62
0
  100
AcDb2dVertex
  10
1.53275
  20
1.66103
  30
0.00000
  42
-0.0463
  70
32
  0
VERTEX
  5
49B
  100
AcDbEntity
  8
Layer 1
  62
0
  100
AcDb2dVertex
  10
1.56100
  20
1.66600
  30
0.00000
  42
-0.2760
  70
32
  0
VERTEX
  5
49C
  100
AcDbEntity
  8
Layer 1
  62
0
  100
AcDb2dVertex
  10
1.57005
  20
1.65880
  30
0.00000
  42
-0.0945
  70
32
  0
VERTEX
  5
49D
  100
AcDbEntity
  8
Layer 1
  62
0
  100
AcDb2dVertex
  10
1.57381
  20
1.63966
  30
0.00000
  70
32
  0
VERTEX
  5
49E
  100
AcDbEntity
  8
Layer 1
  62
0
  100
AcDb2dVertex
  10
1.57400
  20
1.63200
  30
0.00000
  70
32
  0
SEQEND
  5
49F
  100
AcDbEntity
  8
Layer 1
  62
0
  0
POLYLINE
  5
4A0
  100
AcDbEntity
  8
Layer 1
  62
0
  100
AcDb2dPolyline
 66
     1
  10
0
  20
0
  30
0
  70
1
  0
VERTEX
  5
4A1
  100
AcDbEntity
  8
Layer 1
  62
0
  100
AcDb2dVertex
  10
2.04700
  20
1.02900
  30
0.00000
  42
-0.1338
  70
32
  0
VERTEX
  5
4A2
  100
AcDbEntity
  8
Layer 1
  62
0
  100
AcDb2dVertex
  10
2.04380
  20
1.01373
  30
0.00000
  42
-0.2595
  70
32
  0
VERTEX
  5
4A3
  100
AcDbEntity
  8
Layer 1
  62
0
  100
AcDb2dVertex
  10
2.03155
  20
1.00698
  30
0.00000
  70
32
  0
VERTEX
  5
4A4
  100
AcDbEntity
  8
Layer 1
  62
0
  100
AcDb2dVertex
  10
2.02700
  20
1.00700
  30
0.00000
  70
32
  0
VERTEX
  5
4A5
  100
AcDbEntity
  8
Layer 1
  62
0
  100
AcDb2dVertex
  10
1.94900
  20
1.01500
  30
0.00000
  42
-0.0291
  70
32
  0
VERTEX
  5
4A6
  100
AcDbEntity
  8
Layer 1
  62
0
  100
AcDb2dVertex
  10
1.90258
  20
0.97268
  30
0.00000
  70
32
  0
VERTEX
  5
4A7
  100
AcDbEntity
  8
Layer 1
  62
0
  100
AcDb2dVertex
  10
1.88100
  20
0.95500
  30
0.00000
  70
32
  0
VERTEX
  5
4A8
  100
AcDbEntity
  8
Layer 1
  62
0
  100
AcDb2dVertex
  10
1.85700
  20
0.94900
  30
0.00000
  70
32
  0
VERTEX
  5
4A9
  100
AcDbEntity
  8
Layer 1
  62
0
  100
AcDb2dVertex
  10
1.88100
  20
0.95500
  30
0.00000
  70
32
  0
VERTEX
  5
4AA
  100
AcDbEntity
  8
Layer 1
  62
0
  100
AcDb2dVertex
  10
1.88900
  20
0.94500
  30
0.00000
  42
-0.1924
  70
32
  0
VERTEX
  5
4AB
  100
AcDbEntity
  8
Layer 1
  62
0
  100
AcDb2dVertex
  10
1.88478
  20
0.92697
  30
0.00000
  42
-0.1617
  70
32
  0
VERTEX
  5
4AC
  100
AcDbEntity
  8
Layer 1
  62
0
  100
AcDb2dVertex
  10
1.86896
  20
0.91713
  30
0.00000
  42
-0.0706
  70
32
  0
VERTEX
  5
4AD
  100
AcDbEntity
  8
Layer 1
  62
0
  100
AcDb2dVertex
  10
1.84200
  20
0.91400
  30
0.00000
  42
-0.1113
  70
32
  0
VERTEX
  5
4AE
  100
AcDbEntity
  8
Layer 1
  62
0
  100
AcDb2dVertex
  10
1.81878
  20
0.91823
  30
0.00000
  42
-0.2184
  70
32
  0
VERTEX
  5
4AF
  100
AcDbEntity
  8
Layer 1
  62
0
  100
AcDb2dVertex
  10
1.80600
  20
0.93300
  30
0.00000
  42
0.0918
  70
32
  0
VERTEX
  5
4B0
  100
AcDbEntity
  8
Layer 1
  62
0
  100
AcDb2dVertex
  10
1.79657
  20
0.95013
  30
0.00000
  42
0.1401
  70
32
  0
VERTEX
  5
4B1
  100
AcDbEntity
  8
Layer 1
  62
0
  100
AcDb2dVertex
  10
1.78900
  20
0.95500
  30
0.00000
  42
-0.0291
  70
32
  0
VERTEX
  5
4B2
  100
AcDbEntity
  8
Layer 1
  62
0
  100
AcDb2dVertex
  10
1.68975
  20
0.99587
  30
0.00000
  42
-0.0490
  70
32
  0
VERTEX
  5
4B3
  100
AcDbEntity
  8
Layer 1
  62
0
  100
AcDb2dVertex
  10
1.63738
  20
1.02743
  30
0.00000
  42
-0.0862
  70
32
  0
VERTEX
  5
4B4
  100
AcDbEntity
  8
Layer 1
  62
0
  100
AcDb2dVertex
  10
1.61303
  20
1.05274
  30
0.00000
  42
-0.1357
  70
32
  0
VERTEX
  5
4B5
  100
AcDbEntity
  8
Layer 1
  62
0
  100
AcDb2dVertex
  10
1.60600
  20
1.07400
  30
0.00000
  42
-0.2793
  70
32
  0
VERTEX
  5
4B6
  100
AcDbEntity
  8
Layer 1
  62
0
  100
AcDb2dVertex
  10
1.61232
  20
1.08407
  30
0.00000
  70
32
  0
VERTEX
  5
4B7
  100
AcDbEntity
  8
Layer 1
  62
0
  100
AcDb2dVertex
  10
1.61400
  20
1.08500
  30
0.00000
  42
-0.0129
  70
32
  0
VERTEX
  5
4B8
  100
AcDbEntity
  8
Layer 1
  62
0
  100
AcDb2dVertex
  10
1.67350
  20
1.03845
  30
0.00000
  70
32
  0
VERTEX
  5
4B9
  100
AcDbEntity
  8
Layer 1
  62
0
  100
AcDb2dVertex
  10
1.67900
  20
1.03400
  30
0.00000
  42
0.0770
  70
32
  0
VERTEX
  5
4BA
  100
AcDbEntity
  8
Layer 1
  62
0
  100
AcDb2dVertex
  10
1.75619
  20
0.99431
  30
0.00000
  42
0.0781
  70
32
  0
VERTEX
  5
4BB
  100
AcDbEntity
  8
Layer 1
  62
0
  100
AcDb2dVertex
  10
1.82100
  20
0.98400
  30
0.00000
  42
0.1268
  70
32
  0
VERTEX
  5
4BC
  100
AcDbEntity
  8
Layer 1
  62
0
  100
AcDb2dVertex
  10
1.86864
  20
0.99516
  30
0.00000
  42
0.1392
  70
32
  0
VERTEX
  5
4BD
  100
AcDbEntity
  8
Layer 1
  62
0
  100
AcDb2dVertex
  10
1.90430
  20
1.03109
  30
0.00000
  42
0.0482
  70
32
  0
VERTEX
  5
4BE
  100
AcDbEntity
  8
Layer 1
  62
0
  100
AcDb2dVertex
  10
1.91600
  20
1.05700
  30
0.00000
  70
32
  0
VERTEX
  5
4BF
  100
AcDbEntity
  8
Layer 1
  62
0
  100
AcDb2dVertex
  10
1.94400
  20
1.04900
  30
0.00000
  70
32
  0
VERTEX
  5
4C0
  100
AcDbEntity
  8
Layer 1
  62
0
  100
AcDb2dVertex
  10
1.91600
  20
1.05700
  30
0.00000
  42
0.0495
  70
32
  0
VERTEX
  5
4C1
  100
AcDbEntity
  8
Layer 1
  62
0
  100
AcDb2dVertex
  10
1.91900
  20
1.08700
  30
0.00000
  42
0.2202
  70
32
  0
VERTEX
  5
4C2
  100
AcDbEntity
  8
Layer 1
  62
0
  100
AcDb2dVertex
  10
1.89239
  20
1.14725
  30
0.00000
  42
0.0748
  70
32
  0
VERTEX
  5
4C3
  100
AcDbEntity
  8
Layer 1
  62
0
  100
AcDb2dVertex
  10
1.85900
  20
1.16900
  30
0.00000
  42
0.1025
  70
32
  0
VERTEX
  5
4C4
  100
AcDbEntity
  8
Layer 1
  62
0
  100
AcDb2dVertex
  10
1.76475
  20
1.19172
  30
0.00000
  70
32
  0
VERTEX
  5
4C5
  100
AcDbEntity
  8
Layer 1
  62
0
  100
AcDb2dVertex
  10
1.75200
  20
1.19200
  30
0.00000
  42
0.0582
  70
32
  0
VERTEX
  5
4C6
  100
AcDbEntity
  8
Layer 1
  62
0
  100
AcDb2dVertex
  10
1.71625
  20
1.18638
  30
0.00000
  42
0.0122
  70
32
  0
VERTEX
  5
4C7
  100
AcDbEntity
  8
Layer 1
  62
0
  100
AcDb2dVertex
  10
1.69700
  20
1.18100
  30
0.00000
  42
-0.0371
  70
32
  0
VERTEX
  5
4C8
  100
AcDbEntity
  8
Layer 1
  62
0
  100
AcDb2dVertex
  10
1.65246
  20
1.17059
  30
0.00000
  42
-0.0304
  70
32
  0
VERTEX
  5
4C9
  100
AcDbEntity
  8
Layer 1
  62
0
  100
AcDb2dVertex
  10
1.64400
  20
1.17000
  30
0.00000
  70
32
  0
VERTEX
  5
4CA
  100
AcDbEntity
  8
Layer 1
  62
0
  100
AcDb2dVertex
  10
1.63200
  20
1.17700
  30
0.00000
  42
-0.2141
  70
32
  0
VERTEX
  5
4CB
  100
AcDbEntity
  8
Layer 1
  62
0
  100
AcDb2dVertex
  10
1.63821
  20
1.18922
  30
0.00000
  42
-0.0907
  70
32
  0
VERTEX
  5
4CC
  100
AcDbEntity
  8
Layer 1
  62
0
  100
AcDb2dVertex
  10
1.65892
  20
1.20097
  30
0.00000
  42
-0.0347
  70
32
  0
VERTEX
  5
4CD
  100
AcDbEntity
  8
Layer 1
  62
0
  100
AcDb2dVertex
  10
1.68900
  20
1.21000
  30
0.00000
  42
-0.0613
  70
32
  0
VERTEX
  5
4CE
  100
AcDbEntity
  8
Layer 1
  62
0
  100
AcDb2dVertex
  10
1.76200
  20
1.22000
  30
0.00000
  42
-0.0433
  70
32
  0
VERTEX
  5
4CF
  100
AcDbEntity
  8
Layer 1
  62
0
  100
AcDb2dVertex
  10
1.80464
  20
1.21466
  30
0.00000
  70
32
  0
VERTEX
  5
4D0
  100
AcDbEntity
  8
Layer 1
  62
0
  100
AcDb2dVertex
  10
1.80800
  20
1.21400
  30
0.00000
  42
0.0469
  70
32
  0
VERTEX
  5
4D1
  100
AcDbEntity
  8
Layer 1
  62
0
  100
AcDb2dVertex
  10
1.85086
  20
1.20706
  30
0.00000
  70
32
  0
VERTEX
  5
4D2
  100
AcDbEntity
  8
Layer 1
  62
0
  100
AcDb2dVertex
  10
1.85400
  20
1.20700
  30
0.00000
  42
0.1665
  70
32
  0
VERTEX
  5
4D3
  100
AcDbEntity
  8
Layer 1
  62
0
  100
AcDb2dVertex
  10
1.86626
  20
1.21208
  30
0.00000
  42
0.0334
  70
32
  0
VERTEX
  5
4D4
  100
AcDbEntity
  8
Layer 1
  62
0
  100
AcDb2dVertex
  10
1.87400
  20
1.21900
  30
0.00000
  42
-0.0986
  70
32
  0
VERTEX
  5
4D5
  100
AcDbEntity
  8
Layer 1
  62
0
  100
AcDb2dVertex
  10
1.89020
  20
1.22936
  30
0.00000
  42
-0.0743
  70
32
  0
VERTEX
  5
4D6
  100
AcDbEntity
  8
Layer 1
  62
0
  100
AcDb2dVertex
  10
1.89400
  20
1.23000
  30
0.00000
  42
-0.1279
  70
32
  0
VERTEX
  5
4D7
  100
AcDbEntity
  8
Layer 1
  62
0
  100
AcDb2dVertex
  10
1.90962
  20
1.22473
  30
0.00000
  42
-0.0453
  70
32
  0
VERTEX
  5
4D8
  100
AcDbEntity
  8
Layer 1
  62
0
  100
AcDb2dVertex
  10
1.92700
  20
1.21200
  30
0.00000
  42
-0.0822
  70
32
  0
VERTEX
  5
4D9
  100
AcDbEntity
  8
Layer 1
  62
0
  100
AcDb2dVertex
  10
1.94529
  20
1.19302
  30
0.00000
  42
-0.1395
  70
32
  0
VERTEX
  5
4DA
  100
AcDbEntity
  8
Layer 1
  62
0
  100
AcDb2dVertex
  10
1.94900
  20
1.18200
  30
0.00000
  42
-0.0722
  70
32
  0
VERTEX
  5
4DB
  100
AcDbEntity
  8
Layer 1
  62
0
  100
AcDb2dVertex
  10
1.94501
  20
1.16922
  30
0.00000
  70
32
  0
VERTEX
  5
4DC
  100
AcDbEntity
  8
Layer 1
  62
0
  100
AcDb2dVertex
  10
1.94100
  20
1.16000
  30
0.00000
  42
0.0254
  70
32
  0
VERTEX
  5
4DD
  100
AcDbEntity
  8
Layer 1
  62
0
  100
AcDb2dVertex
  10
1.95600
  20
1.08700
  30
0.00000
  42
0.1604
  70
32
  0
VERTEX
  5
4DE
  100
AcDbEntity
  8
Layer 1
  62
0
  100
AcDb2dVertex
  10
1.96434
  20
1.07754
  30
0.00000
  42
0.0622
  70
32
  0
VERTEX
  5
4DF
  100
AcDbEntity
  8
Layer 1
  62
0
  100
AcDb2dVertex
  10
1.99064
  20
1.06541
  30
0.00000
  70
32
  0
VERTEX
  5
4E0
  100
AcDbEntity
  8
Layer 1
  62
0
  100
AcDb2dVertex
  10
2.00400
  20
1.06100
  30
0.00000
  42
-0.0761
  70
32
  0
VERTEX
  5
4E1
  100
AcDbEntity
  8
Layer 1
  62
0
  100
AcDb2dVertex
  10
2.03381
  20
1.04868
  30
0.00000
  42
-0.1537
  70
32
  0
VERTEX
  5
4E2
  100
AcDbEntity
  8
Layer 1
  62
0
  100
AcDb2dVertex
  10
2.04574
  20
1.03556
  30
0.00000
  42
-0.0955
  70
32
  0
VERTEX
  5
4E3
  100
AcDbEntity
  8
Layer 1
  62
0
  100
AcDb2dVertex
  10
2.04700
  20
1.02900
  30
0.00000
  70
32
  0
SEQEND
  5
4E4
  100
AcDbEntity
  8
Layer 1
  62
0
  0
POLYLINE
  5
4E5
  100
AcDbEntity
  8
Layer 1
  62
0
  100
AcDb2dPolyline
 66
     1
  10
0
  20
0
  30
0
  70
1
  0
VERTEX
  5
4E6
  100
AcDbEntity
  8
Layer 1
  62
0
  100
AcDb2dVertex
  10
1.84600
  20
1.23900
  30
0.00000
  42
-0.3838
  70
32
  0
VERTEX
  5
4E7
  100
AcDbEntity
  8
Layer 1
  62
0
  100
AcDb2dVertex
  10
1.83995
  20
1.22807
  30
0.00000
  70
32
  0
VERTEX
  5
4E8
  100
AcDbEntity
  8
Layer 1
  62
0
  100
AcDb2dVertex
  10
1.83700
  20
1.22700
  30
0.00000
  70
32
  0
VERTEX
  5
4E9
  100
AcDbEntity
  8
Layer 1
  62
0
  100
AcDb2dVertex
  10
1.82522
  20
1.23554
  30
0.00000
  42
0.0069
  70
32
  0
VERTEX
  5
4EA
  100
AcDbEntity
  8
Layer 1
  62
0
  100
AcDb2dVertex
  10
1.78100
  20
1.26700
  30
0.00000
  42
0.0768
  70
32
  0
VERTEX
  5
4EB
  100
AcDbEntity
  8
Layer 1
  62
0
  100
AcDb2dVertex
  10
1.70805
  20
1.29850
  30
0.00000
  42
0.0605
  70
32
  0
VERTEX
  5
4EC
  100
AcDbEntity
  8
Layer 1
  62
0
  100
AcDb2dVertex
  10
1.66400
  20
1.30400
  30
0.00000
  42
0.1423
  70
32
  0
VERTEX
  5
4ED
  100
AcDbEntity
  8
Layer 1
  62
0
  100
AcDb2dVertex
  10
1.64213
  20
1.29653
  30
0.00000
  42
0.0622
  70
32
  0
VERTEX
  5
4EE
  100
AcDbEntity
  8
Layer 1
  62
0
  100
AcDb2dVertex
  10
1.62400
  20
1.28100
  30
0.00000
  42
0.0875
  70
32
  0
VERTEX
  5
4EF
  100
AcDbEntity
  8
Layer 1
  62
0
  100
AcDb2dVertex
  10
1.60451
  20
1.25284
  30
0.00000
  42
0.0801
  70
32
  0
VERTEX
  5
4F0
  100
AcDbEntity
  8
Layer 1
  62
0
  100
AcDb2dVertex
  10
1.60100
  20
1.23900
  30
0.00000
  42
0.0804
  70
32
  0
VERTEX
  5
4F1
  100
AcDbEntity
  8
Layer 1
  62
0
  100
AcDb2dVertex
  10
1.59700
  20
1.20900
  30
0.00000
  42
0.2382
  70
32
  0
VERTEX
  5
4F2
  100
AcDbEntity
  8
Layer 1
  62
0
  100
AcDb2dVertex
  10
1.62149
  20
1.15809
  30
0.00000
  42
0.0538
  70
32
  0
VERTEX
  5
4F3
  100
AcDbEntity
  8
Layer 1
  62
0
  100
AcDb2dVertex
  10
1.63900
  20
1.14700
  30
0.00000
  42
0.1077
  70
32
  0
VERTEX
  5
4F4
  100
AcDbEntity
  8
Layer 1
  62
0
  100
AcDb2dVertex
  10
1.70884
  20
1.13015
  30
0.00000
  70
32
  0
VERTEX
  5
4F5
  100
AcDbEntity
  8
Layer 1
  62
0
  100
AcDb2dVertex
  10
1.71700
  20
1.13000
  30
0.00000
  42
0.0421
  70
32
  0
VERTEX
  5
4F6
  100
AcDbEntity
  8
Layer 1
  62
0
  100
AcDb2dVertex
  10
1.76368
  20
1.13556
  30
0.00000
  70
32
  0
VERTEX
  5
4F7
  100
AcDbEntity
  8
Layer 1
  62
0
  100
AcDb2dVertex
  10
1.76600
  20
1.13600
  30
0.00000
  42
-0.0357
  70
32
  0
VERTEX
  5
4F8
  100
AcDbEntity
  8
Layer 1
  62
0
  100
AcDb2dVertex
  10
1.80912
  20
1.14195
  30
0.00000
  70
32
  0
VERTEX
  5
4F9
  100
AcDbEntity
  8
Layer 1
  62
0
  100
AcDb2dVertex
  10
1.81200
  20
1.14200
  30
0.00000
  42
-0.1976
  70
32
  0
VERTEX
  5
4FA
  100
AcDbEntity
  8
Layer 1
  62
0
  100
AcDb2dVertex
  10
1.81991
  20
1.13838
  30
0.00000
  42
-0.2099
  70
32
  0
VERTEX
  5
4FB
  100
AcDbEntity
  8
Layer 1
  62
0
  100
AcDb2dVertex
  10
1.82100
  20
1.13200
  30
0.00000
  42
-0.2347
  70
32
  0
VERTEX
  5
4FC
  100
AcDbEntity
  8
Layer 1
  62
0
  100
AcDb2dVertex
  10
1.81663
  20
1.12498
  30
0.00000
  42
-0.0810
  70
32
  0
VERTEX
  5
4FD
  100
AcDbEntity
  8
Layer 1
  62
0
  100
AcDb2dVertex
  10
1.79807
  20
1.11641
  30
0.00000
  42
-0.0226
  70
32
  0
VERTEX
  5
4FE
  100
AcDbEntity
  8
Layer 1
  62
0
  100
AcDb2dVertex
  10
1.77400
  20
1.11000
  30
0.00000
  42
-0.0400
  70
32
  0
VERTEX
  5
4FF
  100
AcDbEntity
  8
Layer 1
  62
0
  100
AcDb2dVertex
  10
1.71400
  20
1.10400
  30
0.00000
  42
-0.0615
  70
32
  0
VERTEX
  5
500
  100
AcDbEntity
  8
Layer 1
  62
0
  100
AcDb2dVertex
  10
1.64732
  20
1.11120
  30
0.00000
  42
-0.0973
  70
32
  0
VERTEX
  5
501
  100
AcDbEntity
  8
Layer 1
  62
0
  100
AcDb2dVertex
  10
1.60208
  20
1.13146
  30
0.00000
  42
-0.1565
  70
32
  0
VERTEX
  5
502
  100
AcDbEntity
  8
Layer 1
  62
0
  100
AcDb2dVertex
  10
1.57100
  20
1.17400
  30
0.00000
  42
-0.0250
  70
32
  0
VERTEX
  5
503
  100
AcDbEntity
  8
Layer 1
  62
0
  100
AcDb2dVertex
  10
1.56246
  20
1.20419
  30
0.00000
  70
32
  0
VERTEX
  5
504
  100
AcDbEntity
  8
Layer 1
  62
0
  100
AcDb2dVertex
  10
1.56100
  20
1.21000
  30
0.00000
  42
0.1204
  70
32
  0
VERTEX
  5
505
  100
AcDbEntity
  8
Layer 1
  62
0
  100
AcDb2dVertex
  10
1.54888
  20
1.22008
  30
0.00000
  42
0.0531
  70
32
  0
VERTEX
  5
506
  100
AcDbEntity
  8
Layer 1
  62
0
  100
AcDb2dVertex
  10
1.51300
  20
1.23400
  30
0.00000
  42
-0.0850
  70
32
  0
VERTEX
  5
507
  100
AcDbEntity
  8
Layer 1
  62
0
  100
AcDb2dVertex
  10
1.48379
  20
1.24611
  30
0.00000
  42
-0.1616
  70
32
  0
VERTEX
  5
508
  100
AcDbEntity
  8
Layer 1
  62
0
  100
AcDb2dVertex
  10
1.47283
  20
1.25901
  30
0.00000
  42
-0.0817
  70
32
  0
VERTEX
  5
509
  100
AcDbEntity
  8
Layer 1
  62
0
  100
AcDb2dVertex
  10
1.47200
  20
1.26400
  30
0.00000
  42
-0.1611
  70
32
  0
VERTEX
  5
50A
  100
AcDbEntity
  8
Layer 1
  62
0
  100
AcDb2dVertex
  10
1.47621
  20
1.27977
  30
0.00000
  42
-0.2141
  70
32
  0
VERTEX
  5
50B
  100
AcDbEntity
  8
Layer 1
  62
0
  100
AcDb2dVertex
  10
1.49043
  20
1.28707
  30
0.00000
  42
-0.0550
  70
32
  0
VERTEX
  5
50C
  100
AcDbEntity
  8
Layer 1
  62
0
  100
AcDb2dVertex
  10
1.50100
  20
1.28700
  30
0.00000
  42
-0.0104
  70
32
  0
VERTEX
  5
50D
  100
AcDbEntity
  8
Layer 1
  62
0
  100
AcDb2dVertex
  10
1.56400
  20
1.28000
  30
0.00000
  42
0.1294
  70
32
  0
VERTEX
  5
50E
  100
AcDbEntity
  8
Layer 1
  62
0
  100
AcDb2dVertex
  10
1.57100
  20
1.28358
  30
0.00000
  42
0.0408
  70
32
  0
VERTEX
  5
50F
  100
AcDbEntity
  8
Layer 1
  62
0
  100
AcDb2dVertex
  10
1.59700
  20
1.30800
  30
0.00000
  42
-0.1530
  70
32
  0
VERTEX
  5
510
  100
AcDbEntity
  8
Layer 1
  62
0
  100
AcDb2dVertex
  10
1.64548
  20
1.33271
  30
0.00000
  42
-0.0472
  70
32
  0
VERTEX
  5
511
  100
AcDbEntity
  8
Layer 1
  62
0
  100
AcDb2dVertex
  10
1.67100
  20
1.33500
  30
0.00000
  42
-0.0713
  70
32
  0
VERTEX
  5
512
  100
AcDbEntity
  8
Layer 1
  62
0
  100
AcDb2dVertex
  10
1.71339
  20
1.32767
  30
0.00000
  42
-0.0403
  70
32
  0
VERTEX
  5
513
  100
AcDbEntity
  8
Layer 1
  62
0
  100
AcDb2dVertex
  10
1.77200
  20
1.30400
  30
0.00000
  42
-0.0461
  70
32
  0
VERTEX
  5
514
  100
AcDbEntity
  8
Layer 1
  62
0
  100
AcDb2dVertex
  10
1.82023
  20
1.27520
  30
0.00000
  42
-0.0883
  70
32
  0
VERTEX
  5
515
  100
AcDbEntity
  8
Layer 1
  62
0
  100
AcDb2dVertex
  10
1.84084
  20
1.25410
  30
0.00000
  42
-0.1287
  70
32
  0
VERTEX
  5
516
  100
AcDbEntity
  8
Layer 1
  62
0
  100
AcDb2dVertex
  10
1.84600
  20
1.23900
  30
0.00000
  70
32
  0
SEQEND
  5
517
  100
AcDbEntity
  8
Layer 1
  62
0
  0
POLYLINE
  5
518
  100
AcDbEntity
  8
Layer 1
  62
0
  100
AcDb2dPolyline
 66
     1
  10
0
  20
0
  30
0
  70
1
  0
VERTEX
  5
519
  100
AcDbEntity
  8
Layer 1
  62
0
  100
AcDb2dVertex
  10
1.89100
  20
1.08500
  30
0.00000
  70
32
  0
VERTEX
  5
51A
  100
AcDbEntity
  8
Layer 1
  62
0
  100
AcDb2dVertex
  10
1.88200
  20
1.07000
  30
0.00000
  42
0.0452
  70
32
  0
VERTEX
  5
51B
  100
AcDbEntity
  8
Layer 1
  62
0
  100
AcDb2dVertex
  10
1.84938
  20
1.06790
  30
0.00000
  42
0.1407
  70
32
  0
VERTEX
  5
51C
  100
AcDbEntity
  8
Layer 1
  62
0
  100
AcDb2dVertex
  10
1.84149
  20
1.06470
  30
0.00000
  70
32
  0
VERTEX
  5
51D
  100
AcDbEntity
  8
Layer 1
  62
0
  100
AcDb2dVertex
  10
1.84100
  20
1.06400
  30
0.00000
  70
32
  0
VERTEX
  5
51E
  100
AcDbEntity
  8
Layer 1
  62
0
  100
AcDb2dVertex
  10
1.84118
  20
1.06420
  30
0.00000
  42
-0.1411
  70
32
  0
VERTEX
  5
51F
  100
AcDbEntity
  8
Layer 1
  62
0
  100
AcDb2dVertex
  10
1.84171
  20
1.06082
  30
0.00000
  42
-0.0087
  70
32
  0
VERTEX
  5
520
  100
AcDbEntity
  8
Layer 1
  62
0
  100
AcDb2dVertex
  10
1.84200
  20
1.02400
  30
0.00000
  42
-0.1502
  70
32
  0
VERTEX
  5
521
  100
AcDbEntity
  8
Layer 1
  62
0
  100
AcDb2dVertex
  10
1.83808
  20
1.00797
  30
0.00000
  42
-0.2212
  70
32
  0
VERTEX
  5
522
  100
AcDbEntity
  8
Layer 1
  62
0
  100
AcDb2dVertex
  10
1.82430
  20
1.00034
  30
0.00000
  70
32
  0
VERTEX
  5
523
  100
AcDbEntity
  8
Layer 1
  62
0
  100
AcDb2dVertex
  10
1.81900
  20
1.00000
  30
0.00000
  42
-0.2267
  70
32
  0
VERTEX
  5
524
  100
AcDbEntity
  8
Layer 1
  62
0
  100
AcDb2dVertex
  10
1.80147
  20
1.00873
  30
0.00000
  42
-0.0807
  70
32
  0
VERTEX
  5
525
  100
AcDbEntity
  8
Layer 1
  62
0
  100
AcDb2dVertex
  10
1.79200
  20
1.02500
  30
0.00000
  42
0.0642
  70
32
  0
VERTEX
  5
526
  100
AcDbEntity
  8
Layer 1
  62
0
  100
AcDb2dVertex
  10
1.78229
  20
1.04515
  30
0.00000
  42
0.2082
  70
32
  0
VERTEX
  5
527
  100
AcDbEntity
  8
Layer 1
  62
0
  100
AcDb2dVertex
  10
1.77720
  20
1.04899
  30
0.00000
  70
32
  0
VERTEX
  5
528
  100
AcDbEntity
  8
Layer 1
  62
0
  100
AcDb2dVertex
  10
1.77700
  20
1.04900
  30
0.00000
  42
0.1189
  70
32
  0
VERTEX
  5
529
  100
AcDbEntity
  8
Layer 1
  62
0
  100
AcDb2dVertex
  10
1.76622
  20
1.04510
  30
0.00000
  70
32
  0
VERTEX
  5
52A
  100
AcDbEntity
  8
Layer 1
  62
0
  100
AcDb2dVertex
  10
1.75800
  20
1.04000
  30
0.00000
  42
-0.0692
  70
32
  0
VERTEX
  5
52B
  100
AcDbEntity
  8
Layer 1
  62
0
  100
AcDb2dVertex
  10
1.74260
  20
1.03221
  30
0.00000
  70
32
  0
VERTEX
  5
52C
  100
AcDbEntity
  8
Layer 1
  62
0
  100
AcDb2dVertex
  10
1.74100
  20
1.03200
  30
0.00000
  42
-0.2377
  70
32
  0
VERTEX
  5
52D
  100
AcDbEntity
  8
Layer 1
  62
0
  100
AcDb2dVertex
  10
1.73355
  20
1.03642
  30
0.00000
  42
-0.0593
  70
32
  0
VERTEX
  5
52E
  100
AcDbEntity
  8
Layer 1
  62
0
  100
AcDb2dVertex
  10
1.72700
  20
1.04800
  30
0.00000
  42
-0.0826
  70
32
  0
VERTEX
  5
52F
  100
AcDbEntity
  8
Layer 1
  62
0
  100
AcDb2dVertex
  10
1.72102
  20
1.07103
  30
0.00000
  70
32
  0
VERTEX
  5
530
  100
AcDbEntity
  8
Layer 1
  62
0
  100
AcDb2dVertex
  10
1.72100
  20
1.07200
  30
0.00000
  42
-0.2181
  70
32
  0
VERTEX
  5
531
  100
AcDbEntity
  8
Layer 1
  62
0
  100
AcDb2dVertex
  10
1.72564
  20
1.08452
  30
0.00000
  42
-0.1731
  70
32
  0
VERTEX
  5
532
  100
AcDbEntity
  8
Layer 1
  62
0
  100
AcDb2dVertex
  10
1.73863
  20
1.08894
  30
0.00000
  70
32
  0
VERTEX
  5
533
  100
AcDbEntity
  8
Layer 1
  62
0
  100
AcDb2dVertex
  10
1.74100
  20
1.08900
  30
0.00000
  70
32
  0
VERTEX
  5
534
  100
AcDbEntity
  8
Layer 1
  62
0
  100
AcDb2dVertex
  10
1.80400
  20
1.09000
  30
0.00000
  42
-0.0179
  70
32
  0
VERTEX
  5
535
  100
AcDbEntity
  8
Layer 1
  62
0
  100
AcDb2dVertex
  10
1.83737
  20
1.10780
  30
0.00000
  70
32
  0
VERTEX
  5
536
  100
AcDbEntity
  8
Layer 1
  62
0
  100
AcDb2dVertex
  10
1.84886
  20
1.11367
  30
0.00000
  70
32
  0
VERTEX
  5
537
  100
AcDbEntity
  8
Layer 1
  62
0
  100
AcDb2dVertex
  10
1.87100
  20
1.12500
  30
0.00000
  42
-0.2586
  70
32
  0
VERTEX
  5
538
  100
AcDbEntity
  8
Layer 1
  62
0
  100
AcDb2dVertex
  10
1.88096
  20
1.11905
  30
0.00000
  42
-0.0912
  70
32
  0
VERTEX
  5
539
  100
AcDbEntity
  8
Layer 1
  62
0
  100
AcDb2dVertex
  10
1.88818
  20
1.10025
  30
0.00000
  42
-0.0204
  70
32
  0
VERTEX
  5
53A
  100
AcDbEntity
  8
Layer 1
  62
0
  100
AcDb2dVertex
  10
1.89100
  20
1.08500
  30
0.00000
  70
32
  0
SEQEND
  5
53B
  100
AcDbEntity
  8
Layer 1
  62
0
  0
POLYLINE
  5
53C
  100
AcDbEntity
  8
Layer 1
  62
0
  100
AcDb2dPolyline
 66
     1
  10
0
  20
0
  30
0
  70
1
  0
VERTEX
  5
53D
  100
AcDbEntity
  8
Layer 1
  62
0
  100
AcDb2dVertex
  10
1.48400
  20
1.35200
  30
0.00000
  42
-0.1166
  70
32
  0
VERTEX
  5
53E
  100
AcDbEntity
  8
Layer 1
  62
0
  100
AcDb2dVertex
  10
1.47364
  20
1.31199
  30
0.00000
  42
-0.0223
  70
32
  0
VERTEX
  5
53F
  100
AcDbEntity
  8
Layer 1
  62
0
  100
AcDb2dVertex
  10
1.46700
  20
1.30000
  30
0.00000
  42
0.0286
  70
32
  0
VERTEX
  5
540
  100
AcDbEntity
  8
Layer 1
  62
0
  100
AcDb2dVertex
  10
1.45162
  20
1.27119
  30
0.00000
  70
32
  0
VERTEX
  5
541
  100
AcDbEntity
  8
Layer 1
  62
0
  100
AcDb2dVertex
  10
1.45100
  20
1.26900
  30
0.00000
  42
0.0808
  70
32
  0
VERTEX
  5
542
  100
AcDbEntity
  8
Layer 1
  62
0
  100
AcDb2dVertex
  10
1.45677
  20
1.24174
  30
0.00000
  42
0.0266
  70
32
  0
VERTEX
  5
543
  100
AcDbEntity
  8
Layer 1
  62
0
  100
AcDb2dVertex
  10
1.46500
  20
1.22200
  30
0.00000
  42
-0.0362
  70
32
  0
VERTEX
  5
544
  100
AcDbEntity
  8
Layer 1
  62
0
  100
AcDb2dVertex
  10
1.47788
  20
1.18738
  30
0.00000
  42
-0.0581
  70
32
  0
VERTEX
  5
545
  100
AcDbEntity
  8
Layer 1
  62
0
  100
AcDb2dVertex
  10
1.47900
  20
1.18000
  30
0.00000
  42
-0.1967
  70
32
  0
VERTEX
  5
546
  100
AcDbEntity
  8
Layer 1
  62
0
  100
AcDb2dVertex
  10
1.47411
  20
1.16542
  30
0.00000
  42
-0.1778
  70
32
  0
VERTEX
  5
547
  100
AcDbEntity
  8
Layer 1
  62
0
  100
AcDb2dVertex
  10
1.45982
  20
1.15931
  30
0.00000
  70
32
  0
VERTEX
  5
548
  100
AcDbEntity
  8
Layer 1
  62
0
  100
AcDb2dVertex
  10
1.45400
  20
1.15900
  30
0.00000
  42
-0.1645
  70
32
  0
VERTEX
  5
549
  100
AcDbEntity
  8
Layer 1
  62
0
  100
AcDb2dVertex
  10
1.44323
  20
1.16374
  30
0.00000
  42
-0.0700
  70
32
  0
VERTEX
  5
54A
  100
AcDbEntity
  8
Layer 1
  62
0
  100
AcDb2dVertex
  10
1.42499
  20
1.18460
  30
0.00000
  42
-0.0163
  70
32
  0
VERTEX
  5
54B
  100
AcDbEntity
  8
Layer 1
  62
0
  100
AcDb2dVertex
  10
1.41500
  20
1.20000
  30
0.00000
  42
0.1073
  70
32
  0
VERTEX
  5
54C
  100
AcDbEntity
  8
Layer 1
  62
0
  100
AcDb2dVertex
  10
1.38760
  20
1.22941
  30
0.00000
  42
0.1498
  70
32
  0
VERTEX
  5
54D
  100
AcDbEntity
  8
Layer 1
  62
0
  100
AcDb2dVertex
  10
1.35200
  20
1.24000
  30
0.00000
  42
-0.1716
  70
32
  0
VERTEX
  5
54E
  100
AcDbEntity
  8
Layer 1
  62
0
  100
AcDb2dVertex
  10
1.29810
  20
1.25923
  30
0.00000
  42
-0.0847
  70
32
  0
VERTEX
  5
54F
  100
AcDbEntity
  8
Layer 1
  62
0
  100
AcDb2dVertex
  10
1.26390
  20
1.29832
  30
0.00000
  42
-0.0227
  70
32
  0
VERTEX
  5
550
  100
AcDbEntity
  8
Layer 1
  62
0
  100
AcDb2dVertex
  10
1.25200
  20
1.31900
  30
0.00000
  42
-0.1195
  70
32
  0
VERTEX
  5
551
  100
AcDbEntity
  8
Layer 1
  62
0
  100
AcDb2dVertex
  10
1.21900
  20
1.45200
  30
0.00000
  42
-0.0596
  70
32
  0
VERTEX
  5
552
  100
AcDbEntity
  8
Layer 1
  62
0
  100
AcDb2dVertex
  10
1.22223
  20
1.48688
  30
0.00000
  42
-0.1335
  70
32
  0
VERTEX
  5
553
  100
AcDbEntity
  8
Layer 1
  62
0
  100
AcDb2dVertex
  10
1.22898
  20
1.50066
  30
0.00000
  42
-0.2041
  70
32
  0
VERTEX
  5
554
  100
AcDbEntity
  8
Layer 1
  62
0
  100
AcDb2dVertex
  10
1.23700
  20
1.50400
  30
0.00000
  42
-0.2982
  70
32
  0
VERTEX
  5
555
  100
AcDbEntity
  8
Layer 1
  62
0
  100
AcDb2dVertex
  10
1.24397
  20
1.50221
  30
0.00000
  42
-0.0644
  70
32
  0
VERTEX
  5
556
  100
AcDbEntity
  8
Layer 1
  62
0
  100
AcDb2dVertex
  10
1.24600
  20
1.49900
  30
0.00000
  70
32
  0
VERTEX
  5
557
  100
AcDbEntity
  8
Layer 1
  62
0
  100
AcDb2dVertex
  10
1.24700
  20
1.44200
  30
0.00000
  42
0.0847
  70
32
  0
VERTEX
  5
558
  100
AcDbEntity
  8
Layer 1
  62
0
  100
AcDb2dVertex
  10
1.25869
  20
1.37975
  30
0.00000
  42
0.0341
  70
32
  0
VERTEX
  5
559
  100
AcDbEntity
  8
Layer 1
  62
0
  100
AcDb2dVertex
  10
1.27600
  20
1.34000
  30
0.00000
  42
0.0691
  70
32
  0
VERTEX
  5
55A
  100
AcDbEntity
  8
Layer 1
  62
0
  100
AcDb2dVertex
  10
1.30517
  20
1.29906
  30
0.00000
  42
0.1191
  70
32
  0
VERTEX
  5
55B
  100
AcDbEntity
  8
Layer 1
  62
0
  100
AcDb2dVertex
  10
1.33468
  20
1.27964
  30
0.00000
  42
0.0799
  70
32
  0
VERTEX
  5
55C
  100
AcDbEntity
  8
Layer 1
  62
0
  100
AcDb2dVertex
  10
1.35100
  20
1.27700
  30
0.00000
  42
0.0660
  70
32
  0
VERTEX
  5
55D
  100
AcDbEntity
  8
Layer 1
  62
0
  100
AcDb2dVertex
  10
1.38533
  20
1.28059
  30
0.00000
  42
0.0968
  70
32
  0
VERTEX
  5
55E
  100
AcDbEntity
  8
Layer 1
  62
0
  100
AcDb2dVertex
  10
1.39900
  20
1.28700
  30
0.00000
  42
0.1818
  70
32
  0
VERTEX
  5
55F
  100
AcDbEntity
  8
Layer 1
  62
0
  100
AcDb2dVertex
  10
1.41319
  20
1.29142
  30
0.00000
  42
0.0707
  70
32
  0
VERTEX
  5
560
  100
AcDbEntity
  8
Layer 1
  62
0
  100
AcDb2dVertex
  10
1.43100
  20
1.30900
  30
0.00000
  42
0.0828
  70
32
  0
VERTEX
  5
561
  100
AcDbEntity
  8
Layer 1
  62
0
  100
AcDb2dVertex
  10
1.44731
  20
1.33632
  30
0.00000
  42
0.0807
  70
32
  0
VERTEX
  5
562
  100
AcDbEntity
  8
Layer 1
  62
0
  100
AcDb2dVertex
  10
1.44900
  20
1.34500
  30
0.00000
  42
0.1060
  70
32
  0
VERTEX
  5
563
  100
AcDbEntity
  8
Layer 1
  62
0
  100
AcDb2dVertex
  10
1.43491
  20
1.40634
  30
0.00000
  42
0.0677
  70
32
  0
VERTEX
  5
564
  100
AcDbEntity
  8
Layer 1
  62
0
  100
AcDb2dVertex
  10
1.39543
  20
1.46787
  30
0.00000
  42
0.0467
  70
32
  0
VERTEX
  5
565
  100
AcDbEntity
  8
Layer 1
  62
0
  100
AcDb2dVertex
  10
1.32315
  20
1.53859
  30
0.00000
  70
32
  0
VERTEX
  5
566
  100
AcDbEntity
  8
Layer 1
  62
0
  100
AcDb2dVertex
  10
1.31900
  20
1.54200
  30
0.00000
  42
-0.3577
  70
32
  0
VERTEX
  5
567
  100
AcDbEntity
  8
Layer 1
  62
0
  100
AcDb2dVertex
  10
1.32558
  20
1.55080
  30
0.00000
  42
-0.0539
  70
32
  0
VERTEX
  5
568
  100
AcDbEntity
  8
Layer 1
  62
0
  100
AcDb2dVertex
  10
1.33100
  20
1.55200
  30
0.00000
  42
-0.1253
  70
32
  0
VERTEX
  5
569
  100
AcDbEntity
  8
Layer 1
  62
0
  100
AcDb2dVertex
  10
1.36260
  20
1.54183
  30
0.00000
  42
-0.0697
  70
32
  0
VERTEX
  5
56A
  100
AcDbEntity
  8
Layer 1
  62
0
  100
AcDb2dVertex
  10
1.39845
  20
1.51197
  30
0.00000
  42
-0.0301
  70
32
  0
VERTEX
  5
56B
  100
AcDbEntity
  8
Layer 1
  62
0
  100
AcDb2dVertex
  10
1.42900
  20
1.47500
  30
0.00000
  42
-0.0474
  70
32
  0
VERTEX
  5
56C
  100
AcDbEntity
  8
Layer 1
  62
0
  100
AcDb2dVertex
  10
1.46872
  20
1.40963
  30
0.00000
  42
-0.0751
  70
32
  0
VERTEX
  5
56D
  100
AcDbEntity
  8
Layer 1
  62
0
  100
AcDb2dVertex
  10
1.48318
  20
1.36389
  30
0.00000
  42
-0.0330
  70
32
  0
VERTEX
  5
56E
  100
AcDbEntity
  8
Layer 1
  62
0
  100
AcDb2dVertex
  10
1.48400
  20
1.35200
  30
0.00000
  70
32
  0
SEQEND
  5
56F
  100
AcDbEntity
  8
Layer 1
  62
0
  0
POLYLINE
  5
570
  100
AcDbEntity
  8
Layer 1
  62
0
  100
AcDb2dPolyline
 66
     1
  10
0
  20
0
  30
0
  70
1
  0
VERTEX
  5
571
  100
AcDbEntity
  8
Layer 1
  62
0
  100
AcDb2dVertex
  10
1.35200
  20
1.38000
  30
0.00000
  42
-0.0455
  70
32
  0
VERTEX
  5
572
  100
AcDbEntity
  8
Layer 1
  62
0
  100
AcDb2dVertex
  10
1.34912
  20
1.33857
  30
0.00000
  42
-0.1083
  70
32
  0
VERTEX
  5
573
  100
AcDbEntity
  8
Layer 1
  62
0
  100
AcDb2dVertex
  10
1.34340
  20
1.32310
  30
0.00000
  42
-0.2475
  70
32
  0
VERTEX
  5
574
  100
AcDbEntity
  8
Layer 1
  62
0
  100
AcDb2dVertex
  10
1.33600
  20
1.31900
  30
0.00000
  42
-0.3575
  70
32
  0
VERTEX
  5
575
  100
AcDbEntity
  8
Layer 1
  62
0
  100
AcDb2dVertex
  10
1.32741
  20
1.32539
  30
0.00000
  42
-0.0588
  70
32
  0
VERTEX
  5
576
  100
AcDbEntity
  8
Layer 1
  62
0
  100
AcDb2dVertex
  10
1.32600
  20
1.33200
  30
0.00000
  42
-0.0571
  70
32
  0
VERTEX
  5
577
  100
AcDbEntity
  8
Layer 1
  62
0
  100
AcDb2dVertex
  10
1.32600
  20
1.35900
  30
0.00000
  42
0.0140
  70
32
  0
VERTEX
  5
578
  100
AcDbEntity
  8
Layer 1
  62
0
  100
AcDb2dVertex
  10
1.32700
  20
1.38400
  30
0.00000
  42
0.1015
  70
32
  0
VERTEX
  5
579
  100
AcDbEntity
  8
Layer 1
  62
0
  100
AcDb2dVertex
  10
1.30979
  20
1.46324
  30
0.00000
  42
0.0284
  70
32
  0
VERTEX
  5
57A
  100
AcDbEntity
  8
Layer 1
  62
0
  100
AcDb2dVertex
  10
1.29600
  20
1.49100
  30
0.00000
  42
0.0736
  70
32
  0
VERTEX
  5
57B
  100
AcDbEntity
  8
Layer 1
  62
0
  100
AcDb2dVertex
  10
1.26535
  20
1.53164
  30
0.00000
  42
0.1290
  70
32
  0
VERTEX
  5
57C
  100
AcDbEntity
  8
Layer 1
  62
0
  100
AcDb2dVertex
  10
1.23018
  20
1.55200
  30
0.00000
  42
0.0622
  70
32
  0
VERTEX
  5
57D
  100
AcDbEntity
  8
Layer 1
  62
0
  100
AcDb2dVertex
  10
1.21400
  20
1.55400
  30
0.00000
  42
0.0879
  70
32
  0
VERTEX
  5
57E
  100
AcDbEntity
  8
Layer 1
  62
0
  100
AcDb2dVertex
  10
1.18888
  20
1.54836
  30
0.00000
  42
0.0199
  70
32
  0
VERTEX
  5
57F
  100
AcDbEntity
  8
Layer 1
  62
0
  100
AcDb2dVertex
  10
1.17400
  20
1.54200
  30
0.00000
  42
0.0978
  70
32
  0
VERTEX
  5
580
  100
AcDbEntity
  8
Layer 1
  62
0
  100
AcDb2dVertex
  10
1.14051
  20
1.51674
  30
0.00000
  42
0.1843
  70
32
  0
VERTEX
  5
581
  100
AcDbEntity
  8
Layer 1
  62
0
  100
AcDb2dVertex
  10
1.12400
  20
1.47100
  30
0.00000
  42
0.1093
  70
32
  0
VERTEX
  5
582
  100
AcDbEntity
  8
Layer 1
  62
0
  100
AcDb2dVertex
  10
1.13832
  20
1.41021
  30
0.00000
  42
0.0540
  70
32
  0
VERTEX
  5
583
  100
AcDbEntity
  8
Layer 1
  62
0
  100
AcDb2dVertex
  10
1.16600
  20
1.36500
  30
0.00000
  42
0.1016
  70
32
  0
VERTEX
  5
584
  100
AcDbEntity
  8
Layer 1
  62
0
  100
AcDb2dVertex
  10
1.24900
  20
1.28500
  30
0.00000
  42
-0.2522
  70
32
  0
VERTEX
  5
585
  100
AcDbEntity
  8
Layer 1
  62
0
  100
AcDb2dVertex
  10
1.24608
  20
1.27482
  30
0.00000
  42
-0.1862
  70
32
  0
VERTEX
  5
586
  100
AcDbEntity
  8
Layer 1
  62
0
  100
AcDb2dVertex
  10
1.23700
  20
1.27200
  30
0.00000
  42
-0.1342
  70
32
  0
VERTEX
  5
587
  100
AcDbEntity
  8
Layer 1
  62
0
  100
AcDb2dVertex
  10
1.20548
  20
1.28153
  30
0.00000
  42
-0.0753
  70
32
  0
VERTEX
  5
588
  100
AcDbEntity
  8
Layer 1
  62
0
  100
AcDb2dVertex
  10
1.17129
  20
1.31066
  30
0.00000
  42
-0.0358
  70
32
  0
VERTEX
  5
589
  100
AcDbEntity
  8
Layer 1
  62
0
  100
AcDb2dVertex
  10
1.14100
  20
1.35000
  30
0.00000
  42
-0.0535
  70
32
  0
VERTEX
  5
58A
  100
AcDbEntity
  8
Layer 1
  62
0
  100
AcDb2dVertex
  10
1.10374
  20
1.41618
  30
0.00000
  42
-0.0806
  70
32
  0
VERTEX
  5
58B
  100
AcDbEntity
  8
Layer 1
  62
0
  100
AcDb2dVertex
  10
1.09123
  20
1.46528
  30
0.00000
  70
32
  0
VERTEX
  5
58C
  100
AcDbEntity
  8
Layer 1
  62
0
  100
AcDb2dVertex
  10
1.09100
  20
1.47200
  30
0.00000
  42
-0.1281
  70
32
  0
VERTEX
  5
58D
  100
AcDbEntity
  8
Layer 1
  62
0
  100
AcDb2dVertex
  10
1.10352
  20
1.52461
  30
0.00000
  70
32
  0
VERTEX
  5
58E
  100
AcDbEntity
  8
Layer 1
  62
0
  100
AcDb2dVertex
  10
1.10800
  20
1.53200
  30
0.00000
  42
0.0322
  70
32
  0
VERTEX
  5
58F
  100
AcDbEntity
  8
Layer 1
  62
0
  100
AcDb2dVertex
  10
1.12439
  20
1.55875
  30
0.00000
  42
0.0985
  70
32
  0
VERTEX
  5
590
  100
AcDbEntity
  8
Layer 1
  62
0
  100
AcDb2dVertex
  10
1.12600
  20
1.56400
  30
0.00000
  42
0.0793
  70
32
  0
VERTEX
  5
591
  100
AcDbEntity
  8
Layer 1
  62
0
  100
AcDb2dVertex
  10
1.12031
  20
1.59162
  30
0.00000
  70
32
  0
VERTEX
  5
592
  100
AcDbEntity
  8
Layer 1
  62
0
  100
AcDb2dVertex
  10
1.11600
  20
1.60300
  30
0.00000
  42
-0.0572
  70
32
  0
VERTEX
  5
593
  100
AcDbEntity
  8
Layer 1
  62
0
  100
AcDb2dVertex
  10
1.10726
  20
1.63707
  30
0.00000
  70
32
  0
VERTEX
  5
594
  100
AcDbEntity
  8
Layer 1
  62
0
  100
AcDb2dVertex
  10
1.10700
  20
1.64200
  30
0.00000
  42
-0.1651
  70
32
  0
VERTEX
  5
595
  100
AcDbEntity
  8
Layer 1
  62
0
  100
AcDb2dVertex
  10
1.11152
  20
1.65068
  30
0.00000
  42
-0.0384
  70
32
  0
VERTEX
  5
596
  100
AcDbEntity
  8
Layer 1
  62
0
  100
AcDb2dVertex
  10
1.11600
  20
1.65500
  30
0.00000
  42
-0.0891
  70
32
  0
VERTEX
  5
597
  100
AcDbEntity
  8
Layer 1
  62
0
  100
AcDb2dVertex
  10
1.12798
  20
1.66162
  30
0.00000
  70
32
  0
VERTEX
  5
598
  100
AcDbEntity
  8
Layer 1
  62
0
  100
AcDb2dVertex
  10
1.13100
  20
1.66200
  30
0.00000
  42
-0.1687
  70
32
  0
VERTEX
  5
599
  100
AcDbEntity
  8
Layer 1
  62
0
  100
AcDb2dVertex
  10
1.14057
  20
1.65748
  30
0.00000
  42
-0.0678
  70
32
  0
VERTEX
  5
59A
  100
AcDbEntity
  8
Layer 1
  62
0
  100
AcDb2dVertex
  10
1.15825
  20
1.63625
  30
0.00000
  70
32
  0
VERTEX
  5
59B
  100
AcDbEntity
  8
Layer 1
  62
0
  100
AcDb2dVertex
  10
1.16600
  20
1.62400
  30
0.00000
  42
0.1034
  70
32
  0
VERTEX
  5
59C
  100
AcDbEntity
  8
Layer 1
  62
0
  100
AcDb2dVertex
  10
1.18812
  20
1.59619
  30
0.00000
  42
0.1845
  70
32
  0
VERTEX
  5
59D
  100
AcDbEntity
  8
Layer 1
  62
0
  100
AcDb2dVertex
  10
1.21900
  20
1.58600
  30
0.00000
  42
-0.1883
  70
32
  0
VERTEX
  5
59E
  100
AcDbEntity
  8
Layer 1
  62
0
  100
AcDb2dVertex
  10
1.28668
  20
1.55827
  30
0.00000
  42
-0.0837
  70
32
  0
VERTEX
  5
59F
  100
AcDbEntity
  8
Layer 1
  62
0
  100
AcDb2dVertex
  10
1.32046
  20
1.51301
  30
0.00000
  70
32
  0
VERTEX
  5
5A0
  100
AcDbEntity
  8
Layer 1
  62
0
  100
AcDb2dVertex
  10
1.32100
  20
1.51200
  30
0.00000
  42
-0.1099
  70
32
  0
VERTEX
  5
5A1
  100
AcDbEntity
  8
Layer 1
  62
0
  100
AcDb2dVertex
  10
1.35157
  20
1.39699
  30
0.00000
  42
-0.0127
  70
32
  0
VERTEX
  5
5A2
  100
AcDbEntity
  8
Layer 1
  62
0
  100
AcDb2dVertex
  10
1.35200
  20
1.38000
  30
0.00000
  70
32
  0
SEQEND
  5
5A3
  100
AcDbEntity
  8
Layer 1
  62
0
  0
POLYLINE
  5
5A4
  100
AcDbEntity
  8
Layer 1
  62
0
  100
AcDb2dPolyline
 66
     1
  10
0
  20
0
  30
0
  70
1
  0
VERTEX
  5
5A5
  100
AcDbEntity
  8
Layer 1
  62
0
  100
AcDb2dVertex
  10
1.66100
  20
0.95400
  30
0.00000
  42
-0.1984
  70
32
  0
VERTEX
  5
5A6
  100
AcDbEntity
  8
Layer 1
  62
0
  100
AcDb2dVertex
  10
1.65724
  20
0.94772
  30
0.00000
  42
-0.0644
  70
32
  0
VERTEX
  5
5A7
  100
AcDbEntity
  8
Layer 1
  62
0
  100
AcDb2dVertex
  10
1.63756
  20
0.93524
  30
0.00000
  42
-0.0229
  70
32
  0
VERTEX
  5
5A8
  100
AcDbEntity
  8
Layer 1
  62
0
  100
AcDb2dVertex
  10
1.58900
  20
0.91400
  30
0.00000
  42
-0.2407
  70
32
  0
VERTEX
  5
5A9
  100
AcDbEntity
  8
Layer 1
  62
0
  100
AcDb2dVertex
  10
1.57933
  20
0.91961
  30
0.00000
  42
-0.0924
  70
32
  0
VERTEX
  5
5AA
  100
AcDbEntity
  8
Layer 1
  62
0
  100
AcDb2dVertex
  10
1.57088
  20
0.93881
  30
0.00000
  42
-0.0189
  70
32
  0
VERTEX
  5
5AB
  100
AcDbEntity
  8
Layer 1
  62
0
  100
AcDb2dVertex
  10
1.56800
  20
0.95100
  30
0.00000
  42
0.0689
  70
32
  0
VERTEX
  5
5AC
  100
AcDbEntity
  8
Layer 1
  62
0
  100
AcDb2dVertex
  10
1.55929
  20
0.97885
  30
0.00000
  42
0.1612
  70
32
  0
VERTEX
  5
5AD
  100
AcDbEntity
  8
Layer 1
  62
0
  100
AcDb2dVertex
  10
1.55090
  20
0.98813
  30
0.00000
  42
0.1094
  70
32
  0
VERTEX
  5
5AE
  100
AcDbEntity
  8
Layer 1
  62
0
  100
AcDb2dVertex
  10
1.54700
  20
0.98900
  30
0.00000
  42
0.0852
  70
32
  0
VERTEX
  5
5AF
  100
AcDbEntity
  8
Layer 1
  62
0
  100
AcDb2dVertex
  10
1.53621
  20
0.98537
  30
0.00000
  70
32
  0
VERTEX
  5
5B0
  100
AcDbEntity
  8
Layer 1
  62
0
  100
AcDb2dVertex
  10
1.51700
  20
0.97600
  30
0.00000
  42
-0.0744
  70
32
  0
VERTEX
  5
5B1
  100
AcDbEntity
  8
Layer 1
  62
0
  100
AcDb2dVertex
  10
1.48801
  20
0.96469
  30
0.00000
  42
-0.0454
  70
32
  0
VERTEX
  5
5B2
  100
AcDbEntity
  8
Layer 1
  62
0
  100
AcDb2dVertex
  10
1.48100
  20
0.96400
  30
0.00000
  42
-0.1316
  70
32
  0
VERTEX
  5
5B3
  100
AcDbEntity
  8
Layer 1
  62
0
  100
AcDb2dVertex
  10
1.46321
  20
0.96778
  30
0.00000
  42
-0.2463
  70
32
  0
VERTEX
  5
5B4
  100
AcDbEntity
  8
Layer 1
  62
0
  100
AcDb2dVertex
  10
1.45427
  20
0.98250
  30
0.00000
  70
32
  0
VERTEX
  5
5B5
  100
AcDbEntity
  8
Layer 1
  62
0
  100
AcDb2dVertex
  10
1.45400
  20
0.98700
  30
0.00000
  42
-0.1641
  70
32
  0
VERTEX
  5
5B6
  100
AcDbEntity
  8
Layer 1
  62
0
  100
AcDb2dVertex
  10
1.45919
  20
0.99906
  30
0.00000
  42
-0.0743
  70
32
  0
VERTEX
  5
5B7
  100
AcDbEntity
  8
Layer 1
  62
0
  100
AcDb2dVertex
  10
1.48100
  20
1.01805
  30
0.00000
  70
32
  0
VERTEX
  5
5B8
  100
AcDbEntity
  8
Layer 1
  62
0
  100
AcDb2dVertex
  10
1.48700
  20
1.02200
  30
0.00000
  42
0.0413
  70
32
  0
VERTEX
  5
5B9
  100
AcDbEntity
  8
Layer 1
  62
0
  100
AcDb2dVertex
  10
1.51575
  20
1.04188
  30
0.00000
  42
0.1323
  70
32
  0
VERTEX
  5
5BA
  100
AcDbEntity
  8
Layer 1
  62
0
  100
AcDb2dVertex
  10
1.52093
  20
1.04840
  30
0.00000
  70
32
  0
VERTEX
  5
5BB
  100
AcDbEntity
  8
Layer 1
  62
0
  100
AcDb2dVertex
  10
1.52100
  20
1.04900
  30
0.00000
  70
32
  0
VERTEX
  5
5BC
  100
AcDbEntity
  8
Layer 1
  62
0
  100
AcDb2dVertex
  10
1.51700
  20
1.06000
  30
0.00000
  42
-0.0314
  70
32
  0
VERTEX
  5
5BD
  100
AcDbEntity
  8
Layer 1
  62
0
  100
AcDb2dVertex
  10
1.48386
  20
1.10057
  30
0.00000
  42
-0.0875
  70
32
  0
VERTEX
  5
5BE
  100
AcDbEntity
  8
Layer 1
  62
0
  100
AcDb2dVertex
  10
1.47715
  20
1.11362
  30
0.00000
  70
32
  0
VERTEX
  5
5BF
  100
AcDbEntity
  8
Layer 1
  62
0
  100
AcDb2dVertex
  10
1.47700
  20
1.11500
  30
0.00000
  70
32
  0
VERTEX
  5
5C0
  100
AcDbEntity
  8
Layer 1
  62
0
  100
AcDb2dVertex
  10
1.47900
  20
1.12500
  30
0.00000
  70
32
  0
VERTEX
  5
5C1
  100
AcDbEntity
  8
Layer 1
  62
0
  100
AcDb2dVertex
  10
1.54700
  20
1.15900
  30
0.00000
  42
-0.2515
  70
32
  0
VERTEX
  5
5C2
  100
AcDbEntity
  8
Layer 1
  62
0
  100
AcDb2dVertex
  10
1.55721
  20
1.15652
  30
0.00000
  42
-0.0800
  70
32
  0
VERTEX
  5
5C3
  100
AcDbEntity
  8
Layer 1
  62
0
  100
AcDb2dVertex
  10
1.55900
  20
1.15400
  30
0.00000
  42
-0.0618
  70
32
  0
VERTEX
  5
5C4
  100
AcDbEntity
  8
Layer 1
  62
0
  100
AcDb2dVertex
  10
1.57034
  20
1.10608
  30
0.00000
  42
-0.0318
  70
32
  0
VERTEX
  5
5C5
  100
AcDbEntity
  8
Layer 1
  62
0
  100
AcDb2dVertex
  10
1.57400
  20
1.04000
  30
0.00000
  70
32
  0
VERTEX
  5
5C6
  100
AcDbEntity
  8
Layer 1
  62
0
  100
AcDb2dVertex
  10
1.54900
  20
1.02500
  30
0.00000
  70
32
  0
VERTEX
  5
5C7
  100
AcDbEntity
  8
Layer 1
  62
0
  100
AcDb2dVertex
  10
1.57400
  20
1.04000
  30
0.00000
  42
-0.1025
  70
32
  0
VERTEX
  5
5C8
  100
AcDbEntity
  8
Layer 1
  62
0
  100
AcDb2dVertex
  10
1.58343
  20
1.03473
  30
0.00000
  42
-0.0266
  70
32
  0
VERTEX
  5
5C9
  100
AcDbEntity
  8
Layer 1
  62
0
  100
AcDb2dVertex
  10
1.61704
  20
1.00476
  30
0.00000
  70
32
  0
VERTEX
  5
5CA
  100
AcDbEntity
  8
Layer 1
  62
0
  100
AcDb2dVertex
  10
1.62200
  20
1.00000
  30
0.00000
  42
-0.0227
  70
32
  0
VERTEX
  5
5CB
  100
AcDbEntity
  8
Layer 1
  62
0
  100
AcDb2dVertex
  10
1.65602
  20
0.96255
  30
0.00000
  42
-0.0978
  70
32
  0
VERTEX
  5
5CC
  100
AcDbEntity
  8
Layer 1
  62
0
  100
AcDb2dVertex
  10
1.66097
  20
0.95437
  30
0.00000
  70
32
  0
VERTEX
  5
5CD
  100
AcDbEntity
  8
Layer 1
  62
0
  100
AcDb2dVertex
  10
1.66100
  20
0.95400
  30
0.00000
  70
32
  0
SEQEND
  5
5CE
  100
AcDbEntity
  8
Layer 1
  62
0
  0
POLYLINE
  5
5CF
  100
AcDbEntity
  8
Layer 1
  62
0
  100
AcDb2dPolyline
 66
     1
  10
0
  20
0
  30
0
  70
1
  0
VERTEX
  5
5D0
  100
AcDbEntity
  8
Layer 1
  62
0
  100
AcDb2dVertex
  10
1.45900
  20
1.06000
  30
0.00000
  42
-0.2815
  70
32
  0
VERTEX
  5
5D1
  100
AcDbEntity
  8
Layer 1
  62
0
  100
AcDb2dVertex
  10
1.44367
  20
1.03335
  30
0.00000
  42
-0.1019
  70
32
  0
VERTEX
  5
5D2
  100
AcDbEntity
  8
Layer 1
  62
0
  100
AcDb2dVertex
  10
1.41602
  20
1.02482
  30
0.00000
  42
-0.0463
  70
32
  0
VERTEX
  5
5D3
  100
AcDbEntity
  8
Layer 1
  62
0
  100
AcDb2dVertex
  10
1.38100
  20
1.02400
  30
0.00000
  70
32
  0
VERTEX
  5
5D4
  100
AcDbEntity
  8
Layer 1
  62
0
  100
AcDb2dVertex
  10
1.24600
  20
1.02200
  30
0.00000
  70
32
  0
VERTEX
  5
5D5
  100
AcDbEntity
  8
Layer 1
  62
0
  100
AcDb2dVertex
  10
1.38100
  20
1.02400
  30
0.00000
  42
-0.0073
  70
32
  0
VERTEX
  5
5D6
  100
AcDbEntity
  8
Layer 1
  62
0
  100
AcDb2dVertex
  10
1.38400
  20
0.98700
  30
0.00000
  42
-0.1039
  70
32
  0
VERTEX
  5
5D7
  100
AcDbEntity
  8
Layer 1
  62
0
  100
AcDb2dVertex
  10
1.37908
  20
0.95876
  30
0.00000
  42
-0.2699
  70
32
  0
VERTEX
  5
5D8
  100
AcDbEntity
  8
Layer 1
  62
0
  100
AcDb2dVertex
  10
1.35355
  20
0.93938
  30
0.00000
  42
-0.0825
  70
32
  0
VERTEX
  5
5D9
  100
AcDbEntity
  8
Layer 1
  62
0
  100
AcDb2dVertex
  10
1.33100
  20
0.94000
  30
0.00000
  42
-0.1384
  70
32
  0
VERTEX
  5
5DA
  100
AcDbEntity
  8
Layer 1
  62
0
  100
AcDb2dVertex
  10
1.31694
  20
0.91893
  30
0.00000
  42
-0.1734
  70
32
  0
VERTEX
  5
5DB
  100
AcDbEntity
  8
Layer 1
  62
0
  100
AcDb2dVertex
  10
1.29600
  20
0.91200
  30
0.00000
  42
-0.1544
  70
32
  0
VERTEX
  5
5DC
  100
AcDbEntity
  8
Layer 1
  62
0
  100
AcDb2dVertex
  10
1.27570
  20
0.91738
  30
0.00000
  42
-0.1161
  70
32
  0
VERTEX
  5
5DD
  100
AcDbEntity
  8
Layer 1
  62
0
  100
AcDb2dVertex
  10
1.26800
  20
0.92600
  30
0.00000
  42
0.1920
  70
32
  0
VERTEX
  5
5DE
  100
AcDbEntity
  8
Layer 1
  62
0
  100
AcDb2dVertex
  10
1.25586
  20
0.93582
  30
0.00000
  42
0.0810
  70
32
  0
VERTEX
  5
5DF
  100
AcDbEntity
  8
Layer 1
  62
0
  100
AcDb2dVertex
  10
1.22947
  20
0.93993
  30
0.00000
  70
32
  0
VERTEX
  5
5E0
  100
AcDbEntity
  8
Layer 1
  62
0
  100
AcDb2dVertex
  10
1.22400
  20
0.94000
  30
0.00000
  42
-0.1405
  70
32
  0
VERTEX
  5
5E1
  100
AcDbEntity
  8
Layer 1
  62
0
  100
AcDb2dVertex
  10
1.19872
  20
0.94620
  30
0.00000
  42
-0.1637
  70
32
  0
VERTEX
  5
5E2
  100
AcDbEntity
  8
Layer 1
  62
0
  100
AcDb2dVertex
  10
1.18500
  20
0.96300
  30
0.00000
  42
0.2078
  70
32
  0
VERTEX
  5
5E3
  100
AcDbEntity
  8
Layer 1
  62
0
  100
AcDb2dVertex
  10
1.16765
  20
0.97967
  30
0.00000
  42
0.0917
  70
32
  0
VERTEX
  5
5E4
  100
AcDbEntity
  8
Layer 1
  62
0
  100
AcDb2dVertex
  10
1.13840
  20
0.98494
  30
0.00000
  70
32
  0
VERTEX
  5
5E5
  100
AcDbEntity
  8
Layer 1
  62
0
  100
AcDb2dVertex
  10
1.13400
  20
0.98500
  30
0.00000
  42
-0.1213
  70
32
  0
VERTEX
  5
5E6
  100
AcDbEntity
  8
Layer 1
  62
0
  100
AcDb2dVertex
  10
1.10872
  20
0.99021
  30
0.00000
  42
-0.2439
  70
32
  0
VERTEX
  5
5E7
  100
AcDbEntity
  8
Layer 1
  62
0
  100
AcDb2dVertex
  10
1.09273
  20
1.01309
  30
0.00000
  42
-0.0434
  70
32
  0
VERTEX
  5
5E8
  100
AcDbEntity
  8
Layer 1
  62
0
  100
AcDb2dVertex
  10
1.09200
  20
1.02200
  30
0.00000
  42
-0.1037
  70
32
  0
VERTEX
  5
5E9
  100
AcDbEntity
  8
Layer 1
  62
0
  100
AcDb2dVertex
  10
1.09761
  20
1.05355
  30
0.00000
  42
-0.2246
  70
32
  0
VERTEX
  5
5EA
  100
AcDbEntity
  8
Layer 1
  62
0
  100
AcDb2dVertex
  10
1.12100
  20
1.07500
  30
0.00000
  42
-0.2200
  70
32
  0
VERTEX
  5
5EB
  100
AcDbEntity
  8
Layer 1
  62
0
  100
AcDb2dVertex
  10
1.09438
  20
1.10964
  30
0.00000
  42
-0.0625
  70
32
  0
VERTEX
  5
5EC
  100
AcDbEntity
  8
Layer 1
  62
0
  100
AcDb2dVertex
  10
1.09200
  20
1.13000
  30
0.00000
  42
-0.1280
  70
32
  0
VERTEX
  5
5ED
  100
AcDbEntity
  8
Layer 1
  62
0
  100
AcDb2dVertex
  10
1.09664
  20
1.15171
  30
0.00000
  42
-0.2344
  70
32
  0
VERTEX
  5
5EE
  100
AcDbEntity
  8
Layer 1
  62
0
  100
AcDb2dVertex
  10
1.11538
  20
1.16428
  30
0.00000
  42
-0.0450
  70
32
  0
VERTEX
  5
5EF
  100
AcDbEntity
  8
Layer 1
  62
0
  100
AcDb2dVertex
  10
1.12400
  20
1.16500
  30
0.00000
  42
0.0671
  70
32
  0
VERTEX
  5
5F0
  100
AcDbEntity
  8
Layer 1
  62
0
  100
AcDb2dVertex
  10
1.16135
  20
1.16908
  30
0.00000
  42
0.1319
  70
32
  0
VERTEX
  5
5F1
  100
AcDbEntity
  8
Layer 1
  62
0
  100
AcDb2dVertex
  10
1.17896
  20
1.17848
  30
0.00000
  42
0.1452
  70
32
  0
VERTEX
  5
5F2
  100
AcDbEntity
  8
Layer 1
  62
0
  100
AcDb2dVertex
  10
1.18400
  20
1.18800
  30
0.00000
  42
-0.2271
  70
32
  0
VERTEX
  5
5F3
  100
AcDbEntity
  8
Layer 1
  62
0
  100
AcDb2dVertex
  10
1.19483
  20
1.20171
  30
0.00000
  42
-0.0943
  70
32
  0
VERTEX
  5
5F4
  100
AcDbEntity
  8
Layer 1
  62
0
  100
AcDb2dVertex
  10
1.21879
  20
1.20859
  30
0.00000
  42
-0.0319
  70
32
  0
VERTEX
  5
5F5
  100
AcDbEntity
  8
Layer 1
  62
0
  100
AcDb2dVertex
  10
1.24400
  20
1.21000
  30
0.00000
  42
0.1692
  70
32
  0
VERTEX
  5
5F6
  100
AcDbEntity
  8
Layer 1
  62
0
  100
AcDb2dVertex
  10
1.25586
  20
1.21509
  30
0.00000
  42
0.0413
  70
32
  0
VERTEX
  5
5F7
  100
AcDbEntity
  8
Layer 1
  62
0
  100
AcDb2dVertex
  10
1.26700
  20
1.22600
  30
0.00000
  42
-0.1215
  70
32
  0
VERTEX
  5
5F8
  100
AcDbEntity
  8
Layer 1
  62
0
  100
AcDb2dVertex
  10
1.28468
  20
1.24041
  30
0.00000
  42
-0.0977
  70
32
  0
VERTEX
  5
5F9
  100
AcDbEntity
  8
Layer 1
  62
0
  100
AcDb2dVertex
  10
1.29200
  20
1.24200
  30
0.00000
  42
-0.1978
  70
32
  0
VERTEX
  5
5FA
  100
AcDbEntity
  8
Layer 1
  62
0
  100
AcDb2dVertex
  10
1.30963
  20
1.23432
  30
0.00000
  70
32
  0
VERTEX
  5
5FB
  100
AcDbEntity
  8
Layer 1
  62
0
  100
AcDb2dVertex
  10
1.31100
  20
1.23300
  30
0.00000
  70
32
  0
VERTEX
  5
5FC
  100
AcDbEntity
  8
Layer 1
  62
0
  100
AcDb2dVertex
  10
1.32600
  20
1.21500
  30
0.00000
  42
-0.0446
  70
32
  0
VERTEX
  5
5FD
  100
AcDbEntity
  8
Layer 1
  62
0
  100
AcDb2dVertex
  10
1.35734
  20
1.20761
  30
0.00000
  70
32
  0
VERTEX
  5
5FE
  100
AcDbEntity
  8
Layer 1
  62
0
  100
AcDb2dVertex
  10
1.36900
  20
1.20400
  30
0.00000
  70
32
  0
VERTEX
  5
5FF
  100
AcDbEntity
  8
Layer 1
  62
0
  100
AcDb2dVertex
  10
1.38200
  20
1.17900
  30
0.00000
  70
32
  0
VERTEX
  5
600
  100
AcDbEntity
  8
Layer 1
  62
0
  100
AcDb2dVertex
  10
1.38200
  20
1.12500
  30
0.00000
  70
32
  0
VERTEX
  5
601
  100
AcDbEntity
  8
Layer 1
  62
0
  100
AcDb2dVertex
  10
1.24900
  20
1.12500
  30
0.00000
  70
32
  0
VERTEX
  5
602
  100
AcDbEntity
  8
Layer 1
  62
0
  100
AcDb2dVertex
  10
1.38200
  20
1.12500
  30
0.00000
  42
-0.0664
  70
32
  0
VERTEX
  5
603
  100
AcDbEntity
  8
Layer 1
  62
0
  100
AcDb2dVertex
  10
1.42470
  20
1.12365
  30
0.00000
  42
-0.1223
  70
32
  0
VERTEX
  5
604
  100
AcDbEntity
  8
Layer 1
  62
0
  100
AcDb2dVertex
  10
1.44788
  20
1.11392
  30
0.00000
  42
-0.2335
  70
32
  0
VERTEX
  5
605
  100
AcDbEntity
  8
Layer 1
  62
0
  100
AcDb2dVertex
  10
1.45900
  20
1.08956
  30
0.00000
  70
32
  0
VERTEX
  5
606
  100
AcDbEntity
  8
Layer 1
  62
0
  100
AcDb2dVertex
  10
1.45900
  20
1.08900
  30
0.00000
  70
32
  0
VERTEX
  5
607
  100
AcDbEntity
  8
Layer 1
  62
0
  100
AcDb2dVertex
  10
1.45700
  20
1.07700
  30
0.00000
  70
32
  0
VERTEX
  5
608
  100
AcDbEntity
  8
Layer 1
  62
0
  100
AcDb2dVertex
  10
1.38200
  20
1.07700
  30
0.00000
  70
32
  0
VERTEX
  5
609
  100
AcDbEntity
  8
Layer 1
  62
0
  100
AcDb2dVertex
  10
1.45700
  20
1.07700
  30
0.00000
  70
32
  0
VERTEX
  5
60A
  100
AcDbEntity
  8
Layer 1
  62
0
  100
AcDb2dVertex
  10
1.45900
  20
1.06000
  30
0.00000
  70
32
  0
SEQEND
  5
60B
  100
AcDbEntity
  8
Layer 1
  62
0
  0
POLYLINE
  5
60C
  100
AcDbEntity
  8
Layer 1
  62
0
  100
AcDb2dPolyline
 66
     1
  10
0
  20
0
  30
0
  70
1
  0
VERTEX
  5
60D
  100
AcDbEntity
  8
Layer 1
  62
0
  100
AcDb2dVertex
  10
0.90900
  20
1.57200
  30
0.00000
  42
-0.2869
  70
32
  0
VERTEX
  5
60E
  100
AcDbEntity
  8
Layer 1
  62
0
  100
AcDb2dVertex
  10
0.90700
  20
1.56400
  30
0.00000
  42
-0.2503
  70
32
  0
VERTEX
  5
60F
  100
AcDbEntity
  8
Layer 1
  62
0
  100
AcDb2dVertex
  10
0.89827
  20
1.56178
  30
0.00000
  70
32
  0
VERTEX
  5
610
  100
AcDbEntity
  8
Layer 1
  62
0
  100
AcDb2dVertex
  10
0.89700
  20
1.56200
  30
0.00000
  70
32
  0
VERTEX
  5
611
  100
AcDbEntity
  8
Layer 1
  62
0
  100
AcDb2dVertex
  10
0.82200
  20
1.57400
  30
0.00000
  42
0.1913
  70
32
  0
VERTEX
  5
612
  100
AcDbEntity
  8
Layer 1
  62
0
  100
AcDb2dVertex
  10
0.81398
  20
1.56461
  30
0.00000
  42
0.0747
  70
32
  0
VERTEX
  5
613
  100
AcDbEntity
  8
Layer 1
  62
0
  100
AcDb2dVertex
  10
0.80892
  20
1.54020
  30
0.00000
  42
0.0143
  70
32
  0
VERTEX
  5
614
  100
AcDbEntity
  8
Layer 1
  62
0
  100
AcDb2dVertex
  10
0.80800
  20
1.52500
  30
0.00000
  42
-0.0921
  70
32
  0
VERTEX
  5
615
  100
AcDbEntity
  8
Layer 1
  62
0
  100
AcDb2dVertex
  10
0.80289
  20
1.49731
  30
0.00000
  42
-0.2046
  70
32
  0
VERTEX
  5
616
  100
AcDbEntity
  8
Layer 1
  62
0
  100
AcDb2dVertex
  10
0.78905
  20
1.48276
  30
0.00000
  42
-0.1083
  70
32
  0
VERTEX
  5
617
  100
AcDbEntity
  8
Layer 1
  62
0
  100
AcDb2dVertex
  10
0.77700
  20
1.48100
  30
0.00000
  42
-0.2838
  70
32
  0
VERTEX
  5
618
  100
AcDbEntity
  8
Layer 1
  62
0
  100
AcDb2dVertex
  10
0.76518
  20
1.48716
  30
0.00000
  42
-0.1027
  70
32
  0
VERTEX
  5
619
  100
AcDbEntity
  8
Layer 1
  62
0
  100
AcDb2dVertex
  10
0.75828
  20
1.50611
  30
0.00000
  42
-0.0305
  70
32
  0
VERTEX
  5
61A
  100
AcDbEntity
  8
Layer 1
  62
0
  100
AcDb2dVertex
  10
0.75600
  20
1.52500
  30
0.00000
  42
0.0428
  70
32
  0
VERTEX
  5
61B
  100
AcDbEntity
  8
Layer 1
  62
0
  100
AcDb2dVertex
  10
0.74966
  20
1.56305
  30
0.00000
  42
0.1173
  70
32
  0
VERTEX
  5
61C
  100
AcDbEntity
  8
Layer 1
  62
0
  100
AcDb2dVertex
  10
0.74332
  20
1.57587
  30
0.00000
  70
32
  0
VERTEX
  5
61D
  100
AcDbEntity
  8
Layer 1
  62
0
  100
AcDb2dVertex
  10
0.74200
  20
1.57700
  30
0.00000
  70
32
  0
VERTEX
  5
61E
  100
AcDbEntity
  8
Layer 1
  62
0
  100
AcDb2dVertex
  10
0.67000
  20
1.56400
  30
0.00000
  42
-0.3608
  70
32
  0
VERTEX
  5
61F
  100
AcDbEntity
  8
Layer 1
  62
0
  100
AcDb2dVertex
  10
0.65693
  20
1.57186
  30
0.00000
  42
-0.0998
  70
32
  0
VERTEX
  5
620
  100
AcDbEntity
  8
Layer 1
  62
0
  100
AcDb2dVertex
  10
0.65400
  20
1.59100
  30
0.00000
  42
-0.0465
  70
32
  0
VERTEX
  5
621
  100
AcDbEntity
  8
Layer 1
  62
0
  100
AcDb2dVertex
  10
0.65720
  20
1.63536
  30
0.00000
  42
-0.1040
  70
32
  0
VERTEX
  5
622
  100
AcDbEntity
  8
Layer 1
  62
0
  100
AcDb2dVertex
  10
0.66384
  20
1.65329
  30
0.00000
  42
-0.2540
  70
32
  0
VERTEX
  5
623
  100
AcDbEntity
  8
Layer 1
  62
0
  100
AcDb2dVertex
  10
0.67400
  20
1.65900
  30
0.00000
  42
-0.0458
  70
32
  0
VERTEX
  5
624
  100
AcDbEntity
  8
Layer 1
  62
0
  100
AcDb2dVertex
  10
0.68815
  20
1.65467
  30
0.00000
  42
-0.0052
  70
32
  0
VERTEX
  5
625
  100
AcDbEntity
  8
Layer 1
  62
0
  100
AcDb2dVertex
  10
0.73000
  20
1.63900
  30
0.00000
  70
32
  0
VERTEX
  5
626
  100
AcDbEntity
  8
Layer 1
  62
0
  100
AcDb2dVertex
  10
0.76837
  20
1.62300
  30
0.00000
  70
32
  0
VERTEX
  5
627
  100
AcDbEntity
  8
Layer 1
  62
0
  100
AcDb2dVertex
  10
0.77823
  20
1.61847
  30
0.00000
  42
-0.1047
  70
32
  0
VERTEX
  5
628
  100
AcDbEntity
  8
Layer 1
  62
0
  100
AcDb2dVertex
  10
0.78200
  20
1.61600
  30
0.00000
  70
32
  0
VERTEX
  5
629
  100
AcDbEntity
  8
Layer 1
  62
0
  100
AcDb2dVertex
  10
0.78200
  20
1.58600
  30
0.00000
  70
32
  0
VERTEX
  5
62A
  100
AcDbEntity
  8
Layer 1
  62
0
  100
AcDb2dVertex
  10
0.78200
  20
1.61600
  30
0.00000
  42
-0.0211
  70
32
  0
VERTEX
  5
62B
  100
AcDbEntity
  8
Layer 1
  62
0
  100
AcDb2dVertex
  10
0.86653
  20
1.64884
  30
0.00000
  42
-0.0490
  70
32
  0
VERTEX
  5
62C
  100
AcDbEntity
  8
Layer 1
  62
0
  100
AcDb2dVertex
  10
0.89501
  20
1.65592
  30
0.00000
  70
32
  0
VERTEX
  5
62D
  100
AcDbEntity
  8
Layer 1
  62
0
  100
AcDb2dVertex
  10
0.89600
  20
1.65600
  30
0.00000
  42
-0.2613
  70
32
  0
VERTEX
  5
62E
  100
AcDbEntity
  8
Layer 1
  62
0
  100
AcDb2dVertex
  10
0.90649
  20
1.65297
  30
0.00000
  42
-0.1458
  70
32
  0
VERTEX
  5
62F
  100
AcDbEntity
  8
Layer 1
  62
0
  100
AcDb2dVertex
  10
0.90900
  20
1.64700
  30
0.00000
  70
32
  0
VERTEX
  5
630
  100
AcDbEntity
  8
Layer 1
  62
0
  100
AcDb2dVertex
  10
0.90900
  20
1.57200
  30
0.00000
  70
32
  0
SEQEND
  5
631
  100
AcDbEntity
  8
Layer 1
  62
0
  0
POLYLINE
  5
632
  100
AcDbEntity
  8
Layer 1
  62
0
  100
AcDb2dPolyline
 66
     1
  10
0
  20
0
  30
0
  70
1
  0
VERTEX
  5
633
  100
AcDbEntity
  8
Layer 1
  62
0
  100
AcDb2dVertex
  10
2.03200
  20
0.31400
  30
0.00000
  42
-0.1371
  70
32
  0
VERTEX
  5
634
  100
AcDbEntity
  8
Layer 1
  62
0
  100
AcDb2dVertex
  10
2.02632
  20
0.29749
  30
0.00000
  42
-0.0307
  70
32
  0
VERTEX
  5
635
  100
AcDbEntity
  8
Layer 1
  62
0
  100
AcDb2dVertex
  10
2.02100
  20
0.29000
  30
0.00000
  42
0.1077
  70
32
  0
VERTEX
  5
636
  100
AcDbEntity
  8
Layer 1
  62
0
  100
AcDb2dVertex
  10
2.00965
  20
0.26919
  30
0.00000
  42
0.0579
  70
32
  0
VERTEX
  5
637
  100
AcDbEntity
  8
Layer 1
  62
0
  100
AcDb2dVertex
  10
2.00900
  20
0.26400
  30
0.00000
  70
32
  0
VERTEX
  5
638
  100
AcDbEntity
  8
Layer 1
  62
0
  100
AcDb2dVertex
  10
2.01200
  20
0.25400
  30
0.00000
  70
32
  0
VERTEX
  5
639
  100
AcDbEntity
  8
Layer 1
  62
0
  100
AcDb2dVertex
  10
2.02700
  20
0.23000
  30
0.00000
  42
-0.0718
  70
32
  0
VERTEX
  5
63A
  100
AcDbEntity
  8
Layer 1
  62
0
  100
AcDb2dVertex
  10
2.00194
  20
0.20503
  30
0.00000
  70
32
  0
VERTEX
  5
63B
  100
AcDbEntity
  8
Layer 1
  62
0
  100
AcDb2dVertex
  10
1.99400
  20
0.19900
  30
0.00000
  70
32
  0
VERTEX
  5
63C
  100
AcDbEntity
  8
Layer 1
  62
0
  100
AcDb2dVertex
  10
1.93900
  20
0.25200
  30
0.00000
  70
32
  0
VERTEX
  5
63D
  100
AcDbEntity
  8
Layer 1
  62
0
  100
AcDb2dVertex
  10
1.99400
  20
0.19900
  30
0.00000
  42
-0.0627
  70
32
  0
VERTEX
  5
63E
  100
AcDbEntity
  8
Layer 1
  62
0
  100
AcDb2dVertex
  10
1.98698
  20
0.19049
  30
0.00000
  42
-0.0067
  70
32
  0
VERTEX
  5
63F
  100
AcDbEntity
  8
Layer 1
  62
0
  100
AcDb2dVertex
  10
1.95246
  20
0.15546
  30
0.00000
  70
32
  0
VERTEX
  5
640
  100
AcDbEntity
  8
Layer 1
  62
0
  100
AcDb2dVertex
  10
1.94700
  20
0.15000
  30
0.00000
  42
0.0180
  70
32
  0
VERTEX
  5
641
  100
AcDbEntity
  8
Layer 1
  62
0
  100
AcDb2dVertex
  10
1.90400
  20
0.19000
  30
0.00000
  42
0.0840
  70
32
  0
VERTEX
  5
642
  100
AcDbEntity
  8
Layer 1
  62
0
  100
AcDb2dVertex
  10
1.87176
  20
0.21015
  30
0.00000
  42
0.0911
  70
32
  0
VERTEX
  5
643
  100
AcDbEntity
  8
Layer 1
  62
0
  100
AcDb2dVertex
  10
1.85200
  20
0.21400
  30
0.00000
  42
0.0280
  70
32
  0
VERTEX
  5
644
  100
AcDbEntity
  8
Layer 1
  62
0
  100
AcDb2dVertex
  10
1.83237
  20
0.20724
  30
0.00000
  42
0.0040
  70
32
  0
VERTEX
  5
645
  100
AcDbEntity
  8
Layer 1
  62
0
  100
AcDb2dVertex
  10
1.77200
  20
0.18400
  30
0.00000
  42
-0.0494
  70
32
  0
VERTEX
  5
646
  100
AcDbEntity
  8
Layer 1
  62
0
  100
AcDb2dVertex
  10
1.68458
  20
0.15826
  30
0.00000
  42
-0.0437
  70
32
  0
VERTEX
  5
647
  100
AcDbEntity
  8
Layer 1
  62
0
  100
AcDb2dVertex
  10
1.63900
  20
0.15400
  30
0.00000
  42
0.1500
  70
32
  0
VERTEX
  5
648
  100
AcDbEntity
  8
Layer 1
  62
0
  100
AcDb2dVertex
  10
1.61017
  20
0.14447
  30
0.00000
  70
32
  0
VERTEX
  5
649
  100
AcDbEntity
  8
Layer 1
  62
0
  100
AcDb2dVertex
  10
1.60800
  20
0.14300
  30
0.00000
  42
-0.1249
  70
32
  0
VERTEX
  5
64A
  100
AcDbEntity
  8
Layer 1
  62
0
  100
AcDb2dVertex
  10
1.58951
  20
0.13241
  30
0.00000
  70
32
  0
VERTEX
  5
64B
  100
AcDbEntity
  8
Layer 1
  62
0
  100
AcDb2dVertex
  10
1.58600
  20
0.13200
  30
0.00000
  42
-0.0732
  70
32
  0
VERTEX
  5
64C
  100
AcDbEntity
  8
Layer 1
  62
0
  100
AcDb2dVertex
  10
1.57600
  20
0.13400
  30
0.00000
  42
0.0249
  70
32
  0
VERTEX
  5
64D
  100
AcDbEntity
  8
Layer 1
  62
0
  100
AcDb2dVertex
  10
1.52900
  20
0.19500
  30
0.00000
  42
-0.1637
  70
32
  0
VERTEX
  5
64E
  100
AcDbEntity
  8
Layer 1
  62
0
  100
AcDb2dVertex
  10
1.52951
  20
0.20604
  30
0.00000
  42
-0.3008
  70
32
  0
VERTEX
  5
64F
  100
AcDbEntity
  8
Layer 1
  62
0
  100
AcDb2dVertex
  10
1.53700
  20
0.21000
  30
0.00000
  42
0.0564
  70
32
  0
VERTEX
  5
650
  100
AcDbEntity
  8
Layer 1
  62
0
  100
AcDb2dVertex
  10
1.61085
  20
0.19951
  30
0.00000
  42
0.0107
  70
32
  0
VERTEX
  5
651
  100
AcDbEntity
  8
Layer 1
  62
0
  100
AcDb2dVertex
  10
1.63600
  20
0.19900
  30
0.00000
  42
0.0847
  70
32
  0
VERTEX
  5
652
  100
AcDbEntity
  8
Layer 1
  62
0
  100
AcDb2dVertex
  10
1.74739
  20
0.21689
  30
0.00000
  42
0.1118
  70
32
  0
VERTEX
  5
653
  100
AcDbEntity
  8
Layer 1
  62
0
  100
AcDb2dVertex
  10
1.85600
  20
0.28500
  30
0.00000
  70
32
  0
VERTEX
  5
654
  100
AcDbEntity
  8
Layer 1
  62
0
  100
AcDb2dVertex
  10
1.85100
  20
0.29400
  30
0.00000
  42
-0.1511
  70
32
  0
VERTEX
  5
655
  100
AcDbEntity
  8
Layer 1
  62
0
  100
AcDb2dVertex
  10
1.73134
  20
0.24609
  30
0.00000
  42
-0.0228
  70
32
  0
VERTEX
  5
656
  100
AcDbEntity
  8
Layer 1
  62
0
  100
AcDb2dVertex
  10
1.70700
  20
0.24500
  30
0.00000
  42
-0.0551
  70
32
  0
VERTEX
  5
657
  100
AcDbEntity
  8
Layer 1
  62
0
  100
AcDb2dVertex
  10
1.67062
  20
0.24811
  30
0.00000
  42
-0.1250
  70
32
  0
VERTEX
  5
658
  100
AcDbEntity
  8
Layer 1
  62
0
  100
AcDb2dVertex
  10
1.65707
  20
0.25417
  30
0.00000
  42
-0.1874
  70
32
  0
VERTEX
  5
659
  100
AcDbEntity
  8
Layer 1
  62
0
  100
AcDb2dVertex
  10
1.65400
  20
0.26000
  30
0.00000
  42
-0.2191
  70
32
  0
VERTEX
  5
65A
  100
AcDbEntity
  8
Layer 1
  62
0
  100
AcDb2dVertex
  10
1.66392
  20
0.26718
  30
0.00000
  42
-0.0916
  70
32
  0
VERTEX
  5
65B
  100
AcDbEntity
  8
Layer 1
  62
0
  100
AcDb2dVertex
  10
1.66700
  20
0.26700
  30
0.00000
  42
0.0528
  70
32
  0
VERTEX
  5
65C
  100
AcDbEntity
  8
Layer 1
  62
0
  100
AcDb2dVertex
  10
1.73698
  20
0.27340
  30
0.00000
  42
0.0811
  70
32
  0
VERTEX
  5
65D
  100
AcDbEntity
  8
Layer 1
  62
0
  100
AcDb2dVertex
  10
1.77900
  20
0.28900
  30
0.00000
  42
0.0857
  70
32
  0
VERTEX
  5
65E
  100
AcDbEntity
  8
Layer 1
  62
0
  100
AcDb2dVertex
  10
1.79981
  20
0.30715
  30
0.00000
  42
0.0318
  70
32
  0
VERTEX
  5
65F
  100
AcDbEntity
  8
Layer 1
  62
0
  100
AcDb2dVertex
  10
1.81700
  20
0.33000
  30
0.00000
  42
-0.1119
  70
32
  0
VERTEX
  5
660
  100
AcDbEntity
  8
Layer 1
  62
0
  100
AcDb2dVertex
  10
1.83786
  20
0.34793
  30
0.00000
  42
-0.1157
  70
32
  0
VERTEX
  5
661
  100
AcDbEntity
  8
Layer 1
  62
0
  100
AcDb2dVertex
  10
1.85600
  20
0.35200
  30
0.00000
  42
0.1319
  70
32
  0
VERTEX
  5
662
  100
AcDbEntity
  8
Layer 1
  62
0
  100
AcDb2dVertex
  10
1.87910
  20
0.35717
  30
0.00000
  42
0.2202
  70
32
  0
VERTEX
  5
663
  100
AcDbEntity
  8
Layer 1
  62
0
  100
AcDb2dVertex
  10
1.89286
  20
0.37727
  30
0.00000
  42
0.0530
  70
32
  0
VERTEX
  5
664
  100
AcDbEntity
  8
Layer 1
  62
0
  100
AcDb2dVertex
  10
1.89400
  20
0.38900
  30
0.00000
  42
0.0490
  70
32
  0
VERTEX
  5
665
  100
AcDbEntity
  8
Layer 1
  62
0
  100
AcDb2dVertex
  10
1.89200
  20
0.41100
  30
0.00000
  42
-0.0250
  70
32
  0
VERTEX
  5
666
  100
AcDbEntity
  8
Layer 1
  62
0
  100
AcDb2dVertex
  10
1.89100
  20
0.43400
  30
0.00000
  42
-0.0431
  70
32
  0
VERTEX
  5
667
  100
AcDbEntity
  8
Layer 1
  62
0
  100
AcDb2dVertex
  10
1.89717
  20
0.49050
  30
0.00000
  70
32
  0
VERTEX
  5
668
  100
AcDbEntity
  8
Layer 1
  62
0
  100
AcDb2dVertex
  10
1.90200
  20
0.51500
  30
0.00000
  42
-0.0513
  70
32
  0
VERTEX
  5
669
  100
AcDbEntity
  8
Layer 1
  62
0
  100
AcDb2dVertex
  10
1.91644
  20
0.55917
  30
0.00000
  42
-0.1017
  70
32
  0
VERTEX
  5
66A
  100
AcDbEntity
  8
Layer 1
  62
0
  100
AcDb2dVertex
  10
1.92775
  20
0.57553
  30
0.00000
  42
-0.1796
  70
32
  0
VERTEX
  5
66B
  100
AcDbEntity
  8
Layer 1
  62
0
  100
AcDb2dVertex
  10
1.93600
  20
0.57900
  30
0.00000
  70
32
  0
VERTEX
  5
66C
  100
AcDbEntity
  8
Layer 1
  62
0
  100
AcDb2dVertex
  10
1.94400
  20
0.57700
  30
0.00000
  42
-0.0225
  70
32
  0
VERTEX
  5
66D
  100
AcDbEntity
  8
Layer 1
  62
0
  100
AcDb2dVertex
  10
1.98100
  20
0.54900
  30
0.00000
  42
0.0296
  70
32
  0
VERTEX
  5
66E
  100
AcDbEntity
  8
Layer 1
  62
0
  100
AcDb2dVertex
  10
1.98600
  20
0.53200
  30
0.00000
  42
-0.0562
  70
32
  0
VERTEX
  5
66F
  100
AcDbEntity
  8
Layer 1
  62
0
  100
AcDb2dVertex
  10
1.98229
  20
0.51797
  30
0.00000
  42
-0.0081
  70
32
  0
VERTEX
  5
670
  100
AcDbEntity
  8
Layer 1
  62
0
  100
AcDb2dVertex
  10
1.96300
  20
0.46500
  30
0.00000
  42
0.0418
  70
32
  0
VERTEX
  5
671
  100
AcDbEntity
  8
Layer 1
  62
0
  100
AcDb2dVertex
  10
1.94373
  20
0.40028
  30
0.00000
  42
0.0460
  70
32
  0
VERTEX
  5
672
  100
AcDbEntity
  8
Layer 1
  62
0
  100
AcDb2dVertex
  10
1.94100
  20
0.37500
  30
0.00000
  42
0.1157
  70
32
  0
VERTEX
  5
673
  100
AcDbEntity
  8
Layer 1
  62
0
  100
AcDb2dVertex
  10
1.95000
  20
0.34000
  30
0.00000
  42
0.1481
  70
32
  0
VERTEX
  5
674
  100
AcDbEntity
  8
Layer 1
  62
0
  100
AcDb2dVertex
  10
1.96295
  20
0.32489
  30
0.00000
  42
0.1329
  70
32
  0
VERTEX
  5
675
  100
AcDbEntity
  8
Layer 1
  62
0
  100
AcDb2dVertex
  10
1.97400
  20
0.32200
  30
0.00000
  42
0.1484
  70
32
  0
VERTEX
  5
676
  100
AcDbEntity
  8
Layer 1
  62
0
  100
AcDb2dVertex
  10
1.99058
  20
0.32802
  30
0.00000
  70
32
  0
VERTEX
  5
677
  100
AcDbEntity
  8
Layer 1
  62
0
  100
AcDb2dVertex
  10
1.99200
  20
0.32900
  30
0.00000
  42
-0.0804
  70
32
  0
VERTEX
  5
678
  100
AcDbEntity
  8
Layer 1
  62
0
  100
AcDb2dVertex
  10
2.00779
  20
0.33663
  30
0.00000
  70
32
  0
VERTEX
  5
679
  100
AcDbEntity
  8
Layer 1
  62
0
  100
AcDb2dVertex
  10
2.01100
  20
0.33700
  30
0.00000
  42
-0.1948
  70
32
  0
VERTEX
  5
67A
  100
AcDbEntity
  8
Layer 1
  62
0
  100
AcDb2dVertex
  10
2.02585
  20
0.33204
  30
0.00000
  42
-0.1887
  70
32
  0
VERTEX
  5
67B
  100
AcDbEntity
  8
Layer 1
  62
0
  100
AcDb2dVertex
  10
2.03187
  20
0.31743
  30
0.00000
  70
32
  0
VERTEX
  5
67C
  100
AcDbEntity
  8
Layer 1
  62
0
  100
AcDb2dVertex
  10
2.03200
  20
0.31400
  30
0.00000
  70
32
  0
SEQEND
  5
67D
  100
AcDbEntity
  8
Layer 1
  62
0
  0
POLYLINE
  5
67E
  100
AcDbEntity
  8
Layer 1
  62
0
  100
AcDb2dPolyline
 66
     1
  10
0
  20
0
  30
0
  70
1
  0
VERTEX
  5
67F
  100
AcDbEntity
  8
Layer 1
  62
0
  100
AcDb2dVertex
  10
1.71200
  20
0.57200
  30
0.00000
  42
-0.0991
  70
32
  0
VERTEX
  5
680
  100
AcDbEntity
  8
Layer 1
  62
0
  100
AcDb2dVertex
  10
1.70265
  20
0.53052
  30
0.00000
  42
-0.0544
  70
32
  0
VERTEX
  5
681
  100
AcDbEntity
  8
Layer 1
  62
0
  100
AcDb2dVertex
  10
1.67600
  20
0.48400
  30
0.00000
  42
-0.0684
  70
32
  0
VERTEX
  5
682
  100
AcDbEntity
  8
Layer 1
  62
0
  100
AcDb2dVertex
  10
1.64334
  20
0.44797
  30
0.00000
  42
-0.1192
  70
32
  0
VERTEX
  5
683
  100
AcDbEntity
  8
Layer 1
  62
0
  100
AcDb2dVertex
  10
1.61358
  20
0.43297
  30
0.00000
  42
-0.0501
  70
32
  0
VERTEX
  5
684
  100
AcDbEntity
  8
Layer 1
  62
0
  100
AcDb2dVertex
  10
1.60400
  20
0.43200
  30
0.00000
  42
-0.0476
  70
32
  0
VERTEX
  5
685
  100
AcDbEntity
  8
Layer 1
  62
0
  100
AcDb2dVertex
  10
1.58400
  20
0.43500
  30
0.00000
  70
32
  0
VERTEX
  5
686
  100
AcDbEntity
  8
Layer 1
  62
0
  100
AcDb2dVertex
  10
1.57720
  20
0.43657
  30
0.00000
  42
0.0475
  70
32
  0
VERTEX
  5
687
  100
AcDbEntity
  8
Layer 1
  62
0
  100
AcDb2dVertex
  10
1.56400
  20
0.43900
  30
0.00000
  42
0.1444
  70
32
  0
VERTEX
  5
688
  100
AcDbEntity
  8
Layer 1
  62
0
  100
AcDb2dVertex
  10
1.53733
  20
0.43030
  30
0.00000
  42
0.0666
  70
32
  0
VERTEX
  5
689
  100
AcDbEntity
  8
Layer 1
  62
0
  100
AcDb2dVertex
  10
1.51100
  20
0.40700
  30
0.00000
  42
-0.0439
  70
32
  0
VERTEX
  5
68A
  100
AcDbEntity
  8
Layer 1
  62
0
  100
AcDb2dVertex
  10
1.48399
  20
0.38074
  30
0.00000
  42
-0.1196
  70
32
  0
VERTEX
  5
68B
  100
AcDbEntity
  8
Layer 1
  62
0
  100
AcDb2dVertex
  10
1.47298
  20
0.37507
  30
0.00000
  70
32
  0
VERTEX
  5
68C
  100
AcDbEntity
  8
Layer 1
  62
0
  100
AcDb2dVertex
  10
1.47200
  20
0.37500
  30
0.00000
  42
-0.1683
  70
32
  0
VERTEX
  5
68D
  100
AcDbEntity
  8
Layer 1
  62
0
  100
AcDb2dVertex
  10
1.45419
  20
0.38013
  30
0.00000
  42
-0.2157
  70
32
  0
VERTEX
  5
68E
  100
AcDbEntity
  8
Layer 1
  62
0
  100
AcDb2dVertex
  10
1.44613
  20
0.39681
  30
0.00000
  70
32
  0
VERTEX
  5
68F
  100
AcDbEntity
  8
Layer 1
  62
0
  100
AcDb2dVertex
  10
1.44600
  20
0.40000
  30
0.00000
  42
-0.1256
  70
32
  0
VERTEX
  5
690
  100
AcDbEntity
  8
Layer 1
  62
0
  100
AcDb2dVertex
  10
1.45219
  20
0.41979
  30
0.00000
  42
-0.0617
  70
32
  0
VERTEX
  5
691
  100
AcDbEntity
  8
Layer 1
  62
0
  100
AcDb2dVertex
  10
1.47400
  20
0.44800
  30
0.00000
  42
0.0514
  70
32
  0
VERTEX
  5
692
  100
AcDbEntity
  8
Layer 1
  62
0
  100
AcDb2dVertex
  10
1.49734
  20
0.47529
  30
0.00000
  42
0.1257
  70
32
  0
VERTEX
  5
693
  100
AcDbEntity
  8
Layer 1
  62
0
  100
AcDb2dVertex
  10
1.50200
  20
0.48674
  30
0.00000
  70
32
  0
VERTEX
  5
694
  100
AcDbEntity
  8
Layer 1
  62
0
  100
AcDb2dVertex
  10
1.50200
  20
0.48700
  30
0.00000
  42
-0.0484
  70
32
  0
VERTEX
  5
695
  100
AcDbEntity
  8
Layer 1
  62
0
  100
AcDb2dVertex
  10
1.49251
  20
0.52408
  30
0.00000
  42
-0.0297
  70
32
  0
VERTEX
  5
696
  100
AcDbEntity
  8
Layer 1
  62
0
  100
AcDb2dVertex
  10
1.49200
  20
0.53200
  30
0.00000
  42
-0.1561
  70
32
  0
VERTEX
  5
697
  100
AcDbEntity
  8
Layer 1
  62
0
  100
AcDb2dVertex
  10
1.51144
  20
0.59162
  30
0.00000
  42
-0.0585
  70
32
  0
VERTEX
  5
698
  100
AcDbEntity
  8
Layer 1
  62
0
  100
AcDb2dVertex
  10
1.53600
  20
0.61900
  30
0.00000
  42
-0.0997
  70
32
  0
VERTEX
  5
699
  100
AcDbEntity
  8
Layer 1
  62
0
  100
AcDb2dVertex
  10
1.59032
  20
0.65081
  30
0.00000
  42
-0.0795
  70
32
  0
VERTEX
  5
69A
  100
AcDbEntity
  8
Layer 1
  62
0
  100
AcDb2dVertex
  10
1.62900
  20
0.65700
  30
0.00000
  42
-0.2346
  70
32
  0
VERTEX
  5
69B
  100
AcDbEntity
  8
Layer 1
  62
0
  100
AcDb2dVertex
  10
1.63608
  20
0.65297
  30
0.00000
  42
-0.1293
  70
32
  0
VERTEX
  5
69C
  100
AcDbEntity
  8
Layer 1
  62
0
  100
AcDb2dVertex
  10
1.63700
  20
0.64900
  30
0.00000
  42
-0.0046
  70
32
  0
VERTEX
  5
69D
  100
AcDbEntity
  8
Layer 1
  62
0
  100
AcDb2dVertex
  10
1.56600
  20
0.60700
  30
0.00000
  42
0.1021
  70
32
  0
VERTEX
  5
69E
  100
AcDbEntity
  8
Layer 1
  62
0
  100
AcDb2dVertex
  10
1.53643
  20
0.57704
  30
0.00000
  42
0.1417
  70
32
  0
VERTEX
  5
69F
  100
AcDbEntity
  8
Layer 1
  62
0
  100
AcDb2dVertex
  10
1.52600
  20
0.54000
  30
0.00000
  42
0.1556
  70
32
  0
VERTEX
  5
6A0
  100
AcDbEntity
  8
Layer 1
  62
0
  100
AcDb2dVertex
  10
1.53823
  20
0.50330
  30
0.00000
  42
0.0459
  70
32
  0
VERTEX
  5
6A1
  100
AcDbEntity
  8
Layer 1
  62
0
  100
AcDb2dVertex
  10
1.55200
  20
0.48700
  30
0.00000
  70
32
  0
VERTEX
  5
6A2
  100
AcDbEntity
  8
Layer 1
  62
0
  100
AcDb2dVertex
  10
1.53600
  20
0.46700
  30
0.00000
  70
32
  0
VERTEX
  5
6A3
  100
AcDbEntity
  8
Layer 1
  62
0
  100
AcDb2dVertex
  10
1.55200
  20
0.48700
  30
0.00000
  42
0.1361
  70
32
  0
VERTEX
  5
6A4
  100
AcDbEntity
  8
Layer 1
  62
0
  100
AcDb2dVertex
  10
1.59180
  20
0.46643
  30
0.00000
  42
0.0482
  70
32
  0
VERTEX
  5
6A5
  100
AcDbEntity
  8
Layer 1
  62
0
  100
AcDb2dVertex
  10
1.60700
  20
0.46500
  30
0.00000
  42
0.1726
  70
32
  0
VERTEX
  5
6A6
  100
AcDbEntity
  8
Layer 1
  62
0
  100
AcDb2dVertex
  10
1.63759
  20
0.47651
  30
0.00000
  42
0.0872
  70
32
  0
VERTEX
  5
6A7
  100
AcDbEntity
  8
Layer 1
  62
0
  100
AcDb2dVertex
  10
1.66232
  20
0.50590
  30
0.00000
  42
0.0522
  70
32
  0
VERTEX
  5
6A8
  100
AcDbEntity
  8
Layer 1
  62
0
  100
AcDb2dVertex
  10
1.68838
  20
0.56313
  30
0.00000
  70
32
  0
VERTEX
  5
6A9
  100
AcDbEntity
  8
Layer 1
  62
0
  100
AcDb2dVertex
  10
1.69400
  20
0.58000
  30
0.00000
  42
0.1661
  70
32
  0
VERTEX
  5
6AA
  100
AcDbEntity
  8
Layer 1
  62
0
  100
AcDb2dVertex
  10
1.69865
  20
0.58304
  30
0.00000
  42
0.5558
  70
32
  0
VERTEX
  5
6AB
  100
AcDbEntity
  8
Layer 1
  62
0
  100
AcDb2dVertex
  10
1.69746
  20
0.58398
  30
0.00000
  70
32
  0
VERTEX
  5
6AC
  100
AcDbEntity
  8
Layer 1
  62
0
  100
AcDb2dVertex
  10
1.69700
  20
0.58400
  30
0.00000
  70
32
  0
VERTEX
  5
6AD
  100
AcDbEntity
  8
Layer 1
  62
0
  100
AcDb2dVertex
  10
1.70200
  20
0.58400
  30
0.00000
  42
-0.2837
  70
32
  0
VERTEX
  5
6AE
  100
AcDbEntity
  8
Layer 1
  62
0
  100
AcDb2dVertex
  10
1.71031
  20
0.58002
  30
0.00000
  42
-0.1320
  70
32
  0
VERTEX
  5
6AF
  100
AcDbEntity
  8
Layer 1
  62
0
  100
AcDb2dVertex
  10
1.71200
  20
0.57200
  30
0.00000
  70
32
  0
SEQEND
  5
6B0
  100
AcDbEntity
  8
Layer 1
  62
0
  0
POLYLINE
  5
6B1
  100
AcDbEntity
  8
Layer 1
  62
0
  100
AcDb2dPolyline
 66
     1
  10
0
  20
0
  30
0
  70
1
  0
VERTEX
  5
6B2
  100
AcDbEntity
  8
Layer 1
  62
0
  100
AcDb2dVertex
  10
1.42900
  20
0.73700
  30
0.00000
  42
-0.1650
  70
32
  0
VERTEX
  5
6B3
  100
AcDbEntity
  8
Layer 1
  62
0
  100
AcDb2dVertex
  10
1.42459
  20
0.72748
  30
0.00000
  42
-0.0601
  70
32
  0
VERTEX
  5
6B4
  100
AcDbEntity
  8
Layer 1
  62
0
  100
AcDb2dVertex
  10
1.40363
  20
0.70892
  30
0.00000
  70
32
  0
VERTEX
  5
6B5
  100
AcDbEntity
  8
Layer 1
  62
0
  100
AcDb2dVertex
  10
1.39100
  20
0.70000
  30
0.00000
  42
0.0062
  70
32
  0
VERTEX
  5
6B6
  100
AcDbEntity
  8
Layer 1
  62
0
  100
AcDb2dVertex
  10
1.34100
  20
0.66700
  30
0.00000
  70
32
  0
VERTEX
  5
6B7
  100
AcDbEntity
  8
Layer 1
  62
0
  100
AcDb2dVertex
  10
1.34200
  20
0.65400
  30
0.00000
  42
-0.1762
  70
32
  0
VERTEX
  5
6B8
  100
AcDbEntity
  8
Layer 1
  62
0
  100
AcDb2dVertex
  10
1.32600
  20
0.60264
  30
0.00000
  42
-0.0253
  70
32
  0
VERTEX
  5
6B9
  100
AcDbEntity
  8
Layer 1
  62
0
  100
AcDb2dVertex
  10
1.31900
  20
0.59400
  30
0.00000
  42
-0.1249
  70
32
  0
VERTEX
  5
6BA
  100
AcDbEntity
  8
Layer 1
  62
0
  100
AcDb2dVertex
  10
1.28398
  20
0.57053
  30
0.00000
  42
-0.0810
  70
32
  0
VERTEX
  5
6BB
  100
AcDbEntity
  8
Layer 1
  62
0
  100
AcDb2dVertex
  10
1.26200
  20
0.56700
  30
0.00000
  42
-0.0707
  70
32
  0
VERTEX
  5
6BC
  100
AcDbEntity
  8
Layer 1
  62
0
  100
AcDb2dVertex
  10
1.23037
  20
0.57056
  30
0.00000
  42
-0.1506
  70
32
  0
VERTEX
  5
6BD
  100
AcDbEntity
  8
Layer 1
  62
0
  100
AcDb2dVertex
  10
1.21694
  20
0.57847
  30
0.00000
  42
-0.1743
  70
32
  0
VERTEX
  5
6BE
  100
AcDbEntity
  8
Layer 1
  62
0
  100
AcDb2dVertex
  10
1.21400
  20
0.58700
  30
0.00000
  42
-0.2837
  70
32
  0
VERTEX
  5
6BF
  100
AcDbEntity
  8
Layer 1
  62
0
  100
AcDb2dVertex
  10
1.21798
  20
0.59531
  30
0.00000
  42
-0.1320
  70
32
  0
VERTEX
  5
6C0
  100
AcDbEntity
  8
Layer 1
  62
0
  100
AcDb2dVertex
  10
1.22600
  20
0.59700
  30
0.00000
  42
-0.0604
  70
32
  0
VERTEX
  5
6C1
  100
AcDbEntity
  8
Layer 1
  62
0
  100
AcDb2dVertex
  10
1.24100
  20
0.59400
  30
0.00000
  42
0.1171
  70
32
  0
VERTEX
  5
6C2
  100
AcDbEntity
  8
Layer 1
  62
0
  100
AcDb2dVertex
  10
1.25600
  20
0.59000
  30
0.00000
  42
0.1770
  70
32
  0
VERTEX
  5
6C3
  100
AcDbEntity
  8
Layer 1
  62
0
  100
AcDb2dVertex
  10
1.28342
  20
0.60083
  30
0.00000
  70
32
  0
VERTEX
  5
6C4
  100
AcDbEntity
  8
Layer 1
  62
0
  100
AcDb2dVertex
  10
1.28800
  20
0.60500
  30
0.00000
  42
0.1539
  70
32
  0
VERTEX
  5
6C5
  100
AcDbEntity
  8
Layer 1
  62
0
  100
AcDb2dVertex
  10
1.30306
  20
0.62883
  30
0.00000
  42
0.0573
  70
32
  0
VERTEX
  5
6C6
  100
AcDbEntity
  8
Layer 1
  62
0
  100
AcDb2dVertex
  10
1.30400
  20
0.63700
  30
0.00000
  42
0.0797
  70
32
  0
VERTEX
  5
6C7
  100
AcDbEntity
  8
Layer 1
  62
0
  100
AcDb2dVertex
  10
1.29742
  20
0.66982
  30
0.00000
  42
0.0175
  70
32
  0
VERTEX
  5
6C8
  100
AcDbEntity
  8
Layer 1
  62
0
  100
AcDb2dVertex
  10
1.29200
  20
0.68400
  30
0.00000
  70
32
  0
VERTEX
  5
6C9
  100
AcDbEntity
  8
Layer 1
  62
0
  100
AcDb2dVertex
  10
1.31700
  20
0.69500
  30
0.00000
  70
32
  0
VERTEX
  5
6CA
  100
AcDbEntity
  8
Layer 1
  62
0
  100
AcDb2dVertex
  10
1.29200
  20
0.68400
  30
0.00000
  70
32
  0
VERTEX
  5
6CB
  100
AcDbEntity
  8
Layer 1
  62
0
  100
AcDb2dVertex
  10
1.27600
  20
0.70600
  30
0.00000
  42
0.1155
  70
32
  0
VERTEX
  5
6CC
  100
AcDbEntity
  8
Layer 1
  62
0
  100
AcDb2dVertex
  10
1.25328
  20
0.72514
  30
0.00000
  42
0.1108
  70
32
  0
VERTEX
  5
6CD
  100
AcDbEntity
  8
Layer 1
  62
0
  100
AcDb2dVertex
  10
1.23600
  20
0.72900
  30
0.00000
  42
0.1770
  70
32
  0
VERTEX
  5
6CE
  100
AcDbEntity
  8
Layer 1
  62
0
  100
AcDb2dVertex
  10
1.20900
  20
0.71851
  30
0.00000
  42
0.0653
  70
32
  0
VERTEX
  5
6CF
  100
AcDbEntity
  8
Layer 1
  62
0
  100
AcDb2dVertex
  10
1.19300
  20
0.70100
  30
0.00000
  42
0.0375
  70
32
  0
VERTEX
  5
6D0
  100
AcDbEntity
  8
Layer 1
  62
0
  100
AcDb2dVertex
  10
1.17741
  20
0.67708
  30
0.00000
  70
32
  0
VERTEX
  5
6D1
  100
AcDbEntity
  8
Layer 1
  62
0
  100
AcDb2dVertex
  10
1.17659
  20
0.67477
  30
0.00000
  42
0.5357
  70
32
  0
VERTEX
  5
6D2
  100
AcDbEntity
  8
Layer 1
  62
0
  100
AcDb2dVertex
  10
1.17700
  20
0.67400
  30
0.00000
  42
-0.3451
  70
32
  0
VERTEX
  5
6D3
  100
AcDbEntity
  8
Layer 1
  62
0
  100
AcDb2dVertex
  10
1.16818
  20
0.68089
  30
0.00000
  42
-0.0834
  70
32
  0
VERTEX
  5
6D4
  100
AcDbEntity
  8
Layer 1
  62
0
  100
AcDb2dVertex
  10
1.16700
  20
0.68900
  30
0.00000
  42
-0.2155
  70
32
  0
VERTEX
  5
6D5
  100
AcDbEntity
  8
Layer 1
  62
0
  100
AcDb2dVertex
  10
1.18646
  20
0.73303
  30
0.00000
  70
32
  0
VERTEX
  5
6D6
  100
AcDbEntity
  8
Layer 1
  62
0
  100
AcDb2dVertex
  10
1.19100
  20
0.73700
  30
0.00000
  42
-0.1096
  70
32
  0
VERTEX
  5
6D7
  100
AcDbEntity
  8
Layer 1
  62
0
  100
AcDb2dVertex
  10
1.22766
  20
0.75520
  30
0.00000
  42
-0.0555
  70
32
  0
VERTEX
  5
6D8
  100
AcDbEntity
  8
Layer 1
  62
0
  100
AcDb2dVertex
  10
1.24400
  20
0.75700
  30
0.00000
  42
-0.1349
  70
32
  0
VERTEX
  5
6D9
  100
AcDbEntity
  8
Layer 1
  62
0
  100
AcDb2dVertex
  10
1.28700
  20
0.74400
  30
0.00000
  42
0.0300
  70
32
  0
VERTEX
  5
6DA
  100
AcDbEntity
  8
Layer 1
  62
0
  100
AcDb2dVertex
  10
1.31253
  20
0.73230
  30
0.00000
  70
32
  0
VERTEX
  5
6DB
  100
AcDbEntity
  8
Layer 1
  62
0
  100
AcDb2dVertex
  10
1.31400
  20
0.73200
  30
0.00000
  42
0.0780
  70
32
  0
VERTEX
  5
6DC
  100
AcDbEntity
  8
Layer 1
  62
0
  100
AcDb2dVertex
  10
1.33534
  20
0.73679
  30
0.00000
  42
0.0215
  70
32
  0
VERTEX
  5
6DD
  100
AcDbEntity
  8
Layer 1
  62
0
  100
AcDb2dVertex
  10
1.35800
  20
0.74600
  30
0.00000
  42
-0.0617
  70
32
  0
VERTEX
  5
6DE
  100
AcDbEntity
  8
Layer 1
  62
0
  100
AcDb2dVertex
  10
1.39397
  20
0.75893
  30
0.00000
  42
-0.0471
  70
32
  0
VERTEX
  5
6DF
  100
AcDbEntity
  8
Layer 1
  62
0
  100
AcDb2dVertex
  10
1.40400
  20
0.76000
  30
0.00000
  42
-0.1395
  70
32
  0
VERTEX
  5
6E0
  100
AcDbEntity
  8
Layer 1
  62
0
  100
AcDb2dVertex
  10
1.42050
  20
0.75629
  30
0.00000
  42
-0.2318
  70
32
  0
VERTEX
  5
6E1
  100
AcDbEntity
  8
Layer 1
  62
0
  100
AcDb2dVertex
  10
1.42864
  20
0.74249
  30
0.00000
  70
32
  0
VERTEX
  5
6E2
  100
AcDbEntity
  8
Layer 1
  62
0
  100
AcDb2dVertex
  10
1.42900
  20
0.73700
  30
0.00000
  70
32
  0
SEQEND
  5
6E3
  100
AcDbEntity
  8
Layer 1
  62
0
  0
POLYLINE
  5
6E4
  100
AcDbEntity
  8
Layer 1
  62
0
  100
AcDb2dPolyline
 66
     1
  10
0
  20
0
  30
0
  70
1
  0
VERTEX
  5
6E5
  100
AcDbEntity
  8
Layer 1
  62
0
  100
AcDb2dVertex
  10
2.05200
  20
0.62400
  30
0.00000
  42
-0.3331
  70
32
  0
VERTEX
  5
6E6
  100
AcDbEntity
  8
Layer 1
  62
0
  100
AcDb2dVertex
  10
2.04612
  20
0.61601
  30
0.00000
  42
-0.0968
  70
32
  0
VERTEX
  5
6E7
  100
AcDbEntity
  8
Layer 1
  62
0
  100
AcDb2dVertex
  10
2.02917
  20
0.61382
  30
0.00000
  70
32
  0
VERTEX
  5
6E8
  100
AcDbEntity
  8
Layer 1
  62
0
  100
AcDb2dVertex
  10
2.02400
  20
0.61400
  30
0.00000
  42
0.0914
  70
32
  0
VERTEX
  5
6E9
  100
AcDbEntity
  8
Layer 1
  62
0
  100
AcDb2dVertex
  10
2.01853
  20
0.60748
  30
0.00000
  70
32
  0
VERTEX
  5
6EA
  100
AcDbEntity
  8
Layer 1
  62
0
  100
AcDb2dVertex
  10
2.01750
  20
0.60600
  30
0.00000
  70
32
  0
VERTEX
  5
6EB
  100
AcDbEntity
  8
Layer 1
  62
0
  100
AcDb2dVertex
  10
2.01400
  20
0.60100
  30
0.00000
  42
-0.1747
  70
32
  0
VERTEX
  5
6EC
  100
AcDbEntity
  8
Layer 1
  62
0
  100
AcDb2dVertex
  10
2.00354
  20
0.59082
  30
0.00000
  42
-0.0901
  70
32
  0
VERTEX
  5
6ED
  100
AcDbEntity
  8
Layer 1
  62
0
  100
AcDb2dVertex
  10
1.99900
  20
0.59000
  30
0.00000
  42
-0.1056
  70
32
  0
VERTEX
  5
6EE
  100
AcDbEntity
  8
Layer 1
  62
0
  100
AcDb2dVertex
  10
1.97500
  20
0.59700
  30
0.00000
  70
32
  0
VERTEX
  5
6EF
  100
AcDbEntity
  8
Layer 1
  62
0
  100
AcDb2dVertex
  10
1.97350
  20
0.59754
  30
0.00000
  70
32
  0
VERTEX
  5
6F0
  100
AcDbEntity
  8
Layer 1
  62
0
  100
AcDb2dVertex
  10
1.96020
  20
0.60217
  30
0.00000
  42
0.0698
  70
32
  0
VERTEX
  5
6F1
  100
AcDbEntity
  8
Layer 1
  62
0
  100
AcDb2dVertex
  10
1.95100
  20
0.60400
  30
0.00000
  42
0.1038
  70
32
  0
VERTEX
  5
6F2
  100
AcDbEntity
  8
Layer 1
  62
0
  100
AcDb2dVertex
  10
1.93886
  20
0.60005
  30
0.00000
  42
0.0218
  70
32
  0
VERTEX
  5
6F3
  100
AcDbEntity
  8
Layer 1
  62
0
  100
AcDb2dVertex
  10
1.91600
  20
0.58700
  30
0.00000
  42
-0.1082
  70
32
  0
VERTEX
  5
6F4
  100
AcDbEntity
  8
Layer 1
  62
0
  100
AcDb2dVertex
  10
1.87181
  20
0.57059
  30
0.00000
  42
-0.0297
  70
32
  0
VERTEX
  5
6F5
  100
AcDbEntity
  8
Layer 1
  62
0
  100
AcDb2dVertex
  10
1.86200
  20
0.57000
  30
0.00000
  42
-0.1082
  70
32
  0
VERTEX
  5
6F6
  100
AcDbEntity
  8
Layer 1
  62
0
  100
AcDb2dVertex
  10
1.82600
  20
0.57700
  30
0.00000
  42
0.1837
  70
32
  0
VERTEX
  5
6F7
  100
AcDbEntity
  8
Layer 1
  62
0
  100
AcDb2dVertex
  10
1.81574
  20
0.57099
  30
0.00000
  42
0.1537
  70
32
  0
VERTEX
  5
6F8
  100
AcDbEntity
  8
Layer 1
  62
0
  100
AcDb2dVertex
  10
1.81400
  20
0.56500
  30
0.00000
  42
0.1503
  70
32
  0
VERTEX
  5
6F9
  100
AcDbEntity
  8
Layer 1
  62
0
  100
AcDb2dVertex
  10
1.81759
  20
0.55807
  30
0.00000
  42
0.0272
  70
32
  0
VERTEX
  5
6FA
  100
AcDbEntity
  8
Layer 1
  62
0
  100
AcDb2dVertex
  10
1.82500
  20
0.55000
  30
0.00000
  42
-0.1229
  70
32
  0
VERTEX
  5
6FB
  100
AcDbEntity
  8
Layer 1
  62
0
  100
AcDb2dVertex
  10
1.83668
  20
0.53505
  30
0.00000
  70
32
  0
VERTEX
  5
6FC
  100
AcDbEntity
  8
Layer 1
  62
0
  100
AcDb2dVertex
  10
1.83700
  20
0.53400
  30
0.00000
  42
-0.3073
  70
32
  0
VERTEX
  5
6FD
  100
AcDbEntity
  8
Layer 1
  62
0
  100
AcDb2dVertex
  10
1.83132
  20
0.52378
  30
0.00000
  42
-0.1149
  70
32
  0
VERTEX
  5
6FE
  100
AcDbEntity
  8
Layer 1
  62
0
  100
AcDb2dVertex
  10
1.82200
  20
0.52200
  30
0.00000
  42
0.0802
  70
32
  0
VERTEX
  5
6FF
  100
AcDbEntity
  8
Layer 1
  62
0
  100
AcDb2dVertex
  10
1.80618
  20
0.52029
  30
0.00000
  42
0.1033
  70
32
  0
VERTEX
  5
700
  100
AcDbEntity
  8
Layer 1
  62
0
  100
AcDb2dVertex
  10
1.80400
  20
0.51900
  30
0.00000
  70
32
  0
VERTEX
  5
701
  100
AcDbEntity
  8
Layer 1
  62
0
  100
AcDb2dVertex
  10
1.80200
  20
0.51000
  30
0.00000
  42
0.1986
  70
32
  0
VERTEX
  5
702
  100
AcDbEntity
  8
Layer 1
  62
0
  100
AcDb2dVertex
  10
1.80720
  20
0.49983
  30
0.00000
  42
0.0419
  70
32
  0
VERTEX
  5
703
  100
AcDbEntity
  8
Layer 1
  62
0
  100
AcDb2dVertex
  10
1.81300
  20
0.49500
  30
0.00000
  42
-0.1326
  70
32
  0
VERTEX
  5
704
  100
AcDbEntity
  8
Layer 1
  62
0
  100
AcDb2dVertex
  10
1.82523
  20
0.48397
  30
0.00000
  70
32
  0
VERTEX
  5
705
  100
AcDbEntity
  8
Layer 1
  62
0
  100
AcDb2dVertex
  10
1.82600
  20
0.48200
  30
0.00000
  70
32
  0
VERTEX
  5
706
  100
AcDbEntity
  8
Layer 1
  62
0
  100
AcDb2dVertex
  10
1.81400
  20
0.46500
  30
0.00000
  42
-0.0319
  70
32
  0
VERTEX
  5
707
  100
AcDbEntity
  8
Layer 1
  62
0
  100
AcDb2dVertex
  10
1.79700
  20
0.46900
  30
0.00000
  42
0.1937
  70
32
  0
VERTEX
  5
708
  100
AcDbEntity
  8
Layer 1
  62
0
  100
AcDb2dVertex
  10
1.78662
  20
0.46580
  30
0.00000
  42
0.2096
  70
32
  0
VERTEX
  5
709
  100
AcDbEntity
  8
Layer 1
  62
0
  100
AcDb2dVertex
  10
1.78400
  20
0.45900
  30
0.00000
  70
32
  0
VERTEX
  5
70A
  100
AcDbEntity
  8
Layer 1
  62
0
  100
AcDb2dVertex
  10
1.78600
  20
0.45200
  30
0.00000
  70
32
  0
VERTEX
  5
70B
  100
AcDbEntity
  8
Layer 1
  62
0
  100
AcDb2dVertex
  10
1.80400
  20
0.42500
  30
0.00000
  70
32
  0
VERTEX
  5
70C
  100
AcDbEntity
  8
Layer 1
  62
0
  100
AcDb2dVertex
  10
1.78900
  20
0.41400
  30
0.00000
  70
32
  0
VERTEX
  5
70D
  100
AcDbEntity
  8
Layer 1
  62
0
  100
AcDb2dVertex
  10
1.76900
  20
0.42000
  30
0.00000
  42
0.2779
  70
32
  0
VERTEX
  5
70E
  100
AcDbEntity
  8
Layer 1
  62
0
  100
AcDb2dVertex
  10
1.76060
  20
0.41606
  30
0.00000
  42
0.1360
  70
32
  0
VERTEX
  5
70F
  100
AcDbEntity
  8
Layer 1
  62
0
  100
AcDb2dVertex
  10
1.75900
  20
0.40900
  30
0.00000
  42
0.1472
  70
32
  0
VERTEX
  5
710
  100
AcDbEntity
  8
Layer 1
  62
0
  100
AcDb2dVertex
  10
1.76220
  20
0.39514
  30
0.00000
  42
0.2011
  70
32
  0
VERTEX
  5
711
  100
AcDbEntity
  8
Layer 1
  62
0
  100
AcDb2dVertex
  10
1.77200
  20
0.38900
  30
0.00000
  70
32
  0
VERTEX
  5
712
  100
AcDbEntity
  8
Layer 1
  62
0
  100
AcDb2dVertex
  10
1.77200
  20
0.38000
  30
0.00000
  42
-0.1578
  70
32
  0
VERTEX
  5
713
  100
AcDbEntity
  8
Layer 1
  62
0
  100
AcDb2dVertex
  10
1.76914
  20
0.36822
  30
0.00000
  42
-0.2468
  70
32
  0
VERTEX
  5
714
  100
AcDbEntity
  8
Layer 1
  62
0
  100
AcDb2dVertex
  10
1.75925
  20
0.36400
  30
0.00000
  70
32
  0
VERTEX
  5
715
  100
AcDbEntity
  8
Layer 1
  62
0
  100
AcDb2dVertex
  10
1.75900
  20
0.36400
  30
0.00000
  42
-0.1473
  70
32
  0
VERTEX
  5
716
  100
AcDbEntity
  8
Layer 1
  62
0
  100
AcDb2dVertex
  10
1.74941
  20
0.36817
  30
0.00000
  70
32
  0
VERTEX
  5
717
  100
AcDbEntity
  8
Layer 1
  62
0
  100
AcDb2dVertex
  10
1.74700
  20
0.37000
  30
0.00000
  42
0.1779
  70
32
  0
VERTEX
  5
718
  100
AcDbEntity
  8
Layer 1
  62
0
  100
AcDb2dVertex
  10
1.73730
  20
0.37688
  30
0.00000
  70
32
  0
VERTEX
  5
719
  100
AcDbEntity
  8
Layer 1
  62
0
  100
AcDb2dVertex
  10
1.73600
  20
0.37700
  30
0.00000
  70
32
  0
VERTEX
  5
71A
  100
AcDbEntity
  8
Layer 1
  62
0
  100
AcDb2dVertex
  10
1.72700
  20
0.36900
  30
0.00000
  70
32
  0
VERTEX
  5
71B
  100
AcDbEntity
  8
Layer 1
  62
0
  100
AcDb2dVertex
  10
1.73700
  20
0.33700
  30
0.00000
  42
-0.2508
  70
32
  0
VERTEX
  5
71C
  100
AcDbEntity
  8
Layer 1
  62
0
  100
AcDb2dVertex
  10
1.73206
  20
0.32560
  30
0.00000
  42
-0.1499
  70
32
  0
VERTEX
  5
71D
  100
AcDbEntity
  8
Layer 1
  62
0
  100
AcDb2dVertex
  10
1.71877
  20
0.32203
  30
0.00000
  70
32
  0
VERTEX
  5
71E
  100
AcDbEntity
  8
Layer 1
  62
0
  100
AcDb2dVertex
  10
1.71700
  20
0.32200
  30
0.00000
  42
-0.2071
  70
32
  0
VERTEX
  5
71F
  100
AcDbEntity
  8
Layer 1
  62
0
  100
AcDb2dVertex
  10
1.70200
  20
0.32900
  30
0.00000
  42
0.1403
  70
32
  0
VERTEX
  5
720
  100
AcDbEntity
  8
Layer 1
  62
0
  100
AcDb2dVertex
  10
1.69257
  20
0.33676
  30
0.00000
  70
32
  0
VERTEX
  5
721
  100
AcDbEntity
  8
Layer 1
  62
0
  100
AcDb2dVertex
  10
1.69100
  20
0.33700
  30
0.00000
  70
32
  0
VERTEX
  5
722
  100
AcDbEntity
  8
Layer 1
  62
0
  100
AcDb2dVertex
  10
1.67900
  20
0.32200
  30
0.00000
  42
-0.0229
  70
32
  0
VERTEX
  5
723
  100
AcDbEntity
  8
Layer 1
  62
0
  100
AcDb2dVertex
  10
1.68700
  20
0.29500
  30
0.00000
  42
-0.2508
  70
32
  0
VERTEX
  5
724
  100
AcDbEntity
  8
Layer 1
  62
0
  100
AcDb2dVertex
  10
1.68206
  20
0.28360
  30
0.00000
  42
-0.1499
  70
32
  0
VERTEX
  5
725
  100
AcDbEntity
  8
Layer 1
  62
0
  100
AcDb2dVertex
  10
1.66877
  20
0.28003
  30
0.00000
  70
32
  0
VERTEX
  5
726
  100
AcDbEntity
  8
Layer 1
  62
0
  100
AcDb2dVertex
  10
1.66700
  20
0.28000
  30
0.00000
  42
-0.1816
  70
32
  0
VERTEX
  5
727
  100
AcDbEntity
  8
Layer 1
  62
0
  100
AcDb2dVertex
  10
1.65671
  20
0.28509
  30
0.00000
  70
32
  0
VERTEX
  5
728
  100
AcDbEntity
  8
Layer 1
  62
0
  100
AcDb2dVertex
  10
1.65300
  20
0.28900
  30
0.00000
  42
0.1493
  70
32
  0
VERTEX
  5
729
  100
AcDbEntity
  8
Layer 1
  62
0
  100
AcDb2dVertex
  10
1.64220
  20
0.29841
  30
0.00000
  42
0.0856
  70
32
  0
VERTEX
  5
72A
  100
AcDbEntity
  8
Layer 1
  62
0
  100
AcDb2dVertex
  10
1.63900
  20
0.29900
  30
0.00000
  42
0.3119
  70
32
  0
VERTEX
  5
72B
  100
AcDbEntity
  8
Layer 1
  62
0
  100
AcDb2dVertex
  10
1.63413
  20
0.29510
  30
0.00000
  42
0.0859
  70
32
  0
VERTEX
  5
72C
  100
AcDbEntity
  8
Layer 1
  62
0
  100
AcDb2dVertex
  10
1.63129
  20
0.27894
  30
0.00000
  70
32
  0
VERTEX
  5
72D
  100
AcDbEntity
  8
Layer 1
  62
0
  100
AcDb2dVertex
  10
1.63100
  20
0.26700
  30
0.00000
  42
-0.1840
  70
32
  0
VERTEX
  5
72E
  100
AcDbEntity
  8
Layer 1
  62
0
  100
AcDb2dVertex
  10
1.62716
  20
0.25427
  30
0.00000
  42
-0.2208
  70
32
  0
VERTEX
  5
72F
  100
AcDbEntity
  8
Layer 1
  62
0
  100
AcDb2dVertex
  10
1.61600
  20
0.25000
  30
0.00000
  42
-0.2237
  70
32
  0
VERTEX
  5
730
  100
AcDbEntity
  8
Layer 1
  62
0
  100
AcDb2dVertex
  10
1.59481
  20
0.26007
  30
0.00000
  70
32
  0
VERTEX
  5
731
  100
AcDbEntity
  8
Layer 1
  62
0
  100
AcDb2dVertex
  10
1.59400
  20
0.26100
  30
0.00000
  70
32
  0
VERTEX
  5
732
  100
AcDbEntity
  8
Layer 1
  62
0
  100
AcDb2dVertex
  10
1.58987
  20
0.26588
  30
0.00000
  70
32
  0
VERTEX
  5
733
  100
AcDbEntity
  8
Layer 1
  62
0
  100
AcDb2dVertex
  10
1.58597
  20
0.27042
  30
0.00000
  42
0.1455
  70
32
  0
VERTEX
  5
734
  100
AcDbEntity
  8
Layer 1
  62
0
  100
AcDb2dVertex
  10
1.58400
  20
0.27200
  30
0.00000
  42
0.3199
  70
32
  0
VERTEX
  5
735
  100
AcDbEntity
  8
Layer 1
  62
0
  100
AcDb2dVertex
  10
1.57461
  20
0.26533
  30
0.00000
  42
0.1024
  70
32
  0
VERTEX
  5
736
  100
AcDbEntity
  8
Layer 1
  62
0
  100
AcDb2dVertex
  10
1.57200
  20
0.24900
  30
0.00000
  42
-0.1293
  70
32
  0
VERTEX
  5
737
  100
AcDbEntity
  8
Layer 1
  62
0
  100
AcDb2dVertex
  10
1.56748
  20
0.23233
  30
0.00000
  42
-0.2552
  70
32
  0
VERTEX
  5
738
  100
AcDbEntity
  8
Layer 1
  62
0
  100
AcDb2dVertex
  10
1.55328
  20
0.22503
  30
0.00000
  70
32
  0
VERTEX
  5
739
  100
AcDbEntity
  8
Layer 1
  62
0
  100
AcDb2dVertex
  10
1.55200
  20
0.22500
  30
0.00000
  42
-0.1386
  70
32
  0
VERTEX
  5
73A
  100
AcDbEntity
  8
Layer 1
  62
0
  100
AcDb2dVertex
  10
1.54019
  20
0.22966
  30
0.00000
  42
-0.0592
  70
32
  0
VERTEX
  5
73B
  100
AcDbEntity
  8
Layer 1
  62
0
  100
AcDb2dVertex
  10
1.52400
  20
0.24400
  30
0.00000
  42
0.2814
  70
32
  0
VERTEX
  5
73C
  100
AcDbEntity
  8
Layer 1
  62
0
  100
AcDb2dVertex
  10
1.51506
  20
0.23964
  30
0.00000
  42
0.0714
  70
32
  0
VERTEX
  5
73D
  100
AcDbEntity
  8
Layer 1
  62
0
  100
AcDb2dVertex
  10
1.51400
  20
0.23700
  30
0.00000
  42
0.1022
  70
32
  0
VERTEX
  5
73E
  100
AcDbEntity
  8
Layer 1
  62
0
  100
AcDb2dVertex
  10
1.51382
  20
0.22333
  30
0.00000
  70
32
  0
VERTEX
  5
73F
  100
AcDbEntity
  8
Layer 1
  62
0
  100
AcDb2dVertex
  10
1.51400
  20
0.22200
  30
0.00000
  70
32
  0
VERTEX
  5
740
  100
AcDbEntity
  8
Layer 1
  62
0
  100
AcDb2dVertex
  10
1.51560
  20
0.20999
  30
0.00000
  70
32
  0
VERTEX
  5
741
  100
AcDbEntity
  8
Layer 1
  62
0
  100
AcDb2dVertex
  10
1.51600
  20
0.20700
  30
0.00000
  42
-0.2457
  70
32
  0
VERTEX
  5
742
  100
AcDbEntity
  8
Layer 1
  62
0
  100
AcDb2dVertex
  10
1.51096
  20
0.19521
  30
0.00000
  42
-0.1620
  70
32
  0
VERTEX
  5
743
  100
AcDbEntity
  8
Layer 1
  62
0
  100
AcDb2dVertex
  10
1.49900
  20
0.19200
  30
0.00000
  42
-0.2336
  70
32
  0
VERTEX
  5
744
  100
AcDbEntity
  8
Layer 1
  62
0
  100
AcDb2dVertex
  10
1.48100
  20
0.20100
  30
0.00000
  42
0.0763
  70
32
  0
VERTEX
  5
745
  100
AcDbEntity
  8
Layer 1
  62
0
  100
AcDb2dVertex
  10
1.47254
  20
0.20953
  30
0.00000
  70
32
  0
VERTEX
  5
746
  100
AcDbEntity
  8
Layer 1
  62
0
  100
AcDb2dVertex
  10
1.47100
  20
0.21000
  30
0.00000
  42
0.2241
  70
32
  0
VERTEX
  5
747
  100
AcDbEntity
  8
Layer 1
  62
0
  100
AcDb2dVertex
  10
1.46101
  20
0.20630
  30
0.00000
  42
0.1282
  70
32
  0
VERTEX
  5
748
  100
AcDbEntity
  8
Layer 1
  62
0
  100
AcDb2dVertex
  10
1.45900
  20
0.20200
  30
0.00000
  42
0.1022
  70
32
  0
VERTEX
  5
749
  100
AcDbEntity
  8
Layer 1
  62
0
  100
AcDb2dVertex
  10
1.45882
  20
0.18833
  30
0.00000
  70
32
  0
VERTEX
  5
74A
  100
AcDbEntity
  8
Layer 1
  62
0
  100
AcDb2dVertex
  10
1.45900
  20
0.18700
  30
0.00000
  70
32
  0
VERTEX
  5
74B
  100
AcDbEntity
  8
Layer 1
  62
0
  100
AcDb2dVertex
  10
1.46200
  20
0.17400
  30
0.00000
  42
-0.1869
  70
32
  0
VERTEX
  5
74C
  100
AcDbEntity
  8
Layer 1
  62
0
  100
AcDb2dVertex
  10
1.45842
  20
0.16214
  30
0.00000
  42
-0.1880
  70
32
  0
VERTEX
  5
74D
  100
AcDbEntity
  8
Layer 1
  62
0
  100
AcDb2dVertex
  10
1.44702
  20
0.15725
  30
0.00000
  70
32
  0
VERTEX
  5
74E
  100
AcDbEntity
  8
Layer 1
  62
0
  100
AcDb2dVertex
  10
1.44200
  20
0.15700
  30
0.00000
  42
-0.1487
  70
32
  0
VERTEX
  5
74F
  100
AcDbEntity
  8
Layer 1
  62
0
  100
AcDb2dVertex
  10
1.43218
  20
0.16113
  30
0.00000
  70
32
  0
VERTEX
  5
750
  100
AcDbEntity
  8
Layer 1
  62
0
  100
AcDb2dVertex
  10
1.42600
  20
0.16600
  30
0.00000
  42
0.0936
  70
32
  0
VERTEX
  5
751
  100
AcDbEntity
  8
Layer 1
  62
0
  100
AcDb2dVertex
  10
1.41540
  20
0.17430
  30
0.00000
  42
0.0973
  70
32
  0
VERTEX
  5
752
  100
AcDbEntity
  8
Layer 1
  62
0
  100
AcDb2dVertex
  10
1.41200
  20
0.17500
  30
0.00000
  42
0.2190
  70
32
  0
VERTEX
  5
753
  100
AcDbEntity
  8
Layer 1
  62
0
  100
AcDb2dVertex
  10
1.40243
  20
0.16588
  30
0.00000
  42
0.1158
  70
32
  0
VERTEX
  5
754
  100
AcDbEntity
  8
Layer 1
  62
0
  100
AcDb2dVertex
  10
1.40200
  20
0.16000
  30
0.00000
  70
32
  0
VERTEX
  5
755
  100
AcDbEntity
  8
Layer 1
  62
0
  100
AcDb2dVertex
  10
1.41100
  20
0.13700
  30
0.00000
  42
-0.2551
  70
32
  0
VERTEX
  5
756
  100
AcDbEntity
  8
Layer 1
  62
0
  100
AcDb2dVertex
  10
1.40484
  20
0.12357
  30
0.00000
  42
-0.1541
  70
32
  0
VERTEX
  5
757
  100
AcDbEntity
  8
Layer 1
  62
0
  100
AcDb2dVertex
  10
1.39100
  20
0.12000
  30
0.00000
  70
32
  0
VERTEX
  5
758
  100
AcDbEntity
  8
Layer 1
  62
0
  100
AcDb2dVertex
  10
1.36400
  20
0.13400
  30
0.00000
  42
0.1421
  70
32
  0
VERTEX
  5
759
  100
AcDbEntity
  8
Layer 1
  62
0
  100
AcDb2dVertex
  10
1.35434
  20
0.13209
  30
0.00000
  70
32
  0
VERTEX
  5
75A
  100
AcDbEntity
  8
Layer 1
  62
0
  100
AcDb2dVertex
  10
1.35300
  20
0.13100
  30
0.00000
  42
0.1963
  70
32
  0
VERTEX
  5
75B
  100
AcDbEntity
  8
Layer 1
  62
0
  100
AcDb2dVertex
  10
1.35105
  20
0.12458
  30
0.00000
  70
32
  0
VERTEX
  5
75C
  100
AcDbEntity
  8
Layer 1
  62
0
  100
AcDb2dVertex
  10
1.35100
  20
0.12000
  30
0.00000
  70
32
  0
VERTEX
  5
75D
  100
AcDbEntity
  8
Layer 1
  62
0
  100
AcDb2dVertex
  10
1.36200
  20
0.09500
  30
0.00000
  42
-0.3408
  70
32
  0
VERTEX
  5
75E
  100
AcDbEntity
  8
Layer 1
  62
0
  100
AcDb2dVertex
  10
1.34980
  20
0.08033
  30
0.00000
  42
-0.0706
  70
32
  0
VERTEX
  5
75F
  100
AcDbEntity
  8
Layer 1
  62
0
  100
AcDb2dVertex
  10
1.33900
  20
0.07900
  30
0.00000
  42
-0.1737
  70
32
  0
VERTEX
  5
760
  100
AcDbEntity
  8
Layer 1
  62
0
  100
AcDb2dVertex
  10
1.32095
  20
0.08436
  30
0.00000
  42
-0.0844
  70
32
  0
VERTEX
  5
761
  100
AcDbEntity
  8
Layer 1
  62
0
  100
AcDb2dVertex
  10
1.31600
  20
0.09000
  30
0.00000
  42
0.3818
  70
32
  0
VERTEX
  5
762
  100
AcDbEntity
  8
Layer 1
  62
0
  100
AcDb2dVertex
  10
1.30690
  20
0.08287
  30
0.00000
  42
0.0681
  70
32
  0
VERTEX
  5
763
  100
AcDbEntity
  8
Layer 1
  62
0
  100
AcDb2dVertex
  10
1.30600
  20
0.07500
  30
0.00000
  42
0.0747
  70
32
  0
VERTEX
  5
764
  100
AcDbEntity
  8
Layer 1
  62
0
  100
AcDb2dVertex
  10
1.31085
  20
0.05495
  30
0.00000
  70
32
  0
VERTEX
  5
765
  100
AcDbEntity
  8
Layer 1
  62
0
  100
AcDb2dVertex
  10
1.31400
  20
0.04700
  30
0.00000
  42
-0.2903
  70
32
  0
VERTEX
  5
766
  100
AcDbEntity
  8
Layer 1
  62
0
  100
AcDb2dVertex
  10
1.30685
  20
0.03595
  30
0.00000
  42
-0.0879
  70
32
  0
VERTEX
  5
767
  100
AcDbEntity
  8
Layer 1
  62
0
  100
AcDb2dVertex
  10
1.29400
  20
0.03200
  30
0.00000
  42
0.1009
  70
32
  0
VERTEX
  5
768
  100
AcDbEntity
  8
Layer 1
  62
0
  100
AcDb2dVertex
  10
1.26282
  20
0.05096
  30
0.00000
  42
0.0801
  70
32
  0
VERTEX
  5
769
  100
AcDbEntity
  8
Layer 1
  62
0
  100
AcDb2dVertex
  10
1.24400
  20
0.05400
  30
0.00000
  42
0.1892
  70
32
  0
VERTEX
  5
76A
  100
AcDbEntity
  8
Layer 1
  62
0
  100
AcDb2dVertex
  10
1.21108
  20
0.04062
  30
0.00000
  42
0.0868
  70
32
  0
VERTEX
  5
76B
  100
AcDbEntity
  8
Layer 1
  62
0
  100
AcDb2dVertex
  10
1.19100
  20
0.01400
  30
0.00000
  42
-0.1610
  70
32
  0
VERTEX
  5
76C
  100
AcDbEntity
  8
Layer 1
  62
0
  100
AcDb2dVertex
  10
1.18472
  20
0.01746
  30
0.00000
  42
-0.0459
  70
32
  0
VERTEX
  5
76D
  100
AcDbEntity
  8
Layer 1
  62
0
  100
AcDb2dVertex
  10
1.16600
  20
0.03900
  30
0.00000
  70
32
  0
VERTEX
  5
76E
  100
AcDbEntity
  8
Layer 1
  62
0
  100
AcDb2dVertex
  10
1.21100
  20
0.10500
  30
0.00000
  70
32
  0
VERTEX
  5
76F
  100
AcDbEntity
  8
Layer 1
  62
0
  100
AcDb2dVertex
  10
1.16600
  20
0.03900
  30
0.00000
  42
0.0171
  70
32
  0
VERTEX
  5
770
  100
AcDbEntity
  8
Layer 1
  62
0
  100
AcDb2dVertex
  10
1.12700
  20
0.05900
  30
0.00000
  42
0.0731
  70
32
  0
VERTEX
  5
771
  100
AcDbEntity
  8
Layer 1
  62
0
  100
AcDb2dVertex
  10
1.13199
  20
0.07668
  30
0.00000
  70
32
  0
VERTEX
  5
772
  100
AcDbEntity
  8
Layer 1
  62
0
  100
AcDb2dVertex
  10
1.13200
  20
0.07700
  30
0.00000
  42
0.1895
  70
32
  0
VERTEX
  5
773
  100
AcDbEntity
  8
Layer 1
  62
0
  100
AcDb2dVertex
  10
1.12757
  20
0.08554
  30
0.00000
  42
0.0656
  70
32
  0
VERTEX
  5
774
  100
AcDbEntity
  8
Layer 1
  62
0
  100
AcDb2dVertex
  10
1.10757
  20
0.09994
  30
0.00000
  42
0.0126
  70
32
  0
VERTEX
  5
775
  100
AcDbEntity
  8
Layer 1
  62
0
  100
AcDb2dVertex
  10
1.09100
  20
0.10900
  30
0.00000
  70
32
  0
VERTEX
  5
776
  100
AcDbEntity
  8
Layer 1
  62
0
  100
AcDb2dVertex
  10
1.08600
  20
0.11900
  30
0.00000
  42
-0.1464
  70
32
  0
VERTEX
  5
777
  100
AcDbEntity
  8
Layer 1
  62
0
  100
AcDb2dVertex
  10
1.08986
  20
0.13523
  30
0.00000
  42
-0.2618
  70
32
  0
VERTEX
  5
778
  100
AcDbEntity
  8
Layer 1
  62
0
  100
AcDb2dVertex
  10
1.10374
  20
0.14200
  30
0.00000
  70
32
  0
VERTEX
  5
779
  100
AcDbEntity
  8
Layer 1
  62
0
  100
AcDb2dVertex
  10
1.10400
  20
0.14200
  30
0.00000
  42
-0.1251
  70
32
  0
VERTEX
  5
77A
  100
AcDbEntity
  8
Layer 1
  62
0
  100
AcDb2dVertex
  10
1.11267
  20
0.13818
  30
0.00000
  42
-0.0388
  70
32
  0
VERTEX
  5
77B
  100
AcDbEntity
  8
Layer 1
  62
0
  100
AcDb2dVertex
  10
1.12900
  20
0.12500
  30
0.00000
  42
0.0608
  70
32
  0
VERTEX
  5
77C
  100
AcDbEntity
  8
Layer 1
  62
0
  100
AcDb2dVertex
  10
1.14827
  20
0.11023
  30
0.00000
  42
0.1071
  70
32
  0
VERTEX
  5
77D
  100
AcDbEntity
  8
Layer 1
  62
0
  100
AcDb2dVertex
  10
1.15200
  20
0.10900
  30
0.00000
  70
32
  0
VERTEX
  5
77E
  100
AcDbEntity
  8
Layer 1
  62
0
  100
AcDb2dVertex
  10
1.16400
  20
0.11900
  30
0.00000
  70
32
  0
VERTEX
  5
77F
  100
AcDbEntity
  8
Layer 1
  62
0
  100
AcDb2dVertex
  10
1.15700
  20
0.13000
  30
0.00000
  42
-0.0426
  70
32
  0
VERTEX
  5
780
  100
AcDbEntity
  8
Layer 1
  62
0
  100
AcDb2dVertex
  10
1.12863
  20
0.15658
  30
0.00000
  42
-0.1155
  70
32
  0
VERTEX
  5
781
  100
AcDbEntity
  8
Layer 1
  62
0
  100
AcDb2dVertex
  10
1.12215
  20
0.16756
  30
0.00000
  70
32
  0
VERTEX
  5
782
  100
AcDbEntity
  8
Layer 1
  62
0
  100
AcDb2dVertex
  10
1.12200
  20
0.16900
  30
0.00000
  42
-0.2996
  70
32
  0
VERTEX
  5
783
  100
AcDbEntity
  8
Layer 1
  62
0
  100
AcDb2dVertex
  10
1.13700
  20
0.18700
  30
0.00000
  42
-0.1510
  70
32
  0
VERTEX
  5
784
  100
AcDbEntity
  8
Layer 1
  62
0
  100
AcDb2dVertex
  10
1.14990
  20
0.18188
  30
0.00000
  42
-0.0532
  70
32
  0
VERTEX
  5
785
  100
AcDbEntity
  8
Layer 1
  62
0
  100
AcDb2dVertex
  10
1.16400
  20
0.16900
  30
0.00000
  42
0.0730
  70
32
  0
VERTEX
  5
786
  100
AcDbEntity
  8
Layer 1
  62
0
  100
AcDb2dVertex
  10
1.18104
  20
0.15278
  30
0.00000
  42
0.1394
  70
32
  0
VERTEX
  5
787
  100
AcDbEntity
  8
Layer 1
  62
0
  100
AcDb2dVertex
  10
1.18900
  20
0.15000
  30
0.00000
  70
32
  0
VERTEX
  5
788
  100
AcDbEntity
  8
Layer 1
  62
0
  100
AcDb2dVertex
  10
1.19900
  20
0.16000
  30
0.00000
  42
0.1574
  70
32
  0
VERTEX
  5
789
  100
AcDbEntity
  8
Layer 1
  62
0
  100
AcDb2dVertex
  10
1.18570
  20
0.18202
  30
0.00000
  42
0.0372
  70
32
  0
VERTEX
  5
78A
  100
AcDbEntity
  8
Layer 1
  62
0
  100
AcDb2dVertex
  10
1.17700
  20
0.18900
  30
0.00000
  42
-0.0831
  70
32
  0
VERTEX
  5
78B
  100
AcDbEntity
  8
Layer 1
  62
0
  100
AcDb2dVertex
  10
1.16166
  20
0.20542
  30
0.00000
  42
-0.1336
  70
32
  0
VERTEX
  5
78C
  100
AcDbEntity
  8
Layer 1
  62
0
  100
AcDb2dVertex
  10
1.15900
  20
0.21400
  30
0.00000
  42
-0.1935
  70
32
  0
VERTEX
  5
78D
  100
AcDbEntity
  8
Layer 1
  62
0
  100
AcDb2dVertex
  10
1.16333
  20
0.22207
  30
0.00000
  42
-0.0636
  70
32
  0
VERTEX
  5
78E
  100
AcDbEntity
  8
Layer 1
  62
0
  100
AcDb2dVertex
  10
1.17700
  20
0.23200
  30
0.00000
  70
32
  0
VERTEX
  5
78F
  100
AcDbEntity
  8
Layer 1
  62
0
  100
AcDb2dVertex
  10
1.22700
  20
0.19000
  30
0.00000
  70
32
  0
VERTEX
  5
790
  100
AcDbEntity
  8
Layer 1
  62
0
  100
AcDb2dVertex
  10
1.23600
  20
0.20200
  30
0.00000
  42
0.1275
  70
32
  0
VERTEX
  5
791
  100
AcDbEntity
  8
Layer 1
  62
0
  100
AcDb2dVertex
  10
1.23161
  20
0.21331
  30
0.00000
  42
0.0450
  70
32
  0
VERTEX
  5
792
  100
AcDbEntity
  8
Layer 1
  62
0
  100
AcDb2dVertex
  10
1.22100
  20
0.22700
  30
0.00000
  42
-0.0518
  70
32
  0
VERTEX
  5
793
  100
AcDbEntity
  8
Layer 1
  62
0
  100
AcDb2dVertex
  10
1.20055
  20
0.24916
  30
0.00000
  70
32
  0
VERTEX
  5
794
  100
AcDbEntity
  8
Layer 1
  62
0
  100
AcDb2dVertex
  10
1.19900
  20
0.25200
  30
0.00000
  42
-0.1461
  70
32
  0
VERTEX
  5
795
  100
AcDbEntity
  8
Layer 1
  62
0
  100
AcDb2dVertex
  10
1.20701
  20
0.26864
  30
0.00000
  42
-0.2036
  70
32
  0
VERTEX
  5
796
  100
AcDbEntity
  8
Layer 1
  62
0
  100
AcDb2dVertex
  10
1.22100
  20
0.27400
  30
0.00000
  42
-0.1699
  70
32
  0
VERTEX
  5
797
  100
AcDbEntity
  8
Layer 1
  62
0
  100
AcDb2dVertex
  10
1.22984
  20
0.26966
  30
0.00000
  42
-0.0574
  70
32
  0
VERTEX
  5
798
  100
AcDbEntity
  8
Layer 1
  62
0
  100
AcDb2dVertex
  10
1.24100
  20
0.25700
  30
0.00000
  70
32
  0
VERTEX
  5
799
  100
AcDbEntity
  8
Layer 1
  62
0
  100
AcDb2dVertex
  10
1.25700
  20
0.23400
  30
0.00000
  70
32
  0
VERTEX
  5
79A
  100
AcDbEntity
  8
Layer 1
  62
0
  100
AcDb2dVertex
  10
1.28200
  20
0.22700
  30
0.00000
  70
32
  0
VERTEX
  5
79B
  100
AcDbEntity
  8
Layer 1
  62
0
  100
AcDb2dVertex
  10
1.29400
  20
0.19900
  30
0.00000
  70
32
  0
VERTEX
  5
79C
  100
AcDbEntity
  8
Layer 1
  62
0
  100
AcDb2dVertex
  10
1.28200
  20
0.22700
  30
0.00000
  42
-0.1603
  70
32
  0
VERTEX
  5
79D
  100
AcDbEntity
  8
Layer 1
  62
0
  100
AcDb2dVertex
  10
1.28604
  20
0.23533
  30
0.00000
  42
-0.0561
  70
32
  0
VERTEX
  5
79E
  100
AcDbEntity
  8
Layer 1
  62
0
  100
AcDb2dVertex
  10
1.30200
  20
0.25000
  30
0.00000
  42
0.0186
  70
32
  0
VERTEX
  5
79F
  100
AcDbEntity
  8
Layer 1
  62
0
  100
AcDb2dVertex
  10
1.32900
  20
0.26900
  30
0.00000
  42
-0.2562
  70
32
  0
VERTEX
  5
7A0
  100
AcDbEntity
  8
Layer 1
  62
0
  100
AcDb2dVertex
  10
1.33076
  20
0.27307
  30
0.00000
  42
-0.0668
  70
32
  0
VERTEX
  5
7A1
  100
AcDbEntity
  8
Layer 1
  62
0
  100
AcDb2dVertex
  10
1.34638
  20
0.28434
  30
0.00000
  70
32
  0
VERTEX
  5
7A2
  100
AcDbEntity
  8
Layer 1
  62
0
  100
AcDb2dVertex
  10
1.35100
  20
0.28700
  30
0.00000
  42
-0.0364
  70
32
  0
VERTEX
  5
7A3
  100
AcDbEntity
  8
Layer 1
  62
0
  100
AcDb2dVertex
  10
1.37700
  20
0.30000
  30
0.00000
  70
32
  0
VERTEX
  5
7A4
  100
AcDbEntity
  8
Layer 1
  62
0
  100
AcDb2dVertex
  10
1.39200
  20
0.26900
  30
0.00000
  70
32
  0
VERTEX
  5
7A5
  100
AcDbEntity
  8
Layer 1
  62
0
  100
AcDb2dVertex
  10
1.37700
  20
0.30000
  30
0.00000
  42
-0.0084
  70
32
  0
VERTEX
  5
7A6
  100
AcDbEntity
  8
Layer 1
  62
0
  100
AcDb2dVertex
  10
1.42400
  20
0.32500
  30
0.00000
  70
32
  0
VERTEX
  5
7A7
  100
AcDbEntity
  8
Layer 1
  62
0
  100
AcDb2dVertex
  10
1.43600
  20
0.29200
  30
0.00000
  70
32
  0
VERTEX
  5
7A8
  100
AcDbEntity
  8
Layer 1
  62
0
  100
AcDb2dVertex
  10
1.42400
  20
0.32500
  30
0.00000
  42
-0.1460
  70
32
  0
VERTEX
  5
7A9
  100
AcDbEntity
  8
Layer 1
  62
0
  100
AcDb2dVertex
  10
1.47100
  20
0.35000
  30
0.00000
  70
32
  0
VERTEX
  5
7AA
  100
AcDbEntity
  8
Layer 1
  62
0
  100
AcDb2dVertex
  10
1.48700
  20
0.31500
  30
0.00000
  70
32
  0
VERTEX
  5
7AB
  100
AcDbEntity
  8
Layer 1
  62
0
  100
AcDb2dVertex
  10
1.47100
  20
0.35000
  30
0.00000
  42
-0.1337
  70
32
  0
VERTEX
  5
7AC
  100
AcDbEntity
  8
Layer 1
  62
0
  100
AcDb2dVertex
  10
1.47862
  20
0.35670
  30
0.00000
  42
-0.0255
  70
32
  0
VERTEX
  5
7AD
  100
AcDbEntity
  8
Layer 1
  62
0
  100
AcDb2dVertex
  10
1.49300
  20
0.36400
  30
0.00000
  42
-0.0420
  70
32
  0
VERTEX
  5
7AE
  100
AcDbEntity
  8
Layer 1
  62
0
  100
AcDb2dVertex
  10
1.51686
  20
0.37180
  30
0.00000
  70
32
  0
VERTEX
  5
7AF
  100
AcDbEntity
  8
Layer 1
  62
0
  100
AcDb2dVertex
  10
1.51900
  20
0.37200
  30
0.00000
  70
32
  0
VERTEX
  5
7B0
  100
AcDbEntity
  8
Layer 1
  62
0
  100
AcDb2dVertex
  10
1.53200
  20
0.33900
  30
0.00000
  70
32
  0
VERTEX
  5
7B1
  100
AcDbEntity
  8
Layer 1
  62
0
  100
AcDb2dVertex
  10
1.51900
  20
0.37200
  30
0.00000
  42
-0.1012
  70
32
  0
VERTEX
  5
7B2
  100
AcDbEntity
  8
Layer 1
  62
0
  100
AcDb2dVertex
  10
1.54679
  20
0.38346
  30
0.00000
  42
-0.0345
  70
32
  0
VERTEX
  5
7B3
  100
AcDbEntity
  8
Layer 1
  62
0
  100
AcDb2dVertex
  10
1.57100
  20
0.38700
  30
0.00000
  70
32
  0
VERTEX
  5
7B4
  100
AcDbEntity
  8
Layer 1
  62
0
  100
AcDb2dVertex
  10
1.61400
  20
0.40200
  30
0.00000
  70
32
  0
VERTEX
  5
7B5
  100
AcDbEntity
  8
Layer 1
  62
0
  100
AcDb2dVertex
  10
1.61900
  20
0.40500
  30
0.00000
  70
32
  0
VERTEX
  5
7B6
  100
AcDbEntity
  8
Layer 1
  62
0
  100
AcDb2dVertex
  10
1.63100
  20
0.37400
  30
0.00000
  70
32
  0
VERTEX
  5
7B7
  100
AcDbEntity
  8
Layer 1
  62
0
  100
AcDb2dVertex
  10
1.61900
  20
0.40500
  30
0.00000
  42
-0.0381
  70
32
  0
VERTEX
  5
7B8
  100
AcDbEntity
  8
Layer 1
  62
0
  100
AcDb2dVertex
  10
1.66400
  20
0.43200
  30
0.00000
  70
32
  0
VERTEX
  5
7B9
  100
AcDbEntity
  8
Layer 1
  62
0
  100
AcDb2dVertex
  10
1.67600
  20
0.40500
  30
0.00000
  70
32
  0
VERTEX
  5
7BA
  100
AcDbEntity
  8
Layer 1
  62
0
  100
AcDb2dVertex
  10
1.66400
  20
0.43200
  30
0.00000
  70
32
  0
VERTEX
  5
7BB
  100
AcDbEntity
  8
Layer 1
  62
0
  100
AcDb2dVertex
  10
1.70400
  20
0.46900
  30
0.00000
  70
32
  0
VERTEX
  5
7BC
  100
AcDbEntity
  8
Layer 1
  62
0
  100
AcDb2dVertex
  10
1.71700
  20
0.44700
  30
0.00000
  70
32
  0
VERTEX
  5
7BD
  100
AcDbEntity
  8
Layer 1
  62
0
  100
AcDb2dVertex
  10
1.70400
  20
0.46900
  30
0.00000
  70
32
  0
VERTEX
  5
7BE
  100
AcDbEntity
  8
Layer 1
  62
0
  100
AcDb2dVertex
  10
1.73200
  20
0.52500
  30
0.00000
  70
32
  0
VERTEX
  5
7BF
  100
AcDbEntity
  8
Layer 1
  62
0
  100
AcDb2dVertex
  10
1.74900
  20
0.50000
  30
0.00000
  70
32
  0
VERTEX
  5
7C0
  100
AcDbEntity
  8
Layer 1
  62
0
  100
AcDb2dVertex
  10
1.73200
  20
0.52500
  30
0.00000
  70
32
  0
VERTEX
  5
7C1
  100
AcDbEntity
  8
Layer 1
  62
0
  100
AcDb2dVertex
  10
1.73875
  20
0.55937
  30
0.00000
  70
32
  0
VERTEX
  5
7C2
  100
AcDbEntity
  8
Layer 1
  62
0
  100
AcDb2dVertex
  10
1.74044
  20
0.56733
  30
0.00000
  70
32
  0
VERTEX
  5
7C3
  100
AcDbEntity
  8
Layer 1
  62
0
  100
AcDb2dVertex
  10
1.74086
  20
0.56896
  30
0.00000
  70
32
  0
VERTEX
  5
7C4
  100
AcDbEntity
  8
Layer 1
  62
0
  100
AcDb2dVertex
  10
1.74096
  20
0.56918
  30
0.00000
  70
32
  0
VERTEX
  5
7C5
  100
AcDbEntity
  8
Layer 1
  62
0
  100
AcDb2dVertex
  10
1.74100
  20
0.56900
  30
0.00000
  42
0.1962
  70
32
  0
VERTEX
  5
7C6
  100
AcDbEntity
  8
Layer 1
  62
0
  100
AcDb2dVertex
  10
1.73568
  20
0.58469
  30
0.00000
  42
0.1136
  70
32
  0
VERTEX
  5
7C7
  100
AcDbEntity
  8
Layer 1
  62
0
  100
AcDb2dVertex
  10
1.72900
  20
0.58900
  30
0.00000
  42
0.0139
  70
32
  0
VERTEX
  5
7C8
  100
AcDbEntity
  8
Layer 1
  62
0
  100
AcDb2dVertex
  10
1.70600
  20
0.60000
  30
0.00000
  42
-0.2936
  70
32
  0
VERTEX
  5
7C9
  100
AcDbEntity
  8
Layer 1
  62
0
  100
AcDb2dVertex
  10
1.71628
  20
0.61612
  30
0.00000
  42
-0.0611
  70
32
  0
VERTEX
  5
7CA
  100
AcDbEntity
  8
Layer 1
  62
0
  100
AcDb2dVertex
  10
1.72400
  20
0.61900
  30
0.00000
  42
0.0661
  70
32
  0
VERTEX
  5
7CB
  100
AcDbEntity
  8
Layer 1
  62
0
  100
AcDb2dVertex
  10
1.73970
  20
0.62574
  30
0.00000
  42
0.2372
  70
32
  0
VERTEX
  5
7CC
  100
AcDbEntity
  8
Layer 1
  62
0
  100
AcDb2dVertex
  10
1.74200
  20
0.62900
  30
0.00000
  42
0.2627
  70
32
  0
VERTEX
  5
7CD
  100
AcDbEntity
  8
Layer 1
  62
0
  100
AcDb2dVertex
  10
1.73862
  20
0.63316
  30
0.00000
  42
0.0785
  70
32
  0
VERTEX
  5
7CE
  100
AcDbEntity
  8
Layer 1
  62
0
  100
AcDb2dVertex
  10
1.72700
  20
0.63700
  30
0.00000
  70
32
  0
VERTEX
  5
7CF
  100
AcDbEntity
  8
Layer 1
  62
0
  100
AcDb2dVertex
  10
1.72361
  20
0.63832
  30
0.00000
  42
-0.0428
  70
32
  0
VERTEX
  5
7D0
  100
AcDbEntity
  8
Layer 1
  62
0
  100
AcDb2dVertex
  10
1.71100
  20
0.64400
  30
0.00000
  70
32
  0
VERTEX
  5
7D1
  100
AcDbEntity
  8
Layer 1
  62
0
  100
AcDb2dVertex
  10
1.70700
  20
0.65200
  30
0.00000
  42
-0.2541
  70
32
  0
VERTEX
  5
7D2
  100
AcDbEntity
  8
Layer 1
  62
0
  100
AcDb2dVertex
  10
1.71371
  20
0.66227
  30
0.00000
  70
32
  0
VERTEX
  5
7D3
  100
AcDbEntity
  8
Layer 1
  62
0
  100
AcDb2dVertex
  10
1.71700
  20
0.66400
  30
0.00000
  70
32
  0
VERTEX
  5
7D4
  100
AcDbEntity
  8
Layer 1
  62
0
  100
AcDb2dVertex
  10
1.72600
  20
0.67000
  30
0.00000
  70
32
  0
VERTEX
  5
7D5
  100
AcDbEntity
  8
Layer 1
  62
0
  100
AcDb2dVertex
  10
1.72700
  20
0.67500
  30
0.00000
  42
0.2562
  70
32
  0
VERTEX
  5
7D6
  100
AcDbEntity
  8
Layer 1
  62
0
  100
AcDb2dVertex
  10
1.72238
  20
0.68243
  30
0.00000
  70
32
  0
VERTEX
  5
7D7
  100
AcDbEntity
  8
Layer 1
  62
0
  100
AcDb2dVertex
  10
1.71800
  20
0.68500
  30
0.00000
  70
32
  0
VERTEX
  5
7D8
  100
AcDbEntity
  8
Layer 1
  62
0
  100
AcDb2dVertex
  10
1.71691
  20
0.68573
  30
0.00000
  70
32
  0
VERTEX
  5
7D9
  100
AcDbEntity
  8
Layer 1
  62
0
  100
AcDb2dVertex
  10
1.71098
  20
0.68983
  30
0.00000
  42
-0.1739
  70
32
  0
VERTEX
  5
7DA
  100
AcDbEntity
  8
Layer 1
  62
0
  100
AcDb2dVertex
  10
1.70900
  20
0.69200
  30
0.00000
  70
32
  0
VERTEX
  5
7DB
  100
AcDbEntity
  8
Layer 1
  62
0
  100
AcDb2dVertex
  10
1.70700
  20
0.69700
  30
0.00000
  42
-0.1333
  70
32
  0
VERTEX
  5
7DC
  100
AcDbEntity
  8
Layer 1
  62
0
  100
AcDb2dVertex
  10
1.71116
  20
0.70768
  30
0.00000
  42
-0.0443
  70
32
  0
VERTEX
  5
7DD
  100
AcDbEntity
  8
Layer 1
  62
0
  100
AcDb2dVertex
  10
1.73255
  20
0.73346
  30
0.00000
  70
32
  0
VERTEX
  5
7DE
  100
AcDbEntity
  8
Layer 1
  62
0
  100
AcDb2dVertex
  10
1.73400
  20
0.73500
  30
0.00000
  42
-0.0673
  70
32
  0
VERTEX
  5
7DF
  100
AcDbEntity
  8
Layer 1
  62
0
  100
AcDb2dVertex
  10
1.76127
  20
0.75819
  30
0.00000
  42
-0.1332
  70
32
  0
VERTEX
  5
7E0
  100
AcDbEntity
  8
Layer 1
  62
0
  100
AcDb2dVertex
  10
1.77900
  20
0.76400
  30
0.00000
  42
-0.0407
  70
32
  0
VERTEX
  5
7E1
  100
AcDbEntity
  8
Layer 1
  62
0
  100
AcDb2dVertex
  10
1.80200
  20
0.76100
  30
0.00000
  42
0.0504
  70
32
  0
VERTEX
  5
7E2
  100
AcDbEntity
  8
Layer 1
  62
0
  100
AcDb2dVertex
  10
1.82100
  20
0.75900
  30
0.00000
  70
32
  0
VERTEX
  5
7E3
  100
AcDbEntity
  8
Layer 1
  62
0
  100
AcDb2dVertex
  10
1.83900
  20
0.75700
  30
0.00000
  42
-0.0592
  70
32
  0
VERTEX
  5
7E4
  100
AcDbEntity
  8
Layer 1
  62
0
  100
AcDb2dVertex
  10
1.88950
  20
0.74300
  30
0.00000
  42
-0.0341
  70
32
  0
VERTEX
  5
7E5
  100
AcDbEntity
  8
Layer 1
  62
0
  100
AcDb2dVertex
  10
1.96400
  20
0.70700
  30
0.00000
  42
-0.0444
  70
32
  0
VERTEX
  5
7E6
  100
AcDbEntity
  8
Layer 1
  62
0
  100
AcDb2dVertex
  10
2.01968
  20
0.67122
  30
0.00000
  42
-0.0771
  70
32
  0
VERTEX
  5
7E7
  100
AcDbEntity
  8
Layer 1
  62
0
  100
AcDb2dVertex
  10
2.04475
  20
0.64511
  30
0.00000
  42
-0.1460
  70
32
  0
VERTEX
  5
7E8
  100
AcDbEntity
  8
Layer 1
  62
0
  100
AcDb2dVertex
  10
2.05200
  20
0.62400
  30
0.00000
  70
32
  0
SEQEND
  5
7E9
  100
AcDbEntity
  8
Layer 1
  62
0
  0
POLYLINE
  5
7EA
  100
AcDbEntity
  8
Layer 1
  62
0
  100
AcDb2dPolyline
 66
     1
  10
0
  20
0
  30
0
  70
1
  0
VERTEX
  5
7EB
  100
AcDbEntity
  8
Layer 1
  62
0
  100
AcDb2dVertex
  10
2.03100
  20
0.02700
  30
0.00000
  42
-0.2478
  70
32
  0
VERTEX
  5
7EC
  100
AcDbEntity
  8
Layer 1
  62
0
  100
AcDb2dVertex
  10
2.02390
  20
0.01433
  30
0.00000
  42
-0.0985
  70
32
  0
VERTEX
  5
7ED
  100
AcDbEntity
  8
Layer 1
  62
0
  100
AcDb2dVertex
  10
2.00340
  20
0.00585
  30
0.00000
  42
-0.0482
  70
32
  0
VERTEX
  5
7EE
  100
AcDbEntity
  8
Layer 1
  62
0
  100
AcDb2dVertex
  10
1.95581
  20
0.00038
  30
0.00000
  42
-0.0093
  70
32
  0
VERTEX
  5
7EF
  100
AcDbEntity
  8
Layer 1
  62
0
  100
AcDb2dVertex
  10
1.93400
  20
0.00000
  30
0.00000
  70
32
  0
VERTEX
  5
7F0
  100
AcDbEntity
  8
Layer 1
  62
0
  100
AcDb2dVertex
  10
1.86600
  20
0.00000
  30
0.00000
  42
-0.0498
  70
32
  0
VERTEX
  5
7F1
  100
AcDbEntity
  8
Layer 1
  62
0
  100
AcDb2dVertex
  10
1.73200
  20
0.01400
  30
0.00000
  42
-0.0520
  70
32
  0
VERTEX
  5
7F2
  100
AcDbEntity
  8
Layer 1
  62
0
  100
AcDb2dVertex
  10
1.67637
  20
0.03062
  30
0.00000
  42
-0.0911
  70
32
  0
VERTEX
  5
7F3
  100
AcDbEntity
  8
Layer 1
  62
0
  100
AcDb2dVertex
  10
1.64856
  20
0.04838
  30
0.00000
  42
-0.1886
  70
32
  0
VERTEX
  5
7F4
  100
AcDbEntity
  8
Layer 1
  62
0
  100
AcDb2dVertex
  10
1.63706
  20
0.07198
  30
0.00000
  70
32
  0
VERTEX
  5
7F5
  100
AcDbEntity
  8
Layer 1
  62
0
  100
AcDb2dVertex
  10
1.63700
  20
0.07400
  30
0.00000
  70
32
  0
VERTEX
  5
7F6
  100
AcDbEntity
  8
Layer 1
  62
0
  100
AcDb2dVertex
  10
1.63900
  20
0.08900
  30
0.00000
  70
32
  0
VERTEX
  5
7F7
  100
AcDbEntity
  8
Layer 1
  62
0
  100
AcDb2dVertex
  10
1.76900
  20
0.07700
  30
0.00000
  70
32
  0
VERTEX
  5
7F8
  100
AcDbEntity
  8
Layer 1
  62
0
  100
AcDb2dVertex
  10
1.63900
  20
0.08900
  30
0.00000
  70
32
  0
VERTEX
  5
7F9
  100
AcDbEntity
  8
Layer 1
  62
0
  100
AcDb2dVertex
  10
1.63900
  20
0.10500
  30
0.00000
  42
-0.1475
  70
32
  0
VERTEX
  5
7FA
  100
AcDbEntity
  8
Layer 1
  62
0
  100
AcDb2dVertex
  10
1.64366
  20
0.12383
  30
0.00000
  42
-0.2184
  70
32
  0
VERTEX
  5
7FB
  100
AcDbEntity
  8
Layer 1
  62
0
  100
AcDb2dVertex
  10
1.66011
  20
0.13350
  30
0.00000
  42
-0.0389
  70
32
  0
VERTEX
  5
7FC
  100
AcDbEntity
  8
Layer 1
  62
0
  100
AcDb2dVertex
  10
1.66700
  20
0.13400
  30
0.00000
  42
0.0560
  70
32
  0
VERTEX
  5
7FD
  100
AcDbEntity
  8
Layer 1
  62
0
  100
AcDb2dVertex
  10
1.71060
  20
0.11855
  30
0.00000
  42
0.0496
  70
32
  0
VERTEX
  5
7FE
  100
AcDbEntity
  8
Layer 1
  62
0
  100
AcDb2dVertex
  10
1.72400
  20
0.11700
  30
0.00000
  42
0.1533
  70
32
  0
VERTEX
  5
7FF
  100
AcDbEntity
  8
Layer 1
  62
0
  100
AcDb2dVertex
  10
1.75758
  20
0.12813
  30
0.00000
  42
0.0546
  70
32
  0
VERTEX
  5
800
  100
AcDbEntity
  8
Layer 1
  62
0
  100
AcDb2dVertex
  10
1.77700
  20
0.14500
  30
0.00000
  42
-0.0676
  70
32
  0
VERTEX
  5
801
  100
AcDbEntity
  8
Layer 1
  62
0
  100
AcDb2dVertex
  10
1.80211
  20
0.16767
  30
0.00000
  42
-0.1426
  70
32
  0
VERTEX
  5
802
  100
AcDbEntity
  8
Layer 1
  62
0
  100
AcDb2dVertex
  10
1.82100
  20
0.17400
  30
0.00000
  70
32
  0
VERTEX
  5
803
  100
AcDbEntity
  8
Layer 1
  62
0
  100
AcDb2dVertex
  10
1.84400
  20
0.17200
  30
0.00000
  42
-0.1819
  70
32
  0
VERTEX
  5
804
  100
AcDbEntity
  8
Layer 1
  62
0
  100
AcDb2dVertex
  10
1.87696
  20
0.15929
  30
0.00000
  42
-0.1151
  70
32
  0
VERTEX
  5
805
  100
AcDbEntity
  8
Layer 1
  62
0
  100
AcDb2dVertex
  10
1.89459
  20
0.13205
  30
0.00000
  70
32
  0
VERTEX
  5
806
  100
AcDbEntity
  8
Layer 1
  62
0
  100
AcDb2dVertex
  10
1.89500
  20
0.13100
  30
0.00000
  42
0.1109
  70
32
  0
VERTEX
  5
807
  100
AcDbEntity
  8
Layer 1
  62
0
  100
AcDb2dVertex
  10
1.91089
  20
0.10342
  30
0.00000
  42
0.2072
  70
32
  0
VERTEX
  5
808
  100
AcDbEntity
  8
Layer 1
  62
0
  100
AcDb2dVertex
  10
1.93700
  20
0.09200
  30
0.00000
  42
0.0118
  70
32
  0
VERTEX
  5
809
  100
AcDbEntity
  8
Layer 1
  62
0
  100
AcDb2dVertex
  10
1.97400
  20
0.09900
  30
0.00000
  42
-0.1066
  70
32
  0
VERTEX
  5
80A
  100
AcDbEntity
  8
Layer 1
  62
0
  100
AcDb2dVertex
  10
1.99030
  20
0.09042
  30
0.00000
  42
-0.1631
  70
32
  0
VERTEX
  5
80B
  100
AcDbEntity
  8
Layer 1
  62
0
  100
AcDb2dVertex
  10
1.99400
  20
0.08400
  30
0.00000
  70
32
  0
VERTEX
  5
80C
  100
AcDbEntity
  8
Layer 1
  62
0
  100
AcDb2dVertex
  10
1.99400
  20
0.05900
  30
0.00000
  42
0.3396
  70
32
  0
VERTEX
  5
80D
  100
AcDbEntity
  8
Layer 1
  62
0
  100
AcDb2dVertex
  10
2.00600
  20
0.04200
  30
0.00000
  42
-0.1205
  70
32
  0
VERTEX
  5
80E
  100
AcDbEntity
  8
Layer 1
  62
0
  100
AcDb2dVertex
  10
2.02394
  20
0.03857
  30
0.00000
  42
-0.2963
  70
32
  0
VERTEX
  5
80F
  100
AcDbEntity
  8
Layer 1
  62
0
  100
AcDb2dVertex
  10
2.03100
  20
0.02700
  30
0.00000
  70
32
  0
SEQEND
  5
810
  100
AcDbEntity
  8
Layer 1
  62
0
  0
POLYLINE
  5
811
  100
AcDbEntity
  8
Layer 1
  62
0
  100
AcDb2dPolyline
 66
     1
  10
0
  20
0
  30
0
  70
1
  0
VERTEX
  5
812
  100
AcDbEntity
  8
Layer 1
  62
0
  100
AcDb2dVertex
  10
1.71400
  20
0.73700
  30
0.00000
  42
0.1010
  70
32
  0
VERTEX
  5
813
  100
AcDbEntity
  8
Layer 1
  62
0
  100
AcDb2dVertex
  10
1.70310
  20
0.70042
  30
0.00000
  42
0.0287
  70
32
  0
VERTEX
  5
814
  100
AcDbEntity
  8
Layer 1
  62
0
  100
AcDb2dVertex
  10
1.70200
  20
0.68000
  30
0.00000
  42
-0.2648
  70
32
  0
VERTEX
  5
815
  100
AcDbEntity
  8
Layer 1
  62
0
  100
AcDb2dVertex
  10
1.69373
  20
0.66563
  30
0.00000
  42
-0.0895
  70
32
  0
VERTEX
  5
816
  100
AcDbEntity
  8
Layer 1
  62
0
  100
AcDb2dVertex
  10
1.67700
  20
0.65900
  30
0.00000
  70
32
  0
VERTEX
  5
817
  100
AcDbEntity
  8
Layer 1
  62
0
  100
AcDb2dVertex
  10
1.64100
  20
0.67400
  30
0.00000
  70
32
  0
VERTEX
  5
818
  100
AcDbEntity
  8
Layer 1
  62
0
  100
AcDb2dVertex
  10
1.64900
  20
0.70400
  30
0.00000
  70
32
  0
VERTEX
  5
819
  100
AcDbEntity
  8
Layer 1
  62
0
  100
AcDb2dVertex
  10
1.64100
  20
0.67400
  30
0.00000
  42
0.0982
  70
32
  0
VERTEX
  5
81A
  100
AcDbEntity
  8
Layer 1
  62
0
  100
AcDb2dVertex
  10
1.59100
  20
0.68400
  30
0.00000
  42
0.0966
  70
32
  0
VERTEX
  5
81B
  100
AcDbEntity
  8
Layer 1
  62
0
  100
AcDb2dVertex
  10
1.52169
  20
0.67160
  30
0.00000
  42
0.0516
  70
32
  0
VERTEX
  5
81C
  100
AcDbEntity
  8
Layer 1
  62
0
  100
AcDb2dVertex
  10
1.49400
  20
0.65700
  30
0.00000
  42
0.1049
  70
32
  0
VERTEX
  5
81D
  100
AcDbEntity
  8
Layer 1
  62
0
  100
AcDb2dVertex
  10
1.48919
  20
0.65060
  30
0.00000
  42
0.0152
  70
32
  0
VERTEX
  5
81E
  100
AcDbEntity
  8
Layer 1
  62
0
  100
AcDb2dVertex
  10
1.48200
  20
0.63700
  30
0.00000
  42
-0.1134
  70
32
  0
VERTEX
  5
81F
  100
AcDbEntity
  8
Layer 1
  62
0
  100
AcDb2dVertex
  10
1.47255
  20
0.62226
  30
0.00000
  42
-0.2313
  70
32
  0
VERTEX
  5
820
  100
AcDbEntity
  8
Layer 1
  62
0
  100
AcDb2dVertex
  10
1.46600
  20
0.62000
  30
0.00000
  70
32
  0
VERTEX
  5
821
  100
AcDbEntity
  8
Layer 1
  62
0
  100
AcDb2dVertex
  10
1.45700
  20
0.62200
  30
0.00000
  42
0.3293
  70
32
  0
VERTEX
  5
822
  100
AcDbEntity
  8
Layer 1
  62
0
  100
AcDb2dVertex
  10
1.45118
  20
0.61883
  30
0.00000
  42
0.1428
  70
32
  0
VERTEX
  5
823
  100
AcDbEntity
  8
Layer 1
  62
0
  100
AcDb2dVertex
  10
1.45100
  20
0.61400
  30
0.00000
  42
0.0785
  70
32
  0
VERTEX
  5
824
  100
AcDbEntity
  8
Layer 1
  62
0
  100
AcDb2dVertex
  10
1.45779
  20
0.60025
  30
0.00000
  42
0.0172
  70
32
  0
VERTEX
  5
825
  100
AcDbEntity
  8
Layer 1
  62
0
  100
AcDb2dVertex
  10
1.46900
  20
0.58400
  30
0.00000
  42
-0.2085
  70
32
  0
VERTEX
  5
826
  100
AcDbEntity
  8
Layer 1
  62
0
  100
AcDb2dVertex
  10
1.46380
  20
0.57413
  30
0.00000
  42
-0.0498
  70
32
  0
VERTEX
  5
827
  100
AcDbEntity
  8
Layer 1
  62
0
  100
AcDb2dVertex
  10
1.45700
  20
0.56900
  30
0.00000
  70
32
  0
VERTEX
  5
828
  100
AcDbEntity
  8
Layer 1
  62
0
  100
AcDb2dVertex
  10
1.45538
  20
0.56761
  30
0.00000
  42
0.0667
  70
32
  0
VERTEX
  5
829
  100
AcDbEntity
  8
Layer 1
  62
0
  100
AcDb2dVertex
  10
1.44509
  20
0.55746
  30
0.00000
  42
0.0783
  70
32
  0
VERTEX
  5
82A
  100
AcDbEntity
  8
Layer 1
  62
0
  100
AcDb2dVertex
  10
1.44400
  20
0.55500
  30
0.00000
  42
0.0515
  70
32
  0
VERTEX
  5
82B
  100
AcDbEntity
  8
Layer 1
  62
0
  100
AcDb2dVertex
  10
1.43101
  20
0.49099
  30
0.00000
  42
0.0278
  70
32
  0
VERTEX
  5
82C
  100
AcDbEntity
  8
Layer 1
  62
0
  100
AcDb2dVertex
  10
1.42700
  20
0.41000
  30
0.00000
  42
-0.2342
  70
32
  0
VERTEX
  5
82D
  100
AcDbEntity
  8
Layer 1
  62
0
  100
AcDb2dVertex
  10
1.42100
  20
0.39700
  30
0.00000
  42
0.0968
  70
32
  0
VERTEX
  5
82E
  100
AcDbEntity
  8
Layer 1
  62
0
  100
AcDb2dVertex
  10
1.40450
  20
0.39468
  30
0.00000
  42
0.3288
  70
32
  0
VERTEX
  5
82F
  100
AcDbEntity
  8
Layer 1
  62
0
  100
AcDb2dVertex
  10
1.39900
  20
0.38700
  30
0.00000
  42
0.2407
  70
32
  0
VERTEX
  5
830
  100
AcDbEntity
  8
Layer 1
  62
0
  100
AcDb2dVertex
  10
1.40320
  20
0.38124
  30
0.00000
  42
0.0841
  70
32
  0
VERTEX
  5
831
  100
AcDbEntity
  8
Layer 1
  62
0
  100
AcDb2dVertex
  10
1.41100
  20
0.37800
  30
0.00000
  42
0.0568
  70
32
  0
VERTEX
  5
832
  100
AcDbEntity
  8
Layer 1
  62
0
  100
AcDb2dVertex
  10
1.43200
  20
0.37200
  30
0.00000
  70
32
  0
VERTEX
  5
833
  100
AcDbEntity
  8
Layer 1
  62
0
  100
AcDb2dVertex
  10
1.43700
  20
0.36200
  30
0.00000
  70
32
  0
VERTEX
  5
834
  100
AcDbEntity
  8
Layer 1
  62
0
  100
AcDb2dVertex
  10
1.43100
  20
0.35700
  30
0.00000
  42
-0.0195
  70
32
  0
VERTEX
  5
835
  100
AcDbEntity
  8
Layer 1
  62
0
  100
AcDb2dVertex
  10
1.41700
  20
0.35900
  30
0.00000
  42
0.0685
  70
32
  0
VERTEX
  5
836
  100
AcDbEntity
  8
Layer 1
  62
0
  100
AcDb2dVertex
  10
1.39856
  20
0.35497
  30
0.00000
  70
32
  0
VERTEX
  5
837
  100
AcDbEntity
  8
Layer 1
  62
0
  100
AcDb2dVertex
  10
1.38100
  20
0.34900
  30
0.00000
  42
-0.0668
  70
32
  0
VERTEX
  5
838
  100
AcDbEntity
  8
Layer 1
  62
0
  100
AcDb2dVertex
  10
1.35041
  20
0.33932
  30
0.00000
  70
32
  0
VERTEX
  5
839
  100
AcDbEntity
  8
Layer 1
  62
0
  100
AcDb2dVertex
  10
1.34600
  20
0.33900
  30
0.00000
  42
-0.0441
  70
32
  0
VERTEX
  5
83A
  100
AcDbEntity
  8
Layer 1
  62
0
  100
AcDb2dVertex
  10
1.29800
  20
0.34400
  30
0.00000
  70
32
  0
VERTEX
  5
83B
  100
AcDbEntity
  8
Layer 1
  62
0
  100
AcDb2dVertex
  10
1.26937
  20
0.34762
  30
0.00000
  42
0.0258
  70
32
  0
VERTEX
  5
83C
  100
AcDbEntity
  8
Layer 1
  62
0
  100
AcDb2dVertex
  10
1.24900
  20
0.34900
  30
0.00000
  42
0.0402
  70
32
  0
VERTEX
  5
83D
  100
AcDbEntity
  8
Layer 1
  62
0
  100
AcDb2dVertex
  10
1.20425
  20
0.34630
  30
0.00000
  42
0.1000
  70
32
  0
VERTEX
  5
83E
  100
AcDbEntity
  8
Layer 1
  62
0
  100
AcDb2dVertex
  10
1.18994
  20
0.34163
  30
0.00000
  42
0.2558
  70
32
  0
VERTEX
  5
83F
  100
AcDbEntity
  8
Layer 1
  62
0
  100
AcDb2dVertex
  10
1.18700
  20
0.33700
  30
0.00000
  42
0.1294
  70
32
  0
VERTEX
  5
840
  100
AcDbEntity
  8
Layer 1
  62
0
  100
AcDb2dVertex
  10
1.19098
  20
0.32633
  30
0.00000
  70
32
  0
VERTEX
  5
841
  100
AcDbEntity
  8
Layer 1
  62
0
  100
AcDb2dVertex
  10
1.19700
  20
0.31700
  30
0.00000
  42
0.0847
  70
32
  0
VERTEX
  5
842
  100
AcDbEntity
  8
Layer 1
  62
0
  100
AcDb2dVertex
  10
1.18320
  20
0.29501
  30
0.00000
  42
0.0825
  70
32
  0
VERTEX
  5
843
  100
AcDbEntity
  8
Layer 1
  62
0
  100
AcDb2dVertex
  10
1.18200
  20
0.28900
  30
0.00000
  70
32
  0
VERTEX
  5
844
  100
AcDbEntity
  8
Layer 1
  62
0
  100
AcDb2dVertex
  10
1.18900
  20
0.27200
  30
0.00000
  70
32
  0
VERTEX
  5
845
  100
AcDbEntity
  8
Layer 1
  62
0
  100
AcDb2dVertex
  10
1.18200
  20
0.26400
  30
0.00000
  42
-0.2582
  70
32
  0
VERTEX
  5
846
  100
AcDbEntity
  8
Layer 1
  62
0
  100
AcDb2dVertex
  10
1.16896
  20
0.27155
  30
0.00000
  42
-0.1021
  70
32
  0
VERTEX
  5
847
  100
AcDbEntity
  8
Layer 1
  62
0
  100
AcDb2dVertex
  10
1.16135
  20
0.29230
  30
0.00000
  42
-0.0317
  70
32
  0
VERTEX
  5
848
  100
AcDbEntity
  8
Layer 1
  62
0
  100
AcDb2dVertex
  10
1.15900
  20
0.31200
  30
0.00000
  70
32
  0
VERTEX
  5
849
  100
AcDbEntity
  8
Layer 1
  62
0
  100
AcDb2dVertex
  10
1.15200
  20
0.31500
  30
0.00000
  70
32
  0
VERTEX
  5
84A
  100
AcDbEntity
  8
Layer 1
  62
0
  100
AcDb2dVertex
  10
1.14050
  20
0.29850
  30
0.00000
  70
32
  0
VERTEX
  5
84B
  100
AcDbEntity
  8
Layer 1
  62
0
  100
AcDb2dVertex
  10
1.12900
  20
0.28200
  30
0.00000
  42
-0.1039
  70
32
  0
VERTEX
  5
84C
  100
AcDbEntity
  8
Layer 1
  62
0
  100
AcDb2dVertex
  10
1.11207
  20
0.26407
  30
0.00000
  42
-0.1436
  70
32
  0
VERTEX
  5
84D
  100
AcDbEntity
  8
Layer 1
  62
0
  100
AcDb2dVertex
  10
1.09900
  20
0.26000
  30
0.00000
  70
32
  0
VERTEX
  5
84E
  100
AcDbEntity
  8
Layer 1
  62
0
  100
AcDb2dVertex
  10
1.08700
  20
0.26700
  30
0.00000
  42
0.0481
  70
32
  0
VERTEX
  5
84F
  100
AcDbEntity
  8
Layer 1
  62
0
  100
AcDb2dVertex
  10
1.10896
  20
0.29960
  30
0.00000
  70
32
  0
VERTEX
  5
850
  100
AcDbEntity
  8
Layer 1
  62
0
  100
AcDb2dVertex
  10
1.11200
  20
0.30500
  30
0.00000
  42
-0.0804
  70
32
  0
VERTEX
  5
851
  100
AcDbEntity
  8
Layer 1
  62
0
  100
AcDb2dVertex
  10
1.12295
  20
0.33318
  30
0.00000
  42
-0.0275
  70
32
  0
VERTEX
  5
852
  100
AcDbEntity
  8
Layer 1
  62
0
  100
AcDb2dVertex
  10
1.13600
  20
0.35400
  30
0.00000
  42
-0.0557
  70
32
  0
VERTEX
  5
853
  100
AcDbEntity
  8
Layer 1
  62
0
  100
AcDb2dVertex
  10
1.17551
  20
0.36911
  30
0.00000
  42
-0.0314
  70
32
  0
VERTEX
  5
854
  100
AcDbEntity
  8
Layer 1
  62
0
  100
AcDb2dVertex
  10
1.26136
  20
0.38638
  30
0.00000
  42
-0.0074
  70
32
  0
VERTEX
  5
855
  100
AcDbEntity
  8
Layer 1
  62
0
  100
AcDb2dVertex
  10
1.30400
  20
0.39200
  30
0.00000
  42
-0.0982
  70
32
  0
VERTEX
  5
856
  100
AcDbEntity
  8
Layer 1
  62
0
  100
AcDb2dVertex
  10
1.32970
  20
0.40420
  30
0.00000
  42
-0.0520
  70
32
  0
VERTEX
  5
857
  100
AcDbEntity
  8
Layer 1
  62
0
  100
AcDb2dVertex
  10
1.33700
  20
0.40500
  30
0.00000
  42
-0.2006
  70
32
  0
VERTEX
  5
858
  100
AcDbEntity
  8
Layer 1
  62
0
  100
AcDb2dVertex
  10
1.35700
  20
0.39700
  30
0.00000
  42
0.3621
  70
32
  0
VERTEX
  5
859
  100
AcDbEntity
  8
Layer 1
  62
0
  100
AcDb2dVertex
  10
1.36364
  20
0.40233
  30
0.00000
  42
0.0952
  70
32
  0
VERTEX
  5
85A
  100
AcDbEntity
  8
Layer 1
  62
0
  100
AcDb2dVertex
  10
1.36438
  20
0.41838
  30
0.00000
  70
32
  0
VERTEX
  5
85B
  100
AcDbEntity
  8
Layer 1
  62
0
  100
AcDb2dVertex
  10
1.36400
  20
0.42200
  30
0.00000
  42
0.1199
  70
32
  0
VERTEX
  5
85C
  100
AcDbEntity
  8
Layer 1
  62
0
  100
AcDb2dVertex
  10
1.38220
  20
0.46902
  30
0.00000
  42
0.0379
  70
32
  0
VERTEX
  5
85D
  100
AcDbEntity
  8
Layer 1
  62
0
  100
AcDb2dVertex
  10
1.38400
  20
0.49400
  30
0.00000
  42
0.0866
  70
32
  0
VERTEX
  5
85E
  100
AcDbEntity
  8
Layer 1
  62
0
  100
AcDb2dVertex
  10
1.37992
  20
0.50894
  30
0.00000
  70
32
  0
VERTEX
  5
85F
  100
AcDbEntity
  8
Layer 1
  62
0
  100
AcDb2dVertex
  10
1.37600
  20
0.51800
  30
0.00000
  42
-0.1027
  70
32
  0
VERTEX
  5
860
  100
AcDbEntity
  8
Layer 1
  62
0
  100
AcDb2dVertex
  10
1.36903
  20
0.54074
  30
0.00000
  70
32
  0
VERTEX
  5
861
  100
AcDbEntity
  8
Layer 1
  62
0
  100
AcDb2dVertex
  10
1.36900
  20
0.54200
  30
0.00000
  42
-0.0214
  70
32
  0
VERTEX
  5
862
  100
AcDbEntity
  8
Layer 1
  62
0
  100
AcDb2dVertex
  10
1.37090
  20
0.55399
  30
0.00000
  70
32
  0
VERTEX
  5
863
  100
AcDbEntity
  8
Layer 1
  62
0
  100
AcDb2dVertex
  10
1.37400
  20
0.57200
  30
0.00000
  42
0.1300
  70
32
  0
VERTEX
  5
864
  100
AcDbEntity
  8
Layer 1
  62
0
  100
AcDb2dVertex
  10
1.37253
  20
0.59846
  30
0.00000
  70
32
  0
VERTEX
  5
865
  100
AcDbEntity
  8
Layer 1
  62
0
  100
AcDb2dVertex
  10
1.37100
  20
0.60200
  30
0.00000
  70
32
  0
VERTEX
  5
866
  100
AcDbEntity
  8
Layer 1
  62
0
  100
AcDb2dVertex
  10
1.37900
  20
0.61400
  30
0.00000
  42
0.1212
  70
32
  0
VERTEX
  5
867
  100
AcDbEntity
  8
Layer 1
  62
0
  100
AcDb2dVertex
  10
1.39068
  20
0.61598
  30
0.00000
  42
0.2942
  70
32
  0
VERTEX
  5
868
  100
AcDbEntity
  8
Layer 1
  62
0
  100
AcDb2dVertex
  10
1.39400
  20
0.62200
  30
0.00000
  70
32
  0
VERTEX
  5
869
  100
AcDbEntity
  8
Layer 1
  62
0
  100
AcDb2dVertex
  10
1.39100
  20
0.62900
  30
0.00000
  70
32
  0
VERTEX
  5
86A
  100
AcDbEntity
  8
Layer 1
  62
0
  100
AcDb2dVertex
  10
1.38600
  20
0.62700
  30
0.00000
  70
32
  0
VERTEX
  5
86B
  100
AcDbEntity
  8
Layer 1
  62
0
  100
AcDb2dVertex
  10
1.37700
  20
0.64000
  30
0.00000
  42
-0.0632
  70
32
  0
VERTEX
  5
86C
  100
AcDbEntity
  8
Layer 1
  62
0
  100
AcDb2dVertex
  10
1.40366
  20
0.68238
  30
0.00000
  70
32
  0
VERTEX
  5
86D
  100
AcDbEntity
  8
Layer 1
  62
0
  100
AcDb2dVertex
  10
1.40900
  20
0.68900
  30
0.00000
  42
0.0453
  70
32
  0
VERTEX
  5
86E
  100
AcDbEntity
  8
Layer 1
  62
0
  100
AcDb2dVertex
  10
1.45453
  20
0.69984
  30
0.00000
  42
0.0198
  70
32
  0
VERTEX
  5
86F
  100
AcDbEntity
  8
Layer 1
  62
0
  100
AcDb2dVertex
  10
1.53600
  20
0.73000
  30
0.00000
  42
-0.0430
  70
32
  0
VERTEX
  5
870
  100
AcDbEntity
  8
Layer 1
  62
0
  100
AcDb2dVertex
  10
1.61571
  20
0.75777
  30
0.00000
  42
-0.0581
  70
32
  0
VERTEX
  5
871
  100
AcDbEntity
  8
Layer 1
  62
0
  100
AcDb2dVertex
  10
1.66200
  20
0.76400
  30
0.00000
  42
-0.0752
  70
32
  0
VERTEX
  5
872
  100
AcDbEntity
  8
Layer 1
  62
0
  100
AcDb2dVertex
  10
1.69421
  20
0.76008
  30
0.00000
  42
-0.1552
  70
32
  0
VERTEX
  5
873
  100
AcDbEntity
  8
Layer 1
  62
0
  100
AcDb2dVertex
  10
1.70986
  20
0.75017
  30
0.00000
  42
-0.1674
  70
32
  0
VERTEX
  5
874
  100
AcDbEntity
  8
Layer 1
  62
0
  100
AcDb2dVertex
  10
1.71400
  20
0.73700
  30
0.00000
  70
32
  0
SEQEND
  5
875
  100
AcDbEntity
  8
Layer 1
  62
0
  0
POLYLINE
  5
876
  100
AcDbEntity
  8
Layer 1
  62
0
  100
AcDb2dPolyline
 66
     1
  10
0
  20
0
  30
0
  70
1
  0
VERTEX
  5
877
  100
AcDbEntity
  8
Layer 1
  62
0
  100
AcDb2dVertex
  10
0.95700
  20
0.97900
  30
0.00000
  42
-0.1800
  70
32
  0
VERTEX
  5
878
  100
AcDbEntity
  8
Layer 1
  62
0
  100
AcDb2dVertex
  10
0.95196
  20
0.96265
  30
0.00000
  42
-0.1933
  70
32
  0
VERTEX
  5
879
  100
AcDbEntity
  8
Layer 1
  62
0
  100
AcDb2dVertex
  10
0.93648
  20
0.95531
  30
0.00000
  70
32
  0
VERTEX
  5
87A
  100
AcDbEntity
  8
Layer 1
  62
0
  100
AcDb2dVertex
  10
0.93100
  20
0.95500
  30
0.00000
  42
-0.0914
  70
32
  0
VERTEX
  5
87B
  100
AcDbEntity
  8
Layer 1
  62
0
  100
AcDb2dVertex
  10
0.91443
  20
0.95935
  30
0.00000
  70
32
  0
VERTEX
  5
87C
  100
AcDbEntity
  8
Layer 1
  62
0
  100
AcDb2dVertex
  10
0.90600
  20
0.96300
  30
0.00000
  42
0.0679
  70
32
  0
VERTEX
  5
87D
  100
AcDbEntity
  8
Layer 1
  62
0
  100
AcDb2dVertex
  10
0.88346
  20
0.96986
  30
0.00000
  70
32
  0
VERTEX
  5
87E
  100
AcDbEntity
  8
Layer 1
  62
0
  100
AcDb2dVertex
  10
0.88100
  20
0.97000
  30
0.00000
  42
0.1279
  70
32
  0
VERTEX
  5
87F
  100
AcDbEntity
  8
Layer 1
  62
0
  100
AcDb2dVertex
  10
0.87795
  20
0.96495
  30
0.00000
  70
32
  0
VERTEX
  5
880
  100
AcDbEntity
  8
Layer 1
  62
0
  100
AcDb2dVertex
  10
0.87297
  20
0.95232
  30
0.00000
  70
32
  0
VERTEX
  5
881
  100
AcDbEntity
  8
Layer 1
  62
0
  100
AcDb2dVertex
  10
0.86900
  20
0.94200
  30
0.00000
  42
-0.1022
  70
32
  0
VERTEX
  5
882
  100
AcDbEntity
  8
Layer 1
  62
0
  100
AcDb2dVertex
  10
0.85828
  20
0.92694
  30
0.00000
  42
-0.1746
  70
32
  0
VERTEX
  5
883
  100
AcDbEntity
  8
Layer 1
  62
0
  100
AcDb2dVertex
  10
0.85100
  20
0.92400
  30
0.00000
  42
-0.1239
  70
32
  0
VERTEX
  5
884
  100
AcDbEntity
  8
Layer 1
  62
0
  100
AcDb2dVertex
  10
0.83315
  20
0.92974
  30
0.00000
  42
-0.0296
  70
32
  0
VERTEX
  5
885
  100
AcDbEntity
  8
Layer 1
  62
0
  100
AcDb2dVertex
  10
0.82500
  20
0.93500
  30
0.00000
  42
-0.0846
  70
32
  0
VERTEX
  5
886
  100
AcDbEntity
  8
Layer 1
  62
0
  100
AcDb2dVertex
  10
0.80925
  20
0.94705
  30
0.00000
  42
-0.1657
  70
32
  0
VERTEX
  5
887
  100
AcDbEntity
  8
Layer 1
  62
0
  100
AcDb2dVertex
  10
0.80700
  20
0.95200
  30
0.00000
  70
32
  0
VERTEX
  5
888
  100
AcDbEntity
  8
Layer 1
  62
0
  100
AcDb2dVertex
  10
0.86400
  20
1.01500
  30
0.00000
  70
32
  0
VERTEX
  5
889
  100
AcDbEntity
  8
Layer 1
  62
0
  100
AcDb2dVertex
  10
0.88100
  20
1.00500
  30
0.00000
  70
32
  0
VERTEX
  5
88A
  100
AcDbEntity
  8
Layer 1
  62
0
  100
AcDb2dVertex
  10
0.86400
  20
1.01500
  30
0.00000
  42
-0.0288
  70
32
  0
VERTEX
  5
88B
  100
AcDbEntity
  8
Layer 1
  62
0
  100
AcDb2dVertex
  10
0.88530
  20
1.08289
  30
0.00000
  70
32
  0
VERTEX
  5
88C
  100
AcDbEntity
  8
Layer 1
  62
0
  100
AcDb2dVertex
  10
0.88700
  20
1.08700
  30
0.00000
  70
32
  0
VERTEX
  5
88D
  100
AcDbEntity
  8
Layer 1
  62
0
  100
AcDb2dVertex
  10
0.89900
  20
1.09400
  30
0.00000
  42
-0.0871
  70
32
  0
VERTEX
  5
88E
  100
AcDbEntity
  8
Layer 1
  62
0
  100
AcDb2dVertex
  10
0.92096
  20
1.08339
  30
0.00000
  70
32
  0
VERTEX
  5
88F
  100
AcDbEntity
  8
Layer 1
  62
0
  100
AcDb2dVertex
  10
0.92300
  20
1.08200
  30
0.00000
  42
-0.0810
  70
32
  0
VERTEX
  5
890
  100
AcDbEntity
  8
Layer 1
  62
0
  100
AcDb2dVertex
  10
0.93663
  20
1.07101
  30
0.00000
  42
-0.1689
  70
32
  0
VERTEX
  5
891
  100
AcDbEntity
  8
Layer 1
  62
0
  100
AcDb2dVertex
  10
0.93900
  20
1.06500
  30
0.00000
  70
32
  0
VERTEX
  5
892
  100
AcDbEntity
  8
Layer 1
  62
0
  100
AcDb2dVertex
  10
0.93600
  20
1.05400
  30
0.00000
  42
0.0396
  70
32
  0
VERTEX
  5
893
  100
AcDbEntity
  8
Layer 1
  62
0
  100
AcDb2dVertex
  10
0.91595
  20
1.02865
  30
0.00000
  42
0.1129
  70
32
  0
VERTEX
  5
894
  100
AcDbEntity
  8
Layer 1
  62
0
  100
AcDb2dVertex
  10
0.91400
  20
1.02400
  30
0.00000
  42
0.1834
  70
32
  0
VERTEX
  5
895
  100
AcDbEntity
  8
Layer 1
  62
0
  100
AcDb2dVertex
  10
0.91807
  20
1.01633
  30
0.00000
  42
0.0658
  70
32
  0
VERTEX
  5
896
  100
AcDbEntity
  8
Layer 1
  62
0
  100
AcDb2dVertex
  10
0.93600
  20
1.00300
  30
0.00000
  42
-0.0750
  70
32
  0
VERTEX
  5
897
  100
AcDbEntity
  8
Layer 1
  62
0
  100
AcDb2dVertex
  10
0.95370
  20
0.98708
  30
0.00000
  42
-0.1569
  70
32
  0
VERTEX
  5
898
  100
AcDbEntity
  8
Layer 1
  62
0
  100
AcDb2dVertex
  10
0.95700
  20
0.97900
  30
0.00000
  70
32
  0
SEQEND
  5
899
  100
AcDbEntity
  8
Layer 1
  62
0
  0
POLYLINE
  5
89A
  100
AcDbEntity
  8
Layer 1
  62
0
  100
AcDb2dPolyline
 66
     1
  10
0
  20
0
  30
0
  70
1
  0
VERTEX
  5
89B
  100
AcDbEntity
  8
Layer 1
  62
0
  100
AcDb2dVertex
  10
0.73900
  20
1.47600
  30
0.00000
  42
-0.2936
  70
32
  0
VERTEX
  5
89C
  100
AcDbEntity
  8
Layer 1
  62
0
  100
AcDb2dVertex
  10
0.72984
  20
1.46142
  30
0.00000
  42
-0.1049
  70
32
  0
VERTEX
  5
89D
  100
AcDbEntity
  8
Layer 1
  62
0
  100
AcDb2dVertex
  10
0.70867
  20
1.45623
  30
0.00000
  42
-0.0267
  70
32
  0
VERTEX
  5
89E
  100
AcDbEntity
  8
Layer 1
  62
0
  100
AcDb2dVertex
  10
0.69400
  20
1.45600
  30
0.00000
  42
-0.0585
  70
32
  0
VERTEX
  5
89F
  100
AcDbEntity
  8
Layer 1
  62
0
  100
AcDb2dVertex
  10
0.65537
  20
1.45985
  30
0.00000
  42
-0.0177
  70
32
  0
VERTEX
  5
8A0
  100
AcDbEntity
  8
Layer 1
  62
0
  100
AcDb2dVertex
  10
0.60900
  20
1.47100
  30
0.00000
  42
0.0331
  70
32
  0
VERTEX
  5
8A1
  100
AcDbEntity
  8
Layer 1
  62
0
  100
AcDb2dVertex
  10
0.54918
  20
1.48549
  30
0.00000
  42
0.0367
  70
32
  0
VERTEX
  5
8A2
  100
AcDbEntity
  8
Layer 1
  62
0
  100
AcDb2dVertex
  10
0.53200
  20
1.48700
  30
0.00000
  42
0.1588
  70
32
  0
VERTEX
  5
8A3
  100
AcDbEntity
  8
Layer 1
  62
0
  100
AcDb2dVertex
  10
0.50961
  20
1.48078
  30
0.00000
  42
0.1910
  70
32
  0
VERTEX
  5
8A4
  100
AcDbEntity
  8
Layer 1
  62
0
  100
AcDb2dVertex
  10
0.49749
  20
1.46065
  30
0.00000
  70
32
  0
VERTEX
  5
8A5
  100
AcDbEntity
  8
Layer 1
  62
0
  100
AcDb2dVertex
  10
0.49700
  20
1.45800
  30
0.00000
  42
-0.1884
  70
32
  0
VERTEX
  5
8A6
  100
AcDbEntity
  8
Layer 1
  62
0
  100
AcDb2dVertex
  10
0.48641
  20
1.43746
  30
0.00000
  42
-0.1503
  70
32
  0
VERTEX
  5
8A7
  100
AcDbEntity
  8
Layer 1
  62
0
  100
AcDb2dVertex
  10
0.46482
  20
1.42939
  30
0.00000
  42
-0.0259
  70
32
  0
VERTEX
  5
8A8
  100
AcDbEntity
  8
Layer 1
  62
0
  100
AcDb2dVertex
  10
0.45700
  20
1.42900
  30
0.00000
  42
0.1631
  70
32
  0
VERTEX
  5
8A9
  100
AcDbEntity
  8
Layer 1
  62
0
  100
AcDb2dVertex
  10
0.42484
  20
1.41757
  30
0.00000
  42
0.0853
  70
32
  0
VERTEX
  5
8AA
  100
AcDbEntity
  8
Layer 1
  62
0
  100
AcDb2dVertex
  10
0.39765
  20
1.38776
  30
0.00000
  42
0.0517
  70
32
  0
VERTEX
  5
8AB
  100
AcDbEntity
  8
Layer 1
  62
0
  100
AcDb2dVertex
  10
0.36806
  20
1.32971
  30
0.00000
  42
0.0154
  70
32
  0
VERTEX
  5
8AC
  100
AcDbEntity
  8
Layer 1
  62
0
  100
AcDb2dVertex
  10
0.35500
  20
1.29400
  30
0.00000
  70
32
  0
VERTEX
  5
8AD
  100
AcDbEntity
  8
Layer 1
  62
0
  100
AcDb2dVertex
  10
0.34700
  20
1.29000
  30
0.00000
  42
-0.3073
  70
32
  0
VERTEX
  5
8AE
  100
AcDbEntity
  8
Layer 1
  62
0
  100
AcDb2dVertex
  10
0.33678
  20
1.29568
  30
0.00000
  42
-0.1149
  70
32
  0
VERTEX
  5
8AF
  100
AcDbEntity
  8
Layer 1
  62
0
  100
AcDb2dVertex
  10
0.33500
  20
1.30500
  30
0.00000
  42
-0.0925
  70
32
  0
VERTEX
  5
8B0
  100
AcDbEntity
  8
Layer 1
  62
0
  100
AcDb2dVertex
  10
0.34302
  20
1.34184
  30
0.00000
  42
-0.0530
  70
32
  0
VERTEX
  5
8B1
  100
AcDbEntity
  8
Layer 1
  62
0
  100
AcDb2dVertex
  10
0.37200
  20
1.39500
  30
0.00000
  42
-0.0573
  70
32
  0
VERTEX
  5
8B2
  100
AcDbEntity
  8
Layer 1
  62
0
  100
AcDb2dVertex
  10
0.41566
  20
1.44963
  30
0.00000
  42
-0.0440
  70
32
  0
VERTEX
  5
8B3
  100
AcDbEntity
  8
Layer 1
  62
0
  100
AcDb2dVertex
  10
0.43700
  20
1.46700
  30
0.00000
  42
-0.1308
  70
32
  0
VERTEX
  5
8B4
  100
AcDbEntity
  8
Layer 1
  62
0
  100
AcDb2dVertex
  10
0.43791
  20
1.46909
  30
0.00000
  70
32
  0
VERTEX
  5
8B5
  100
AcDbEntity
  8
Layer 1
  62
0
  100
AcDb2dVertex
  10
0.43900
  20
1.47100
  30
0.00000
  70
32
  0
VERTEX
  5
8B6
  100
AcDbEntity
  8
Layer 1
  62
0
  100
AcDb2dVertex
  10
0.43900
  20
1.47200
  30
0.00000
  70
32
  0
VERTEX
  5
8B7
  100
AcDbEntity
  8
Layer 1
  62
0
  100
AcDb2dVertex
  10
0.43200
  20
1.47200
  30
0.00000
  42
0.0287
  70
32
  0
VERTEX
  5
8B8
  100
AcDbEntity
  8
Layer 1
  62
0
  100
AcDb2dVertex
  10
0.40515
  20
1.45692
  30
0.00000
  70
32
  0
VERTEX
  5
8B9
  100
AcDbEntity
  8
Layer 1
  62
0
  100
AcDb2dVertex
  10
0.39700
  20
1.45200
  30
0.00000
  42
0.0923
  70
32
  0
VERTEX
  5
8BA
  100
AcDbEntity
  8
Layer 1
  62
0
  100
AcDb2dVertex
  10
0.33548
  20
1.39156
  30
0.00000
  42
0.0419
  70
32
  0
VERTEX
  5
8BB
  100
AcDbEntity
  8
Layer 1
  62
0
  100
AcDb2dVertex
  10
0.30500
  20
1.34000
  30
0.00000
  42
0.0690
  70
32
  0
VERTEX
  5
8BC
  100
AcDbEntity
  8
Layer 1
  62
0
  100
AcDb2dVertex
  10
0.27086
  20
1.23078
  30
0.00000
  42
0.0289
  70
32
  0
VERTEX
  5
8BD
  100
AcDbEntity
  8
Layer 1
  62
0
  100
AcDb2dVertex
  10
0.26700
  20
1.19200
  30
0.00000
  42
-0.1521
  70
32
  0
VERTEX
  5
8BE
  100
AcDbEntity
  8
Layer 1
  62
0
  100
AcDb2dVertex
  10
0.26183
  20
1.18182
  30
0.00000
  42
-0.3387
  70
32
  0
VERTEX
  5
8BF
  100
AcDbEntity
  8
Layer 1
  62
0
  100
AcDb2dVertex
  10
0.25332
  20
1.18160
  30
0.00000
  42
-0.0517
  70
32
  0
VERTEX
  5
8C0
  100
AcDbEntity
  8
Layer 1
  62
0
  100
AcDb2dVertex
  10
0.25000
  20
1.18400
  30
0.00000
  70
32
  0
VERTEX
  5
8C1
  100
AcDbEntity
  8
Layer 1
  62
0
  100
AcDb2dVertex
  10
0.24500
  20
1.18700
  30
0.00000
  42
0.0196
  70
32
  0
VERTEX
  5
8C2
  100
AcDbEntity
  8
Layer 1
  62
0
  100
AcDb2dVertex
  10
0.23500
  20
1.21400
  30
0.00000
  42
0.0285
  70
32
  0
VERTEX
  5
8C3
  100
AcDbEntity
  8
Layer 1
  62
0
  100
AcDb2dVertex
  10
0.22302
  20
1.22931
  30
0.00000
  70
32
  0
VERTEX
  5
8C4
  100
AcDbEntity
  8
Layer 1
  62
0
  100
AcDb2dVertex
  10
0.22000
  20
1.23300
  30
0.00000
  42
-0.0806
  70
32
  0
VERTEX
  5
8C5
  100
AcDbEntity
  8
Layer 1
  62
0
  100
AcDb2dVertex
  10
0.20620
  20
1.25068
  30
0.00000
  42
-0.1043
  70
32
  0
VERTEX
  5
8C6
  100
AcDbEntity
  8
Layer 1
  62
0
  100
AcDb2dVertex
  10
0.20500
  20
1.25500
  30
0.00000
  42
-0.1638
  70
32
  0
VERTEX
  5
8C7
  100
AcDbEntity
  8
Layer 1
  62
0
  100
AcDb2dVertex
  10
0.21005
  20
1.26670
  30
0.00000
  42
-0.0454
  70
32
  0
VERTEX
  5
8C8
  100
AcDbEntity
  8
Layer 1
  62
0
  100
AcDb2dVertex
  10
0.21900
  20
1.27600
  30
0.00000
  70
32
  0
VERTEX
  5
8C9
  100
AcDbEntity
  8
Layer 1
  62
0
  100
AcDb2dVertex
  10
0.22950
  20
1.28662
  30
0.00000
  42
0.0566
  70
32
  0
VERTEX
  5
8CA
  100
AcDbEntity
  8
Layer 1
  62
0
  100
AcDb2dVertex
  10
0.23400
  20
1.29200
  30
0.00000
  42
-0.0123
  70
32
  0
VERTEX
  5
8CB
  100
AcDbEntity
  8
Layer 1
  62
0
  100
AcDb2dVertex
  10
0.28500
  20
1.39900
  30
0.00000
  42
0.0059
  70
32
  0
VERTEX
  5
8CC
  100
AcDbEntity
  8
Layer 1
  62
0
  100
AcDb2dVertex
  10
0.31289
  20
1.43090
  30
0.00000
  70
32
  0
VERTEX
  5
8CD
  100
AcDbEntity
  8
Layer 1
  62
0
  100
AcDb2dVertex
  10
0.35900
  20
1.48400
  30
0.00000
  70
32
  0
VERTEX
  5
8CE
  100
AcDbEntity
  8
Layer 1
  62
0
  100
AcDb2dVertex
  10
0.36500
  20
1.51200
  30
0.00000
  42
0.0760
  70
32
  0
VERTEX
  5
8CF
  100
AcDbEntity
  8
Layer 1
  62
0
  100
AcDb2dVertex
  10
0.36117
  20
1.52593
  30
0.00000
  42
0.0224
  70
32
  0
VERTEX
  5
8D0
  100
AcDbEntity
  8
Layer 1
  62
0
  100
AcDb2dVertex
  10
0.33541
  20
1.58135
  30
0.00000
  70
32
  0
VERTEX
  5
8D1
  100
AcDbEntity
  8
Layer 1
  62
0
  100
AcDb2dVertex
  10
0.32900
  20
1.59400
  30
0.00000
  42
-0.0578
  70
32
  0
VERTEX
  5
8D2
  100
AcDbEntity
  8
Layer 1
  62
0
  100
AcDb2dVertex
  10
0.34426
  20
1.60375
  30
0.00000
  42
-0.0158
  70
32
  0
VERTEX
  5
8D3
  100
AcDbEntity
  8
Layer 1
  62
0
  100
AcDb2dVertex
  10
0.39000
  20
1.62600
  30
0.00000
  70
32
  0
VERTEX
  5
8D4
  100
AcDbEntity
  8
Layer 1
  62
0
  100
AcDb2dVertex
  10
0.42500
  20
1.55700
  30
0.00000
  70
32
  0
VERTEX
  5
8D5
  100
AcDbEntity
  8
Layer 1
  62
0
  100
AcDb2dVertex
  10
0.39000
  20
1.62600
  30
0.00000
  42
-0.0890
  70
32
  0
VERTEX
  5
8D6
  100
AcDbEntity
  8
Layer 1
  62
0
  100
AcDb2dVertex
  10
0.41770
  20
1.64508
  30
0.00000
  42
-0.0826
  70
32
  0
VERTEX
  5
8D7
  100
AcDbEntity
  8
Layer 1
  62
0
  100
AcDb2dVertex
  10
0.43400
  20
1.64900
  30
0.00000
  42
0.1082
  70
32
  0
VERTEX
  5
8D8
  100
AcDbEntity
  8
Layer 1
  62
0
  100
AcDb2dVertex
  10
0.45098
  20
1.62924
  30
0.00000
  42
0.1552
  70
32
  0
VERTEX
  5
8D9
  100
AcDbEntity
  8
Layer 1
  62
0
  100
AcDb2dVertex
  10
0.46700
  20
1.62400
  30
0.00000
  42
0.1133
  70
32
  0
VERTEX
  5
8DA
  100
AcDbEntity
  8
Layer 1
  62
0
  100
AcDb2dVertex
  10
0.48476
  20
1.62891
  30
0.00000
  70
32
  0
VERTEX
  5
8DB
  100
AcDbEntity
  8
Layer 1
  62
0
  100
AcDb2dVertex
  10
0.48700
  20
1.63000
  30
0.00000
  42
-0.0639
  70
32
  0
VERTEX
  5
8DC
  100
AcDbEntity
  8
Layer 1
  62
0
  100
AcDb2dVertex
  10
0.50299
  20
1.63552
  30
0.00000
  70
32
  0
VERTEX
  5
8DD
  100
AcDbEntity
  8
Layer 1
  62
0
  100
AcDb2dVertex
  10
0.50500
  20
1.63600
  30
0.00000
  42
-0.1721
  70
32
  0
VERTEX
  5
8DE
  100
AcDbEntity
  8
Layer 1
  62
0
  100
AcDb2dVertex
  10
0.52032
  20
1.63045
  30
0.00000
  42
-0.1892
  70
32
  0
VERTEX
  5
8DF
  100
AcDbEntity
  8
Layer 1
  62
0
  100
AcDb2dVertex
  10
0.52678
  20
1.61561
  30
0.00000
  70
32
  0
VERTEX
  5
8E0
  100
AcDbEntity
  8
Layer 1
  62
0
  100
AcDb2dVertex
  10
0.52700
  20
1.61100
  30
0.00000
  70
32
  0
VERTEX
  5
8E1
  100
AcDbEntity
  8
Layer 1
  62
0
  100
AcDb2dVertex
  10
0.52500
  20
1.60200
  30
0.00000
  42
-0.0311
  70
32
  0
VERTEX
  5
8E2
  100
AcDbEntity
  8
Layer 1
  62
0
  100
AcDb2dVertex
  10
0.51400
  20
1.59000
  30
0.00000
  42
0.1083
  70
32
  0
VERTEX
  5
8E3
  100
AcDbEntity
  8
Layer 1
  62
0
  100
AcDb2dVertex
  10
0.50304
  20
1.57668
  30
0.00000
  42
0.1005
  70
32
  0
VERTEX
  5
8E4
  100
AcDbEntity
  8
Layer 1
  62
0
  100
AcDb2dVertex
  10
0.50200
  20
1.57200
  30
0.00000
  42
0.2181
  70
32
  0
VERTEX
  5
8E5
  100
AcDbEntity
  8
Layer 1
  62
0
  100
AcDb2dVertex
  10
0.51350
  20
1.54796
  30
0.00000
  42
0.0927
  70
32
  0
VERTEX
  5
8E6
  100
AcDbEntity
  8
Layer 1
  62
0
  100
AcDb2dVertex
  10
0.53400
  20
1.53600
  30
0.00000
  42
0.1291
  70
32
  0
VERTEX
  5
8E7
  100
AcDbEntity
  8
Layer 1
  62
0
  100
AcDb2dVertex
  10
0.58400
  20
1.52200
  30
0.00000
  42
0.0246
  70
32
  0
VERTEX
  5
8E8
  100
AcDbEntity
  8
Layer 1
  62
0
  100
AcDb2dVertex
  10
0.63483
  20
1.52607
  30
0.00000
  70
32
  0
VERTEX
  5
8E9
  100
AcDbEntity
  8
Layer 1
  62
0
  100
AcDb2dVertex
  10
0.64300
  20
1.52700
  30
0.00000
  70
32
  0
VERTEX
  5
8EA
  100
AcDbEntity
  8
Layer 1
  62
0
  100
AcDb2dVertex
  10
0.67675
  20
1.53063
  30
0.00000
  42
-0.0218
  70
32
  0
VERTEX
  5
8EB
  100
AcDbEntity
  8
Layer 1
  62
0
  100
AcDb2dVertex
  10
0.70000
  20
1.53200
  30
0.00000
  42
-0.2997
  70
32
  0
VERTEX
  5
8EC
  100
AcDbEntity
  8
Layer 1
  62
0
  100
AcDb2dVertex
  10
0.71954
  20
1.51991
  30
0.00000
  42
-0.0777
  70
32
  0
VERTEX
  5
8ED
  100
AcDbEntity
  8
Layer 1
  62
0
  100
AcDb2dVertex
  10
0.72400
  20
1.50600
  30
0.00000
  42
-0.0626
  70
32
  0
VERTEX
  5
8EE
  100
AcDbEntity
  8
Layer 1
  62
0
  100
AcDb2dVertex
  10
0.73755
  20
1.48275
  30
0.00000
  42
-0.0858
  70
32
  0
VERTEX
  5
8EF
  100
AcDbEntity
  8
Layer 1
  62
0
  100
AcDb2dVertex
  10
0.73900
  20
1.47600
  30
0.00000
  70
32
  0
SEQEND
  5
8F0
  100
AcDbEntity
  8
Layer 1
  62
0
  0
POLYLINE
  5
8F1
  100
AcDbEntity
  8
Layer 1
  62
0
  100
AcDb2dPolyline
 66
     1
  10
0
  20
0
  30
0
  70
1
  0
VERTEX
  5
8F2
  100
AcDbEntity
  8
Layer 1
  62
0
  100
AcDb2dVertex
  10
0.96700
  20
1.62100
  30
0.00000
  70
32
  0
VERTEX
  5
8F3
  100
AcDbEntity
  8
Layer 1
  62
0
  100
AcDb2dVertex
  10
0.96700
  20
1.57100
  30
0.00000
  42
-0.0319
  70
32
  0
VERTEX
  5
8F4
  100
AcDbEntity
  8
Layer 1
  62
0
  100
AcDb2dVertex
  10
0.96125
  20
1.55313
  30
0.00000
  70
32
  0
VERTEX
  5
8F5
  100
AcDbEntity
  8
Layer 1
  62
0
  100
AcDb2dVertex
  10
0.95100
  20
1.52700
  30
0.00000
  42
0.1205
  70
32
  0
VERTEX
  5
8F6
  100
AcDbEntity
  8
Layer 1
  62
0
  100
AcDb2dVertex
  10
0.95611
  20
1.51170
  30
0.00000
  70
32
  0
VERTEX
  5
8F7
  100
AcDbEntity
  8
Layer 1
  62
0
  100
AcDb2dVertex
  10
0.95900
  20
1.50700
  30
0.00000
  42
-0.0625
  70
32
  0
VERTEX
  5
8F8
  100
AcDbEntity
  8
Layer 1
  62
0
  100
AcDb2dVertex
  10
0.96654
  20
1.49061
  30
0.00000
  42
-0.0584
  70
32
  0
VERTEX
  5
8F9
  100
AcDbEntity
  8
Layer 1
  62
0
  100
AcDb2dVertex
  10
0.96700
  20
1.48700
  30
0.00000
  42
-0.2652
  70
32
  0
VERTEX
  5
8FA
  100
AcDbEntity
  8
Layer 1
  62
0
  100
AcDb2dVertex
  10
0.95828
  20
1.47107
  30
0.00000
  42
-0.0468
  70
32
  0
VERTEX
  5
8FB
  100
AcDbEntity
  8
Layer 1
  62
0
  100
AcDb2dVertex
  10
0.95100
  20
1.46700
  30
0.00000
  42
0.0331
  70
32
  0
VERTEX
  5
8FC
  100
AcDbEntity
  8
Layer 1
  62
0
  100
AcDb2dVertex
  10
0.92500
  20
1.45500
  30
0.00000
  42
0.2082
  70
32
  0
VERTEX
  5
8FD
  100
AcDbEntity
  8
Layer 1
  62
0
  100
AcDb2dVertex
  10
0.91115
  20
1.44087
  30
0.00000
  70
32
  0
VERTEX
  5
8FE
  100
AcDbEntity
  8
Layer 1
  62
0
  100
AcDb2dVertex
  10
0.90900
  20
1.43500
  30
0.00000
  42
-0.1380
  70
32
  0
VERTEX
  5
8FF
  100
AcDbEntity
  8
Layer 1
  62
0
  100
AcDb2dVertex
  10
0.90199
  20
1.42157
  30
0.00000
  42
-0.1904
  70
32
  0
VERTEX
  5
900
  100
AcDbEntity
  8
Layer 1
  62
0
  100
AcDb2dVertex
  10
0.89600
  20
1.41900
  30
0.00000
  42
-0.2629
  70
32
  0
VERTEX
  5
901
  100
AcDbEntity
  8
Layer 1
  62
0
  100
AcDb2dVertex
  10
0.88242
  20
1.42674
  30
0.00000
  70
32
  0
VERTEX
  5
902
  100
AcDbEntity
  8
Layer 1
  62
0
  100
AcDb2dVertex
  10
0.88100
  20
1.42900
  30
0.00000
  70
32
  0
VERTEX
  5
903
  100
AcDbEntity
  8
Layer 1
  62
0
  100
AcDb2dVertex
  10
0.87912
  20
1.43126
  30
0.00000
  70
32
  0
VERTEX
  5
904
  100
AcDbEntity
  8
Layer 1
  62
0
  100
AcDb2dVertex
  10
0.87425
  20
1.43690
  30
0.00000
  42
0.1788
  70
32
  0
VERTEX
  5
905
  100
AcDbEntity
  8
Layer 1
  62
0
  100
AcDb2dVertex
  10
0.87100
  20
1.43900
  30
0.00000
  42
0.3440
  70
32
  0
VERTEX
  5
906
  100
AcDbEntity
  8
Layer 1
  62
0
  100
AcDb2dVertex
  10
0.86284
  20
1.43275
  30
0.00000
  42
0.1097
  70
32
  0
VERTEX
  5
907
  100
AcDbEntity
  8
Layer 1
  62
0
  100
AcDb2dVertex
  10
0.86181
  20
1.41565
  30
0.00000
  70
32
  0
VERTEX
  5
908
  100
AcDbEntity
  8
Layer 1
  62
0
  100
AcDb2dVertex
  10
0.86200
  20
1.41400
  30
0.00000
  42
-0.1988
  70
32
  0
VERTEX
  5
909
  100
AcDbEntity
  8
Layer 1
  62
0
  100
AcDb2dVertex
  10
0.85233
  20
1.40336
  30
0.00000
  42
-0.0837
  70
32
  0
VERTEX
  5
90A
  100
AcDbEntity
  8
Layer 1
  62
0
  100
AcDb2dVertex
  10
0.82776
  20
1.39597
  30
0.00000
  70
32
  0
VERTEX
  5
90B
  100
AcDbEntity
  8
Layer 1
  62
0
  100
AcDb2dVertex
  10
0.82100
  20
1.39500
  30
0.00000
  42
0.0057
  70
32
  0
VERTEX
  5
90C
  100
AcDbEntity
  8
Layer 1
  62
0
  100
AcDb2dVertex
  10
0.69000
  20
1.38500
  30
0.00000
  42
0.0539
  70
32
  0
VERTEX
  5
90D
  100
AcDbEntity
  8
Layer 1
  62
0
  100
AcDb2dVertex
  10
0.62984
  20
1.36957
  30
0.00000
  42
0.0261
  70
32
  0
VERTEX
  5
90E
  100
AcDbEntity
  8
Layer 1
  62
0
  100
AcDb2dVertex
  10
0.56500
  20
1.34200
  30
0.00000
  42
-0.1004
  70
32
  0
VERTEX
  5
90F
  100
AcDbEntity
  8
Layer 1
  62
0
  100
AcDb2dVertex
  10
0.54518
  20
1.35288
  30
0.00000
  42
-0.1042
  70
32
  0
VERTEX
  5
910
  100
AcDbEntity
  8
Layer 1
  62
0
  100
AcDb2dVertex
  10
0.54000
  20
1.36000
  30
0.00000
  70
32
  0
VERTEX
  5
911
  100
AcDbEntity
  8
Layer 1
  62
0
  100
AcDb2dVertex
  10
0.53500
  20
1.36000
  30
0.00000
  42
0.0737
  70
32
  0
VERTEX
  5
912
  100
AcDbEntity
  8
Layer 1
  62
0
  100
AcDb2dVertex
  10
0.53406
  20
1.34983
  30
0.00000
  70
32
  0
VERTEX
  5
913
  100
AcDbEntity
  8
Layer 1
  62
0
  100
AcDb2dVertex
  10
0.53400
  20
1.33700
  30
0.00000
  42
-0.1289
  70
32
  0
VERTEX
  5
914
  100
AcDbEntity
  8
Layer 1
  62
0
  100
AcDb2dVertex
  10
0.53057
  20
1.33126
  30
0.00000
  42
-0.0335
  70
32
  0
VERTEX
  5
915
  100
AcDbEntity
  8
Layer 1
  62
0
  100
AcDb2dVertex
  10
0.50400
  20
1.30500
  30
0.00000
  42
0.0116
  70
32
  0
VERTEX
  5
916
  100
AcDbEntity
  8
Layer 1
  62
0
  100
AcDb2dVertex
  10
0.48062
  20
1.28425
  30
0.00000
  70
32
  0
VERTEX
  5
917
  100
AcDbEntity
  8
Layer 1
  62
0
  100
AcDb2dVertex
  10
0.47000
  20
1.27400
  30
0.00000
  42
-0.0239
  70
32
  0
VERTEX
  5
918
  100
AcDbEntity
  8
Layer 1
  62
0
  100
AcDb2dVertex
  10
0.41912
  20
1.19302
  30
0.00000
  42
-0.0085
  70
32
  0
VERTEX
  5
919
  100
AcDbEntity
  8
Layer 1
  62
0
  100
AcDb2dVertex
  10
0.34200
  20
1.08500
  30
0.00000
  42
0.0351
  70
32
  0
VERTEX
  5
91A
  100
AcDbEntity
  8
Layer 1
  62
0
  100
AcDb2dVertex
  10
0.30277
  20
1.04589
  30
0.00000
  42
0.0074
  70
32
  0
VERTEX
  5
91B
  100
AcDbEntity
  8
Layer 1
  62
0
  100
AcDb2dVertex
  10
0.27500
  20
1.01400
  30
0.00000
  70
32
  0
VERTEX
  5
91C
  100
AcDbEntity
  8
Layer 1
  62
0
  100
AcDb2dVertex
  10
0.27500
  20
1.00900
  30
0.00000
  42
-0.1302
  70
32
  0
VERTEX
  5
91D
  100
AcDbEntity
  8
Layer 1
  62
0
  100
AcDb2dVertex
  10
0.27187
  20
0.98404
  30
0.00000
  42
-0.2166
  70
32
  0
VERTEX
  5
91E
  100
AcDbEntity
  8
Layer 1
  62
0
  100
AcDb2dVertex
  10
0.25500
  20
0.96900
  30
0.00000
  70
32
  0
VERTEX
  5
91F
  100
AcDbEntity
  8
Layer 1
  62
0
  100
AcDb2dVertex
  10
0.20400
  20
1.01700
  30
0.00000
  70
32
  0
VERTEX
  5
920
  100
AcDbEntity
  8
Layer 1
  62
0
  100
AcDb2dVertex
  10
0.25400
  20
1.06500
  30
0.00000
  70
32
  0
VERTEX
  5
921
  100
AcDbEntity
  8
Layer 1
  62
0
  100
AcDb2dVertex
  10
0.20400
  20
1.01700
  30
0.00000
  70
32
  0
VERTEX
  5
922
  100
AcDbEntity
  8
Layer 1
  62
0
  100
AcDb2dVertex
  10
0.16400
  20
1.05200
  30
0.00000
  70
32
  0
VERTEX
  5
923
  100
AcDbEntity
  8
Layer 1
  62
0
  100
AcDb2dVertex
  10
0.20613
  20
1.10137
  30
0.00000
  42
-0.0061
  70
32
  0
VERTEX
  5
924
  100
AcDbEntity
  8
Layer 1
  62
0
  100
AcDb2dVertex
  10
0.24900
  20
1.15000
  30
0.00000
  42
-0.0370
  70
32
  0
VERTEX
  5
925
  100
AcDbEntity
  8
Layer 1
  62
0
  100
AcDb2dVertex
  10
0.33145
  20
1.23292
  30
0.00000
  70
32
  0
VERTEX
  5
926
  100
AcDbEntity
  8
Layer 1
  62
0
  100
AcDb2dVertex
  10
0.34000
  20
1.24000
  30
0.00000
  42
0.0475
  70
32
  0
VERTEX
  5
927
  100
AcDbEntity
  8
Layer 1
  62
0
  100
AcDb2dVertex
  10
0.41810
  20
1.31043
  30
0.00000
  42
0.0670
  70
32
  0
VERTEX
  5
928
  100
AcDbEntity
  8
Layer 1
  62
0
  100
AcDb2dVertex
  10
0.46244
  20
1.37381
  30
0.00000
  70
32
  0
VERTEX
  5
929
  100
AcDbEntity
  8
Layer 1
  62
0
  100
AcDb2dVertex
  10
0.46400
  20
1.37700
  30
0.00000
  42
-0.0557
  70
32
  0
VERTEX
  5
92A
  100
AcDbEntity
  8
Layer 1
  62
0
  100
AcDb2dVertex
  10
0.48345
  20
1.41051
  30
0.00000
  42
-0.1198
  70
32
  0
VERTEX
  5
92B
  100
AcDbEntity
  8
Layer 1
  62
0
  100
AcDb2dVertex
  10
0.49571
  20
1.42118
  30
0.00000
  42
-0.1535
  70
32
  0
VERTEX
  5
92C
  100
AcDbEntity
  8
Layer 1
  62
0
  100
AcDb2dVertex
  10
0.50200
  20
1.42200
  30
0.00000
  70
32
  0
VERTEX
  5
92D
  100
AcDbEntity
  8
Layer 1
  62
0
  100
AcDb2dVertex
  10
0.52200
  20
1.41700
  30
0.00000
  42
0.1309
  70
32
  0
VERTEX
  5
92E
  100
AcDbEntity
  8
Layer 1
  62
0
  100
AcDb2dVertex
  10
0.52456
  20
1.42070
  30
0.00000
  42
0.0168
  70
32
  0
VERTEX
  5
92F
  100
AcDbEntity
  8
Layer 1
  62
0
  100
AcDb2dVertex
  10
0.53400
  20
1.44100
  30
0.00000
  42
-0.2099
  70
32
  0
VERTEX
  5
930
  100
AcDbEntity
  8
Layer 1
  62
0
  100
AcDb2dVertex
  10
0.53915
  20
1.44601
  30
0.00000
  42
-0.0544
  70
32
  0
VERTEX
  5
931
  100
AcDbEntity
  8
Layer 1
  62
0
  100
AcDb2dVertex
  10
0.55400
  20
1.45100
  30
0.00000
  70
32
  0
VERTEX
  5
932
  100
AcDbEntity
  8
Layer 1
  62
0
  100
AcDb2dVertex
  10
0.61900
  20
1.43900
  30
0.00000
  70
32
  0
VERTEX
  5
933
  100
AcDbEntity
  8
Layer 1
  62
0
  100
AcDb2dVertex
  10
0.70000
  20
1.43900
  30
0.00000
  42
0.0680
  70
32
  0
VERTEX
  5
934
  100
AcDbEntity
  8
Layer 1
  62
0
  100
AcDb2dVertex
  10
0.74270
  20
1.44607
  30
0.00000
  42
0.0410
  70
32
  0
VERTEX
  5
935
  100
AcDbEntity
  8
Layer 1
  62
0
  100
AcDb2dVertex
  10
0.81471
  20
1.47449
  30
0.00000
  70
32
  0
VERTEX
  5
936
  100
AcDbEntity
  8
Layer 1
  62
0
  100
AcDb2dVertex
  10
0.83400
  20
1.48400
  30
0.00000
  42
0.0342
  70
32
  0
VERTEX
  5
937
  100
AcDbEntity
  8
Layer 1
  62
0
  100
AcDb2dVertex
  10
0.85504
  20
1.47587
  30
0.00000
  42
0.3781
  70
32
  0
VERTEX
  5
938
  100
AcDbEntity
  8
Layer 1
  62
0
  100
AcDb2dVertex
  10
0.85600
  20
1.47600
  30
0.00000
  42
0.3996
  70
32
  0
VERTEX
  5
939
  100
AcDbEntity
  8
Layer 1
  62
0
  100
AcDb2dVertex
  10
0.86704
  20
1.48324
  30
0.00000
  42
0.0787
  70
32
  0
VERTEX
  5
93A
  100
AcDbEntity
  8
Layer 1
  62
0
  100
AcDb2dVertex
  10
0.86800
  20
1.49000
  30
0.00000
  42
-0.2109
  70
32
  0
VERTEX
  5
93B
  100
AcDbEntity
  8
Layer 1
  62
0
  100
AcDb2dVertex
  10
0.87632
  20
1.50345
  30
0.00000
  42
-0.0908
  70
32
  0
VERTEX
  5
93C
  100
AcDbEntity
  8
Layer 1
  62
0
  100
AcDb2dVertex
  10
0.89900
  20
1.51400
  30
0.00000
  42
0.2624
  70
32
  0
VERTEX
  5
93D
  100
AcDbEntity
  8
Layer 1
  62
0
  100
AcDb2dVertex
  10
0.91868
  20
1.53361
  30
0.00000
  42
0.0974
  70
32
  0
VERTEX
  5
93E
  100
AcDbEntity
  8
Layer 1
  62
0
  100
AcDb2dVertex
  10
0.92100
  20
1.56100
  30
0.00000
  42
0.0846
  70
32
  0
VERTEX
  5
93F
  100
AcDbEntity
  8
Layer 1
  62
0
  100
AcDb2dVertex
  10
0.94093
  20
1.59629
  30
0.00000
  42
0.1071
  70
32
  0
VERTEX
  5
940
  100
AcDbEntity
  8
Layer 1
  62
0
  100
AcDb2dVertex
  10
0.94400
  20
1.62200
  30
0.00000
  42
-0.2627
  70
32
  0
VERTEX
  5
941
  100
AcDbEntity
  8
Layer 1
  62
0
  100
AcDb2dVertex
  10
0.94947
  20
1.63072
  30
0.00000
  42
-0.1144
  70
32
  0
VERTEX
  5
942
  100
AcDbEntity
  8
Layer 1
  62
0
  100
AcDb2dVertex
  10
0.95600
  20
1.63200
  30
0.00000
  42
-0.2491
  70
32
  0
VERTEX
  5
943
  100
AcDbEntity
  8
Layer 1
  62
0
  100
AcDb2dVertex
  10
0.96587
  20
1.62598
  30
0.00000
  42
-0.1198
  70
32
  0
VERTEX
  5
944
  100
AcDbEntity
  8
Layer 1
  62
0
  100
AcDb2dVertex
  10
0.96700
  20
1.62100
  30
0.00000
  70
32
  0
SEQEND
  5
945
  100
AcDbEntity
  8
Layer 1
  62
0
  0
POLYLINE
  5
946
  100
AcDbEntity
  8
Layer 1
  62
0
  100
AcDb2dPolyline
 66
     1
  10
0
  20
0
  30
0
  70
1
  0
VERTEX
  5
947
  100
AcDbEntity
  8
Layer 1
  62
0
  100
AcDb2dVertex
  10
0.96400
  20
1.39000
  30
0.00000
  42
-0.1988
  70
32
  0
VERTEX
  5
948
  100
AcDbEntity
  8
Layer 1
  62
0
  100
AcDb2dVertex
  10
0.95906
  20
1.38080
  30
0.00000
  70
32
  0
VERTEX
  5
949
  100
AcDbEntity
  8
Layer 1
  62
0
  100
AcDb2dVertex
  10
0.95700
  20
1.37900
  30
0.00000
  42
0.1239
  70
32
  0
VERTEX
  5
94A
  100
AcDbEntity
  8
Layer 1
  62
0
  100
AcDb2dVertex
  10
0.95109
  20
1.36811
  30
0.00000
  70
32
  0
VERTEX
  5
94B
  100
AcDbEntity
  8
Layer 1
  62
0
  100
AcDb2dVertex
  10
0.95100
  20
1.36700
  30
0.00000
  70
32
  0
VERTEX
  5
94C
  100
AcDbEntity
  8
Layer 1
  62
0
  100
AcDb2dVertex
  10
0.95200
  20
1.36200
  30
0.00000
  42
-0.2682
  70
32
  0
VERTEX
  5
94D
  100
AcDbEntity
  8
Layer 1
  62
0
  100
AcDb2dVertex
  10
0.96085
  20
1.34804
  30
0.00000
  70
32
  0
VERTEX
  5
94E
  100
AcDbEntity
  8
Layer 1
  62
0
  100
AcDb2dVertex
  10
0.96100
  20
1.34500
  30
0.00000
  42
-0.1787
  70
32
  0
VERTEX
  5
94F
  100
AcDbEntity
  8
Layer 1
  62
0
  100
AcDb2dVertex
  10
0.95661
  20
1.33620
  30
0.00000
  42
-0.0672
  70
32
  0
VERTEX
  5
950
  100
AcDbEntity
  8
Layer 1
  62
0
  100
AcDb2dVertex
  10
0.93700
  20
1.32100
  30
0.00000
  42
0.0876
  70
32
  0
VERTEX
  5
951
  100
AcDbEntity
  8
Layer 1
  62
0
  100
AcDb2dVertex
  10
0.91692
  20
1.30481
  30
0.00000
  42
0.1406
  70
32
  0
VERTEX
  5
952
  100
AcDbEntity
  8
Layer 1
  62
0
  100
AcDb2dVertex
  10
0.91200
  20
1.29400
  30
0.00000
  42
-0.0606
  70
32
  0
VERTEX
  5
953
  100
AcDbEntity
  8
Layer 1
  62
0
  100
AcDb2dVertex
  10
0.90050
  20
1.23859
  30
0.00000
  70
32
  0
VERTEX
  5
954
  100
AcDbEntity
  8
Layer 1
  62
0
  100
AcDb2dVertex
  10
0.89900
  20
1.23400
  30
0.00000
  42
-0.0683
  70
32
  0
VERTEX
  5
955
  100
AcDbEntity
  8
Layer 1
  62
0
  100
AcDb2dVertex
  10
0.87612
  20
1.21592
  30
0.00000
  42
-0.0141
  70
32
  0
VERTEX
  5
956
  100
AcDbEntity
  8
Layer 1
  62
0
  100
AcDb2dVertex
  10
0.86100
  20
1.20700
  30
0.00000
  42
0.0426
  70
32
  0
VERTEX
  5
957
  100
AcDbEntity
  8
Layer 1
  62
0
  100
AcDb2dVertex
  10
0.83080
  20
1.18875
  30
0.00000
  42
0.0683
  70
32
  0
VERTEX
  5
958
  100
AcDbEntity
  8
Layer 1
  62
0
  100
AcDb2dVertex
  10
0.82400
  20
1.18200
  30
0.00000
  70
32
  0
VERTEX
  5
959
  100
AcDbEntity
  8
Layer 1
  62
0
  100
AcDb2dVertex
  10
0.78400
  20
1.21700
  30
0.00000
  70
32
  0
VERTEX
  5
95A
  100
AcDbEntity
  8
Layer 1
  62
0
  100
AcDb2dVertex
  10
0.82400
  20
1.18200
  30
0.00000
  70
32
  0
VERTEX
  5
95B
  100
AcDbEntity
  8
Layer 1
  62
0
  100
AcDb2dVertex
  10
0.81100
  20
1.15900
  30
0.00000
  70
32
  0
VERTEX
  5
95C
  100
AcDbEntity
  8
Layer 1
  62
0
  100
AcDb2dVertex
  10
0.81200
  20
1.14000
  30
0.00000
  42
-0.2004
  70
32
  0
VERTEX
  5
95D
  100
AcDbEntity
  8
Layer 1
  62
0
  100
AcDb2dVertex
  10
0.80631
  20
1.12377
  30
0.00000
  42
-0.1810
  70
32
  0
VERTEX
  5
95E
  100
AcDbEntity
  8
Layer 1
  62
0
  100
AcDb2dVertex
  10
0.79026
  20
1.11718
  30
0.00000
  70
32
  0
VERTEX
  5
95F
  100
AcDbEntity
  8
Layer 1
  62
0
  100
AcDb2dVertex
  10
0.78600
  20
1.11700
  30
0.00000
  42
-0.1572
  70
32
  0
VERTEX
  5
960
  100
AcDbEntity
  8
Layer 1
  62
0
  100
AcDb2dVertex
  10
0.77069
  20
1.12095
  30
0.00000
  42
-0.2257
  70
32
  0
VERTEX
  5
961
  100
AcDbEntity
  8
Layer 1
  62
0
  100
AcDb2dVertex
  10
0.76400
  20
1.13400
  30
0.00000
  42
0.0746
  70
32
  0
VERTEX
  5
962
  100
AcDbEntity
  8
Layer 1
  62
0
  100
AcDb2dVertex
  10
0.76486
  20
1.12725
  30
0.00000
  42
0.1061
  70
32
  0
VERTEX
  5
963
  100
AcDbEntity
  8
Layer 1
  62
0
  100
AcDb2dVertex
  10
0.76547
  20
1.13172
  30
0.00000
  42
0.0121
  70
32
  0
VERTEX
  5
964
  100
AcDbEntity
  8
Layer 1
  62
0
  100
AcDb2dVertex
  10
0.76600
  20
1.16400
  30
0.00000
  42
0.1568
  70
32
  0
VERTEX
  5
965
  100
AcDbEntity
  8
Layer 1
  62
0
  100
AcDb2dVertex
  10
0.75974
  20
1.18677
  30
0.00000
  70
32
  0
VERTEX
  5
966
  100
AcDbEntity
  8
Layer 1
  62
0
  100
AcDb2dVertex
  10
0.75700
  20
1.19000
  30
0.00000
  42
0.0594
  70
32
  0
VERTEX
  5
967
  100
AcDbEntity
  8
Layer 1
  62
0
  100
AcDb2dVertex
  10
0.75260
  20
1.17887
  30
0.00000
  70
32
  0
VERTEX
  5
968
  100
AcDbEntity
  8
Layer 1
  62
0
  100
AcDb2dVertex
  10
0.74900
  20
1.16700
  30
0.00000
  42
-0.1555
  70
32
  0
VERTEX
  5
969
  100
AcDbEntity
  8
Layer 1
  62
0
  100
AcDb2dVertex
  10
0.74242
  20
1.15579
  30
0.00000
  42
-0.2147
  70
32
  0
VERTEX
  5
96A
  100
AcDbEntity
  8
Layer 1
  62
0
  100
AcDb2dVertex
  10
0.73500
  20
1.15400
  30
0.00000
  70
32
  0
VERTEX
  5
96B
  100
AcDbEntity
  8
Layer 1
  62
0
  100
AcDb2dVertex
  10
0.72900
  20
1.15900
  30
0.00000
  42
0.0271
  70
32
  0
VERTEX
  5
96C
  100
AcDbEntity
  8
Layer 1
  62
0
  100
AcDb2dVertex
  10
0.71400
  20
1.19500
  30
0.00000
  42
-0.0661
  70
32
  0
VERTEX
  5
96D
  100
AcDbEntity
  8
Layer 1
  62
0
  100
AcDb2dVertex
  10
0.69556
  20
1.21298
  30
0.00000
  42
-0.0176
  70
32
  0
VERTEX
  5
96E
  100
AcDbEntity
  8
Layer 1
  62
0
  100
AcDb2dVertex
  10
0.67700
  20
1.23700
  30
0.00000
  42
-0.2104
  70
32
  0
VERTEX
  5
96F
  100
AcDbEntity
  8
Layer 1
  62
0
  100
AcDb2dVertex
  10
0.68548
  20
1.25647
  30
0.00000
  70
32
  0
VERTEX
  5
970
  100
AcDbEntity
  8
Layer 1
  62
0
  100
AcDb2dVertex
  10
0.68600
  20
1.25700
  30
0.00000
  42
0.0867
  70
32
  0
VERTEX
  5
971
  100
AcDbEntity
  8
Layer 1
  62
0
  100
AcDb2dVertex
  10
0.69445
  20
1.26757
  30
0.00000
  42
0.0994
  70
32
  0
VERTEX
  5
972
  100
AcDbEntity
  8
Layer 1
  62
0
  100
AcDb2dVertex
  10
0.69500
  20
1.27000
  30
0.00000
  70
32
  0
VERTEX
  5
973
  100
AcDbEntity
  8
Layer 1
  62
0
  100
AcDb2dVertex
  10
0.68900
  20
1.28200
  30
0.00000
  42
0.0983
  70
32
  0
VERTEX
  5
974
  100
AcDbEntity
  8
Layer 1
  62
0
  100
AcDb2dVertex
  10
0.66435
  20
1.27493
  30
0.00000
  42
0.0520
  70
32
  0
VERTEX
  5
975
  100
AcDbEntity
  8
Layer 1
  62
0
  100
AcDb2dVertex
  10
0.62228
  20
1.24811
  30
0.00000
  42
0.0300
  70
32
  0
VERTEX
  5
976
  100
AcDbEntity
  8
Layer 1
  62
0
  100
AcDb2dVertex
  10
0.55015
  20
1.18411
  30
0.00000
  70
32
  0
VERTEX
  5
977
  100
AcDbEntity
  8
Layer 1
  62
0
  100
AcDb2dVertex
  10
0.54800
  20
1.18200
  30
0.00000
  42
0.0218
  70
32
  0
VERTEX
  5
978
  100
AcDbEntity
  8
Layer 1
  62
0
  100
AcDb2dVertex
  10
0.47163
  20
1.10133
  30
0.00000
  42
0.0427
  70
32
  0
VERTEX
  5
979
  100
AcDbEntity
  8
Layer 1
  62
0
  100
AcDb2dVertex
  10
0.43957
  20
1.05778
  30
0.00000
  42
0.0450
  70
32
  0
VERTEX
  5
97A
  100
AcDbEntity
  8
Layer 1
  62
0
  100
AcDb2dVertex
  10
0.43200
  20
1.04200
  30
0.00000
  70
32
  0
VERTEX
  5
97B
  100
AcDbEntity
  8
Layer 1
  62
0
  100
AcDb2dVertex
  10
0.42625
  20
1.01217
  30
0.00000
  42
0.0058
  70
32
  0
VERTEX
  5
97C
  100
AcDbEntity
  8
Layer 1
  62
0
  100
AcDb2dVertex
  10
0.41900
  20
0.97400
  30
0.00000
  42
-0.0662
  70
32
  0
VERTEX
  5
97D
  100
AcDbEntity
  8
Layer 1
  62
0
  100
AcDb2dVertex
  10
0.40879
  20
0.94245
  30
0.00000
  42
-0.1462
  70
32
  0
VERTEX
  5
97E
  100
AcDbEntity
  8
Layer 1
  62
0
  100
AcDb2dVertex
  10
0.39720
  20
0.92920
  30
0.00000
  42
-0.1471
  70
32
  0
VERTEX
  5
97F
  100
AcDbEntity
  8
Layer 1
  62
0
  100
AcDb2dVertex
  10
0.38700
  20
0.92700
  30
0.00000
  70
32
  0
VERTEX
  5
980
  100
AcDbEntity
  8
Layer 1
  62
0
  100
AcDb2dVertex
  10
0.35825
  20
0.92925
  30
0.00000
  70
32
  0
VERTEX
  5
981
  100
AcDbEntity
  8
Layer 1
  62
0
  100
AcDb2dVertex
  10
0.35353
  20
0.92981
  30
0.00000
  70
32
  0
VERTEX
  5
982
  100
AcDbEntity
  8
Layer 1
  62
0
  100
AcDb2dVertex
  10
0.35333
  20
0.92989
  30
0.00000
  70
32
  0
VERTEX
  5
983
  100
AcDbEntity
  8
Layer 1
  62
0
  100
AcDb2dVertex
  10
0.35500
  20
0.93000
  30
0.00000
  42
0.0717
  70
32
  0
VERTEX
  5
984
  100
AcDbEntity
  8
Layer 1
  62
0
  100
AcDb2dVertex
  10
0.34100
  20
0.92700
  30
0.00000
  42
-0.0717
  70
32
  0
VERTEX
  5
985
  100
AcDbEntity
  8
Layer 1
  62
0
  100
AcDb2dVertex
  10
0.32700
  20
0.92400
  30
0.00000
  42
-0.1383
  70
32
  0
VERTEX
  5
986
  100
AcDbEntity
  8
Layer 1
  62
0
  100
AcDb2dVertex
  10
0.31016
  20
0.92777
  30
0.00000
  42
-0.2492
  70
32
  0
VERTEX
  5
987
  100
AcDbEntity
  8
Layer 1
  62
0
  100
AcDb2dVertex
  10
0.30212
  20
0.94213
  30
0.00000
  70
32
  0
VERTEX
  5
988
  100
AcDbEntity
  8
Layer 1
  62
0
  100
AcDb2dVertex
  10
0.30200
  20
0.94500
  30
0.00000
  42
-0.1086
  70
32
  0
VERTEX
  5
989
  100
AcDbEntity
  8
Layer 1
  62
0
  100
AcDb2dVertex
  10
0.32199
  20
1.03253
  30
0.00000
  42
-0.0686
  70
32
  0
VERTEX
  5
98A
  100
AcDbEntity
  8
Layer 1
  62
0
  100
AcDb2dVertex
  10
0.37088
  20
1.10749
  30
0.00000
  42
-0.0481
  70
32
  0
VERTEX
  5
98B
  100
AcDbEntity
  8
Layer 1
  62
0
  100
AcDb2dVertex
  10
0.45264
  20
1.18544
  30
0.00000
  42
-0.0293
  70
32
  0
VERTEX
  5
98C
  100
AcDbEntity
  8
Layer 1
  62
0
  100
AcDb2dVertex
  10
0.55200
  20
1.25500
  30
0.00000
  42
-0.0338
  70
32
  0
VERTEX
  5
98D
  100
AcDbEntity
  8
Layer 1
  62
0
  100
AcDb2dVertex
  10
0.70943
  20
1.33954
  30
0.00000
  42
-0.0451
  70
32
  0
VERTEX
  5
98E
  100
AcDbEntity
  8
Layer 1
  62
0
  100
AcDb2dVertex
  10
0.83940
  20
1.38494
  30
0.00000
  42
-0.0595
  70
32
  0
VERTEX
  5
98F
  100
AcDbEntity
  8
Layer 1
  62
0
  100
AcDb2dVertex
  10
0.94900
  20
1.39900
  30
0.00000
  42
-0.3089
  70
32
  0
VERTEX
  5
990
  100
AcDbEntity
  8
Layer 1
  62
0
  100
AcDb2dVertex
  10
0.96400
  20
1.39000
  30
0.00000
  70
32
  0
SEQEND
  5
991
  100
AcDbEntity
  8
Layer 1
  62
0
  0
POLYLINE
  5
992
  100
AcDbEntity
  8
Layer 1
  62
0
  100
AcDb2dPolyline
 66
     1
  10
0
  20
0
  30
0
  70
1
  0
VERTEX
  5
993
  100
AcDbEntity
  8
Layer 1
  62
0
  100
AcDb2dVertex
  10
0.96100
  20
1.22500
  30
0.00000
  42
0.0625
  70
32
  0
VERTEX
  5
994
  100
AcDbEntity
  8
Layer 1
  62
0
  100
AcDb2dVertex
  10
0.93129
  20
1.20703
  30
0.00000
  42
0.1206
  70
32
  0
VERTEX
  5
995
  100
AcDbEntity
  8
Layer 1
  62
0
  100
AcDb2dVertex
  10
0.92100
  20
1.19400
  30
0.00000
  42
-0.0895
  70
32
  0
VERTEX
  5
996
  100
AcDbEntity
  8
Layer 1
  62
0
  100
AcDb2dVertex
  10
0.89700
  20
1.15900
  30
0.00000
  70
32
  0
VERTEX
  5
997
  100
AcDbEntity
  8
Layer 1
  62
0
  100
AcDb2dVertex
  10
0.90200
  20
1.15400
  30
0.00000
  42
-0.0639
  70
32
  0
VERTEX
  5
998
  100
AcDbEntity
  8
Layer 1
  62
0
  100
AcDb2dVertex
  10
0.93546
  20
1.14964
  30
0.00000
  42
-0.1387
  70
32
  0
VERTEX
  5
999
  100
AcDbEntity
  8
Layer 1
  62
0
  100
AcDb2dVertex
  10
0.94896
  20
1.14206
  30
0.00000
  42
-0.1858
  70
32
  0
VERTEX
  5
99A
  100
AcDbEntity
  8
Layer 1
  62
0
  100
AcDb2dVertex
  10
0.95200
  20
1.13400
  30
0.00000
  42
-0.2553
  70
32
  0
VERTEX
  5
99B
  100
AcDbEntity
  8
Layer 1
  62
0
  100
AcDb2dVertex
  10
0.94783
  20
1.12643
  30
0.00000
  70
32
  0
VERTEX
  5
99C
  100
AcDbEntity
  8
Layer 1
  62
0
  100
AcDb2dVertex
  10
0.94600
  20
1.12500
  30
0.00000
  42
-0.0218
  70
32
  0
VERTEX
  5
99D
  100
AcDbEntity
  8
Layer 1
  62
0
  100
AcDb2dVertex
  10
0.93100
  20
1.12700
  30
0.00000
  42
0.1081
  70
32
  0
VERTEX
  5
99E
  100
AcDbEntity
  8
Layer 1
  62
0
  100
AcDb2dVertex
  10
0.90100
  20
1.12000
  30
0.00000
  42
-0.0516
  70
32
  0
VERTEX
  5
99F
  100
AcDbEntity
  8
Layer 1
  62
0
  100
AcDb2dVertex
  10
0.88257
  20
1.11219
  30
0.00000
  70
32
  0
VERTEX
  5
9A0
  100
AcDbEntity
  8
Layer 1
  62
0
  100
AcDb2dVertex
  10
0.88100
  20
1.11200
  30
0.00000
  42
-0.2227
  70
32
  0
VERTEX
  5
9A1
  100
AcDbEntity
  8
Layer 1
  62
0
  100
AcDb2dVertex
  10
0.85921
  20
1.12236
  30
0.00000
  70
32
  0
VERTEX
  5
9A2
  100
AcDbEntity
  8
Layer 1
  62
0
  100
AcDb2dVertex
  10
0.85700
  20
1.12500
  30
0.00000
  42
0.2179
  70
32
  0
VERTEX
  5
9A3
  100
AcDbEntity
  8
Layer 1
  62
0
  100
AcDb2dVertex
  10
0.85512
  20
1.12235
  30
0.00000
  42
0.0397
  70
32
  0
VERTEX
  5
9A4
  100
AcDbEntity
  8
Layer 1
  62
0
  100
AcDb2dVertex
  10
0.84827
  20
1.09571
  30
0.00000
  70
32
  0
VERTEX
  5
9A5
  100
AcDbEntity
  8
Layer 1
  62
0
  100
AcDb2dVertex
  10
0.84600
  20
1.08400
  30
0.00000
  42
-0.0466
  70
32
  0
VERTEX
  5
9A6
  100
AcDbEntity
  8
Layer 1
  62
0
  100
AcDb2dVertex
  10
0.82281
  20
1.01205
  30
0.00000
  42
-0.0790
  70
32
  0
VERTEX
  5
9A7
  100
AcDbEntity
  8
Layer 1
  62
0
  100
AcDb2dVertex
  10
0.79427
  20
0.96643
  30
0.00000
  70
32
  0
VERTEX
  5
9A8
  100
AcDbEntity
  8
Layer 1
  62
0
  100
AcDb2dVertex
  10
0.79200
  20
0.96400
  30
0.00000
  42
-0.0976
  70
32
  0
VERTEX
  5
9A9
  100
AcDbEntity
  8
Layer 1
  62
0
  100
AcDb2dVertex
  10
0.77682
  20
0.95137
  30
0.00000
  42
-0.0260
  70
32
  0
VERTEX
  5
9AA
  100
AcDbEntity
  8
Layer 1
  62
0
  100
AcDb2dVertex
  10
0.75900
  20
0.94200
  30
0.00000
  42
0.0587
  70
32
  0
VERTEX
  5
9AB
  100
AcDbEntity
  8
Layer 1
  62
0
  100
AcDb2dVertex
  10
0.72873
  20
0.92423
  30
0.00000
  70
32
  0
VERTEX
  5
9AC
  100
AcDbEntity
  8
Layer 1
  62
0
  100
AcDb2dVertex
  10
0.72400
  20
0.92000
  30
0.00000
  42
-0.3337
  70
32
  0
VERTEX
  5
9AD
  100
AcDbEntity
  8
Layer 1
  62
0
  100
AcDb2dVertex
  10
0.71693
  20
0.92535
  30
0.00000
  42
-0.0933
  70
32
  0
VERTEX
  5
9AE
  100
AcDbEntity
  8
Layer 1
  62
0
  100
AcDb2dVertex
  10
0.71500
  20
0.93900
  30
0.00000
  42
0.1081
  70
32
  0
VERTEX
  5
9AF
  100
AcDbEntity
  8
Layer 1
  62
0
  100
AcDb2dVertex
  10
0.71200
  20
0.95500
  30
0.00000
  70
32
  0
VERTEX
  5
9B0
  100
AcDbEntity
  8
Layer 1
  62
0
  100
AcDb2dVertex
  10
0.70837
  20
0.95262
  30
0.00000
  70
32
  0
VERTEX
  5
9B1
  100
AcDbEntity
  8
Layer 1
  62
0
  100
AcDb2dVertex
  10
0.70100
  20
0.94800
  30
0.00000
  42
-0.1003
  70
32
  0
VERTEX
  5
9B2
  100
AcDbEntity
  8
Layer 1
  62
0
  100
AcDb2dVertex
  10
0.68914
  20
0.94219
  30
0.00000
  70
32
  0
VERTEX
  5
9B3
  100
AcDbEntity
  8
Layer 1
  62
0
  100
AcDb2dVertex
  10
0.68700
  20
0.94200
  30
0.00000
  42
-0.1851
  70
32
  0
VERTEX
  5
9B4
  100
AcDbEntity
  8
Layer 1
  62
0
  100
AcDb2dVertex
  10
0.67400
  20
0.94597
  30
0.00000
  42
-0.2292
  70
32
  0
VERTEX
  5
9B5
  100
AcDbEntity
  8
Layer 1
  62
0
  100
AcDb2dVertex
  10
0.66964
  20
0.95829
  30
0.00000
  70
32
  0
VERTEX
  5
9B6
  100
AcDbEntity
  8
Layer 1
  62
0
  100
AcDb2dVertex
  10
0.67000
  20
0.96200
  30
0.00000
  70
32
  0
VERTEX
  5
9B7
  100
AcDbEntity
  8
Layer 1
  62
0
  100
AcDb2dVertex
  10
0.67700
  20
1.03500
  30
0.00000
  42
0.1669
  70
32
  0
VERTEX
  5
9B8
  100
AcDbEntity
  8
Layer 1
  62
0
  100
AcDb2dVertex
  10
0.66947
  20
1.07923
  30
0.00000
  42
0.1168
  70
32
  0
VERTEX
  5
9B9
  100
AcDbEntity
  8
Layer 1
  62
0
  100
AcDb2dVertex
  10
0.64500
  20
1.10500
  30
0.00000
  42
-0.0638
  70
32
  0
VERTEX
  5
9BA
  100
AcDbEntity
  8
Layer 1
  62
0
  100
AcDb2dVertex
  10
0.64638
  20
1.11262
  30
0.00000
  70
32
  0
VERTEX
  5
9BB
  100
AcDbEntity
  8
Layer 1
  62
0
  100
AcDb2dVertex
  10
0.64700
  20
1.11500
  30
0.00000
  70
32
  0
VERTEX
  5
9BC
  100
AcDbEntity
  8
Layer 1
  62
0
  100
AcDb2dVertex
  10
0.64700
  20
1.12400
  30
0.00000
  42
0.2262
  70
32
  0
VERTEX
  5
9BD
  100
AcDbEntity
  8
Layer 1
  62
0
  100
AcDb2dVertex
  10
0.64500
  20
1.13000
  30
0.00000
  42
-0.0941
  70
32
  0
VERTEX
  5
9BE
  100
AcDbEntity
  8
Layer 1
  62
0
  100
AcDb2dVertex
  10
0.63149
  20
1.11768
  30
0.00000
  70
32
  0
VERTEX
  5
9BF
  100
AcDbEntity
  8
Layer 1
  62
0
  100
AcDb2dVertex
  10
0.63000
  20
1.11700
  30
0.00000
  70
32
  0
VERTEX
  5
9C0
  100
AcDbEntity
  8
Layer 1
  62
0
  100
AcDb2dVertex
  10
0.61700
  20
1.11700
  30
0.00000
  42
0.1727
  70
32
  0
VERTEX
  5
9C1
  100
AcDbEntity
  8
Layer 1
  62
0
  100
AcDb2dVertex
  10
0.59479
  20
1.10961
  30
0.00000
  42
0.0836
  70
32
  0
VERTEX
  5
9C2
  100
AcDbEntity
  8
Layer 1
  62
0
  100
AcDb2dVertex
  10
0.57226
  20
1.08541
  30
0.00000
  42
0.0261
  70
32
  0
VERTEX
  5
9C3
  100
AcDbEntity
  8
Layer 1
  62
0
  100
AcDb2dVertex
  10
0.55900
  20
1.06400
  30
0.00000
  42
0.0489
  70
32
  0
VERTEX
  5
9C4
  100
AcDbEntity
  8
Layer 1
  62
0
  100
AcDb2dVertex
  10
0.53537
  20
1.01032
  30
0.00000
  42
0.0846
  70
32
  0
VERTEX
  5
9C5
  100
AcDbEntity
  8
Layer 1
  62
0
  100
AcDb2dVertex
  10
0.53000
  20
0.97500
  30
0.00000
  70
32
  0
VERTEX
  5
9C6
  100
AcDbEntity
  8
Layer 1
  62
0
  100
AcDb2dVertex
  10
0.50400
  20
0.97900
  30
0.00000
  70
32
  0
VERTEX
  5
9C7
  100
AcDbEntity
  8
Layer 1
  62
0
  100
AcDb2dVertex
  10
0.53000
  20
0.97500
  30
0.00000
  42
-0.2202
  70
32
  0
VERTEX
  5
9C8
  100
AcDbEntity
  8
Layer 1
  62
0
  100
AcDb2dVertex
  10
0.53366
  20
0.96898
  30
0.00000
  42
-0.0534
  70
32
  0
VERTEX
  5
9C9
  100
AcDbEntity
  8
Layer 1
  62
0
  100
AcDb2dVertex
  10
0.53500
  20
0.95000
  30
0.00000
  42
-0.1269
  70
32
  0
VERTEX
  5
9CA
  100
AcDbEntity
  8
Layer 1
  62
0
  100
AcDb2dVertex
  10
0.53102
  20
0.93079
  30
0.00000
  42
-0.2458
  70
32
  0
VERTEX
  5
9CB
  100
AcDbEntity
  8
Layer 1
  62
0
  100
AcDb2dVertex
  10
0.51486
  20
0.92040
  30
0.00000
  42
-0.0366
  70
32
  0
VERTEX
  5
9CC
  100
AcDbEntity
  8
Layer 1
  62
0
  100
AcDb2dVertex
  10
0.50900
  20
0.92000
  30
0.00000
  42
0.1020
  70
32
  0
VERTEX
  5
9CD
  100
AcDbEntity
  8
Layer 1
  62
0
  100
AcDb2dVertex
  10
0.48854
  20
0.92694
  30
0.00000
  42
0.0408
  70
32
  0
VERTEX
  5
9CE
  100
AcDbEntity
  8
Layer 1
  62
0
  100
AcDb2dVertex
  10
0.45900
  20
0.92900
  30
0.00000
  42
-0.1202
  70
32
  0
VERTEX
  5
9CF
  100
AcDbEntity
  8
Layer 1
  62
0
  100
AcDb2dVertex
  10
0.44084
  20
0.93245
  30
0.00000
  42
-0.2772
  70
32
  0
VERTEX
  5
9D0
  100
AcDbEntity
  8
Layer 1
  62
0
  100
AcDb2dVertex
  10
0.43207
  20
0.94686
  30
0.00000
  70
32
  0
VERTEX
  5
9D1
  100
AcDbEntity
  8
Layer 1
  62
0
  100
AcDb2dVertex
  10
0.43200
  20
0.94900
  30
0.00000
  42
-0.0938
  70
32
  0
VERTEX
  5
9D2
  100
AcDbEntity
  8
Layer 1
  62
0
  100
AcDb2dVertex
  10
0.43885
  20
0.97895
  30
0.00000
  42
-0.0518
  70
32
  0
VERTEX
  5
9D3
  100
AcDbEntity
  8
Layer 1
  62
0
  100
AcDb2dVertex
  10
0.46545
  20
1.02684
  30
0.00000
  42
-0.0144
  70
32
  0
VERTEX
  5
9D4
  100
AcDbEntity
  8
Layer 1
  62
0
  100
AcDb2dVertex
  10
0.48500
  20
1.05400
  30
0.00000
  70
32
  0
VERTEX
  5
9D5
  100
AcDbEntity
  8
Layer 1
  62
0
  100
AcDb2dVertex
  10
0.56500
  20
1.14900
  30
0.00000
  42
-0.0321
  70
32
  0
VERTEX
  5
9D6
  100
AcDbEntity
  8
Layer 1
  62
0
  100
AcDb2dVertex
  10
0.58700
  20
1.19700
  30
0.00000
  42
-0.1046
  70
32
  0
VERTEX
  5
9D7
  100
AcDbEntity
  8
Layer 1
  62
0
  100
AcDb2dVertex
  10
0.60426
  20
1.20641
  30
0.00000
  42
-0.0591
  70
32
  0
VERTEX
  5
9D8
  100
AcDbEntity
  8
Layer 1
  62
0
  100
AcDb2dVertex
  10
0.60900
  20
1.20700
  30
0.00000
  42
-0.0280
  70
32
  0
VERTEX
  5
9D9
  100
AcDbEntity
  8
Layer 1
  62
0
  100
AcDb2dVertex
  10
0.62078
  20
1.20562
  30
0.00000
  70
32
  0
VERTEX
  5
9DA
  100
AcDbEntity
  8
Layer 1
  62
0
  100
AcDb2dVertex
  10
0.62500
  20
1.20500
  30
0.00000
  42
0.0577
  70
32
  0
VERTEX
  5
9DB
  100
AcDbEntity
  8
Layer 1
  62
0
  100
AcDb2dVertex
  10
0.64500
  20
1.20200
  30
0.00000
  42
-0.2042
  70
32
  0
VERTEX
  5
9DC
  100
AcDbEntity
  8
Layer 1
  62
0
  100
AcDb2dVertex
  10
0.65124
  20
1.20025
  30
0.00000
  42
-0.2420
  70
32
  0
VERTEX
  5
9DD
  100
AcDbEntity
  8
Layer 1
  62
0
  100
AcDb2dVertex
  10
0.65200
  20
1.19500
  30
0.00000
  42
0.0670
  70
32
  0
VERTEX
  5
9DE
  100
AcDbEntity
  8
Layer 1
  62
0
  100
AcDb2dVertex
  10
0.65000
  20
1.18700
  30
0.00000
  42
0.1942
  70
32
  0
VERTEX
  5
9DF
  100
AcDbEntity
  8
Layer 1
  62
0
  100
AcDb2dVertex
  10
0.65187
  20
1.18016
  30
0.00000
  42
0.2047
  70
32
  0
VERTEX
  5
9E0
  100
AcDbEntity
  8
Layer 1
  62
0
  100
AcDb2dVertex
  10
0.65500
  20
1.17900
  30
0.00000
  42
-0.1040
  70
32
  0
VERTEX
  5
9E1
  100
AcDbEntity
  8
Layer 1
  62
0
  100
AcDb2dVertex
  10
0.67362
  20
1.18863
  30
0.00000
  70
32
  0
VERTEX
  5
9E2
  100
AcDbEntity
  8
Layer 1
  62
0
  100
AcDb2dVertex
  10
0.67700
  20
1.18900
  30
0.00000
  42
-0.3555
  70
32
  0
VERTEX
  5
9E3
  100
AcDbEntity
  8
Layer 1
  62
0
  100
AcDb2dVertex
  10
0.68892
  20
1.18024
  30
0.00000
  70
32
  0
VERTEX
  5
9E4
  100
AcDbEntity
  8
Layer 1
  62
0
  100
AcDb2dVertex
  10
0.68900
  20
1.18000
  30
0.00000
  42
0.0690
  70
32
  0
VERTEX
  5
9E5
  100
AcDbEntity
  8
Layer 1
  62
0
  100
AcDb2dVertex
  10
0.69600
  20
1.16300
  30
0.00000
  42
0.0959
  70
32
  0
VERTEX
  5
9E6
  100
AcDbEntity
  8
Layer 1
  62
0
  100
AcDb2dVertex
  10
0.70490
  20
1.15172
  30
0.00000
  42
0.0187
  70
32
  0
VERTEX
  5
9E7
  100
AcDbEntity
  8
Layer 1
  62
0
  100
AcDb2dVertex
  10
0.71700
  20
1.14100
  30
0.00000
  42
-0.1116
  70
32
  0
VERTEX
  5
9E8
  100
AcDbEntity
  8
Layer 1
  62
0
  100
AcDb2dVertex
  10
0.73260
  20
1.12412
  30
0.00000
  42
-0.1190
  70
32
  0
VERTEX
  5
9E9
  100
AcDbEntity
  8
Layer 1
  62
0
  100
AcDb2dVertex
  10
0.73500
  20
1.11500
  30
0.00000
  42
-0.0587
  70
32
  0
VERTEX
  5
9EA
  100
AcDbEntity
  8
Layer 1
  62
0
  100
AcDb2dVertex
  10
0.72955
  20
1.08024
  30
0.00000
  42
-0.0120
  70
32
  0
VERTEX
  5
9EB
  100
AcDbEntity
  8
Layer 1
  62
0
  100
AcDb2dVertex
  10
0.72500
  20
1.06400
  30
0.00000
  42
0.0532
  70
32
  0
VERTEX
  5
9EC
  100
AcDbEntity
  8
Layer 1
  62
0
  100
AcDb2dVertex
  10
0.71444
  20
1.02001
  30
0.00000
  42
0.0253
  70
32
  0
VERTEX
  5
9ED
  100
AcDbEntity
  8
Layer 1
  62
0
  100
AcDb2dVertex
  10
0.71400
  20
1.01200
  30
0.00000
  42
0.0948
  70
32
  0
VERTEX
  5
9EE
  100
AcDbEntity
  8
Layer 1
  62
0
  100
AcDb2dVertex
  10
0.71685
  20
0.99240
  30
0.00000
  42
0.0931
  70
32
  0
VERTEX
  5
9EF
  100
AcDbEntity
  8
Layer 1
  62
0
  100
AcDb2dVertex
  10
0.71900
  20
0.98900
  30
0.00000
  70
32
  0
VERTEX
  5
9F0
  100
AcDbEntity
  8
Layer 1
  62
0
  100
AcDb2dVertex
  10
0.72200
  20
0.98900
  30
0.00000
  70
32
  0
VERTEX
  5
9F1
  100
AcDbEntity
  8
Layer 1
  62
0
  100
AcDb2dVertex
  10
0.74000
  20
1.00700
  30
0.00000
  42
0.1387
  70
32
  0
VERTEX
  5
9F2
  100
AcDbEntity
  8
Layer 1
  62
0
  100
AcDb2dVertex
  10
0.76694
  20
1.02343
  30
0.00000
  42
0.0750
  70
32
  0
VERTEX
  5
9F3
  100
AcDbEntity
  8
Layer 1
  62
0
  100
AcDb2dVertex
  10
0.79133
  20
1.05883
  30
0.00000
  42
0.0249
  70
32
  0
VERTEX
  5
9F4
  100
AcDbEntity
  8
Layer 1
  62
0
  100
AcDb2dVertex
  10
0.80400
  20
1.08700
  30
0.00000
  42
-0.0592
  70
32
  0
VERTEX
  5
9F5
  100
AcDbEntity
  8
Layer 1
  62
0
  100
AcDb2dVertex
  10
0.83305
  20
1.14662
  30
0.00000
  42
-0.0937
  70
32
  0
VERTEX
  5
9F6
  100
AcDbEntity
  8
Layer 1
  62
0
  100
AcDb2dVertex
  10
0.86487
  20
1.18048
  30
0.00000
  42
-0.0392
  70
32
  0
VERTEX
  5
9F7
  100
AcDbEntity
  8
Layer 1
  62
0
  100
AcDb2dVertex
  10
0.87600
  20
1.18700
  30
0.00000
  42
0.0881
  70
32
  0
VERTEX
  5
9F8
  100
AcDbEntity
  8
Layer 1
  62
0
  100
AcDb2dVertex
  10
0.89132
  20
1.19877
  30
0.00000
  42
0.0324
  70
32
  0
VERTEX
  5
9F9
  100
AcDbEntity
  8
Layer 1
  62
0
  100
AcDb2dVertex
  10
0.90700
  20
1.21700
  30
0.00000
  42
-0.2405
  70
32
  0
VERTEX
  5
9FA
  100
AcDbEntity
  8
Layer 1
  62
0
  100
AcDb2dVertex
  10
0.94237
  20
1.23684
  30
0.00000
  70
32
  0
VERTEX
  5
9FB
  100
AcDbEntity
  8
Layer 1
  62
0
  100
AcDb2dVertex
  10
0.94700
  20
1.23700
  30
0.00000
  42
-0.2613
  70
32
  0
VERTEX
  5
9FC
  100
AcDbEntity
  8
Layer 1
  62
0
  100
AcDb2dVertex
  10
0.95804
  20
1.23198
  30
0.00000
  42
-0.0925
  70
32
  0
VERTEX
  5
9FD
  100
AcDbEntity
  8
Layer 1
  62
0
  100
AcDb2dVertex
  10
0.96100
  20
1.22500
  30
0.00000
  70
32
  0
SEQEND
  5
9FE
  100
AcDbEntity
  8
Layer 1
  62
0
  0
POLYLINE
  5
9FF
  100
AcDbEntity
  8
Layer 1
  62
0
  100
AcDb2dPolyline
 66
     1
  10
0
  20
0
  30
0
  70
1
  0
VERTEX
  5
A00
  100
AcDbEntity
  8
Layer 1
  62
0
  100
AcDb2dVertex
  10
1.35100
  20
0.56200
  30
0.00000
  42
-0.1153
  70
32
  0
VERTEX
  5
A01
  100
AcDbEntity
  8
Layer 1
  62
0
  100
AcDb2dVertex
  10
1.33710
  20
0.50652
  30
0.00000
  42
-0.0494
  70
32
  0
VERTEX
  5
A02
  100
AcDbEntity
  8
Layer 1
  62
0
  100
AcDb2dVertex
  10
1.31600
  20
0.47300
  30
0.00000
  42
-0.0994
  70
32
  0
VERTEX
  5
A03
  100
AcDbEntity
  8
Layer 1
  62
0
  100
AcDb2dVertex
  10
1.28141
  20
0.43901
  30
0.00000
  42
-0.1421
  70
32
  0
VERTEX
  5
A04
  100
AcDbEntity
  8
Layer 1
  62
0
  100
AcDb2dVertex
  10
1.24100
  20
0.42700
  30
0.00000
  42
-0.0554
  70
32
  0
VERTEX
  5
A05
  100
AcDbEntity
  8
Layer 1
  62
0
  100
AcDb2dVertex
  10
1.21100
  20
0.43100
  30
0.00000
  42
0.0592
  70
32
  0
VERTEX
  5
A06
  100
AcDbEntity
  8
Layer 1
  62
0
  100
AcDb2dVertex
  10
1.18400
  20
0.43500
  30
0.00000
  42
0.1313
  70
32
  0
VERTEX
  5
A07
  100
AcDbEntity
  8
Layer 1
  62
0
  100
AcDb2dVertex
  10
1.17360
  20
0.43094
  30
0.00000
  42
0.0377
  70
32
  0
VERTEX
  5
A08
  100
AcDbEntity
  8
Layer 1
  62
0
  100
AcDb2dVertex
  10
1.15200
  20
0.41400
  30
0.00000
  42
-0.0811
  70
32
  0
VERTEX
  5
A09
  100
AcDbEntity
  8
Layer 1
  62
0
  100
AcDb2dVertex
  10
1.12770
  20
0.39666
  30
0.00000
  42
-0.1029
  70
32
  0
VERTEX
  5
A0A
  100
AcDbEntity
  8
Layer 1
  62
0
  100
AcDb2dVertex
  10
1.11700
  20
0.39400
  30
0.00000
  42
-0.1667
  70
32
  0
VERTEX
  5
A0B
  100
AcDbEntity
  8
Layer 1
  62
0
  100
AcDb2dVertex
  10
1.10100
  20
0.40100
  30
0.00000
  42
-0.1493
  70
32
  0
VERTEX
  5
A0C
  100
AcDbEntity
  8
Layer 1
  62
0
  100
AcDb2dVertex
  10
1.09159
  20
0.41180
  30
0.00000
  42
-0.0856
  70
32
  0
VERTEX
  5
A0D
  100
AcDbEntity
  8
Layer 1
  62
0
  100
AcDb2dVertex
  10
1.09100
  20
0.41500
  30
0.00000
  42
-0.1080
  70
32
  0
VERTEX
  5
A0E
  100
AcDbEntity
  8
Layer 1
  62
0
  100
AcDb2dVertex
  10
1.09507
  20
0.42682
  30
0.00000
  42
-0.0388
  70
32
  0
VERTEX
  5
A0F
  100
AcDbEntity
  8
Layer 1
  62
0
  100
AcDb2dVertex
  10
1.11300
  20
0.45400
  30
0.00000
  42
0.0348
  70
32
  0
VERTEX
  5
A10
  100
AcDbEntity
  8
Layer 1
  62
0
  100
AcDb2dVertex
  10
1.13178
  20
0.48150
  30
0.00000
  42
0.1436
  70
32
  0
VERTEX
  5
A11
  100
AcDbEntity
  8
Layer 1
  62
0
  100
AcDb2dVertex
  10
1.13404
  20
0.48879
  30
0.00000
  70
32
  0
VERTEX
  5
A12
  100
AcDbEntity
  8
Layer 1
  62
0
  100
AcDb2dVertex
  10
1.13400
  20
0.48900
  30
0.00000
  70
32
  0
VERTEX
  5
A13
  100
AcDbEntity
  8
Layer 1
  62
0
  100
AcDb2dVertex
  10
1.12553
  20
0.53149
  30
0.00000
  70
32
  0
VERTEX
  5
A14
  100
AcDbEntity
  8
Layer 1
  62
0
  100
AcDb2dVertex
  10
1.12400
  20
0.53900
  30
0.00000
  42
-0.1897
  70
32
  0
VERTEX
  5
A15
  100
AcDbEntity
  8
Layer 1
  62
0
  100
AcDb2dVertex
  10
1.14839
  20
0.60188
  30
0.00000
  42
-0.0555
  70
32
  0
VERTEX
  5
A16
  100
AcDbEntity
  8
Layer 1
  62
0
  100
AcDb2dVertex
  10
1.17100
  20
0.62200
  30
0.00000
  42
-0.1579
  70
32
  0
VERTEX
  5
A17
  100
AcDbEntity
  8
Layer 1
  62
0
  100
AcDb2dVertex
  10
1.26400
  20
0.65200
  30
0.00000
  42
-0.1842
  70
32
  0
VERTEX
  5
A18
  100
AcDbEntity
  8
Layer 1
  62
0
  100
AcDb2dVertex
  10
1.27384
  20
0.64920
  30
0.00000
  42
-0.2174
  70
32
  0
VERTEX
  5
A19
  100
AcDbEntity
  8
Layer 1
  62
0
  100
AcDb2dVertex
  10
1.27600
  20
0.64400
  30
0.00000
  42
-0.2172
  70
32
  0
VERTEX
  5
A1A
  100
AcDbEntity
  8
Layer 1
  62
0
  100
AcDb2dVertex
  10
1.27233
  20
0.63835
  30
0.00000
  42
-0.0649
  70
32
  0
VERTEX
  5
A1B
  100
AcDbEntity
  8
Layer 1
  62
0
  100
AcDb2dVertex
  10
1.25334
  20
0.62804
  30
0.00000
  70
32
  0
VERTEX
  5
A1C
  100
AcDbEntity
  8
Layer 1
  62
0
  100
AcDb2dVertex
  10
1.24600
  20
0.62500
  30
0.00000
  42
0.0394
  70
32
  0
VERTEX
  5
A1D
  100
AcDbEntity
  8
Layer 1
  62
0
  100
AcDb2dVertex
  10
1.20213
  20
0.60746
  30
0.00000
  42
0.0491
  70
32
  0
VERTEX
  5
A1E
  100
AcDbEntity
  8
Layer 1
  62
0
  100
AcDb2dVertex
  10
1.18900
  20
0.59900
  30
0.00000
  42
0.1536
  70
32
  0
VERTEX
  5
A1F
  100
AcDbEntity
  8
Layer 1
  62
0
  100
AcDb2dVertex
  10
1.16108
  20
0.56143
  30
0.00000
  42
0.0813
  70
32
  0
VERTEX
  5
A20
  100
AcDbEntity
  8
Layer 1
  62
0
  100
AcDb2dVertex
  10
1.15700
  20
0.53500
  30
0.00000
  42
0.1311
  70
32
  0
VERTEX
  5
A21
  100
AcDbEntity
  8
Layer 1
  62
0
  100
AcDb2dVertex
  10
1.16548
  20
0.50748
  30
0.00000
  42
0.0647
  70
32
  0
VERTEX
  5
A22
  100
AcDbEntity
  8
Layer 1
  62
0
  100
AcDb2dVertex
  10
1.18400
  20
0.48400
  30
0.00000
  42
0.2009
  70
32
  0
VERTEX
  5
A23
  100
AcDbEntity
  8
Layer 1
  62
0
  100
AcDb2dVertex
  10
1.22946
  20
0.45967
  30
0.00000
  42
0.0299
  70
32
  0
VERTEX
  5
A24
  100
AcDbEntity
  8
Layer 1
  62
0
  100
AcDb2dVertex
  10
1.24100
  20
0.45900
  30
0.00000
  42
0.1839
  70
32
  0
VERTEX
  5
A25
  100
AcDbEntity
  8
Layer 1
  62
0
  100
AcDb2dVertex
  10
1.27863
  20
0.47361
  30
0.00000
  42
0.0887
  70
32
  0
VERTEX
  5
A26
  100
AcDbEntity
  8
Layer 1
  62
0
  100
AcDb2dVertex
  10
1.30382
  20
0.50598
  30
0.00000
  42
0.0164
  70
32
  0
VERTEX
  5
A27
  100
AcDbEntity
  8
Layer 1
  62
0
  100
AcDb2dVertex
  10
1.31000
  20
0.51800
  30
0.00000
  42
-0.0144
  70
32
  0
VERTEX
  5
A28
  100
AcDbEntity
  8
Layer 1
  62
0
  100
AcDb2dVertex
  10
1.33720
  20
0.57439
  30
0.00000
  42
-0.1014
  70
32
  0
VERTEX
  5
A29
  100
AcDbEntity
  8
Layer 1
  62
0
  100
AcDb2dVertex
  10
1.33900
  20
0.57700
  30
0.00000
  42
-0.3073
  70
32
  0
VERTEX
  5
A2A
  100
AcDbEntity
  8
Layer 1
  62
0
  100
AcDb2dVertex
  10
1.34922
  20
0.57132
  30
0.00000
  42
-0.1149
  70
32
  0
VERTEX
  5
A2B
  100
AcDbEntity
  8
Layer 1
  62
0
  100
AcDb2dVertex
  10
1.35100
  20
0.56200
  30
0.00000
  70
32
  0
SEQEND
  5
A2C
  100
AcDbEntity
  8
Layer 1
  62
0
  0
POLYLINE
  5
A2D
  100
AcDbEntity
  8
Layer 1
  62
0
  100
AcDb2dPolyline
 66
     1
  10
0
  20
0
  30
0
  70
1
  0
VERTEX
  5
A2E
  100
AcDbEntity
  8
Layer 1
  62
0
  100
AcDb2dVertex
  10
0.20400
  20
1.60200
  30
0.00000
  42
-0.2124
  70
32
  0
VERTEX
  5
A2F
  100
AcDbEntity
  8
Layer 1
  62
0
  100
AcDb2dVertex
  10
0.19963
  20
1.59444
  30
0.00000
  42
-0.0785
  70
32
  0
VERTEX
  5
A30
  100
AcDbEntity
  8
Layer 1
  62
0
  100
AcDb2dVertex
  10
0.18032
  20
1.58357
  30
0.00000
  42
-0.0359
  70
32
  0
VERTEX
  5
A31
  100
AcDbEntity
  8
Layer 1
  62
0
  100
AcDb2dVertex
  10
0.12495
  20
1.56642
  30
0.00000
  70
32
  0
VERTEX
  5
A32
  100
AcDbEntity
  8
Layer 1
  62
0
  100
AcDb2dVertex
  10
0.11500
  20
1.56400
  30
0.00000
  70
32
  0
VERTEX
  5
A33
  100
AcDbEntity
  8
Layer 1
  62
0
  100
AcDb2dVertex
  10
0.10500
  20
1.57900
  30
0.00000
  70
32
  0
VERTEX
  5
A34
  100
AcDbEntity
  8
Layer 1
  62
0
  100
AcDb2dVertex
  10
0.11500
  20
1.56400
  30
0.00000
  70
32
  0
VERTEX
  5
A35
  100
AcDbEntity
  8
Layer 1
  62
0
  100
AcDb2dVertex
  10
0.04900
  20
1.50100
  30
0.00000
  42
-0.1843
  70
32
  0
VERTEX
  5
A36
  100
AcDbEntity
  8
Layer 1
  62
0
  100
AcDb2dVertex
  10
0.03815
  20
1.50495
  30
0.00000
  42
-0.0796
  70
32
  0
VERTEX
  5
A37
  100
AcDbEntity
  8
Layer 1
  62
0
  100
AcDb2dVertex
  10
0.02107
  20
1.52420
  30
0.00000
  42
-0.0243
  70
32
  0
VERTEX
  5
A38
  100
AcDbEntity
  8
Layer 1
  62
0
  100
AcDb2dVertex
  10
0.00900
  20
1.54400
  30
0.00000
  42
-0.2167
  70
32
  0
VERTEX
  5
A39
  100
AcDbEntity
  8
Layer 1
  62
0
  100
AcDb2dVertex
  10
0.00914
  20
1.55393
  30
0.00000
  42
-0.2293
  70
32
  0
VERTEX
  5
A3A
  100
AcDbEntity
  8
Layer 1
  62
0
  100
AcDb2dVertex
  10
0.01781
  20
1.55884
  30
0.00000
  70
32
  0
VERTEX
  5
A3B
  100
AcDbEntity
  8
Layer 1
  62
0
  100
AcDb2dVertex
  10
0.01900
  20
1.55900
  30
0.00000
  42
-0.0608
  70
32
  0
VERTEX
  5
A3C
  100
AcDbEntity
  8
Layer 1
  62
0
  100
AcDb2dVertex
  10
0.02970
  20
1.56288
  30
0.00000
  70
32
  0
VERTEX
  5
A3D
  100
AcDbEntity
  8
Layer 1
  62
0
  100
AcDb2dVertex
  10
0.04500
  20
1.56700
  30
0.00000
  42
0.1294
  70
32
  0
VERTEX
  5
A3E
  100
AcDbEntity
  8
Layer 1
  62
0
  100
AcDb2dVertex
  10
0.05977
  20
1.57243
  30
0.00000
  42
0.2369
  70
32
  0
VERTEX
  5
A3F
  100
AcDbEntity
  8
Layer 1
  62
0
  100
AcDb2dVertex
  10
0.06400
  20
1.58100
  30
0.00000
  42
0.0932
  70
32
  0
VERTEX
  5
A40
  100
AcDbEntity
  8
Layer 1
  62
0
  100
AcDb2dVertex
  10
0.05933
  20
1.59865
  30
0.00000
  70
32
  0
VERTEX
  5
A41
  100
AcDbEntity
  8
Layer 1
  62
0
  100
AcDb2dVertex
  10
0.05500
  20
1.60800
  30
0.00000
  42
-0.0722
  70
32
  0
VERTEX
  5
A42
  100
AcDbEntity
  8
Layer 1
  62
0
  100
AcDb2dVertex
  10
0.04564
  20
1.62880
  30
0.00000
  42
-0.0565
  70
32
  0
VERTEX
  5
A43
  100
AcDbEntity
  8
Layer 1
  62
0
  100
AcDb2dVertex
  10
0.04500
  20
1.63400
  30
0.00000
  42
-0.2005
  70
32
  0
VERTEX
  5
A44
  100
AcDbEntity
  8
Layer 1
  62
0
  100
AcDb2dVertex
  10
0.05077
  20
1.65042
  30
0.00000
  42
-0.1865
  70
32
  0
VERTEX
  5
A45
  100
AcDbEntity
  8
Layer 1
  62
0
  100
AcDb2dVertex
  10
0.06706
  20
1.65690
  30
0.00000
  70
32
  0
VERTEX
  5
A46
  100
AcDbEntity
  8
Layer 1
  62
0
  100
AcDb2dVertex
  10
0.07000
  20
1.65700
  30
0.00000
  42
-0.1527
  70
32
  0
VERTEX
  5
A47
  100
AcDbEntity
  8
Layer 1
  62
0
  100
AcDb2dVertex
  10
0.08345
  20
1.65175
  30
0.00000
  42
-0.0595
  70
32
  0
VERTEX
  5
A48
  100
AcDbEntity
  8
Layer 1
  62
0
  100
AcDb2dVertex
  10
0.10100
  20
1.63500
  30
0.00000
  42
0.0336
  70
32
  0
VERTEX
  5
A49
  100
AcDbEntity
  8
Layer 1
  62
0
  100
AcDb2dVertex
  10
0.11999
  20
1.61603
  30
0.00000
  42
0.1459
  70
32
  0
VERTEX
  5
A4A
  100
AcDbEntity
  8
Layer 1
  62
0
  100
AcDb2dVertex
  10
0.12400
  20
1.61400
  30
0.00000
  42
0.1538
  70
32
  0
VERTEX
  5
A4B
  100
AcDbEntity
  8
Layer 1
  62
0
  100
AcDb2dVertex
  10
0.13346
  20
1.61834
  30
0.00000
  42
0.0563
  70
32
  0
VERTEX
  5
A4C
  100
AcDbEntity
  8
Layer 1
  62
0
  100
AcDb2dVertex
  10
0.14600
  20
1.63100
  30
0.00000
  42
-0.0683
  70
32
  0
VERTEX
  5
A4D
  100
AcDbEntity
  8
Layer 1
  62
0
  100
AcDb2dVertex
  10
0.16143
  20
1.64628
  30
0.00000
  42
-0.1472
  70
32
  0
VERTEX
  5
A4E
  100
AcDbEntity
  8
Layer 1
  62
0
  100
AcDb2dVertex
  10
0.16900
  20
1.64900
  30
0.00000
  42
-0.1767
  70
32
  0
VERTEX
  5
A4F
  100
AcDbEntity
  8
Layer 1
  62
0
  100
AcDb2dVertex
  10
0.17530
  20
1.64538
  30
0.00000
  42
-0.0574
  70
32
  0
VERTEX
  5
A50
  100
AcDbEntity
  8
Layer 1
  62
0
  100
AcDb2dVertex
  10
0.19109
  20
1.62422
  30
0.00000
  42
-0.0141
  70
32
  0
VERTEX
  5
A51
  100
AcDbEntity
  8
Layer 1
  62
0
  100
AcDb2dVertex
  10
0.20400
  20
1.60200
  30
0.00000
  70
32
  0
SEQEND
  5
A52
  100
AcDbEntity
  8
Layer 1
  62
0
  0
POLYLINE
  5
A53
  100
AcDbEntity
  8
Layer 1
  62
0
  100
AcDb2dPolyline
 66
     1
  10
0
  20
0
  30
0
  70
1
  0
VERTEX
  5
A54
  100
AcDbEntity
  8
Layer 1
  62
0
  100
AcDb2dVertex
  10
0.32200
  20
1.56400
  30
0.00000
  42
-0.0987
  70
32
  0
VERTEX
  5
A55
  100
AcDbEntity
  8
Layer 1
  62
0
  100
AcDb2dVertex
  10
0.31848
  20
1.55620
  30
0.00000
  42
-0.0234
  70
32
  0
VERTEX
  5
A56
  100
AcDbEntity
  8
Layer 1
  62
0
  100
AcDb2dVertex
  10
0.28910
  20
1.51465
  30
0.00000
  70
32
  0
VERTEX
  5
A57
  100
AcDbEntity
  8
Layer 1
  62
0
  100
AcDb2dVertex
  10
0.26400
  20
1.48200
  30
0.00000
  42
0.0128
  70
32
  0
VERTEX
  5
A58
  100
AcDbEntity
  8
Layer 1
  62
0
  100
AcDb2dVertex
  10
0.27400
  20
1.42700
  30
0.00000
  42
-0.1351
  70
32
  0
VERTEX
  5
A59
  100
AcDbEntity
  8
Layer 1
  62
0
  100
AcDb2dVertex
  10
0.26162
  20
1.38508
  30
0.00000
  42
-0.0787
  70
32
  0
VERTEX
  5
A5A
  100
AcDbEntity
  8
Layer 1
  62
0
  100
AcDb2dVertex
  10
0.22769
  20
1.34559
  30
0.00000
  42
-0.0227
  70
32
  0
VERTEX
  5
A5B
  100
AcDbEntity
  8
Layer 1
  62
0
  100
AcDb2dVertex
  10
0.20700
  20
1.32900
  30
0.00000
  42
-0.0619
  70
32
  0
VERTEX
  5
A5C
  100
AcDbEntity
  8
Layer 1
  62
0
  100
AcDb2dVertex
  10
0.14635
  20
1.29194
  30
0.00000
  42
-0.0954
  70
32
  0
VERTEX
  5
A5D
  100
AcDbEntity
  8
Layer 1
  62
0
  100
AcDb2dVertex
  10
0.09319
  20
1.27905
  30
0.00000
  70
32
  0
VERTEX
  5
A5E
  100
AcDbEntity
  8
Layer 1
  62
0
  100
AcDb2dVertex
  10
0.09000
  20
1.27900
  30
0.00000
  42
-0.1059
  70
32
  0
VERTEX
  5
A5F
  100
AcDbEntity
  8
Layer 1
  62
0
  100
AcDb2dVertex
  10
0.08147
  20
1.28553
  30
0.00000
  70
32
  0
VERTEX
  5
A60
  100
AcDbEntity
  8
Layer 1
  62
0
  100
AcDb2dVertex
  10
0.08074
  20
1.28626
  30
0.00000
  70
32
  0
VERTEX
  5
A61
  100
AcDbEntity
  8
Layer 1
  62
0
  100
AcDb2dVertex
  10
0.08000
  20
1.28700
  30
0.00000
  42
-0.0102
  70
32
  0
VERTEX
  5
A62
  100
AcDbEntity
  8
Layer 1
  62
0
  100
AcDb2dVertex
  10
0.16000
  20
1.33200
  30
0.00000
  42
0.0562
  70
32
  0
VERTEX
  5
A63
  100
AcDbEntity
  8
Layer 1
  62
0
  100
AcDb2dVertex
  10
0.21000
  20
1.36916
  30
0.00000
  42
0.0914
  70
32
  0
VERTEX
  5
A64
  100
AcDbEntity
  8
Layer 1
  62
0
  100
AcDb2dVertex
  10
0.23352
  20
1.40058
  30
0.00000
  42
0.1093
  70
32
  0
VERTEX
  5
A65
  100
AcDbEntity
  8
Layer 1
  62
0
  100
AcDb2dVertex
  10
0.23900
  20
1.42400
  30
0.00000
  42
0.1739
  70
32
  0
VERTEX
  5
A66
  100
AcDbEntity
  8
Layer 1
  62
0
  100
AcDb2dVertex
  10
0.22513
  20
1.46612
  30
0.00000
  42
0.0606
  70
32
  0
VERTEX
  5
A67
  100
AcDbEntity
  8
Layer 1
  62
0
  100
AcDb2dVertex
  10
0.21200
  20
1.47900
  30
0.00000
  70
32
  0
VERTEX
  5
A68
  100
AcDbEntity
  8
Layer 1
  62
0
  100
AcDb2dVertex
  10
0.23400
  20
1.50200
  30
0.00000
  70
32
  0
VERTEX
  5
A69
  100
AcDbEntity
  8
Layer 1
  62
0
  100
AcDb2dVertex
  10
0.21200
  20
1.47900
  30
0.00000
  42
0.1183
  70
32
  0
VERTEX
  5
A6A
  100
AcDbEntity
  8
Layer 1
  62
0
  100
AcDb2dVertex
  10
0.17530
  20
1.49966
  30
0.00000
  42
0.0644
  70
32
  0
VERTEX
  5
A6B
  100
AcDbEntity
  8
Layer 1
  62
0
  100
AcDb2dVertex
  10
0.15700
  20
1.50200
  30
0.00000
  42
0.1414
  70
32
  0
VERTEX
  5
A6C
  100
AcDbEntity
  8
Layer 1
  62
0
  100
AcDb2dVertex
  10
0.11672
  20
1.48957
  30
0.00000
  42
0.0821
  70
32
  0
VERTEX
  5
A6D
  100
AcDbEntity
  8
Layer 1
  62
0
  100
AcDb2dVertex
  10
0.07992
  20
1.45586
  30
0.00000
  42
0.0304
  70
32
  0
VERTEX
  5
A6E
  100
AcDbEntity
  8
Layer 1
  62
0
  100
AcDb2dVertex
  10
0.06000
  20
1.42800
  30
0.00000
  42
0.0146
  70
32
  0
VERTEX
  5
A6F
  100
AcDbEntity
  8
Layer 1
  62
0
  100
AcDb2dVertex
  10
0.02103
  20
1.36455
  30
0.00000
  42
0.0715
  70
32
  0
VERTEX
  5
A70
  100
AcDbEntity
  8
Layer 1
  62
0
  100
AcDb2dVertex
  10
0.01661
  20
1.35469
  30
0.00000
  42
0.5032
  70
32
  0
VERTEX
  5
A71
  100
AcDbEntity
  8
Layer 1
  62
0
  100
AcDb2dVertex
  10
0.01700
  20
1.35400
  30
0.00000
  42
-0.1907
  70
32
  0
VERTEX
  5
A72
  100
AcDbEntity
  8
Layer 1
  62
0
  100
AcDb2dVertex
  10
0.00757
  20
1.35675
  30
0.00000
  42
-0.2119
  70
32
  0
VERTEX
  5
A73
  100
AcDbEntity
  8
Layer 1
  62
0
  100
AcDb2dVertex
  10
0.00500
  20
1.36400
  30
0.00000
  42
-0.1093
  70
32
  0
VERTEX
  5
A74
  100
AcDbEntity
  8
Layer 1
  62
0
  100
AcDb2dVertex
  10
0.01727
  20
1.41490
  30
0.00000
  42
-0.0713
  70
32
  0
VERTEX
  5
A75
  100
AcDbEntity
  8
Layer 1
  62
0
  100
AcDb2dVertex
  10
0.05413
  20
1.46949
  30
0.00000
  70
32
  0
VERTEX
  5
A76
  100
AcDbEntity
  8
Layer 1
  62
0
  100
AcDb2dVertex
  10
0.06000
  20
1.47600
  30
0.00000
  42
-0.0677
  70
32
  0
VERTEX
  5
A77
  100
AcDbEntity
  8
Layer 1
  62
0
  100
AcDb2dVertex
  10
0.10647
  20
1.51770
  30
0.00000
  42
-0.1092
  70
32
  0
VERTEX
  5
A78
  100
AcDbEntity
  8
Layer 1
  62
0
  100
AcDb2dVertex
  10
0.15225
  20
1.53607
  30
0.00000
  42
-0.0363
  70
32
  0
VERTEX
  5
A79
  100
AcDbEntity
  8
Layer 1
  62
0
  100
AcDb2dVertex
  10
0.16500
  20
1.53700
  30
0.00000
  42
-0.0455
  70
32
  0
VERTEX
  5
A7A
  100
AcDbEntity
  8
Layer 1
  62
0
  100
AcDb2dVertex
  10
0.18700
  20
1.53400
  30
0.00000
  70
32
  0
VERTEX
  5
A7B
  100
AcDbEntity
  8
Layer 1
  62
0
  100
AcDb2dVertex
  10
0.19260
  20
1.53283
  30
0.00000
  70
32
  0
VERTEX
  5
A7C
  100
AcDbEntity
  8
Layer 1
  62
0
  100
AcDb2dVertex
  10
0.20196
  20
1.53105
  30
0.00000
  42
0.0820
  70
32
  0
VERTEX
  5
A7D
  100
AcDbEntity
  8
Layer 1
  62
0
  100
AcDb2dVertex
  10
0.20900
  20
1.53100
  30
0.00000
  42
0.1405
  70
32
  0
VERTEX
  5
A7E
  100
AcDbEntity
  8
Layer 1
  62
0
  100
AcDb2dVertex
  10
0.22147
  20
1.53429
  30
0.00000
  42
0.0525
  70
32
  0
VERTEX
  5
A7F
  100
AcDbEntity
  8
Layer 1
  62
0
  100
AcDb2dVertex
  10
0.24786
  20
1.55295
  30
0.00000
  70
32
  0
VERTEX
  5
A80
  100
AcDbEntity
  8
Layer 1
  62
0
  100
AcDb2dVertex
  10
0.25500
  20
1.55900
  30
0.00000
  42
-0.0537
  70
32
  0
VERTEX
  5
A81
  100
AcDbEntity
  8
Layer 1
  62
0
  100
AcDb2dVertex
  10
0.28561
  20
1.58234
  30
0.00000
  42
-0.1196
  70
32
  0
VERTEX
  5
A82
  100
AcDbEntity
  8
Layer 1
  62
0
  100
AcDb2dVertex
  10
0.29900
  20
1.58700
  30
0.00000
  42
-0.1801
  70
32
  0
VERTEX
  5
A83
  100
AcDbEntity
  8
Layer 1
  62
0
  100
AcDb2dVertex
  10
0.31513
  20
1.58204
  30
0.00000
  42
-0.2061
  70
32
  0
VERTEX
  5
A84
  100
AcDbEntity
  8
Layer 1
  62
0
  100
AcDb2dVertex
  10
0.32191
  20
1.56672
  30
0.00000
  70
32
  0
VERTEX
  5
A85
  100
AcDbEntity
  8
Layer 1
  62
0
  100
AcDb2dVertex
  10
0.32200
  20
1.56400
  30
0.00000
  70
32
  0
SEQEND
  5
A86
  100
AcDbEntity
  8
Layer 1
  62
0
  0
POLYLINE
  5
A87
  100
AcDbEntity
  8
Layer 1
  62
0
  100
AcDb2dPolyline
 66
     1
  10
0
  20
0
  30
0
  70
1
  0
VERTEX
  5
A88
  100
AcDbEntity
  8
Layer 1
  62
0
  100
AcDb2dVertex
  10
1.61100
  20
0.06500
  30
0.00000
  42
-0.0787
  70
32
  0
VERTEX
  5
A89
  100
AcDbEntity
  8
Layer 1
  62
0
  100
AcDb2dVertex
  10
1.60795
  20
0.03984
  30
0.00000
  42
-0.1893
  70
32
  0
VERTEX
  5
A8A
  100
AcDbEntity
  8
Layer 1
  62
0
  100
AcDb2dVertex
  10
1.60100
  20
0.03021
  30
0.00000
  42
-0.1260
  70
32
  0
VERTEX
  5
A8B
  100
AcDbEntity
  8
Layer 1
  62
0
  100
AcDb2dVertex
  10
1.59600
  20
0.02900
  30
0.00000
  42
-0.0846
  70
32
  0
VERTEX
  5
A8C
  100
AcDbEntity
  8
Layer 1
  62
0
  100
AcDb2dVertex
  10
1.50400
  20
0.04400
  30
0.00000
  70
32
  0
VERTEX
  5
A8D
  100
AcDbEntity
  8
Layer 1
  62
0
  100
AcDb2dVertex
  10
1.50400
  20
0.07400
  30
0.00000
  70
32
  0
VERTEX
  5
A8E
  100
AcDbEntity
  8
Layer 1
  62
0
  100
AcDb2dVertex
  10
1.50400
  20
0.04400
  30
0.00000
  70
32
  0
VERTEX
  5
A8F
  100
AcDbEntity
  8
Layer 1
  62
0
  100
AcDb2dVertex
  10
1.41900
  20
0.01500
  30
0.00000
  70
32
  0
VERTEX
  5
A90
  100
AcDbEntity
  8
Layer 1
  62
0
  100
AcDb2dVertex
  10
1.40200
  20
0.02400
  30
0.00000
  42
0.0655
  70
32
  0
VERTEX
  5
A91
  100
AcDbEntity
  8
Layer 1
  62
0
  100
AcDb2dVertex
  10
1.39555
  20
0.06362
  30
0.00000
  70
32
  0
VERTEX
  5
A92
  100
AcDbEntity
  8
Layer 1
  62
0
  100
AcDb2dVertex
  10
1.39400
  20
0.06900
  30
0.00000
  42
-0.1744
  70
32
  0
VERTEX
  5
A93
  100
AcDbEntity
  8
Layer 1
  62
0
  100
AcDb2dVertex
  10
1.39833
  20
0.08385
  30
0.00000
  42
-0.2174
  70
32
  0
VERTEX
  5
A94
  100
AcDbEntity
  8
Layer 1
  62
0
  100
AcDb2dVertex
  10
1.41227
  20
0.08996
  30
0.00000
  70
32
  0
VERTEX
  5
A95
  100
AcDbEntity
  8
Layer 1
  62
0
  100
AcDb2dVertex
  10
1.41400
  20
0.09000
  30
0.00000
  42
-0.0414
  70
32
  0
VERTEX
  5
A96
  100
AcDbEntity
  8
Layer 1
  62
0
  100
AcDb2dVertex
  10
1.43600
  20
0.08700
  30
0.00000
  42
0.0368
  70
32
  0
VERTEX
  5
A97
  100
AcDbEntity
  8
Layer 1
  62
0
  100
AcDb2dVertex
  10
1.45900
  20
0.08400
  30
0.00000
  42
0.2823
  70
32
  0
VERTEX
  5
A98
  100
AcDbEntity
  8
Layer 1
  62
0
  100
AcDb2dVertex
  10
1.46735
  20
0.08953
  30
0.00000
  42
0.1001
  70
32
  0
VERTEX
  5
A99
  100
AcDbEntity
  8
Layer 1
  62
0
  100
AcDb2dVertex
  10
1.47214
  20
0.10733
  30
0.00000
  42
0.0277
  70
32
  0
VERTEX
  5
A9A
  100
AcDbEntity
  8
Layer 1
  62
0
  100
AcDb2dVertex
  10
1.47300
  20
0.12500
  30
0.00000
  42
-0.0852
  70
32
  0
VERTEX
  5
A9B
  100
AcDbEntity
  8
Layer 1
  62
0
  100
AcDb2dVertex
  10
1.47762
  20
0.15170
  30
0.00000
  42
-0.1967
  70
32
  0
VERTEX
  5
A9C
  100
AcDbEntity
  8
Layer 1
  62
0
  100
AcDb2dVertex
  10
1.48924
  20
0.16505
  30
0.00000
  42
-0.1085
  70
32
  0
VERTEX
  5
A9D
  100
AcDbEntity
  8
Layer 1
  62
0
  100
AcDb2dVertex
  10
1.49900
  20
0.16700
  30
0.00000
  42
-0.2571
  70
32
  0
VERTEX
  5
A9E
  100
AcDbEntity
  8
Layer 1
  62
0
  100
AcDb2dVertex
  10
1.51620
  20
0.15745
  30
0.00000
  42
-0.1016
  70
32
  0
VERTEX
  5
A9F
  100
AcDbEntity
  8
Layer 1
  62
0
  100
AcDb2dVertex
  10
1.52501
  20
0.13446
  30
0.00000
  70
32
  0
VERTEX
  5
AA0
  100
AcDbEntity
  8
Layer 1
  62
0
  100
AcDb2dVertex
  10
1.52600
  20
0.12900
  30
0.00000
  42
0.0609
  70
32
  0
VERTEX
  5
AA1
  100
AcDbEntity
  8
Layer 1
  62
0
  100
AcDb2dVertex
  10
1.53221
  20
0.09997
  30
0.00000
  42
0.1551
  70
32
  0
VERTEX
  5
AA2
  100
AcDbEntity
  8
Layer 1
  62
0
  100
AcDb2dVertex
  10
1.53848
  20
0.09093
  30
0.00000
  42
0.1033
  70
32
  0
VERTEX
  5
AA3
  100
AcDbEntity
  8
Layer 1
  62
0
  100
AcDb2dVertex
  10
1.54100
  20
0.09000
  30
0.00000
  70
32
  0
VERTEX
  5
AA4
  100
AcDbEntity
  8
Layer 1
  62
0
  100
AcDb2dVertex
  10
1.59200
  20
0.10500
  30
0.00000
  42
-0.2674
  70
32
  0
VERTEX
  5
AA5
  100
AcDbEntity
  8
Layer 1
  62
0
  100
AcDb2dVertex
  10
1.60641
  20
0.09355
  30
0.00000
  42
-0.0966
  70
32
  0
VERTEX
  5
AA6
  100
AcDbEntity
  8
Layer 1
  62
0
  100
AcDb2dVertex
  10
1.61089
  20
0.07069
  30
0.00000
  70
32
  0
VERTEX
  5
AA7
  100
AcDbEntity
  8
Layer 1
  62
0
  100
AcDb2dVertex
  10
1.61100
  20
0.06500
  30
0.00000
  70
32
  0
SEQEND
  5
AA8
  100
AcDbEntity
  8
Layer 1
  62
0
  0
POLYLINE
  5
AA9
  100
AcDbEntity
  8
Layer 1
  62
0
  100
AcDb2dPolyline
 66
     1
  10
0
  20
0
  30
0
  70
1
  0
VERTEX
  5
AAA
  100
AcDbEntity
  8
Layer 1
  62
0
  100
AcDb2dVertex
  10
0.18500
  20
1.45400
  30
0.00000
  42
-0.2537
  70
32
  0
VERTEX
  5
AAB
  100
AcDbEntity
  8
Layer 1
  62
0
  100
AcDb2dVertex
  10
0.17951
  20
1.44433
  30
0.00000
  42
-0.0454
  70
32
  0
VERTEX
  5
AAC
  100
AcDbEntity
  8
Layer 1
  62
0
  100
AcDb2dVertex
  10
0.17400
  20
1.44100
  30
0.00000
  70
32
  0
VERTEX
  5
AAD
  100
AcDbEntity
  8
Layer 1
  62
0
  100
AcDb2dVertex
  10
0.15700
  20
1.43000
  30
0.00000
  70
32
  0
VERTEX
  5
AAE
  100
AcDbEntity
  8
Layer 1
  62
0
  100
AcDb2dVertex
  10
0.15500
  20
1.42200
  30
0.00000
  42
0.1635
  70
32
  0
VERTEX
  5
AAF
  100
AcDbEntity
  8
Layer 1
  62
0
  100
AcDb2dVertex
  10
0.15958
  20
1.41204
  30
0.00000
  42
0.0542
  70
32
  0
VERTEX
  5
AB0
  100
AcDbEntity
  8
Layer 1
  62
0
  100
AcDb2dVertex
  10
0.17000
  20
1.40200
  30
0.00000
  42
-0.1012
  70
32
  0
VERTEX
  5
AB1
  100
AcDbEntity
  8
Layer 1
  62
0
  100
AcDb2dVertex
  10
0.18236
  20
1.38705
  30
0.00000
  42
-0.1080
  70
32
  0
VERTEX
  5
AB2
  100
AcDbEntity
  8
Layer 1
  62
0
  100
AcDb2dVertex
  10
0.18400
  20
1.38000
  30
0.00000
  42
-0.1634
  70
32
  0
VERTEX
  5
AB3
  100
AcDbEntity
  8
Layer 1
  62
0
  100
AcDb2dVertex
  10
0.17971
  20
1.36416
  30
0.00000
  42
-0.2170
  70
32
  0
VERTEX
  5
AB4
  100
AcDbEntity
  8
Layer 1
  62
0
  100
AcDb2dVertex
  10
0.16558
  20
1.35717
  30
0.00000
  70
32
  0
VERTEX
  5
AB5
  100
AcDbEntity
  8
Layer 1
  62
0
  100
AcDb2dVertex
  10
0.16200
  20
1.35700
  30
0.00000
  42
-0.1326
  70
32
  0
VERTEX
  5
AB6
  100
AcDbEntity
  8
Layer 1
  62
0
  100
AcDb2dVertex
  10
0.13352
  20
1.36565
  30
0.00000
  42
-0.0375
  70
32
  0
VERTEX
  5
AB7
  100
AcDbEntity
  8
Layer 1
  62
0
  100
AcDb2dVertex
  10
0.12000
  20
1.37500
  30
0.00000
  42
0.2197
  70
32
  0
VERTEX
  5
AB8
  100
AcDbEntity
  8
Layer 1
  62
0
  100
AcDb2dVertex
  10
0.11035
  20
1.36966
  30
0.00000
  42
0.0790
  70
32
  0
VERTEX
  5
AB9
  100
AcDbEntity
  8
Layer 1
  62
0
  100
AcDb2dVertex
  10
0.10300
  20
1.35700
  30
0.00000
  42
-0.0983
  70
32
  0
VERTEX
  5
ABA
  100
AcDbEntity
  8
Layer 1
  62
0
  100
AcDb2dVertex
  10
0.09417
  20
1.34223
  30
0.00000
  42
-0.1992
  70
32
  0
VERTEX
  5
ABB
  100
AcDbEntity
  8
Layer 1
  62
0
  100
AcDb2dVertex
  10
0.08700
  20
1.33900
  30
0.00000
  42
-0.1092
  70
32
  0
VERTEX
  5
ABC
  100
AcDbEntity
  8
Layer 1
  62
0
  100
AcDb2dVertex
  10
0.07583
  20
1.34315
  30
0.00000
  42
-0.0263
  70
32
  0
VERTEX
  5
ABD
  100
AcDbEntity
  8
Layer 1
  62
0
  100
AcDb2dVertex
  10
0.06500
  20
1.35000
  30
0.00000
  42
-0.0984
  70
32
  0
VERTEX
  5
ABE
  100
AcDbEntity
  8
Layer 1
  62
0
  100
AcDb2dVertex
  10
0.05156
  20
1.36458
  30
0.00000
  42
-0.1195
  70
32
  0
VERTEX
  5
ABF
  100
AcDbEntity
  8
Layer 1
  62
0
  100
AcDb2dVertex
  10
0.05000
  20
1.37000
  30
0.00000
  70
32
  0
VERTEX
  5
AC0
  100
AcDbEntity
  8
Layer 1
  62
0
  100
AcDb2dVertex
  10
0.10700
  20
1.42200
  30
0.00000
  42
-0.0435
  70
32
  0
VERTEX
  5
AC1
  100
AcDbEntity
  8
Layer 1
  62
0
  100
AcDb2dVertex
  10
0.12633
  20
1.46639
  30
0.00000
  42
-0.0945
  70
32
  0
VERTEX
  5
AC2
  100
AcDbEntity
  8
Layer 1
  62
0
  100
AcDb2dVertex
  10
0.13923
  20
1.48266
  30
0.00000
  42
-0.1443
  70
32
  0
VERTEX
  5
AC3
  100
AcDbEntity
  8
Layer 1
  62
0
  100
AcDb2dVertex
  10
0.14700
  20
1.48600
  30
0.00000
  42
-0.1498
  70
32
  0
VERTEX
  5
AC4
  100
AcDbEntity
  8
Layer 1
  62
0
  100
AcDb2dVertex
  10
0.17042
  20
1.47451
  30
0.00000
  70
32
  0
VERTEX
  5
AC5
  100
AcDbEntity
  8
Layer 1
  62
0
  100
AcDb2dVertex
  10
0.17100
  20
1.47400
  30
0.00000
  42
-0.1119
  70
32
  0
VERTEX
  5
AC6
  100
AcDbEntity
  8
Layer 1
  62
0
  100
AcDb2dVertex
  10
0.18359
  20
1.45964
  30
0.00000
  42
-0.1088
  70
32
  0
VERTEX
  5
AC7
  100
AcDbEntity
  8
Layer 1
  62
0
  100
AcDb2dVertex
  10
0.18500
  20
1.45400
  30
0.00000
  70
32
  0
SEQEND
  5
AC8
  100
AcDbEntity
  8
Layer 1
  62
0
  0
POLYLINE
  5
AC9
  100
AcDbEntity
  8
Layer 1
  62
0
  100
AcDb2dPolyline
 66
     1
  10
0
  20
0
  30
0
  70
1
  0
VERTEX
  5
ACA
  100
AcDbEntity
  8
Layer 1
  62
0
  100
AcDb2dVertex
  10
0.21000
  20
1.16500
  30
0.00000
  42
-0.1117
  70
32
  0
VERTEX
  5
ACB
  100
AcDbEntity
  8
Layer 1
  62
0
  100
AcDb2dVertex
  10
0.20226
  20
1.12607
  30
0.00000
  42
-0.1826
  70
32
  0
VERTEX
  5
ACC
  100
AcDbEntity
  8
Layer 1
  62
0
  100
AcDb2dVertex
  10
0.16905
  20
1.09444
  30
0.00000
  42
-0.0879
  70
32
  0
VERTEX
  5
ACD
  100
AcDbEntity
  8
Layer 1
  62
0
  100
AcDb2dVertex
  10
0.12606
  20
1.08456
  30
0.00000
  42
-0.0183
  70
32
  0
VERTEX
  5
ACE
  100
AcDbEntity
  8
Layer 1
  62
0
  100
AcDb2dVertex
  10
0.11000
  20
1.08400
  30
0.00000
  42
0.1793
  70
32
  0
VERTEX
  5
ACF
  100
AcDbEntity
  8
Layer 1
  62
0
  100
AcDb2dVertex
  10
0.09436
  20
1.07735
  30
0.00000
  42
0.0789
  70
32
  0
VERTEX
  5
AD0
  100
AcDbEntity
  8
Layer 1
  62
0
  100
AcDb2dVertex
  10
0.07663
  20
1.05505
  30
0.00000
  70
32
  0
VERTEX
  5
AD1
  100
AcDbEntity
  8
Layer 1
  62
0
  100
AcDb2dVertex
  10
0.07600
  20
1.05400
  30
0.00000
  42
-0.0944
  70
32
  0
VERTEX
  5
AD2
  100
AcDbEntity
  8
Layer 1
  62
0
  100
AcDb2dVertex
  10
0.05840
  20
1.03121
  30
0.00000
  42
-0.1769
  70
32
  0
VERTEX
  5
AD3
  100
AcDbEntity
  8
Layer 1
  62
0
  100
AcDb2dVertex
  10
0.04000
  20
1.02400
  30
0.00000
  42
-0.1353
  70
32
  0
VERTEX
  5
AD4
  100
AcDbEntity
  8
Layer 1
  62
0
  100
AcDb2dVertex
  10
0.02248
  20
1.02786
  30
0.00000
  42
-0.2786
  70
32
  0
VERTEX
  5
AD5
  100
AcDbEntity
  8
Layer 1
  62
0
  100
AcDb2dVertex
  10
0.01500
  20
1.04200
  30
0.00000
  42
-0.0847
  70
32
  0
VERTEX
  5
AD6
  100
AcDbEntity
  8
Layer 1
  62
0
  100
AcDb2dVertex
  10
0.01952
  20
1.06122
  30
0.00000
  42
-0.0143
  70
32
  0
VERTEX
  5
AD7
  100
AcDbEntity
  8
Layer 1
  62
0
  100
AcDb2dVertex
  10
0.02600
  20
1.07700
  30
0.00000
  70
32
  0
VERTEX
  5
AD8
  100
AcDbEntity
  8
Layer 1
  62
0
  100
AcDb2dVertex
  10
0.03062
  20
1.08740
  30
0.00000
  70
32
  0
VERTEX
  5
AD9
  100
AcDbEntity
  8
Layer 1
  62
0
  100
AcDb2dVertex
  10
0.03622
  20
1.10028
  30
0.00000
  42
0.0513
  70
32
  0
VERTEX
  5
ADA
  100
AcDbEntity
  8
Layer 1
  62
0
  100
AcDb2dVertex
  10
0.03900
  20
1.10900
  30
0.00000
  42
0.1212
  70
32
  0
VERTEX
  5
ADB
  100
AcDbEntity
  8
Layer 1
  62
0
  100
AcDb2dVertex
  10
0.03125
  20
1.12711
  30
0.00000
  42
0.0225
  70
32
  0
VERTEX
  5
ADC
  100
AcDbEntity
  8
Layer 1
  62
0
  100
AcDb2dVertex
  10
0.02300
  20
1.13800
  30
0.00000
  42
-0.1636
  70
32
  0
VERTEX
  5
ADD
  100
AcDbEntity
  8
Layer 1
  62
0
  100
AcDb2dVertex
  10
0.00992
  20
1.16584
  30
0.00000
  42
-0.0376
  70
32
  0
VERTEX
  5
ADE
  100
AcDbEntity
  8
Layer 1
  62
0
  100
AcDb2dVertex
  10
0.00900
  20
1.17900
  30
0.00000
  42
-0.1968
  70
32
  0
VERTEX
  5
ADF
  100
AcDbEntity
  8
Layer 1
  62
0
  100
AcDb2dVertex
  10
0.03100
  20
1.23500
  30
0.00000
  42
-0.1630
  70
32
  0
VERTEX
  5
AE0
  100
AcDbEntity
  8
Layer 1
  62
0
  100
AcDb2dVertex
  10
0.06901
  20
1.25831
  30
0.00000
  42
-0.0545
  70
32
  0
VERTEX
  5
AE1
  100
AcDbEntity
  8
Layer 1
  62
0
  100
AcDb2dVertex
  10
0.08500
  20
1.26000
  30
0.00000
  42
-0.1041
  70
32
  0
VERTEX
  5
AE2
  100
AcDbEntity
  8
Layer 1
  62
0
  100
AcDb2dVertex
  10
0.09901
  20
1.25793
  30
0.00000
  42
-0.3034
  70
32
  0
VERTEX
  5
AE3
  100
AcDbEntity
  8
Layer 1
  62
0
  100
AcDb2dVertex
  10
0.10200
  20
1.25400
  30
0.00000
  42
-0.2146
  70
32
  0
VERTEX
  5
AE4
  100
AcDbEntity
  8
Layer 1
  62
0
  100
AcDb2dVertex
  10
0.09838
  20
1.24835
  30
0.00000
  42
-0.0636
  70
32
  0
VERTEX
  5
AE5
  100
AcDbEntity
  8
Layer 1
  62
0
  100
AcDb2dVertex
  10
0.07923
  20
1.23770
  30
0.00000
  70
32
  0
VERTEX
  5
AE6
  100
AcDbEntity
  8
Layer 1
  62
0
  100
AcDb2dVertex
  10
0.07300
  20
1.23500
  30
0.00000
  42
0.1784
  70
32
  0
VERTEX
  5
AE7
  100
AcDbEntity
  8
Layer 1
  62
0
  100
AcDb2dVertex
  10
0.04948
  20
1.21346
  30
0.00000
  42
0.1167
  70
32
  0
VERTEX
  5
AE8
  100
AcDbEntity
  8
Layer 1
  62
0
  100
AcDb2dVertex
  10
0.04400
  20
1.18700
  30
0.00000
  42
0.1598
  70
32
  0
VERTEX
  5
AE9
  100
AcDbEntity
  8
Layer 1
  62
0
  100
AcDb2dVertex
  10
0.05366
  20
1.15410
  30
0.00000
  42
0.1375
  70
32
  0
VERTEX
  5
AEA
  100
AcDbEntity
  8
Layer 1
  62
0
  100
AcDb2dVertex
  10
0.08015
  20
1.13394
  30
0.00000
  70
32
  0
VERTEX
  5
AEB
  100
AcDbEntity
  8
Layer 1
  62
0
  100
AcDb2dVertex
  10
0.08500
  20
1.13200
  30
0.00000
  42
0.1280
  70
32
  0
VERTEX
  5
AEC
  100
AcDbEntity
  8
Layer 1
  62
0
  100
AcDb2dVertex
  10
0.12019
  20
1.11739
  30
0.00000
  70
32
  0
VERTEX
  5
AED
  100
AcDbEntity
  8
Layer 1
  62
0
  100
AcDb2dVertex
  10
0.12700
  20
1.11700
  30
0.00000
  42
0.1784
  70
32
  0
VERTEX
  5
AEE
  100
AcDbEntity
  8
Layer 1
  62
0
  100
AcDb2dVertex
  10
0.16231
  20
1.12877
  30
0.00000
  70
32
  0
VERTEX
  5
AEF
  100
AcDbEntity
  8
Layer 1
  62
0
  100
AcDb2dVertex
  10
0.16700
  20
1.13300
  30
0.00000
  42
0.2149
  70
32
  0
VERTEX
  5
AF0
  100
AcDbEntity
  8
Layer 1
  62
0
  100
AcDb2dVertex
  10
0.18400
  20
1.17000
  30
0.00000
  70
32
  0
VERTEX
  5
AF1
  100
AcDbEntity
  8
Layer 1
  62
0
  100
AcDb2dVertex
  10
0.17500
  20
1.20000
  30
0.00000
  42
-0.2564
  70
32
  0
VERTEX
  5
AF2
  100
AcDbEntity
  8
Layer 1
  62
0
  100
AcDb2dVertex
  10
0.17437
  20
1.20893
  30
0.00000
  70
32
  0
VERTEX
  5
AF3
  100
AcDbEntity
  8
Layer 1
  62
0
  100
AcDb2dVertex
  10
0.17500
  20
1.21000
  30
0.00000
  42
-0.3087
  70
32
  0
VERTEX
  5
AF4
  100
AcDbEntity
  8
Layer 1
  62
0
  100
AcDb2dVertex
  10
0.18154
  20
1.21254
  30
0.00000
  70
32
  0
VERTEX
  5
AF5
  100
AcDbEntity
  8
Layer 1
  62
0
  100
AcDb2dVertex
  10
0.18500
  20
1.21200
  30
0.00000
  42
-0.2971
  70
32
  0
VERTEX
  5
AF6
  100
AcDbEntity
  8
Layer 1
  62
0
  100
AcDb2dVertex
  10
0.20363
  20
1.20058
  30
0.00000
  42
-0.1010
  70
32
  0
VERTEX
  5
AF7
  100
AcDbEntity
  8
Layer 1
  62
0
  100
AcDb2dVertex
  10
0.20951
  20
1.17733
  30
0.00000
  42
-0.0214
  70
32
  0
VERTEX
  5
AF8
  100
AcDbEntity
  8
Layer 1
  62
0
  100
AcDb2dVertex
  10
0.21000
  20
1.16500
  30
0.00000
  70
32
  0
SEQEND
  5
AF9
  100
AcDbEntity
  8
Layer 1
  62
0
  0
POLYLINE
  5
AFA
  100
AcDbEntity
  8
Layer 1
  62
0
  100
AcDb2dPolyline
 66
     1
  10
0
  20
0
  30
0
  70
1
  0
VERTEX
  5
AFB
  100
AcDbEntity
  8
Layer 1
  62
0
  100
AcDb2dVertex
  10
0.71000
  20
0.54700
  30
0.00000
  42
-0.0558
  70
32
  0
VERTEX
  5
AFC
  100
AcDbEntity
  8
Layer 1
  62
0
  100
AcDb2dVertex
  10
0.70780
  20
0.51938
  30
0.00000
  42
-0.1632
  70
32
  0
VERTEX
  5
AFD
  100
AcDbEntity
  8
Layer 1
  62
0
  100
AcDb2dVertex
  10
0.70313
  20
0.51039
  30
0.00000
  42
-0.1720
  70
32
  0
VERTEX
  5
AFE
  100
AcDbEntity
  8
Layer 1
  62
0
  100
AcDb2dVertex
  10
0.69900
  20
0.50900
  30
0.00000
  42
-0.0534
  70
32
  0
VERTEX
  5
AFF
  100
AcDbEntity
  8
Layer 1
  62
0
  100
AcDb2dVertex
  10
0.65027
  20
0.51546
  30
0.00000
  42
-0.0173
  70
32
  0
VERTEX
  5
B00
  100
AcDbEntity
  8
Layer 1
  62
0
  100
AcDb2dVertex
  10
0.61400
  20
0.52500
  30
0.00000
  70
32
  0
VERTEX
  5
B01
  100
AcDbEntity
  8
Layer 1
  62
0
  100
AcDb2dVertex
  10
0.60902
  20
0.52395
  30
0.00000
  42
-0.0083
  70
32
  0
VERTEX
  5
B02
  100
AcDbEntity
  8
Layer 1
  62
0
  100
AcDb2dVertex
  10
0.57400
  20
0.51700
  30
0.00000
  42
-0.0616
  70
32
  0
VERTEX
  5
B03
  100
AcDbEntity
  8
Layer 1
  62
0
  100
AcDb2dVertex
  10
0.53325
  20
0.51001
  30
0.00000
  70
32
  0
VERTEX
  5
B04
  100
AcDbEntity
  8
Layer 1
  62
0
  100
AcDb2dVertex
  10
0.53200
  20
0.51000
  30
0.00000
  42
-0.3359
  70
32
  0
VERTEX
  5
B05
  100
AcDbEntity
  8
Layer 1
  62
0
  100
AcDb2dVertex
  10
0.52220
  20
0.51706
  30
0.00000
  42
-0.0941
  70
32
  0
VERTEX
  5
B06
  100
AcDbEntity
  8
Layer 1
  62
0
  100
AcDb2dVertex
  10
0.52000
  20
0.53200
  30
0.00000
  42
-0.0693
  70
32
  0
VERTEX
  5
B07
  100
AcDbEntity
  8
Layer 1
  62
0
  100
AcDb2dVertex
  10
0.52295
  20
0.55974
  30
0.00000
  42
-0.1655
  70
32
  0
VERTEX
  5
B08
  100
AcDbEntity
  8
Layer 1
  62
0
  100
AcDb2dVertex
  10
0.52931
  20
0.57024
  30
0.00000
  42
-0.1586
  70
32
  0
VERTEX
  5
B09
  100
AcDbEntity
  8
Layer 1
  62
0
  100
AcDb2dVertex
  10
0.53500
  20
0.57200
  30
0.00000
  42
-0.0823
  70
32
  0
VERTEX
  5
B0A
  100
AcDbEntity
  8
Layer 1
  62
0
  100
AcDb2dVertex
  10
0.54751
  20
0.56869
  30
0.00000
  70
32
  0
VERTEX
  5
B0B
  100
AcDbEntity
  8
Layer 1
  62
0
  100
AcDb2dVertex
  10
0.55029
  20
0.56764
  30
0.00000
  70
32
  0
VERTEX
  5
B0C
  100
AcDbEntity
  8
Layer 1
  62
0
  100
AcDb2dVertex
  10
0.55200
  20
0.56700
  30
0.00000
  70
32
  0
VERTEX
  5
B0D
  100
AcDbEntity
  8
Layer 1
  62
0
  100
AcDb2dVertex
  10
0.55371
  20
0.56636
  30
0.00000
  70
32
  0
VERTEX
  5
B0E
  100
AcDbEntity
  8
Layer 1
  62
0
  100
AcDb2dVertex
  10
0.56260
  20
0.56319
  30
0.00000
  42
0.0733
  70
32
  0
VERTEX
  5
B0F
  100
AcDbEntity
  8
Layer 1
  62
0
  100
AcDb2dVertex
  10
0.56900
  20
0.56200
  30
0.00000
  42
0.2759
  70
32
  0
VERTEX
  5
B10
  100
AcDbEntity
  8
Layer 1
  62
0
  100
AcDb2dVertex
  10
0.58296
  20
0.57040
  30
0.00000
  42
0.1033
  70
32
  0
VERTEX
  5
B11
  100
AcDbEntity
  8
Layer 1
  62
0
  100
AcDb2dVertex
  10
0.58940
  20
0.59148
  30
0.00000
  70
32
  0
VERTEX
  5
B12
  100
AcDbEntity
  8
Layer 1
  62
0
  100
AcDb2dVertex
  10
0.59000
  20
0.59700
  30
0.00000
  42
-0.1057
  70
32
  0
VERTEX
  5
B13
  100
AcDbEntity
  8
Layer 1
  62
0
  100
AcDb2dVertex
  10
0.59504
  20
0.62024
  30
0.00000
  42
-0.3045
  70
32
  0
VERTEX
  5
B14
  100
AcDbEntity
  8
Layer 1
  62
0
  100
AcDb2dVertex
  10
0.61400
  20
0.63200
  30
0.00000
  42
-0.2704
  70
32
  0
VERTEX
  5
B15
  100
AcDbEntity
  8
Layer 1
  62
0
  100
AcDb2dVertex
  10
0.63227
  20
0.62147
  30
0.00000
  42
-0.1066
  70
32
  0
VERTEX
  5
B16
  100
AcDbEntity
  8
Layer 1
  62
0
  100
AcDb2dVertex
  10
0.63986
  20
0.59804
  30
0.00000
  70
32
  0
VERTEX
  5
B17
  100
AcDbEntity
  8
Layer 1
  62
0
  100
AcDb2dVertex
  10
0.64000
  20
0.59700
  30
0.00000
  42
0.0501
  70
32
  0
VERTEX
  5
B18
  100
AcDbEntity
  8
Layer 1
  62
0
  100
AcDb2dVertex
  10
0.64670
  20
0.56974
  30
0.00000
  42
0.1642
  70
32
  0
VERTEX
  5
B19
  100
AcDbEntity
  8
Layer 1
  62
0
  100
AcDb2dVertex
  10
0.65187
  20
0.56254
  30
0.00000
  42
0.1245
  70
32
  0
VERTEX
  5
B1A
  100
AcDbEntity
  8
Layer 1
  62
0
  100
AcDb2dVertex
  10
0.65400
  20
0.56200
  30
0.00000
  42
0.0542
  70
32
  0
VERTEX
  5
B1B
  100
AcDbEntity
  8
Layer 1
  62
0
  100
AcDb2dVertex
  10
0.67300
  20
0.56500
  30
0.00000
  70
32
  0
VERTEX
  5
B1C
  100
AcDbEntity
  8
Layer 1
  62
0
  100
AcDb2dVertex
  10
0.67700
  20
0.56602
  30
0.00000
  42
-0.0501
  70
32
  0
VERTEX
  5
B1D
  100
AcDbEntity
  8
Layer 1
  62
0
  100
AcDb2dVertex
  10
0.69200
  20
0.56900
  30
0.00000
  42
-0.2520
  70
32
  0
VERTEX
  5
B1E
  100
AcDbEntity
  8
Layer 1
  62
0
  100
AcDb2dVertex
  10
0.70595
  20
0.56267
  30
0.00000
  42
-0.1567
  70
32
  0
VERTEX
  5
B1F
  100
AcDbEntity
  8
Layer 1
  62
0
  100
AcDb2dVertex
  10
0.71000
  20
0.54700
  30
0.00000
  70
32
  0
SEQEND
  5
B20
  100
AcDbEntity
  8
Layer 1
  62
0
  0
POLYLINE
  5
B21
  100
AcDbEntity
  8
Layer 1
  62
0
  100
AcDb2dPolyline
 66
     1
  10
0
  20
0
  30
0
  70
1
  0
VERTEX
  5
B22
  100
AcDbEntity
  8
Layer 1
  62
0
  100
AcDb2dVertex
  10
0.22000
  20
0.96400
  30
0.00000
  42
-0.0693
  70
32
  0
VERTEX
  5
B23
  100
AcDbEntity
  8
Layer 1
  62
0
  100
AcDb2dVertex
  10
0.21705
  20
0.93626
  30
0.00000
  42
-0.1655
  70
32
  0
VERTEX
  5
B24
  100
AcDbEntity
  8
Layer 1
  62
0
  100
AcDb2dVertex
  10
0.21069
  20
0.92576
  30
0.00000
  42
-0.1586
  70
32
  0
VERTEX
  5
B25
  100
AcDbEntity
  8
Layer 1
  62
0
  100
AcDb2dVertex
  10
0.20500
  20
0.92400
  30
0.00000
  42
-0.0664
  70
32
  0
VERTEX
  5
B26
  100
AcDbEntity
  8
Layer 1
  62
0
  100
AcDb2dVertex
  10
0.15881
  20
0.93135
  30
0.00000
  42
-0.0296
  70
32
  0
VERTEX
  5
B27
  100
AcDbEntity
  8
Layer 1
  62
0
  100
AcDb2dVertex
  10
0.11400
  20
0.94700
  30
0.00000
  70
32
  0
VERTEX
  5
B28
  100
AcDbEntity
  8
Layer 1
  62
0
  100
AcDb2dVertex
  10
0.11400
  20
0.97200
  30
0.00000
  70
32
  0
VERTEX
  5
B29
  100
AcDbEntity
  8
Layer 1
  62
0
  100
AcDb2dVertex
  10
0.11400
  20
0.94700
  30
0.00000
  42
-0.0232
  70
32
  0
VERTEX
  5
B2A
  100
AcDbEntity
  8
Layer 1
  62
0
  100
AcDb2dVertex
  10
0.04047
  20
0.92630
  30
0.00000
  42
-0.0448
  70
32
  0
VERTEX
  5
B2B
  100
AcDbEntity
  8
Layer 1
  62
0
  100
AcDb2dVertex
  10
0.02500
  20
0.92400
  30
0.00000
  42
-0.3002
  70
32
  0
VERTEX
  5
B2C
  100
AcDbEntity
  8
Layer 1
  62
0
  100
AcDb2dVertex
  10
0.01433
  20
0.93107
  30
0.00000
  42
-0.1029
  70
32
  0
VERTEX
  5
B2D
  100
AcDbEntity
  8
Layer 1
  62
0
  100
AcDb2dVertex
  10
0.01019
  20
0.95001
  30
0.00000
  70
32
  0
VERTEX
  5
B2E
  100
AcDbEntity
  8
Layer 1
  62
0
  100
AcDb2dVertex
  10
0.01000
  20
0.95700
  30
0.00000
  42
-0.0801
  70
32
  0
VERTEX
  5
B2F
  100
AcDbEntity
  8
Layer 1
  62
0
  100
AcDb2dVertex
  10
0.01313
  20
0.98215
  30
0.00000
  42
-0.1937
  70
32
  0
VERTEX
  5
B30
  100
AcDbEntity
  8
Layer 1
  62
0
  100
AcDb2dVertex
  10
0.02152
  20
0.99328
  30
0.00000
  42
-0.1239
  70
32
  0
VERTEX
  5
B31
  100
AcDbEntity
  8
Layer 1
  62
0
  100
AcDb2dVertex
  10
0.02900
  20
0.99500
  30
0.00000
  42
-0.0587
  70
32
  0
VERTEX
  5
B32
  100
AcDbEntity
  8
Layer 1
  62
0
  100
AcDb2dVertex
  10
0.04527
  20
0.99141
  30
0.00000
  70
32
  0
VERTEX
  5
B33
  100
AcDbEntity
  8
Layer 1
  62
0
  100
AcDb2dVertex
  10
0.05000
  20
0.99000
  30
0.00000
  42
0.0948
  70
32
  0
VERTEX
  5
B34
  100
AcDbEntity
  8
Layer 1
  62
0
  100
AcDb2dVertex
  10
0.07200
  20
0.98400
  30
0.00000
  42
0.2513
  70
32
  0
VERTEX
  5
B35
  100
AcDbEntity
  8
Layer 1
  62
0
  100
AcDb2dVertex
  10
0.08012
  20
0.98906
  30
0.00000
  42
0.0907
  70
32
  0
VERTEX
  5
B36
  100
AcDbEntity
  8
Layer 1
  62
0
  100
AcDb2dVertex
  10
0.08733
  20
1.00743
  30
0.00000
  42
0.0198
  70
32
  0
VERTEX
  5
B37
  100
AcDbEntity
  8
Layer 1
  62
0
  100
AcDb2dVertex
  10
0.09000
  20
1.02100
  30
0.00000
  42
-0.1037
  70
32
  0
VERTEX
  5
B38
  100
AcDbEntity
  8
Layer 1
  62
0
  100
AcDb2dVertex
  10
0.09776
  20
1.04692
  30
0.00000
  42
-0.2120
  70
32
  0
VERTEX
  5
B39
  100
AcDbEntity
  8
Layer 1
  62
0
  100
AcDb2dVertex
  10
0.11251
  20
1.05852
  30
0.00000
  42
-0.0540
  70
32
  0
VERTEX
  5
B3A
  100
AcDbEntity
  8
Layer 1
  62
0
  100
AcDb2dVertex
  10
0.11700
  20
1.05900
  30
0.00000
  42
-0.2284
  70
32
  0
VERTEX
  5
B3B
  100
AcDbEntity
  8
Layer 1
  62
0
  100
AcDb2dVertex
  10
0.13608
  20
1.05102
  30
0.00000
  42
-0.1367
  70
32
  0
VERTEX
  5
B3C
  100
AcDbEntity
  8
Layer 1
  62
0
  100
AcDb2dVertex
  10
0.14394
  20
1.03185
  30
0.00000
  42
-0.0311
  70
32
  0
VERTEX
  5
B3D
  100
AcDbEntity
  8
Layer 1
  62
0
  100
AcDb2dVertex
  10
0.14500
  20
1.02100
  30
0.00000
  42
0.0747
  70
32
  0
VERTEX
  5
B3E
  100
AcDbEntity
  8
Layer 1
  62
0
  100
AcDb2dVertex
  10
0.14795
  20
0.99533
  30
0.00000
  42
0.1805
  70
32
  0
VERTEX
  5
B3F
  100
AcDbEntity
  8
Layer 1
  62
0
  100
AcDb2dVertex
  10
0.15463
  20
0.98543
  30
0.00000
  42
0.1386
  70
32
  0
VERTEX
  5
B40
  100
AcDbEntity
  8
Layer 1
  62
0
  100
AcDb2dVertex
  10
0.16000
  20
0.98400
  30
0.00000
  42
0.1170
  70
32
  0
VERTEX
  5
B41
  100
AcDbEntity
  8
Layer 1
  62
0
  100
AcDb2dVertex
  10
0.18000
  20
0.98900
  30
0.00000
  42
-0.0659
  70
32
  0
VERTEX
  5
B42
  100
AcDbEntity
  8
Layer 1
  62
0
  100
AcDb2dVertex
  10
0.20161
  20
0.99400
  30
0.00000
  70
32
  0
VERTEX
  5
B43
  100
AcDbEntity
  8
Layer 1
  62
0
  100
AcDb2dVertex
  10
0.20200
  20
0.99400
  30
0.00000
  42
-0.3257
  70
32
  0
VERTEX
  5
B44
  100
AcDbEntity
  8
Layer 1
  62
0
  100
AcDb2dVertex
  10
0.21677
  20
0.98404
  30
0.00000
  42
-0.1012
  70
32
  0
VERTEX
  5
B45
  100
AcDbEntity
  8
Layer 1
  62
0
  100
AcDb2dVertex
  10
0.22000
  20
0.96400
  30
0.00000
  70
32
  0
SEQEND
  5
B46
  100
AcDbEntity
  8
Layer 1
  62
0
  0
POLYLINE
  5
B47
  100
AcDbEntity
  8
Layer 1
  62
0
  100
AcDb2dPolyline
 66
     1
  10
0
  20
0
  30
0
  70
1
  0
VERTEX
  5
B48
  100
AcDbEntity
  8
Layer 1
  62
0
  100
AcDb2dVertex
  10
0.95700
  20
0.12400
  30
0.00000
  42
-0.1831
  70
32
  0
VERTEX
  5
B49
  100
AcDbEntity
  8
Layer 1
  62
0
  100
AcDb2dVertex
  10
0.94264
  20
0.10246
  30
0.00000
  42
-0.0332
  70
32
  0
VERTEX
  5
B4A
  100
AcDbEntity
  8
Layer 1
  62
0
  100
AcDb2dVertex
  10
0.93600
  20
0.09800
  30
0.00000
  42
0.0883
  70
32
  0
VERTEX
  5
B4B
  100
AcDbEntity
  8
Layer 1
  62
0
  100
AcDb2dVertex
  10
0.92178
  20
0.08653
  30
0.00000
  42
0.2111
  70
32
  0
VERTEX
  5
B4C
  100
AcDbEntity
  8
Layer 1
  62
0
  100
AcDb2dVertex
  10
0.91900
  20
0.07700
  30
0.00000
  70
32
  0
VERTEX
  5
B4D
  100
AcDbEntity
  8
Layer 1
  62
0
  100
AcDb2dVertex
  10
0.92125
  20
0.05475
  30
0.00000
  70
32
  0
VERTEX
  5
B4E
  100
AcDbEntity
  8
Layer 1
  62
0
  100
AcDb2dVertex
  10
0.92181
  20
0.05084
  30
0.00000
  70
32
  0
VERTEX
  5
B4F
  100
AcDbEntity
  8
Layer 1
  62
0
  100
AcDb2dVertex
  10
0.92189
  20
0.05065
  30
0.00000
  70
32
  0
VERTEX
  5
B50
  100
AcDbEntity
  8
Layer 1
  62
0
  100
AcDb2dVertex
  10
0.92200
  20
0.05200
  30
0.00000
  42
-0.1644
  70
32
  0
VERTEX
  5
B51
  100
AcDbEntity
  8
Layer 1
  62
0
  100
AcDb2dVertex
  10
0.91571
  20
0.03023
  30
0.00000
  42
-0.1813
  70
32
  0
VERTEX
  5
B52
  100
AcDbEntity
  8
Layer 1
  62
0
  100
AcDb2dVertex
  10
0.89606
  20
0.01853
  30
0.00000
  42
-0.0558
  70
32
  0
VERTEX
  5
B53
  100
AcDbEntity
  8
Layer 1
  62
0
  100
AcDb2dVertex
  10
0.88100
  20
0.01700
  30
0.00000
  42
-0.0372
  70
32
  0
VERTEX
  5
B54
  100
AcDbEntity
  8
Layer 1
  62
0
  100
AcDb2dVertex
  10
0.81964
  20
0.02064
  30
0.00000
  42
-0.0752
  70
32
  0
VERTEX
  5
B55
  100
AcDbEntity
  8
Layer 1
  62
0
  100
AcDb2dVertex
  10
0.79381
  20
0.02781
  30
0.00000
  42
-0.1760
  70
32
  0
VERTEX
  5
B56
  100
AcDbEntity
  8
Layer 1
  62
0
  100
AcDb2dVertex
  10
0.78478
  20
0.03611
  30
0.00000
  42
-0.1012
  70
32
  0
VERTEX
  5
B57
  100
AcDbEntity
  8
Layer 1
  62
0
  100
AcDb2dVertex
  10
0.78400
  20
0.04000
  30
0.00000
  70
32
  0
VERTEX
  5
B58
  100
AcDbEntity
  8
Layer 1
  62
0
  100
AcDb2dVertex
  10
0.78100
  20
0.05500
  30
0.00000
  70
32
  0
VERTEX
  5
B59
  100
AcDbEntity
  8
Layer 1
  62
0
  100
AcDb2dVertex
  10
0.83900
  20
0.06000
  30
0.00000
  70
32
  0
VERTEX
  5
B5A
  100
AcDbEntity
  8
Layer 1
  62
0
  100
AcDb2dVertex
  10
0.78100
  20
0.05500
  30
0.00000
  70
32
  0
VERTEX
  5
B5B
  100
AcDbEntity
  8
Layer 1
  62
0
  100
AcDb2dVertex
  10
0.68000
  20
0.04700
  30
0.00000
  42
-0.2764
  70
32
  0
VERTEX
  5
B5C
  100
AcDbEntity
  8
Layer 1
  62
0
  100
AcDb2dVertex
  10
0.66900
  20
0.05400
  30
0.00000
  42
-0.1563
  70
32
  0
VERTEX
  5
B5D
  100
AcDbEntity
  8
Layer 1
  62
0
  100
AcDb2dVertex
  10
0.66479
  20
0.06751
  30
0.00000
  70
32
  0
VERTEX
  5
B5E
  100
AcDbEntity
  8
Layer 1
  62
0
  100
AcDb2dVertex
  10
0.66500
  20
0.06900
  30
0.00000
  70
32
  0
VERTEX
  5
B5F
  100
AcDbEntity
  8
Layer 1
  62
0
  100
AcDb2dVertex
  10
0.75500
  20
0.13000
  30
0.00000
  70
32
  0
VERTEX
  5
B60
  100
AcDbEntity
  8
Layer 1
  62
0
  100
AcDb2dVertex
  10
0.80100
  20
0.15200
  30
0.00000
  70
32
  0
VERTEX
  5
B61
  100
AcDbEntity
  8
Layer 1
  62
0
  100
AcDb2dVertex
  10
0.75500
  20
0.13000
  30
0.00000
  42
-0.1964
  70
32
  0
VERTEX
  5
B62
  100
AcDbEntity
  8
Layer 1
  62
0
  100
AcDb2dVertex
  10
0.74283
  20
0.14452
  30
0.00000
  42
-0.0940
  70
32
  0
VERTEX
  5
B63
  100
AcDbEntity
  8
Layer 1
  62
0
  100
AcDb2dVertex
  10
0.74200
  20
0.15500
  30
0.00000
  42
-0.1633
  70
32
  0
VERTEX
  5
B64
  100
AcDbEntity
  8
Layer 1
  62
0
  100
AcDb2dVertex
  10
0.74589
  20
0.16278
  30
0.00000
  42
-0.0535
  70
32
  0
VERTEX
  5
B65
  100
AcDbEntity
  8
Layer 1
  62
0
  100
AcDb2dVertex
  10
0.76694
  20
0.18133
  30
0.00000
  42
-0.0105
  70
32
  0
VERTEX
  5
B66
  100
AcDbEntity
  8
Layer 1
  62
0
  100
AcDb2dVertex
  10
0.78600
  20
0.19500
  30
0.00000
  42
-0.0300
  70
32
  0
VERTEX
  5
B67
  100
AcDbEntity
  8
Layer 1
  62
0
  100
AcDb2dVertex
  10
0.82745
  20
0.22019
  30
0.00000
  42
-0.0920
  70
32
  0
VERTEX
  5
B68
  100
AcDbEntity
  8
Layer 1
  62
0
  100
AcDb2dVertex
  10
0.84148
  20
0.22499
  30
0.00000
  70
32
  0
VERTEX
  5
B69
  100
AcDbEntity
  8
Layer 1
  62
0
  100
AcDb2dVertex
  10
0.84200
  20
0.22500
  30
0.00000
  42
-0.2082
  70
32
  0
VERTEX
  5
B6A
  100
AcDbEntity
  8
Layer 1
  62
0
  100
AcDb2dVertex
  10
0.86257
  20
0.21547
  30
0.00000
  42
-0.0633
  70
32
  0
VERTEX
  5
B6B
  100
AcDbEntity
  8
Layer 1
  62
0
  100
AcDb2dVertex
  10
0.87100
  20
0.20400
  30
0.00000
  42
0.0728
  70
32
  0
VERTEX
  5
B6C
  100
AcDbEntity
  8
Layer 1
  62
0
  100
AcDb2dVertex
  10
0.88323
  20
0.18615
  30
0.00000
  42
0.1729
  70
32
  0
VERTEX
  5
B6D
  100
AcDbEntity
  8
Layer 1
  62
0
  100
AcDb2dVertex
  10
0.88700
  20
0.18400
  30
0.00000
  70
32
  0
VERTEX
  5
B6E
  100
AcDbEntity
  8
Layer 1
  62
0
  100
AcDb2dVertex
  10
0.92200
  20
0.18400
  30
0.00000
  42
-0.1470
  70
32
  0
VERTEX
  5
B6F
  100
AcDbEntity
  8
Layer 1
  62
0
  100
AcDb2dVertex
  10
0.94158
  20
0.16779
  30
0.00000
  42
-0.1421
  70
32
  0
VERTEX
  5
B70
  100
AcDbEntity
  8
Layer 1
  62
0
  100
AcDb2dVertex
  10
0.94700
  20
0.14700
  30
0.00000
  70
32
  0
VERTEX
  5
B71
  100
AcDbEntity
  8
Layer 1
  62
0
  100
AcDb2dVertex
  10
0.82100
  20
0.10900
  30
0.00000
  70
32
  0
VERTEX
  5
B72
  100
AcDbEntity
  8
Layer 1
  62
0
  100
AcDb2dVertex
  10
0.94700
  20
0.14700
  30
0.00000
  70
32
  0
VERTEX
  5
B73
  100
AcDbEntity
  8
Layer 1
  62
0
  100
AcDb2dVertex
  10
0.95700
  20
0.12400
  30
0.00000
  70
32
  0
SEQEND
  5
B74
  100
AcDbEntity
  8
Layer 1
  62
0
  0
POLYLINE
  5
B75
  100
AcDbEntity
  8
Layer 1
  62
0
  100
AcDb2dPolyline
 66
     1
  10
0
  20
0
  30
0
  70
1
  0
VERTEX
  5
B76
  100
AcDbEntity
  8
Layer 1
  62
0
  100
AcDb2dVertex
  10
0.75200
  20
0.73200
  30
0.00000
  70
32
  0
VERTEX
  5
B77
  100
AcDbEntity
  8
Layer 1
  62
0
  100
AcDb2dVertex
  10
0.75183
  20
0.73041
  30
0.00000
  42
-0.0098
  70
32
  0
VERTEX
  5
B78
  100
AcDbEntity
  8
Layer 1
  62
0
  100
AcDb2dVertex
  10
0.74700
  20
0.68900
  30
0.00000
  70
32
  0
VERTEX
  5
B79
  100
AcDbEntity
  8
Layer 1
  62
0
  100
AcDb2dVertex
  10
0.74500
  20
0.67900
  30
0.00000
  42
-0.0202
  70
32
  0
VERTEX
  5
B7A
  100
AcDbEntity
  8
Layer 1
  62
0
  100
AcDb2dVertex
  10
0.73359
  20
0.61940
  30
0.00000
  42
-0.1048
  70
32
  0
VERTEX
  5
B7B
  100
AcDbEntity
  8
Layer 1
  62
0
  100
AcDb2dVertex
  10
0.73200
  20
0.61500
  30
0.00000
  42
-0.0855
  70
32
  0
VERTEX
  5
B7C
  100
AcDbEntity
  8
Layer 1
  62
0
  100
AcDb2dVertex
  10
0.72494
  20
0.61883
  30
0.00000
  42
-0.0094
  70
32
  0
VERTEX
  5
B7D
  100
AcDbEntity
  8
Layer 1
  62
0
  100
AcDb2dVertex
  10
0.70200
  20
0.63500
  30
0.00000
  42
0.1039
  70
32
  0
VERTEX
  5
B7E
  100
AcDbEntity
  8
Layer 1
  62
0
  100
AcDb2dVertex
  10
0.68684
  20
0.64117
  30
0.00000
  42
0.0436
  70
32
  0
VERTEX
  5
B7F
  100
AcDbEntity
  8
Layer 1
  62
0
  100
AcDb2dVertex
  10
0.64362
  20
0.64617
  30
0.00000
  42
0.0121
  70
32
  0
VERTEX
  5
B80
  100
AcDbEntity
  8
Layer 1
  62
0
  100
AcDb2dVertex
  10
0.60500
  20
0.64700
  30
0.00000
  42
0.0865
  70
32
  0
VERTEX
  5
B81
  100
AcDbEntity
  8
Layer 1
  62
0
  100
AcDb2dVertex
  10
0.51904
  20
0.63102
  30
0.00000
  42
0.0591
  70
32
  0
VERTEX
  5
B82
  100
AcDbEntity
  8
Layer 1
  62
0
  100
AcDb2dVertex
  10
0.43045
  20
0.58565
  30
0.00000
  70
32
  0
VERTEX
  5
B83
  100
AcDbEntity
  8
Layer 1
  62
0
  100
AcDb2dVertex
  10
0.42200
  20
0.58000
  30
0.00000
  42
0.1108
  70
32
  0
VERTEX
  5
B84
  100
AcDbEntity
  8
Layer 1
  62
0
  100
AcDb2dVertex
  10
0.39717
  20
0.57685
  30
0.00000
  42
0.1306
  70
32
  0
VERTEX
  5
B85
  100
AcDbEntity
  8
Layer 1
  62
0
  100
AcDb2dVertex
  10
0.38400
  20
0.56700
  30
0.00000
  42
-0.0819
  70
32
  0
VERTEX
  5
B86
  100
AcDbEntity
  8
Layer 1
  62
0
  100
AcDb2dVertex
  10
0.37072
  20
0.55387
  30
0.00000
  42
-0.1375
  70
32
  0
VERTEX
  5
B87
  100
AcDbEntity
  8
Layer 1
  62
0
  100
AcDb2dVertex
  10
0.36500
  20
0.55200
  30
0.00000
  42
-0.0806
  70
32
  0
VERTEX
  5
B88
  100
AcDbEntity
  8
Layer 1
  62
0
  100
AcDb2dVertex
  10
0.35500
  20
0.55500
  30
0.00000
  70
32
  0
VERTEX
  5
B89
  100
AcDbEntity
  8
Layer 1
  62
0
  100
AcDb2dVertex
  10
0.35200
  20
0.54900
  30
0.00000
  70
32
  0
VERTEX
  5
B8A
  100
AcDbEntity
  8
Layer 1
  62
0
  100
AcDb2dVertex
  10
0.36400
  20
0.53700
  30
0.00000
  70
32
  0
VERTEX
  5
B8B
  100
AcDbEntity
  8
Layer 1
  62
0
  100
AcDb2dVertex
  10
0.36900
  20
0.52000
  30
0.00000
  42
-0.0529
  70
32
  0
VERTEX
  5
B8C
  100
AcDbEntity
  8
Layer 1
  62
0
  100
AcDb2dVertex
  10
0.36483
  20
0.49408
  30
0.00000
  70
32
  0
VERTEX
  5
B8D
  100
AcDbEntity
  8
Layer 1
  62
0
  100
AcDb2dVertex
  10
0.35900
  20
0.47100
  30
0.00000
  42
0.0563
  70
32
  0
VERTEX
  5
B8E
  100
AcDbEntity
  8
Layer 1
  62
0
  100
AcDb2dVertex
  10
0.34921
  20
0.42320
  30
0.00000
  70
32
  0
VERTEX
  5
B8F
  100
AcDbEntity
  8
Layer 1
  62
0
  100
AcDb2dVertex
  10
0.34900
  20
0.41700
  30
0.00000
  42
-0.0053
  70
32
  0
VERTEX
  5
B90
  100
AcDbEntity
  8
Layer 1
  62
0
  100
AcDb2dVertex
  10
0.35700
  20
0.30000
  30
0.00000
  42
-0.0543
  70
32
  0
VERTEX
  5
B91
  100
AcDbEntity
  8
Layer 1
  62
0
  100
AcDb2dVertex
  10
0.35526
  20
0.25821
  30
0.00000
  42
-0.1137
  70
32
  0
VERTEX
  5
B92
  100
AcDbEntity
  8
Layer 1
  62
0
  100
AcDb2dVertex
  10
0.34806
  20
0.23916
  30
0.00000
  42
-0.2497
  70
32
  0
VERTEX
  5
B93
  100
AcDbEntity
  8
Layer 1
  62
0
  100
AcDb2dVertex
  10
0.33400
  20
0.23200
  30
0.00000
  42
-0.0199
  70
32
  0
VERTEX
  5
B94
  100
AcDbEntity
  8
Layer 1
  62
0
  100
AcDb2dVertex
  10
0.31400
  20
0.23900
  30
0.00000
  70
32
  0
VERTEX
  5
B95
  100
AcDbEntity
  8
Layer 1
  62
0
  100
AcDb2dVertex
  10
0.30500
  20
0.23200
  30
0.00000
  70
32
  0
VERTEX
  5
B96
  100
AcDbEntity
  8
Layer 1
  62
0
  100
AcDb2dVertex
  10
0.31000
  20
0.21700
  30
0.00000
  70
32
  0
VERTEX
  5
B97
  100
AcDbEntity
  8
Layer 1
  62
0
  100
AcDb2dVertex
  10
0.29700
  20
0.20900
  30
0.00000
  42
-0.1498
  70
32
  0
VERTEX
  5
B98
  100
AcDbEntity
  8
Layer 1
  62
0
  100
AcDb2dVertex
  10
0.29056
  20
0.21249
  30
0.00000
  42
-0.0359
  70
32
  0
VERTEX
  5
B99
  100
AcDbEntity
  8
Layer 1
  62
0
  100
AcDb2dVertex
  10
0.27900
  20
0.22400
  30
0.00000
  42
0.1568
  70
32
  0
VERTEX
  5
B9A
  100
AcDbEntity
  8
Layer 1
  62
0
  100
AcDb2dVertex
  10
0.25675
  20
0.23813
  30
0.00000
  42
0.0564
  70
32
  0
VERTEX
  5
B9B
  100
AcDbEntity
  8
Layer 1
  62
0
  100
AcDb2dVertex
  10
0.24900
  20
0.23900
  30
0.00000
  42
0.1173
  70
32
  0
VERTEX
  5
B9C
  100
AcDbEntity
  8
Layer 1
  62
0
  100
AcDb2dVertex
  10
0.23253
  20
0.23392
  30
0.00000
  42
0.0270
  70
32
  0
VERTEX
  5
B9D
  100
AcDbEntity
  8
Layer 1
  62
0
  100
AcDb2dVertex
  10
0.22100
  20
0.22700
  30
0.00000
  42
-0.1005
  70
32
  0
VERTEX
  5
B9E
  100
AcDbEntity
  8
Layer 1
  62
0
  100
AcDb2dVertex
  10
0.19782
  20
0.21543
  30
0.00000
  70
32
  0
VERTEX
  5
B9F
  100
AcDbEntity
  8
Layer 1
  62
0
  100
AcDb2dVertex
  10
0.19400
  20
0.21500
  30
0.00000
  42
-0.2259
  70
32
  0
VERTEX
  5
BA0
  100
AcDbEntity
  8
Layer 1
  62
0
  100
AcDb2dVertex
  10
0.17457
  20
0.22452
  30
0.00000
  42
-0.0940
  70
32
  0
VERTEX
  5
BA1
  100
AcDbEntity
  8
Layer 1
  62
0
  100
AcDb2dVertex
  10
0.16183
  20
0.24843
  30
0.00000
  70
32
  0
VERTEX
  5
BA2
  100
AcDbEntity
  8
Layer 1
  62
0
  100
AcDb2dVertex
  10
0.16000
  20
0.25400
  30
0.00000
  42
0.1015
  70
32
  0
VERTEX
  5
BA3
  100
AcDbEntity
  8
Layer 1
  62
0
  100
AcDb2dVertex
  10
0.14809
  20
0.27927
  30
0.00000
  42
0.2359
  70
32
  0
VERTEX
  5
BA4
  100
AcDbEntity
  8
Layer 1
  62
0
  100
AcDb2dVertex
  10
0.12683
  20
0.29006
  30
0.00000
  70
32
  0
VERTEX
  5
BA5
  100
AcDbEntity
  8
Layer 1
  62
0
  100
AcDb2dVertex
  10
0.12500
  20
0.29000
  30
0.00000
  42
-0.0652
  70
32
  0
VERTEX
  5
BA6
  100
AcDbEntity
  8
Layer 1
  62
0
  100
AcDb2dVertex
  10
0.10428
  20
0.30698
  30
0.00000
  42
-0.0193
  70
32
  0
VERTEX
  5
BA7
  100
AcDbEntity
  8
Layer 1
  62
0
  100
AcDb2dVertex
  10
0.08500
  20
0.32800
  30
0.00000
  42
-0.0524
  70
32
  0
VERTEX
  5
BA8
  100
AcDbEntity
  8
Layer 1
  62
0
  100
AcDb2dVertex
  10
0.06148
  20
0.35714
  30
0.00000
  42
-0.1204
  70
32
  0
VERTEX
  5
BA9
  100
AcDbEntity
  8
Layer 1
  62
0
  100
AcDb2dVertex
  10
0.05700
  20
0.36885
  30
0.00000
  70
32
  0
VERTEX
  5
BAA
  100
AcDbEntity
  8
Layer 1
  62
0
  100
AcDb2dVertex
  10
0.05700
  20
0.36900
  30
0.00000
  42
-0.2588
  70
32
  0
VERTEX
  5
BAB
  100
AcDbEntity
  8
Layer 1
  62
0
  100
AcDb2dVertex
  10
0.06410
  20
0.37684
  30
0.00000
  42
-0.1100
  70
32
  0
VERTEX
  5
BAC
  100
AcDbEntity
  8
Layer 1
  62
0
  100
AcDb2dVertex
  10
0.06900
  20
0.37700
  30
0.00000
  42
-0.0515
  70
32
  0
VERTEX
  5
BAD
  100
AcDbEntity
  8
Layer 1
  62
0
  100
AcDb2dVertex
  10
0.17200
  20
0.30000
  30
0.00000
  42
0.1240
  70
32
  0
VERTEX
  5
BAE
  100
AcDbEntity
  8
Layer 1
  62
0
  100
AcDb2dVertex
  10
0.19747
  20
0.28215
  30
0.00000
  42
0.0829
  70
32
  0
VERTEX
  5
BAF
  100
AcDbEntity
  8
Layer 1
  62
0
  100
AcDb2dVertex
  10
0.21000
  20
0.28000
  30
0.00000
  42
0.0912
  70
32
  0
VERTEX
  5
BB0
  100
AcDbEntity
  8
Layer 1
  62
0
  100
AcDb2dVertex
  10
0.22900
  20
0.28400
  30
0.00000
  42
-0.0558
  70
32
  0
VERTEX
  5
BB1
  100
AcDbEntity
  8
Layer 1
  62
0
  100
AcDb2dVertex
  10
0.24700
  20
0.28700
  30
0.00000
  42
-0.2049
  70
32
  0
VERTEX
  5
BB2
  100
AcDbEntity
  8
Layer 1
  62
0
  100
AcDb2dVertex
  10
0.26500
  20
0.27900
  30
0.00000
  42
0.0936
  70
32
  0
VERTEX
  5
BB3
  100
AcDbEntity
  8
Layer 1
  62
0
  100
AcDb2dVertex
  10
0.27560
  20
0.27070
  30
0.00000
  42
0.0973
  70
32
  0
VERTEX
  5
BB4
  100
AcDbEntity
  8
Layer 1
  62
0
  100
AcDb2dVertex
  10
0.27900
  20
0.27000
  30
0.00000
  70
32
  0
VERTEX
  5
BB5
  100
AcDbEntity
  8
Layer 1
  62
0
  100
AcDb2dVertex
  10
0.28200
  20
0.27500
  30
0.00000
  70
32
  0
VERTEX
  5
BB6
  100
AcDbEntity
  8
Layer 1
  62
0
  100
AcDb2dVertex
  10
0.27700
  20
0.29000
  30
0.00000
  42
0.0630
  70
32
  0
VERTEX
  5
BB7
  100
AcDbEntity
  8
Layer 1
  62
0
  100
AcDb2dVertex
  10
0.29830
  20
0.39545
  30
0.00000
  42
0.0160
  70
32
  0
VERTEX
  5
BB8
  100
AcDbEntity
  8
Layer 1
  62
0
  100
AcDb2dVertex
  10
0.29900
  20
0.41700
  30
0.00000
  42
0.0584
  70
32
  0
VERTEX
  5
BB9
  100
AcDbEntity
  8
Layer 1
  62
0
  100
AcDb2dVertex
  10
0.29124
  20
0.47334
  30
0.00000
  42
0.0115
  70
32
  0
VERTEX
  5
BBA
  100
AcDbEntity
  8
Layer 1
  62
0
  100
AcDb2dVertex
  10
0.28600
  20
0.49300
  30
0.00000
  42
-0.0262
  70
32
  0
VERTEX
  5
BBB
  100
AcDbEntity
  8
Layer 1
  62
0
  100
AcDb2dVertex
  10
0.27465
  20
0.54264
  30
0.00000
  42
-0.0336
  70
32
  0
VERTEX
  5
BBC
  100
AcDbEntity
  8
Layer 1
  62
0
  100
AcDb2dVertex
  10
0.27400
  20
0.55000
  30
0.00000
  42
-0.2088
  70
32
  0
VERTEX
  5
BBD
  100
AcDbEntity
  8
Layer 1
  62
0
  100
AcDb2dVertex
  10
0.28030
  20
0.56701
  30
0.00000
  42
-0.0778
  70
32
  0
VERTEX
  5
BBE
  100
AcDbEntity
  8
Layer 1
  62
0
  100
AcDb2dVertex
  10
0.28600
  20
0.57100
  30
0.00000
  70
32
  0
VERTEX
  5
BBF
  100
AcDbEntity
  8
Layer 1
  62
0
  100
AcDb2dVertex
  10
0.29232
  20
0.57386
  30
0.00000
  42
-0.0271
  70
32
  0
VERTEX
  5
BC0
  100
AcDbEntity
  8
Layer 1
  62
0
  100
AcDb2dVertex
  10
0.31200
  20
0.58200
  30
0.00000
  42
0.0230
  70
32
  0
VERTEX
  5
BC1
  100
AcDbEntity
  8
Layer 1
  62
0
  100
AcDb2dVertex
  10
0.30500
  20
0.60900
  30
0.00000
  42
-0.2983
  70
32
  0
VERTEX
  5
BC2
  100
AcDbEntity
  8
Layer 1
  62
0
  100
AcDb2dVertex
  10
0.31747
  20
0.62969
  30
0.00000
  42
-0.0637
  70
32
  0
VERTEX
  5
BC3
  100
AcDbEntity
  8
Layer 1
  62
0
  100
AcDb2dVertex
  10
0.32900
  20
0.63400
  30
0.00000
  42
0.0150
  70
32
  0
VERTEX
  5
BC4
  100
AcDbEntity
  8
Layer 1
  62
0
  100
AcDb2dVertex
  10
0.34700
  20
0.63762
  30
0.00000
  70
32
  0
VERTEX
  5
BC5
  100
AcDbEntity
  8
Layer 1
  62
0
  100
AcDb2dVertex
  10
0.36500
  20
0.64200
  30
0.00000
  42
0.0282
  70
32
  0
VERTEX
  5
BC6
  100
AcDbEntity
  8
Layer 1
  62
0
  100
AcDb2dVertex
  10
0.39353
  20
0.65381
  30
0.00000
  42
0.0054
  70
32
  0
VERTEX
  5
BC7
  100
AcDbEntity
  8
Layer 1
  62
0
  100
AcDb2dVertex
  10
0.51000
  20
0.70900
  30
0.00000
  42
-0.0493
  70
32
  0
VERTEX
  5
BC8
  100
AcDbEntity
  8
Layer 1
  62
0
  100
AcDb2dVertex
  10
0.60052
  20
0.74183
  30
0.00000
  42
-0.0594
  70
32
  0
VERTEX
  5
BC9
  100
AcDbEntity
  8
Layer 1
  62
0
  100
AcDb2dVertex
  10
0.66400
  20
0.75000
  30
0.00000
  42
-0.0405
  70
32
  0
VERTEX
  5
BCA
  100
AcDbEntity
  8
Layer 1
  62
0
  100
AcDb2dVertex
  10
0.75000
  20
0.74200
  30
0.00000
  70
32
  0
VERTEX
  5
BCB
  100
AcDbEntity
  8
Layer 1
  62
0
  100
AcDb2dVertex
  10
0.75200
  20
0.73200
  30
0.00000
  70
32
  0
SEQEND
  5
BCC
  100
AcDbEntity
  8
Layer 1
  62
0
  0
POLYLINE
  5
BCD
  100
AcDbEntity
  8
Layer 1
  62
0
  100
AcDb2dPolyline
 66
     1
  10
0
  20
0
  30
0
  70
1
  0
VERTEX
  5
BCE
  100
AcDbEntity
  8
Layer 1
  62
0
  100
AcDb2dVertex
  10
0.41000
  20
0.72400
  30
0.00000
  42
-0.3001
  70
32
  0
VERTEX
  5
BCF
  100
AcDbEntity
  8
Layer 1
  62
0
  100
AcDb2dVertex
  10
0.40161
  20
0.71066
  30
0.00000
  42
-0.0515
  70
32
  0
VERTEX
  5
BD0
  100
AcDbEntity
  8
Layer 1
  62
0
  100
AcDb2dVertex
  10
0.39500
  20
0.70800
  30
0.00000
  42
0.1167
  70
32
  0
VERTEX
  5
BD1
  100
AcDbEntity
  8
Layer 1
  62
0
  100
AcDb2dVertex
  10
0.37915
  20
0.70044
  30
0.00000
  42
0.0943
  70
32
  0
VERTEX
  5
BD2
  100
AcDbEntity
  8
Layer 1
  62
0
  100
AcDb2dVertex
  10
0.37500
  20
0.69500
  30
0.00000
  70
32
  0
VERTEX
  5
BD3
  100
AcDbEntity
  8
Layer 1
  62
0
  100
AcDb2dVertex
  10
0.37700
  20
0.68500
  30
0.00000
  42
-0.1508
  70
32
  0
VERTEX
  5
BD4
  100
AcDbEntity
  8
Layer 1
  62
0
  100
AcDb2dVertex
  10
0.36977
  20
0.65812
  30
0.00000
  70
32
  0
VERTEX
  5
BD5
  100
AcDbEntity
  8
Layer 1
  62
0
  100
AcDb2dVertex
  10
0.36900
  20
0.65700
  30
0.00000
  42
-0.0921
  70
32
  0
VERTEX
  5
BD6
  100
AcDbEntity
  8
Layer 1
  62
0
  100
AcDb2dVertex
  10
0.34200
  20
0.65500
  30
0.00000
  42
-0.0241
  70
32
  0
VERTEX
  5
BD7
  100
AcDbEntity
  8
Layer 1
  62
0
  100
AcDb2dVertex
  10
0.31500
  20
0.65900
  30
0.00000
  42
0.2516
  70
32
  0
VERTEX
  5
BD8
  100
AcDbEntity
  8
Layer 1
  62
0
  100
AcDb2dVertex
  10
0.28359
  20
0.64278
  30
0.00000
  42
0.0815
  70
32
  0
VERTEX
  5
BD9
  100
AcDbEntity
  8
Layer 1
  62
0
  100
AcDb2dVertex
  10
0.27300
  20
0.62100
  30
0.00000
  42
-0.1321
  70
32
  0
VERTEX
  5
BDA
  100
AcDbEntity
  8
Layer 1
  62
0
  100
AcDb2dVertex
  10
0.25747
  20
0.59501
  30
0.00000
  42
-0.1922
  70
32
  0
VERTEX
  5
BDB
  100
AcDbEntity
  8
Layer 1
  62
0
  100
AcDb2dVertex
  10
0.22700
  20
0.58400
  30
0.00000
  42
0.0333
  70
32
  0
VERTEX
  5
BDC
  100
AcDbEntity
  8
Layer 1
  62
0
  100
AcDb2dVertex
  10
0.20238
  20
0.58307
  30
0.00000
  70
32
  0
VERTEX
  5
BDD
  100
AcDbEntity
  8
Layer 1
  62
0
  100
AcDb2dVertex
  10
0.20163
  20
0.58282
  30
0.00000
  42
0.7940
  70
32
  0
VERTEX
  5
BDE
  100
AcDbEntity
  8
Layer 1
  62
0
  100
AcDb2dVertex
  10
0.20202
  20
0.58239
  30
0.00000
  70
32
  0
VERTEX
  5
BDF
  100
AcDbEntity
  8
Layer 1
  62
0
  100
AcDb2dVertex
  10
0.20400
  20
0.58200
  30
0.00000
  42
-0.1517
  70
32
  0
VERTEX
  5
BE0
  100
AcDbEntity
  8
Layer 1
  62
0
  100
AcDb2dVertex
  10
0.18079
  20
0.59002
  30
0.00000
  42
-0.0622
  70
32
  0
VERTEX
  5
BE1
  100
AcDbEntity
  8
Layer 1
  62
0
  100
AcDb2dVertex
  10
0.16000
  20
0.60900
  30
0.00000
  42
0.1258
  70
32
  0
VERTEX
  5
BE2
  100
AcDbEntity
  8
Layer 1
  62
0
  100
AcDb2dVertex
  10
0.12686
  20
0.63252
  30
0.00000
  42
0.0883
  70
32
  0
VERTEX
  5
BE3
  100
AcDbEntity
  8
Layer 1
  62
0
  100
AcDb2dVertex
  10
0.10000
  20
0.63700
  30
0.00000
  42
0.1143
  70
32
  0
VERTEX
  5
BE4
  100
AcDbEntity
  8
Layer 1
  62
0
  100
AcDb2dVertex
  10
0.07400
  20
0.63000
  30
0.00000
  42
-0.0826
  70
32
  0
VERTEX
  5
BE5
  100
AcDbEntity
  8
Layer 1
  62
0
  100
AcDb2dVertex
  10
0.05097
  20
0.62402
  30
0.00000
  70
32
  0
VERTEX
  5
BE6
  100
AcDbEntity
  8
Layer 1
  62
0
  100
AcDb2dVertex
  10
0.05000
  20
0.62400
  30
0.00000
  42
-0.1353
  70
32
  0
VERTEX
  5
BE7
  100
AcDbEntity
  8
Layer 1
  62
0
  100
AcDb2dVertex
  10
0.03192
  20
0.62798
  30
0.00000
  42
-0.2304
  70
32
  0
VERTEX
  5
BE8
  100
AcDbEntity
  8
Layer 1
  62
0
  100
AcDb2dVertex
  10
0.02253
  20
0.64305
  30
0.00000
  42
-0.0410
  70
32
  0
VERTEX
  5
BE9
  100
AcDbEntity
  8
Layer 1
  62
0
  100
AcDb2dVertex
  10
0.02200
  20
0.65000
  30
0.00000
  70
32
  0
VERTEX
  5
BEA
  100
AcDbEntity
  8
Layer 1
  62
0
  100
AcDb2dVertex
  10
0.02500
  20
0.66500
  30
0.00000
  70
32
  0
VERTEX
  5
BEB
  100
AcDbEntity
  8
Layer 1
  62
0
  100
AcDb2dVertex
  10
0.15400
  20
0.67700
  30
0.00000
  70
32
  0
VERTEX
  5
BEC
  100
AcDbEntity
  8
Layer 1
  62
0
  100
AcDb2dVertex
  10
0.02500
  20
0.66500
  30
0.00000
  70
32
  0
VERTEX
  5
BED
  100
AcDbEntity
  8
Layer 1
  62
0
  100
AcDb2dVertex
  10
0.02000
  20
0.68400
  30
0.00000
  42
-0.2045
  70
32
  0
VERTEX
  5
BEE
  100
AcDbEntity
  8
Layer 1
  62
0
  100
AcDb2dVertex
  10
0.03121
  20
0.70951
  30
0.00000
  42
-0.0955
  70
32
  0
VERTEX
  5
BEF
  100
AcDbEntity
  8
Layer 1
  62
0
  100
AcDb2dVertex
  10
0.05855
  20
0.72685
  30
0.00000
  42
-0.0544
  70
32
  0
VERTEX
  5
BF0
  100
AcDbEntity
  8
Layer 1
  62
0
  100
AcDb2dVertex
  10
0.11248
  20
0.74203
  30
0.00000
  42
-0.0331
  70
32
  0
VERTEX
  5
BF1
  100
AcDbEntity
  8
Layer 1
  62
0
  100
AcDb2dVertex
  10
0.21105
  20
0.75236
  30
0.00000
  42
-0.0120
  70
32
  0
VERTEX
  5
BF2
  100
AcDbEntity
  8
Layer 1
  62
0
  100
AcDb2dVertex
  10
0.28500
  20
0.75400
  30
0.00000
  42
-0.0564
  70
32
  0
VERTEX
  5
BF3
  100
AcDbEntity
  8
Layer 1
  62
0
  100
AcDb2dVertex
  10
0.40000
  20
0.74200
  30
0.00000
  42
-0.0597
  70
32
  0
VERTEX
  5
BF4
  100
AcDbEntity
  8
Layer 1
  62
0
  100
AcDb2dVertex
  10
0.40967
  20
0.72557
  30
0.00000
  70
32
  0
VERTEX
  5
BF5
  100
AcDbEntity
  8
Layer 1
  62
0
  100
AcDb2dVertex
  10
0.41000
  20
0.72400
  30
0.00000
  70
32
  0
SEQEND
  5
BF6
  100
AcDbEntity
  8
Layer 1
  62
0
  0
POLYLINE
  5
BF7
  100
AcDbEntity
  8
Layer 1
  62
0
  100
AcDb2dPolyline
 66
     1
  10
0
  20
0
  30
0
  70
1
  0
VERTEX
  5
BF8
  100
AcDbEntity
  8
Layer 1
  62
0
  100
AcDb2dVertex
  10
0.97200
  20
0.65500
  30
0.00000
  42
0.0709
  70
32
  0
VERTEX
  5
BF9
  100
AcDbEntity
  8
Layer 1
  62
0
  100
AcDb2dVertex
  10
0.94811
  20
0.62478
  30
0.00000
  42
0.1241
  70
32
  0
VERTEX
  5
BFA
  100
AcDbEntity
  8
Layer 1
  62
0
  100
AcDb2dVertex
  10
0.94200
  20
0.60400
  30
0.00000
  42
0.1126
  70
32
  0
VERTEX
  5
BFB
  100
AcDbEntity
  8
Layer 1
  62
0
  100
AcDb2dVertex
  10
0.94795
  20
0.58297
  30
0.00000
  42
0.0475
  70
32
  0
VERTEX
  5
BFC
  100
AcDbEntity
  8
Layer 1
  62
0
  100
AcDb2dVertex
  10
0.96600
  20
0.55500
  30
0.00000
  42
-0.2405
  70
32
  0
VERTEX
  5
BFD
  100
AcDbEntity
  8
Layer 1
  62
0
  100
AcDb2dVertex
  10
0.95385
  20
0.54452
  30
0.00000
  70
32
  0
VERTEX
  5
BFE
  100
AcDbEntity
  8
Layer 1
  62
0
  100
AcDb2dVertex
  10
0.95200
  20
0.54400
  30
0.00000
  70
32
  0
VERTEX
  5
BFF
  100
AcDbEntity
  8
Layer 1
  62
0
  100
AcDb2dVertex
  10
0.93400
  20
0.55000
  30
0.00000
  42
0.1371
  70
32
  0
VERTEX
  5
C00
  100
AcDbEntity
  8
Layer 1
  62
0
  100
AcDb2dVertex
  10
0.92528
  20
0.54841
  30
0.00000
  42
0.1313
  70
32
  0
VERTEX
  5
C01
  100
AcDbEntity
  8
Layer 1
  62
0
  100
AcDb2dVertex
  10
0.92400
  20
0.54700
  30
0.00000
  70
32
  0
VERTEX
  5
C02
  100
AcDbEntity
  8
Layer 1
  62
0
  100
AcDb2dVertex
  10
0.92400
  20
0.54000
  30
0.00000
  70
32
  0
VERTEX
  5
C03
  100
AcDbEntity
  8
Layer 1
  62
0
  100
AcDb2dVertex
  10
0.93700
  20
0.51700
  30
0.00000
  42
-0.2426
  70
32
  0
VERTEX
  5
C04
  100
AcDbEntity
  8
Layer 1
  62
0
  100
AcDb2dVertex
  10
0.92894
  20
0.50631
  30
0.00000
  42
-0.1041
  70
32
  0
VERTEX
  5
C05
  100
AcDbEntity
  8
Layer 1
  62
0
  100
AcDb2dVertex
  10
0.92200
  20
0.50500
  30
0.00000
  70
32
  0
VERTEX
  5
C06
  100
AcDbEntity
  8
Layer 1
  62
0
  100
AcDb2dVertex
  10
0.90400
  20
0.51400
  30
0.00000
  42
0.2411
  70
32
  0
VERTEX
  5
C07
  100
AcDbEntity
  8
Layer 1
  62
0
  100
AcDb2dVertex
  10
0.89727
  20
0.50919
  30
0.00000
  70
32
  0
VERTEX
  5
C08
  100
AcDbEntity
  8
Layer 1
  62
0
  100
AcDb2dVertex
  10
0.89600
  20
0.50700
  30
0.00000
  42
-0.0353
  70
32
  0
VERTEX
  5
C09
  100
AcDbEntity
  8
Layer 1
  62
0
  100
AcDb2dVertex
  10
0.91222
  20
0.42791
  30
0.00000
  42
-0.0290
  70
32
  0
VERTEX
  5
C0A
  100
AcDbEntity
  8
Layer 1
  62
0
  100
AcDb2dVertex
  10
0.91400
  20
0.40000
  30
0.00000
  42
-0.2532
  70
32
  0
VERTEX
  5
C0B
  100
AcDbEntity
  8
Layer 1
  62
0
  100
AcDb2dVertex
  10
0.90763
  20
0.38985
  30
0.00000
  42
-0.0588
  70
32
  0
VERTEX
  5
C0C
  100
AcDbEntity
  8
Layer 1
  62
0
  100
AcDb2dVertex
  10
0.90200
  20
0.38700
  30
0.00000
  42
-0.2289
  70
32
  0
VERTEX
  5
C0D
  100
AcDbEntity
  8
Layer 1
  62
0
  100
AcDb2dVertex
  10
0.89577
  20
0.39105
  30
0.00000
  42
-0.0883
  70
32
  0
VERTEX
  5
C0E
  100
AcDbEntity
  8
Layer 1
  62
0
  100
AcDb2dVertex
  10
0.88747
  20
0.40969
  30
0.00000
  42
-0.0220
  70
32
  0
VERTEX
  5
C0F
  100
AcDbEntity
  8
Layer 1
  62
0
  100
AcDb2dVertex
  10
0.88400
  20
0.42400
  30
0.00000
  42
0.0563
  70
32
  0
VERTEX
  5
C10
  100
AcDbEntity
  8
Layer 1
  62
0
  100
AcDb2dVertex
  10
0.87447
  20
0.45202
  30
0.00000
  42
0.1533
  70
32
  0
VERTEX
  5
C11
  100
AcDbEntity
  8
Layer 1
  62
0
  100
AcDb2dVertex
  10
0.86810
  20
0.45951
  30
0.00000
  42
0.1108
  70
32
  0
VERTEX
  5
C12
  100
AcDbEntity
  8
Layer 1
  62
0
  100
AcDb2dVertex
  10
0.86600
  20
0.46000
  30
0.00000
  42
0.2673
  70
32
  0
VERTEX
  5
C13
  100
AcDbEntity
  8
Layer 1
  62
0
  100
AcDb2dVertex
  10
0.86111
  20
0.45433
  30
0.00000
  70
32
  0
VERTEX
  5
C14
  100
AcDbEntity
  8
Layer 1
  62
0
  100
AcDb2dVertex
  10
0.86100
  20
0.45400
  30
0.00000
  42
-0.0165
  70
32
  0
VERTEX
  5
C15
  100
AcDbEntity
  8
Layer 1
  62
0
  100
AcDb2dVertex
  10
0.87061
  20
0.37462
  30
0.00000
  70
32
  0
VERTEX
  5
C16
  100
AcDbEntity
  8
Layer 1
  62
0
  100
AcDb2dVertex
  10
0.87400
  20
0.33900
  30
0.00000
  42
-0.3785
  70
32
  0
VERTEX
  5
C17
  100
AcDbEntity
  8
Layer 1
  62
0
  100
AcDb2dVertex
  10
0.86998
  20
0.33115
  30
0.00000
  42
-0.0610
  70
32
  0
VERTEX
  5
C18
  100
AcDbEntity
  8
Layer 1
  62
0
  100
AcDb2dVertex
  10
0.86400
  20
0.32900
  30
0.00000
  42
-0.2433
  70
32
  0
VERTEX
  5
C19
  100
AcDbEntity
  8
Layer 1
  62
0
  100
AcDb2dVertex
  10
0.85666
  20
0.33360
  30
0.00000
  42
-0.0865
  70
32
  0
VERTEX
  5
C1A
  100
AcDbEntity
  8
Layer 1
  62
0
  100
AcDb2dVertex
  10
0.84893
  20
0.35180
  30
0.00000
  42
-0.0169
  70
32
  0
VERTEX
  5
C1B
  100
AcDbEntity
  8
Layer 1
  62
0
  100
AcDb2dVertex
  10
0.84600
  20
0.36400
  30
0.00000
  42
0.0517
  70
32
  0
VERTEX
  5
C1C
  100
AcDbEntity
  8
Layer 1
  62
0
  100
AcDb2dVertex
  10
0.83777
  20
0.39267
  30
0.00000
  42
0.1540
  70
32
  0
VERTEX
  5
C1D
  100
AcDbEntity
  8
Layer 1
  62
0
  100
AcDb2dVertex
  10
0.83260
  20
0.39959
  30
0.00000
  70
32
  0
VERTEX
  5
C1E
  100
AcDbEntity
  8
Layer 1
  62
0
  100
AcDb2dVertex
  10
0.83100
  20
0.40000
  30
0.00000
  42
0.1732
  70
32
  0
VERTEX
  5
C1F
  100
AcDbEntity
  8
Layer 1
  62
0
  100
AcDb2dVertex
  10
0.82366
  20
0.39358
  30
0.00000
  42
0.3616
  70
32
  0
VERTEX
  5
C20
  100
AcDbEntity
  8
Layer 1
  62
0
  100
AcDb2dVertex
  10
0.82600
  20
0.38700
  30
0.00000
  42
0.0076
  70
32
  0
VERTEX
  5
C21
  100
AcDbEntity
  8
Layer 1
  62
0
  100
AcDb2dVertex
  10
0.83600
  20
0.30000
  30
0.00000
  42
-0.1120
  70
32
  0
VERTEX
  5
C22
  100
AcDbEntity
  8
Layer 1
  62
0
  100
AcDb2dVertex
  10
0.83307
  20
0.28301
  30
0.00000
  42
-0.3060
  70
32
  0
VERTEX
  5
C23
  100
AcDbEntity
  8
Layer 1
  62
0
  100
AcDb2dVertex
  10
0.82400
  20
0.27700
  30
0.00000
  42
-0.2513
  70
32
  0
VERTEX
  5
C24
  100
AcDbEntity
  8
Layer 1
  62
0
  100
AcDb2dVertex
  10
0.81697
  20
0.28150
  30
0.00000
  42
-0.0807
  70
32
  0
VERTEX
  5
C25
  100
AcDbEntity
  8
Layer 1
  62
0
  100
AcDb2dVertex
  10
0.80965
  20
0.29940
  30
0.00000
  70
32
  0
VERTEX
  5
C26
  100
AcDbEntity
  8
Layer 1
  62
0
  100
AcDb2dVertex
  10
0.80700
  20
0.31000
  30
0.00000
  42
0.0608
  70
32
  0
VERTEX
  5
C27
  100
AcDbEntity
  8
Layer 1
  62
0
  100
AcDb2dVertex
  10
0.79969
  20
0.33648
  30
0.00000
  42
0.1670
  70
32
  0
VERTEX
  5
C28
  100
AcDbEntity
  8
Layer 1
  62
0
  100
AcDb2dVertex
  10
0.79396
  20
0.34356
  30
0.00000
  42
0.1089
  70
32
  0
VERTEX
  5
C29
  100
AcDbEntity
  8
Layer 1
  62
0
  100
AcDb2dVertex
  10
0.79200
  20
0.34400
  30
0.00000
  42
0.3947
  70
32
  0
VERTEX
  5
C2A
  100
AcDbEntity
  8
Layer 1
  62
0
  100
AcDb2dVertex
  10
0.78640
  20
0.33907
  30
0.00000
  42
0.0569
  70
32
  0
VERTEX
  5
C2B
  100
AcDbEntity
  8
Layer 1
  62
0
  100
AcDb2dVertex
  10
0.78600
  20
0.33500
  30
0.00000
  42
0.0070
  70
32
  0
VERTEX
  5
C2C
  100
AcDbEntity
  8
Layer 1
  62
0
  100
AcDb2dVertex
  10
0.79400
  20
0.24400
  30
0.00000
  42
-0.1907
  70
32
  0
VERTEX
  5
C2D
  100
AcDbEntity
  8
Layer 1
  62
0
  100
AcDb2dVertex
  10
0.79125
  20
0.23457
  30
0.00000
  42
-0.2119
  70
32
  0
VERTEX
  5
C2E
  100
AcDbEntity
  8
Layer 1
  62
0
  100
AcDb2dVertex
  10
0.78400
  20
0.23200
  30
0.00000
  42
-0.2657
  70
32
  0
VERTEX
  5
C2F
  100
AcDbEntity
  8
Layer 1
  62
0
  100
AcDb2dVertex
  10
0.77365
  20
0.23829
  30
0.00000
  42
-0.0968
  70
32
  0
VERTEX
  5
C30
  100
AcDbEntity
  8
Layer 1
  62
0
  100
AcDb2dVertex
  10
0.76708
  20
0.25727
  30
0.00000
  70
32
  0
VERTEX
  5
C31
  100
AcDbEntity
  8
Layer 1
  62
0
  100
AcDb2dVertex
  10
0.76600
  20
0.26400
  30
0.00000
  42
0.0568
  70
32
  0
VERTEX
  5
C32
  100
AcDbEntity
  8
Layer 1
  62
0
  100
AcDb2dVertex
  10
0.75941
  20
0.28814
  30
0.00000
  42
0.1839
  70
32
  0
VERTEX
  5
C33
  100
AcDbEntity
  8
Layer 1
  62
0
  100
AcDb2dVertex
  10
0.75395
  20
0.29462
  30
0.00000
  70
32
  0
VERTEX
  5
C34
  100
AcDbEntity
  8
Layer 1
  62
0
  100
AcDb2dVertex
  10
0.75200
  20
0.29500
  30
0.00000
  42
0.3520
  70
32
  0
VERTEX
  5
C35
  100
AcDbEntity
  8
Layer 1
  62
0
  100
AcDb2dVertex
  10
0.74500
  20
0.28700
  30
0.00000
  70
32
  0
VERTEX
  5
C36
  100
AcDbEntity
  8
Layer 1
  62
0
  100
AcDb2dVertex
  10
0.75400
  20
0.20400
  30
0.00000
  42
-0.3970
  70
32
  0
VERTEX
  5
C37
  100
AcDbEntity
  8
Layer 1
  62
0
  100
AcDb2dVertex
  10
0.74700
  20
0.19550
  30
0.00000
  42
-0.0566
  70
32
  0
VERTEX
  5
C38
  100
AcDbEntity
  8
Layer 1
  62
0
  100
AcDb2dVertex
  10
0.74200
  20
0.19500
  30
0.00000
  42
-0.2645
  70
32
  0
VERTEX
  5
C39
  100
AcDbEntity
  8
Layer 1
  62
0
  100
AcDb2dVertex
  10
0.73275
  20
0.20069
  30
0.00000
  42
-0.0860
  70
32
  0
VERTEX
  5
C3A
  100
AcDbEntity
  8
Layer 1
  62
0
  100
AcDb2dVertex
  10
0.72585
  20
0.21920
  30
0.00000
  70
32
  0
VERTEX
  5
C3B
  100
AcDbEntity
  8
Layer 1
  62
0
  100
AcDb2dVertex
  10
0.72500
  20
0.22300
  30
0.00000
  42
0.0767
  70
32
  0
VERTEX
  5
C3C
  100
AcDbEntity
  8
Layer 1
  62
0
  100
AcDb2dVertex
  10
0.71769
  20
0.24421
  30
0.00000
  42
0.2092
  70
32
  0
VERTEX
  5
C3D
  100
AcDbEntity
  8
Layer 1
  62
0
  100
AcDb2dVertex
  10
0.71114
  20
0.24989
  30
0.00000
  70
32
  0
VERTEX
  5
C3E
  100
AcDbEntity
  8
Layer 1
  62
0
  100
AcDb2dVertex
  10
0.71000
  20
0.25000
  30
0.00000
  42
0.1387
  70
32
  0
VERTEX
  5
C3F
  100
AcDbEntity
  8
Layer 1
  62
0
  100
AcDb2dVertex
  10
0.70439
  20
0.24276
  30
0.00000
  70
32
  0
VERTEX
  5
C40
  100
AcDbEntity
  8
Layer 1
  62
0
  100
AcDb2dVertex
  10
0.70400
  20
0.24200
  30
0.00000
  70
32
  0
VERTEX
  5
C41
  100
AcDbEntity
  8
Layer 1
  62
0
  100
AcDb2dVertex
  10
0.71200
  20
0.17000
  30
0.00000
  42
-0.3200
  70
32
  0
VERTEX
  5
C42
  100
AcDbEntity
  8
Layer 1
  62
0
  100
AcDb2dVertex
  10
0.70496
  20
0.16006
  30
0.00000
  70
32
  0
VERTEX
  5
C43
  100
AcDbEntity
  8
Layer 1
  62
0
  100
AcDb2dVertex
  10
0.70200
  20
0.15900
  30
0.00000
  42
-0.2882
  70
32
  0
VERTEX
  5
C44
  100
AcDbEntity
  8
Layer 1
  62
0
  100
AcDb2dVertex
  10
0.68922
  20
0.16702
  30
0.00000
  42
-0.0999
  70
32
  0
VERTEX
  5
C45
  100
AcDbEntity
  8
Layer 1
  62
0
  100
AcDb2dVertex
  10
0.68400
  20
0.18600
  30
0.00000
  42
0.0772
  70
32
  0
VERTEX
  5
C46
  100
AcDbEntity
  8
Layer 1
  62
0
  100
AcDb2dVertex
  10
0.67900
  20
0.20787
  30
0.00000
  42
0.2127
  70
32
  0
VERTEX
  5
C47
  100
AcDbEntity
  8
Layer 1
  62
0
  100
AcDb2dVertex
  10
0.67343
  20
0.21380
  30
0.00000
  70
32
  0
VERTEX
  5
C48
  100
AcDbEntity
  8
Layer 1
  62
0
  100
AcDb2dVertex
  10
0.67200
  20
0.21400
  30
0.00000
  70
32
  0
VERTEX
  5
C49
  100
AcDbEntity
  8
Layer 1
  62
0
  100
AcDb2dVertex
  10
0.67134
  20
0.21351
  30
0.00000
  42
0.1348
  70
32
  0
VERTEX
  5
C4A
  100
AcDbEntity
  8
Layer 1
  62
0
  100
AcDb2dVertex
  10
0.66545
  20
0.20748
  30
0.00000
  42
0.0955
  70
32
  0
VERTEX
  5
C4B
  100
AcDbEntity
  8
Layer 1
  62
0
  100
AcDb2dVertex
  10
0.66500
  20
0.20500
  30
0.00000
  70
32
  0
VERTEX
  5
C4C
  100
AcDbEntity
  8
Layer 1
  62
0
  100
AcDb2dVertex
  10
0.67000
  20
0.14400
  30
0.00000
  42
-0.1671
  70
32
  0
VERTEX
  5
C4D
  100
AcDbEntity
  8
Layer 1
  62
0
  100
AcDb2dVertex
  10
0.66721
  20
0.13306
  30
0.00000
  42
-0.2376
  70
32
  0
VERTEX
  5
C4E
  100
AcDbEntity
  8
Layer 1
  62
0
  100
AcDb2dVertex
  10
0.66000
  20
0.13000
  30
0.00000
  42
-0.2976
  70
32
  0
VERTEX
  5
C4F
  100
AcDbEntity
  8
Layer 1
  62
0
  100
AcDb2dVertex
  10
0.64766
  20
0.13791
  30
0.00000
  42
-0.0906
  70
32
  0
VERTEX
  5
C50
  100
AcDbEntity
  8
Layer 1
  62
0
  100
AcDb2dVertex
  10
0.64300
  20
0.15500
  30
0.00000
  42
0.0708
  70
32
  0
VERTEX
  5
C51
  100
AcDbEntity
  8
Layer 1
  62
0
  100
AcDb2dVertex
  10
0.63877
  20
0.17439
  30
0.00000
  42
0.2409
  70
32
  0
VERTEX
  5
C52
  100
AcDbEntity
  8
Layer 1
  62
0
  100
AcDb2dVertex
  10
0.63334
  20
0.17986
  30
0.00000
  70
32
  0
VERTEX
  5
C53
  100
AcDbEntity
  8
Layer 1
  62
0
  100
AcDb2dVertex
  10
0.63200
  20
0.18000
  30
0.00000
  70
32
  0
VERTEX
  5
C54
  100
AcDbEntity
  8
Layer 1
  62
0
  100
AcDb2dVertex
  10
0.62500
  20
0.17500
  30
0.00000
  70
32
  0
VERTEX
  5
C55
  100
AcDbEntity
  8
Layer 1
  62
0
  100
AcDb2dVertex
  10
0.62500
  20
0.10900
  30
0.00000
  42
-0.2310
  70
32
  0
VERTEX
  5
C56
  100
AcDbEntity
  8
Layer 1
  62
0
  100
AcDb2dVertex
  10
0.62148
  20
0.10291
  30
0.00000
  42
-0.1254
  70
32
  0
VERTEX
  5
C57
  100
AcDbEntity
  8
Layer 1
  62
0
  100
AcDb2dVertex
  10
0.61700
  20
0.10200
  30
0.00000
  42
-0.1939
  70
32
  0
VERTEX
  5
C58
  100
AcDbEntity
  8
Layer 1
  62
0
  100
AcDb2dVertex
  10
0.60795
  20
0.10305
  30
0.00000
  42
-0.1509
  70
32
  0
VERTEX
  5
C59
  100
AcDbEntity
  8
Layer 1
  62
0
  100
AcDb2dVertex
  10
0.60500
  20
0.10700
  30
0.00000
  42
0.0863
  70
32
  0
VERTEX
  5
C5A
  100
AcDbEntity
  8
Layer 1
  62
0
  100
AcDb2dVertex
  10
0.59838
  20
0.13824
  30
0.00000
  70
32
  0
VERTEX
  5
C5B
  100
AcDbEntity
  8
Layer 1
  62
0
  100
AcDb2dVertex
  10
0.59400
  20
0.14900
  30
0.00000
  70
32
  0
VERTEX
  5
C5C
  100
AcDbEntity
  8
Layer 1
  62
0
  100
AcDb2dVertex
  10
0.58900
  20
0.14900
  30
0.00000
  42
0.1311
  70
32
  0
VERTEX
  5
C5D
  100
AcDbEntity
  8
Layer 1
  62
0
  100
AcDb2dVertex
  10
0.58500
  20
0.13947
  30
0.00000
  42
0.0394
  70
32
  0
VERTEX
  5
C5E
  100
AcDbEntity
  8
Layer 1
  62
0
  100
AcDb2dVertex
  10
0.58200
  20
0.11000
  30
0.00000
  42
-0.0704
  70
32
  0
VERTEX
  5
C5F
  100
AcDbEntity
  8
Layer 1
  62
0
  100
AcDb2dVertex
  10
0.57827
  20
0.08531
  30
0.00000
  42
-0.1865
  70
32
  0
VERTEX
  5
C60
  100
AcDbEntity
  8
Layer 1
  62
0
  100
AcDb2dVertex
  10
0.57280
  20
0.07767
  30
0.00000
  42
-0.1199
  70
32
  0
VERTEX
  5
C61
  100
AcDbEntity
  8
Layer 1
  62
0
  100
AcDb2dVertex
  10
0.57000
  20
0.07700
  30
0.00000
  42
-0.2803
  70
32
  0
VERTEX
  5
C62
  100
AcDbEntity
  8
Layer 1
  62
0
  100
AcDb2dVertex
  10
0.56403
  20
0.08137
  30
0.00000
  42
-0.1039
  70
32
  0
VERTEX
  5
C63
  100
AcDbEntity
  8
Layer 1
  62
0
  100
AcDb2dVertex
  10
0.56006
  20
0.09809
  30
0.00000
  70
32
  0
VERTEX
  5
C64
  100
AcDbEntity
  8
Layer 1
  62
0
  100
AcDb2dVertex
  10
0.56000
  20
0.09900
  30
0.00000
  42
0.0918
  70
32
  0
VERTEX
  5
C65
  100
AcDbEntity
  8
Layer 1
  62
0
  100
AcDb2dVertex
  10
0.55488
  20
0.11753
  30
0.00000
  42
0.2514
  70
32
  0
VERTEX
  5
C66
  100
AcDbEntity
  8
Layer 1
  62
0
  100
AcDb2dVertex
  10
0.54932
  20
0.12199
  30
0.00000
  70
32
  0
VERTEX
  5
C67
  100
AcDbEntity
  8
Layer 1
  62
0
  100
AcDb2dVertex
  10
0.54900
  20
0.12200
  30
0.00000
  70
32
  0
VERTEX
  5
C68
  100
AcDbEntity
  8
Layer 1
  62
0
  100
AcDb2dVertex
  10
0.54200
  20
0.11500
  30
0.00000
  70
32
  0
VERTEX
  5
C69
  100
AcDbEntity
  8
Layer 1
  62
0
  100
AcDb2dVertex
  10
0.54200
  20
0.07200
  30
0.00000
  42
-0.1937
  70
32
  0
VERTEX
  5
C6A
  100
AcDbEntity
  8
Layer 1
  62
0
  100
AcDb2dVertex
  10
0.53904
  20
0.06219
  30
0.00000
  42
-0.1726
  70
32
  0
VERTEX
  5
C6B
  100
AcDbEntity
  8
Layer 1
  62
0
  100
AcDb2dVertex
  10
0.53200
  20
0.05900
  30
0.00000
  42
-0.3758
  70
32
  0
VERTEX
  5
C6C
  100
AcDbEntity
  8
Layer 1
  62
0
  100
AcDb2dVertex
  10
0.52201
  20
0.06351
  30
0.00000
  42
-0.0901
  70
32
  0
VERTEX
  5
C6D
  100
AcDbEntity
  8
Layer 1
  62
0
  100
AcDb2dVertex
  10
0.51800
  20
0.07700
  30
0.00000
  42
0.0904
  70
32
  0
VERTEX
  5
C6E
  100
AcDbEntity
  8
Layer 1
  62
0
  100
AcDb2dVertex
  10
0.51347
  20
0.09282
  30
0.00000
  42
0.2812
  70
32
  0
VERTEX
  5
C6F
  100
AcDbEntity
  8
Layer 1
  62
0
  100
AcDb2dVertex
  10
0.50700
  20
0.09700
  30
0.00000
  42
0.2909
  70
32
  0
VERTEX
  5
C70
  100
AcDbEntity
  8
Layer 1
  62
0
  100
AcDb2dVertex
  10
0.50329
  20
0.09373
  30
0.00000
  42
0.0895
  70
32
  0
VERTEX
  5
C71
  100
AcDbEntity
  8
Layer 1
  62
0
  100
AcDb2dVertex
  10
0.50023
  20
0.07746
  30
0.00000
  70
32
  0
VERTEX
  5
C72
  100
AcDbEntity
  8
Layer 1
  62
0
  100
AcDb2dVertex
  10
0.50000
  20
0.06900
  30
0.00000
  42
-0.0847
  70
32
  0
VERTEX
  5
C73
  100
AcDbEntity
  8
Layer 1
  62
0
  100
AcDb2dVertex
  10
0.49617
  20
0.04828
  30
0.00000
  42
-0.2225
  70
32
  0
VERTEX
  5
C74
  100
AcDbEntity
  8
Layer 1
  62
0
  100
AcDb2dVertex
  10
0.49056
  20
0.04222
  30
0.00000
  70
32
  0
VERTEX
  5
C75
  100
AcDbEntity
  8
Layer 1
  62
0
  100
AcDb2dVertex
  10
0.48900
  20
0.04200
  30
0.00000
  42
-0.2502
  70
32
  0
VERTEX
  5
C76
  100
AcDbEntity
  8
Layer 1
  62
0
  100
AcDb2dVertex
  10
0.48156
  20
0.04662
  30
0.00000
  42
-0.0682
  70
32
  0
VERTEX
  5
C77
  100
AcDbEntity
  8
Layer 1
  62
0
  100
AcDb2dVertex
  10
0.47600
  20
0.05800
  30
0.00000
  70
32
  0
VERTEX
  5
C78
  100
AcDbEntity
  8
Layer 1
  62
0
  100
AcDb2dVertex
  10
0.47263
  20
0.06662
  30
0.00000
  42
0.0528
  70
32
  0
VERTEX
  5
C79
  100
AcDbEntity
  8
Layer 1
  62
0
  100
AcDb2dVertex
  10
0.46900
  20
0.07500
  30
0.00000
  42
0.0508
  70
32
  0
VERTEX
  5
C7A
  100
AcDbEntity
  8
Layer 1
  62
0
  100
AcDb2dVertex
  10
0.46497
  20
0.05734
  30
0.00000
  70
32
  0
VERTEX
  5
C7B
  100
AcDbEntity
  8
Layer 1
  62
0
  100
AcDb2dVertex
  10
0.46400
  20
0.05100
  30
0.00000
  42
-0.0976
  70
32
  0
VERTEX
  5
C7C
  100
AcDbEntity
  8
Layer 1
  62
0
  100
AcDb2dVertex
  10
0.45885
  20
0.03363
  30
0.00000
  42
-0.2573
  70
32
  0
VERTEX
  5
C7D
  100
AcDbEntity
  8
Layer 1
  62
0
  100
AcDb2dVertex
  10
0.45400
  20
0.03000
  30
0.00000
  42
-0.2959
  70
32
  0
VERTEX
  5
C7E
  100
AcDbEntity
  8
Layer 1
  62
0
  100
AcDb2dVertex
  10
0.44495
  20
0.03612
  30
0.00000
  42
-0.0732
  70
32
  0
VERTEX
  5
C7F
  100
AcDbEntity
  8
Layer 1
  62
0
  100
AcDb2dVertex
  10
0.44200
  20
0.04500
  30
0.00000
  42
0.1082
  70
32
  0
VERTEX
  5
C80
  100
AcDbEntity
  8
Layer 1
  62
0
  100
AcDb2dVertex
  10
0.43720
  20
0.05804
  30
0.00000
  42
0.2310
  70
32
  0
VERTEX
  5
C81
  100
AcDbEntity
  8
Layer 1
  62
0
  100
AcDb2dVertex
  10
0.43400
  20
0.06000
  30
0.00000
  42
0.3362
  70
32
  0
VERTEX
  5
C82
  100
AcDbEntity
  8
Layer 1
  62
0
  100
AcDb2dVertex
  10
0.43079
  20
0.05696
  30
0.00000
  42
0.0714
  70
32
  0
VERTEX
  5
C83
  100
AcDbEntity
  8
Layer 1
  62
0
  100
AcDb2dVertex
  10
0.42906
  20
0.04140
  30
0.00000
  70
32
  0
VERTEX
  5
C84
  100
AcDbEntity
  8
Layer 1
  62
0
  100
AcDb2dVertex
  10
0.42900
  20
0.03500
  30
0.00000
  42
-0.2228
  70
32
  0
VERTEX
  5
C85
  100
AcDbEntity
  8
Layer 1
  62
0
  100
AcDb2dVertex
  10
0.42585
  20
0.02613
  30
0.00000
  42
-0.1816
  70
32
  0
VERTEX
  5
C86
  100
AcDbEntity
  8
Layer 1
  62
0
  100
AcDb2dVertex
  10
0.41900
  20
0.02400
  30
0.00000
  42
-0.1997
  70
32
  0
VERTEX
  5
C87
  100
AcDbEntity
  8
Layer 1
  62
0
  100
AcDb2dVertex
  10
0.41443
  20
0.02756
  30
0.00000
  42
-0.0707
  70
32
  0
VERTEX
  5
C88
  100
AcDbEntity
  8
Layer 1
  62
0
  100
AcDb2dVertex
  10
0.41000
  20
0.03600
  30
0.00000
  42
0.0461
  70
32
  0
VERTEX
  5
C89
  100
AcDbEntity
  8
Layer 1
  62
0
  100
AcDb2dVertex
  10
0.40200
  20
0.05000
  30
0.00000
  42
0.0203
  70
32
  0
VERTEX
  5
C8A
  100
AcDbEntity
  8
Layer 1
  62
0
  100
AcDb2dVertex
  10
0.39600
  20
0.03300
  30
0.00000
  42
-0.1386
  70
32
  0
VERTEX
  5
C8B
  100
AcDbEntity
  8
Layer 1
  62
0
  100
AcDb2dVertex
  10
0.39078
  20
0.02093
  30
0.00000
  42
-0.2018
  70
32
  0
VERTEX
  5
C8C
  100
AcDbEntity
  8
Layer 1
  62
0
  100
AcDb2dVertex
  10
0.38700
  20
0.01900
  30
0.00000
  42
-0.3200
  70
32
  0
VERTEX
  5
C8D
  100
AcDbEntity
  8
Layer 1
  62
0
  100
AcDb2dVertex
  10
0.37706
  20
0.02604
  30
0.00000
  70
32
  0
VERTEX
  5
C8E
  100
AcDbEntity
  8
Layer 1
  62
0
  100
AcDb2dVertex
  10
0.37600
  20
0.02900
  30
0.00000
  42
0.2235
  70
32
  0
VERTEX
  5
C8F
  100
AcDbEntity
  8
Layer 1
  62
0
  100
AcDb2dVertex
  10
0.37090
  20
0.03801
  30
0.00000
  42
0.1325
  70
32
  0
VERTEX
  5
C90
  100
AcDbEntity
  8
Layer 1
  62
0
  100
AcDb2dVertex
  10
0.36700
  20
0.03900
  30
0.00000
  42
0.2854
  70
32
  0
VERTEX
  5
C91
  100
AcDbEntity
  8
Layer 1
  62
0
  100
AcDb2dVertex
  10
0.36335
  20
0.03583
  30
0.00000
  42
0.0583
  70
32
  0
VERTEX
  5
C92
  100
AcDbEntity
  8
Layer 1
  62
0
  100
AcDb2dVertex
  10
0.36000
  20
0.02500
  30
0.00000
  42
-0.1194
  70
32
  0
VERTEX
  5
C93
  100
AcDbEntity
  8
Layer 1
  62
0
  100
AcDb2dVertex
  10
0.35709
  20
0.01449
  30
0.00000
  42
-0.2606
  70
32
  0
VERTEX
  5
C94
  100
AcDbEntity
  8
Layer 1
  62
0
  100
AcDb2dVertex
  10
0.35200
  20
0.01200
  30
0.00000
  42
0.0744
  70
32
  0
VERTEX
  5
C95
  100
AcDbEntity
  8
Layer 1
  62
0
  100
AcDb2dVertex
  10
0.33522
  20
0.02922
  30
0.00000
  70
32
  0
VERTEX
  5
C96
  100
AcDbEntity
  8
Layer 1
  62
0
  100
AcDb2dVertex
  10
0.33400
  20
0.03000
  30
0.00000
  42
0.1514
  70
32
  0
VERTEX
  5
C97
  100
AcDbEntity
  8
Layer 1
  62
0
  100
AcDb2dVertex
  10
0.32796
  20
0.02157
  30
0.00000
  70
32
  0
VERTEX
  5
C98
  100
AcDbEntity
  8
Layer 1
  62
0
  100
AcDb2dVertex
  10
0.32700
  20
0.01900
  30
0.00000
  42
-0.1977
  70
32
  0
VERTEX
  5
C99
  100
AcDbEntity
  8
Layer 1
  62
0
  100
AcDb2dVertex
  10
0.32129
  20
0.01096
  30
0.00000
  42
-0.1211
  70
32
  0
VERTEX
  5
C9A
  100
AcDbEntity
  8
Layer 1
  62
0
  100
AcDb2dVertex
  10
0.31700
  20
0.01000
  30
0.00000
  70
32
  0
VERTEX
  5
C9B
  100
AcDbEntity
  8
Layer 1
  62
0
  100
AcDb2dVertex
  10
0.31500
  20
0.01000
  30
0.00000
  70
32
  0
VERTEX
  5
C9C
  100
AcDbEntity
  8
Layer 1
  62
0
  100
AcDb2dVertex
  10
0.30400
  20
0.02700
  30
0.00000
  42
0.1090
  70
32
  0
VERTEX
  5
C9D
  100
AcDbEntity
  8
Layer 1
  62
0
  100
AcDb2dVertex
  10
0.29938
  20
0.02334
  30
0.00000
  70
32
  0
VERTEX
  5
C9E
  100
AcDbEntity
  8
Layer 1
  62
0
  100
AcDb2dVertex
  10
0.29500
  20
0.01900
  30
0.00000
  42
-0.1438
  70
32
  0
VERTEX
  5
C9F
  100
AcDbEntity
  8
Layer 1
  62
0
  100
AcDb2dVertex
  10
0.28612
  20
0.01044
  30
0.00000
  42
-0.0932
  70
32
  0
VERTEX
  5
CA0
  100
AcDbEntity
  8
Layer 1
  62
0
  100
AcDb2dVertex
  10
0.28400
  20
0.01000
  30
0.00000
  70
32
  0
VERTEX
  5
CA1
  100
AcDbEntity
  8
Layer 1
  62
0
  100
AcDb2dVertex
  10
0.27000
  20
0.02200
  30
0.00000
  42
-0.2207
  70
32
  0
VERTEX
  5
CA2
  100
AcDbEntity
  8
Layer 1
  62
0
  100
AcDb2dVertex
  10
0.25192
  20
0.01226
  30
0.00000
  70
32
  0
VERTEX
  5
CA3
  100
AcDbEntity
  8
Layer 1
  62
0
  100
AcDb2dVertex
  10
0.24700
  20
0.01200
  30
0.00000
  42
-0.0138
  70
32
  0
VERTEX
  5
CA4
  100
AcDbEntity
  8
Layer 1
  62
0
  100
AcDb2dVertex
  10
0.19031
  20
0.01614
  30
0.00000
  42
-0.0034
  70
32
  0
VERTEX
  5
CA5
  100
AcDbEntity
  8
Layer 1
  62
0
  100
AcDb2dVertex
  10
0.00700
  20
0.03400
  30
0.00000
  70
32
  0
VERTEX
  5
CA6
  100
AcDbEntity
  8
Layer 1
  62
0
  100
AcDb2dVertex
  10
0.00000
  20
0.04400
  30
0.00000
  42
-0.2816
  70
32
  0
VERTEX
  5
CA7
  100
AcDbEntity
  8
Layer 1
  62
0
  100
AcDb2dVertex
  10
0.00398
  20
0.04926
  30
0.00000
  42
-0.0895
  70
32
  0
VERTEX
  5
CA8
  100
AcDbEntity
  8
Layer 1
  62
0
  100
AcDb2dVertex
  10
0.02077
  20
0.05360
  30
0.00000
  42
-0.0300
  70
32
  0
VERTEX
  5
CA9
  100
AcDbEntity
  8
Layer 1
  62
0
  100
AcDb2dVertex
  10
0.04900
  20
0.05500
  30
0.00000
  42
0.0228
  70
32
  0
VERTEX
  5
CAA
  100
AcDbEntity
  8
Layer 1
  62
0
  100
AcDb2dVertex
  10
0.09400
  20
0.05800
  30
0.00000
  70
32
  0
VERTEX
  5
CAB
  100
AcDbEntity
  8
Layer 1
  62
0
  100
AcDb2dVertex
  10
0.10903
  20
0.05879
  30
0.00000
  42
-0.0118
  70
32
  0
VERTEX
  5
CAC
  100
AcDbEntity
  8
Layer 1
  62
0
  100
AcDb2dVertex
  10
0.13900
  20
0.06000
  30
0.00000
  42
-0.1448
  70
32
  0
VERTEX
  5
CAD
  100
AcDbEntity
  8
Layer 1
  62
0
  100
AcDb2dVertex
  10
0.14464
  20
0.05682
  30
0.00000
  42
-0.0241
  70
32
  0
VERTEX
  5
CAE
  100
AcDbEntity
  8
Layer 1
  62
0
  100
AcDb2dVertex
  10
0.15200
  20
0.05000
  30
0.00000
  42
-0.0971
  70
32
  0
VERTEX
  5
CAF
  100
AcDbEntity
  8
Layer 1
  62
0
  100
AcDb2dVertex
  10
0.16202
  20
0.06629
  30
0.00000
  42
-0.1973
  70
32
  0
VERTEX
  5
CB0
  100
AcDbEntity
  8
Layer 1
  62
0
  100
AcDb2dVertex
  10
0.17000
  20
0.07000
  30
0.00000
  42
-0.2451
  70
32
  0
VERTEX
  5
CB1
  100
AcDbEntity
  8
Layer 1
  62
0
  100
AcDb2dVertex
  10
0.17942
  20
0.06475
  30
0.00000
  70
32
  0
VERTEX
  5
CB2
  100
AcDbEntity
  8
Layer 1
  62
0
  100
AcDb2dVertex
  10
0.18000
  20
0.06400
  30
0.00000
  42
0.1380
  70
32
  0
VERTEX
  5
CB3
  100
AcDbEntity
  8
Layer 1
  62
0
  100
AcDb2dVertex
  10
0.18779
  20
0.05737
  30
0.00000
  70
32
  0
VERTEX
  5
CB4
  100
AcDbEntity
  8
Layer 1
  62
0
  100
AcDb2dVertex
  10
0.19000
  20
0.05700
  30
0.00000
  42
0.2823
  70
32
  0
VERTEX
  5
CB5
  100
AcDbEntity
  8
Layer 1
  62
0
  100
AcDb2dVertex
  10
0.19618
  20
0.06143
  30
0.00000
  42
0.0674
  70
32
  0
VERTEX
  5
CB6
  100
AcDbEntity
  8
Layer 1
  62
0
  100
AcDb2dVertex
  10
0.19900
  20
0.06900
  30
0.00000
  42
-0.1603
  70
32
  0
VERTEX
  5
CB7
  100
AcDbEntity
  8
Layer 1
  62
0
  100
AcDb2dVertex
  10
0.20436
  20
0.07851
  30
0.00000
  42
-0.1650
  70
32
  0
VERTEX
  5
CB8
  100
AcDbEntity
  8
Layer 1
  62
0
  100
AcDb2dVertex
  10
0.20900
  20
0.08000
  30
0.00000
  70
32
  0
VERTEX
  5
CB9
  100
AcDbEntity
  8
Layer 1
  62
0
  100
AcDb2dVertex
  10
0.22900
  20
0.06400
  30
0.00000
  42
0.3084
  70
32
  0
VERTEX
  5
CBA
  100
AcDbEntity
  8
Layer 1
  62
0
  100
AcDb2dVertex
  10
0.23490
  20
0.06853
  30
0.00000
  42
0.0810
  70
32
  0
VERTEX
  5
CBB
  100
AcDbEntity
  8
Layer 1
  62
0
  100
AcDb2dVertex
  10
0.23700
  20
0.07700
  30
0.00000
  42
-0.2183
  70
32
  0
VERTEX
  5
CBC
  100
AcDbEntity
  8
Layer 1
  62
0
  100
AcDb2dVertex
  10
0.24239
  20
0.08781
  30
0.00000
  42
-0.1577
  70
32
  0
VERTEX
  5
CBD
  100
AcDbEntity
  8
Layer 1
  62
0
  100
AcDb2dVertex
  10
0.25000
  20
0.09000
  30
0.00000
  42
-0.2141
  70
32
  0
VERTEX
  5
CBE
  100
AcDbEntity
  8
Layer 1
  62
0
  100
AcDb2dVertex
  10
0.25775
  20
0.08579
  30
0.00000
  70
32
  0
VERTEX
  5
CBF
  100
AcDbEntity
  8
Layer 1
  62
0
  100
AcDb2dVertex
  10
0.26100
  20
0.08200
  30
0.00000
  42
0.1714
  70
32
  0
VERTEX
  5
CC0
  100
AcDbEntity
  8
Layer 1
  62
0
  100
AcDb2dVertex
  10
0.26976
  20
0.07435
  30
0.00000
  70
32
  0
VERTEX
  5
CC1
  100
AcDbEntity
  8
Layer 1
  62
0
  100
AcDb2dVertex
  10
0.27200
  20
0.07400
  30
0.00000
  42
0.3394
  70
32
  0
VERTEX
  5
CC2
  100
AcDbEntity
  8
Layer 1
  62
0
  100
AcDb2dVertex
  10
0.27805
  20
0.07873
  30
0.00000
  42
0.0868
  70
32
  0
VERTEX
  5
CC3
  100
AcDbEntity
  8
Layer 1
  62
0
  100
AcDb2dVertex
  10
0.28000
  20
0.09500
  30
0.00000
  42
-0.4280
  70
32
  0
VERTEX
  5
CC4
  100
AcDbEntity
  8
Layer 1
  62
0
  100
AcDb2dVertex
  10
0.28814
  20
0.10390
  30
0.00000
  70
32
  0
VERTEX
  5
CC5
  100
AcDbEntity
  8
Layer 1
  62
0
  100
AcDb2dVertex
  10
0.29000
  20
0.10400
  30
0.00000
  42
-0.2502
  70
32
  0
VERTEX
  5
CC6
  100
AcDbEntity
  8
Layer 1
  62
0
  100
AcDb2dVertex
  10
0.30219
  20
0.09750
  30
0.00000
  70
32
  0
VERTEX
  5
CC7
  100
AcDbEntity
  8
Layer 1
  62
0
  100
AcDb2dVertex
  10
0.30400
  20
0.09500
  30
0.00000
  42
0.1593
  70
32
  0
VERTEX
  5
CC8
  100
AcDbEntity
  8
Layer 1
  62
0
  100
AcDb2dVertex
  10
0.31119
  20
0.08754
  30
0.00000
  42
0.0965
  70
32
  0
VERTEX
  5
CC9
  100
AcDbEntity
  8
Layer 1
  62
0
  100
AcDb2dVertex
  10
0.31400
  20
0.08700
  30
0.00000
  42
0.2943
  70
32
  0
VERTEX
  5
CCA
  100
AcDbEntity
  8
Layer 1
  62
0
  100
AcDb2dVertex
  10
0.32063
  20
0.09180
  30
0.00000
  42
0.1064
  70
32
  0
VERTEX
  5
CCB
  100
AcDbEntity
  8
Layer 1
  62
0
  100
AcDb2dVertex
  10
0.32394
  20
0.10843
  30
0.00000
  70
32
  0
VERTEX
  5
CCC
  100
AcDbEntity
  8
Layer 1
  62
0
  100
AcDb2dVertex
  10
0.32400
  20
0.11200
  30
0.00000
  42
-0.2181
  70
32
  0
VERTEX
  5
CCD
  100
AcDbEntity
  8
Layer 1
  62
0
  100
AcDb2dVertex
  10
0.32864
  20
0.12452
  30
0.00000
  42
-0.1731
  70
32
  0
VERTEX
  5
CCE
  100
AcDbEntity
  8
Layer 1
  62
0
  100
AcDb2dVertex
  10
0.34163
  20
0.12894
  30
0.00000
  70
32
  0
VERTEX
  5
CCF
  100
AcDbEntity
  8
Layer 1
  62
0
  100
AcDb2dVertex
  10
0.34400
  20
0.12900
  30
0.00000
  42
-0.0987
  70
32
  0
VERTEX
  5
CD0
  100
AcDbEntity
  8
Layer 1
  62
0
  100
AcDb2dVertex
  10
0.35658
  20
0.12488
  30
0.00000
  70
32
  0
VERTEX
  5
CD1
  100
AcDbEntity
  8
Layer 1
  62
0
  100
AcDb2dVertex
  10
0.36400
  20
0.12100
  30
0.00000
  42
0.0808
  70
32
  0
VERTEX
  5
CD2
  100
AcDbEntity
  8
Layer 1
  62
0
  100
AcDb2dVertex
  10
0.38540
  20
0.11226
  30
0.00000
  70
32
  0
VERTEX
  5
CD3
  100
AcDbEntity
  8
Layer 1
  62
0
  100
AcDb2dVertex
  10
0.38700
  20
0.11200
  30
0.00000
  42
-0.0131
  70
32
  0
VERTEX
  5
CD4
  100
AcDbEntity
  8
Layer 1
  62
0
  100
AcDb2dVertex
  10
0.41349
  20
0.12749
  30
0.00000
  70
32
  0
VERTEX
  5
CD5
  100
AcDbEntity
  8
Layer 1
  62
0
  100
AcDb2dVertex
  10
0.42500
  20
0.13400
  30
0.00000
  70
32
  0
VERTEX
  5
CD6
  100
AcDbEntity
  8
Layer 1
  62
0
  100
AcDb2dVertex
  10
0.43500
  20
0.11500
  30
0.00000
  70
32
  0
VERTEX
  5
CD7
  100
AcDbEntity
  8
Layer 1
  62
0
  100
AcDb2dVertex
  10
0.42500
  20
0.13400
  30
0.00000
  70
32
  0
VERTEX
  5
CD8
  100
AcDbEntity
  8
Layer 1
  62
0
  100
AcDb2dVertex
  10
0.46400
  20
0.16000
  30
0.00000
  42
-0.0340
  70
32
  0
VERTEX
  5
CD9
  100
AcDbEntity
  8
Layer 1
  62
0
  100
AcDb2dVertex
  10
0.50900
  20
0.18900
  30
0.00000
  70
32
  0
VERTEX
  5
CDA
  100
AcDbEntity
  8
Layer 1
  62
0
  100
AcDb2dVertex
  10
0.54500
  20
0.22200
  30
0.00000
  42
-0.0598
  70
32
  0
VERTEX
  5
CDB
  100
AcDbEntity
  8
Layer 1
  62
0
  100
AcDb2dVertex
  10
0.55651
  20
0.20867
  30
0.00000
  70
32
  0
VERTEX
  5
CDC
  100
AcDbEntity
  8
Layer 1
  62
0
  100
AcDb2dVertex
  10
0.55802
  20
0.20665
  30
0.00000
  70
32
  0
VERTEX
  5
CDD
  100
AcDbEntity
  8
Layer 1
  62
0
  100
AcDb2dVertex
  10
0.56000
  20
0.20400
  30
0.00000
  70
32
  0
VERTEX
  5
CDE
  100
AcDbEntity
  8
Layer 1
  62
0
  100
AcDb2dVertex
  10
0.54500
  20
0.22200
  30
0.00000
  70
32
  0
VERTEX
  5
CDF
  100
AcDbEntity
  8
Layer 1
  62
0
  100
AcDb2dVertex
  10
0.55412
  20
0.23093
  30
0.00000
  42
0.0123
  70
32
  0
VERTEX
  5
CE0
  100
AcDbEntity
  8
Layer 1
  62
0
  100
AcDb2dVertex
  10
0.58200
  20
0.25900
  30
0.00000
  42
-0.1681
  70
32
  0
VERTEX
  5
CE1
  100
AcDbEntity
  8
Layer 1
  62
0
  100
AcDb2dVertex
  10
0.58728
  20
0.27141
  30
0.00000
  42
-0.0692
  70
32
  0
VERTEX
  5
CE2
  100
AcDbEntity
  8
Layer 1
  62
0
  100
AcDb2dVertex
  10
0.60825
  20
0.28980
  30
0.00000
  70
32
  0
VERTEX
  5
CE3
  100
AcDbEntity
  8
Layer 1
  62
0
  100
AcDb2dVertex
  10
0.61900
  20
0.29700
  30
0.00000
  70
32
  0
VERTEX
  5
CE4
  100
AcDbEntity
  8
Layer 1
  62
0
  100
AcDb2dVertex
  10
0.63900
  20
0.27900
  30
0.00000
  70
32
  0
VERTEX
  5
CE5
  100
AcDbEntity
  8
Layer 1
  62
0
  100
AcDb2dVertex
  10
0.61900
  20
0.29700
  30
0.00000
  70
32
  0
VERTEX
  5
CE6
  100
AcDbEntity
  8
Layer 1
  62
0
  100
AcDb2dVertex
  10
0.64700
  20
0.33200
  30
0.00000
  70
32
  0
VERTEX
  5
CE7
  100
AcDbEntity
  8
Layer 1
  62
0
  100
AcDb2dVertex
  10
0.65400
  20
0.33900
  30
0.00000
  70
32
  0
VERTEX
  5
CE8
  100
AcDbEntity
  8
Layer 1
  62
0
  100
AcDb2dVertex
  10
0.68900
  20
0.37900
  30
0.00000
  70
32
  0
VERTEX
  5
CE9
  100
AcDbEntity
  8
Layer 1
  62
0
  100
AcDb2dVertex
  10
0.71000
  20
0.36500
  30
0.00000
  70
32
  0
VERTEX
  5
CEA
  100
AcDbEntity
  8
Layer 1
  62
0
  100
AcDb2dVertex
  10
0.68900
  20
0.37900
  30
0.00000
  42
-0.0890
  70
32
  0
VERTEX
  5
CEB
  100
AcDbEntity
  8
Layer 1
  62
0
  100
AcDb2dVertex
  10
0.69267
  20
0.39038
  30
0.00000
  42
-0.0161
  70
32
  0
VERTEX
  5
CEC
  100
AcDbEntity
  8
Layer 1
  62
0
  100
AcDb2dVertex
  10
0.70100
  20
0.40700
  30
0.00000
  42
-0.0657
  70
32
  0
VERTEX
  5
CED
  100
AcDbEntity
  8
Layer 1
  62
0
  100
AcDb2dVertex
  10
0.71323
  20
0.42657
  30
0.00000
  42
-0.1828
  70
32
  0
VERTEX
  5
CEE
  100
AcDbEntity
  8
Layer 1
  62
0
  100
AcDb2dVertex
  10
0.71700
  20
0.42900
  30
0.00000
  42
0.0070
  70
32
  0
VERTEX
  5
CEF
  100
AcDbEntity
  8
Layer 1
  62
0
  100
AcDb2dVertex
  10
0.74500
  20
0.47900
  30
0.00000
  42
-0.0266
  70
32
  0
VERTEX
  5
CF0
  100
AcDbEntity
  8
Layer 1
  62
0
  100
AcDb2dVertex
  10
0.75420
  20
0.49696
  30
0.00000
  70
32
  0
VERTEX
  5
CF1
  100
AcDbEntity
  8
Layer 1
  62
0
  100
AcDb2dVertex
  10
0.76900
  20
0.52400
  30
0.00000
  70
32
  0
VERTEX
  5
CF2
  100
AcDbEntity
  8
Layer 1
  62
0
  100
AcDb2dVertex
  10
0.77700
  20
0.54400
  30
0.00000
  70
32
  0
VERTEX
  5
CF3
  100
AcDbEntity
  8
Layer 1
  62
0
  100
AcDb2dVertex
  10
0.77200
  20
0.55200
  30
0.00000
  70
32
  0
VERTEX
  5
CF4
  100
AcDbEntity
  8
Layer 1
  62
0
  100
AcDb2dVertex
  10
0.72400
  20
0.58400
  30
0.00000
  42
-0.1574
  70
32
  0
VERTEX
  5
CF5
  100
AcDbEntity
  8
Layer 1
  62
0
  100
AcDb2dVertex
  10
0.72779
  20
0.59885
  30
0.00000
  42
-0.2391
  70
32
  0
VERTEX
  5
CF6
  100
AcDbEntity
  8
Layer 1
  62
0
  100
AcDb2dVertex
  10
0.74077
  20
0.60497
  30
0.00000
  70
32
  0
VERTEX
  5
CF7
  100
AcDbEntity
  8
Layer 1
  62
0
  100
AcDb2dVertex
  10
0.74200
  20
0.60500
  30
0.00000
  42
-0.1261
  70
32
  0
VERTEX
  5
CF8
  100
AcDbEntity
  8
Layer 1
  62
0
  100
AcDb2dVertex
  10
0.75835
  20
0.59971
  30
0.00000
  42
-0.0332
  70
32
  0
VERTEX
  5
CF9
  100
AcDbEntity
  8
Layer 1
  62
0
  100
AcDb2dVertex
  10
0.77000
  20
0.59200
  30
0.00000
  42
0.0954
  70
32
  0
VERTEX
  5
CFA
  100
AcDbEntity
  8
Layer 1
  62
0
  100
AcDb2dVertex
  10
0.79047
  20
0.57990
  30
0.00000
  42
0.0717
  70
32
  0
VERTEX
  5
CFB
  100
AcDbEntity
  8
Layer 1
  62
0
  100
AcDb2dVertex
  10
0.79600
  20
0.57900
  30
0.00000
  42
0.4166
  70
32
  0
VERTEX
  5
CFC
  100
AcDbEntity
  8
Layer 1
  62
0
  100
AcDb2dVertex
  10
0.80373
  20
0.58571
  30
0.00000
  70
32
  0
VERTEX
  5
CFD
  100
AcDbEntity
  8
Layer 1
  62
0
  100
AcDb2dVertex
  10
0.80400
  20
0.58900
  30
0.00000
  42
0.1508
  70
32
  0
VERTEX
  5
CFE
  100
AcDbEntity
  8
Layer 1
  62
0
  100
AcDb2dVertex
  10
0.80054
  20
0.59512
  30
0.00000
  42
0.0475
  70
32
  0
VERTEX
  5
CFF
  100
AcDbEntity
  8
Layer 1
  62
0
  100
AcDb2dVertex
  10
0.77702
  20
0.61594
  30
0.00000
  42
0.0119
  70
32
  0
VERTEX
  5
D00
  100
AcDbEntity
  8
Layer 1
  62
0
  100
AcDb2dVertex
  10
0.75500
  20
0.63200
  30
0.00000
  42
-0.1320
  70
32
  0
VERTEX
  5
D01
  100
AcDbEntity
  8
Layer 1
  62
0
  100
AcDb2dVertex
  10
0.76421
  20
0.64922
  30
0.00000
  42
-0.1983
  70
32
  0
VERTEX
  5
D02
  100
AcDbEntity
  8
Layer 1
  62
0
  100
AcDb2dVertex
  10
0.77600
  20
0.65400
  30
0.00000
  42
-0.1187
  70
32
  0
VERTEX
  5
D03
  100
AcDbEntity
  8
Layer 1
  62
0
  100
AcDb2dVertex
  10
0.79065
  20
0.64917
  30
0.00000
  42
-0.0494
  70
32
  0
VERTEX
  5
D04
  100
AcDbEntity
  8
Layer 1
  62
0
  100
AcDb2dVertex
  10
0.82200
  20
0.62632
  30
0.00000
  70
32
  0
VERTEX
  5
D05
  100
AcDbEntity
  8
Layer 1
  62
0
  100
AcDb2dVertex
  10
0.82700
  20
0.62200
  30
0.00000
  70
32
  0
VERTEX
  5
D06
  100
AcDbEntity
  8
Layer 1
  62
0
  100
AcDb2dVertex
  10
0.83700
  20
0.63200
  30
0.00000
  42
0.1414
  70
32
  0
VERTEX
  5
D07
  100
AcDbEntity
  8
Layer 1
  62
0
  100
AcDb2dVertex
  10
0.83330
  20
0.63954
  30
0.00000
  42
0.0516
  70
32
  0
VERTEX
  5
D08
  100
AcDbEntity
  8
Layer 1
  62
0
  100
AcDb2dVertex
  10
0.81600
  20
0.65700
  30
0.00000
  42
-0.0607
  70
32
  0
VERTEX
  5
D09
  100
AcDbEntity
  8
Layer 1
  62
0
  100
AcDb2dVertex
  10
0.79576
  20
0.67642
  30
0.00000
  42
-0.1138
  70
32
  0
VERTEX
  5
D0A
  100
AcDbEntity
  8
Layer 1
  62
0
  100
AcDb2dVertex
  10
0.79200
  20
0.68400
  30
0.00000
  42
-0.0807
  70
32
  0
VERTEX
  5
D0B
  100
AcDbEntity
  8
Layer 1
  62
0
  100
AcDb2dVertex
  10
0.80854
  20
0.69955
  30
0.00000
  42
-0.1333
  70
32
  0
VERTEX
  5
D0C
  100
AcDbEntity
  8
Layer 1
  62
0
  100
AcDb2dVertex
  10
0.81600
  20
0.70200
  30
0.00000
  42
-0.1347
  70
32
  0
VERTEX
  5
D0D
  100
AcDbEntity
  8
Layer 1
  62
0
  100
AcDb2dVertex
  10
0.82386
  20
0.69840
  30
0.00000
  42
-0.0326
  70
32
  0
VERTEX
  5
D0E
  100
AcDbEntity
  8
Layer 1
  62
0
  100
AcDb2dVertex
  10
0.84100
  20
0.68400
  30
0.00000
  42
0.0577
  70
32
  0
VERTEX
  5
D0F
  100
AcDbEntity
  8
Layer 1
  62
0
  100
AcDb2dVertex
  10
0.85979
  20
0.66677
  30
0.00000
  42
0.1263
  70
32
  0
VERTEX
  5
D10
  100
AcDbEntity
  8
Layer 1
  62
0
  100
AcDb2dVertex
  10
0.86400
  20
0.66500
  30
0.00000
  42
0.3653
  70
32
  0
VERTEX
  5
D11
  100
AcDbEntity
  8
Layer 1
  62
0
  100
AcDb2dVertex
  10
0.87124
  20
0.67097
  30
0.00000
  42
0.0718
  70
32
  0
VERTEX
  5
D12
  100
AcDbEntity
  8
Layer 1
  62
0
  100
AcDb2dVertex
  10
0.87200
  20
0.67700
  30
0.00000
  70
32
  0
VERTEX
  5
D13
  100
AcDbEntity
  8
Layer 1
  62
0
  100
AcDb2dVertex
  10
0.87100
  20
0.68400
  30
0.00000
  70
32
  0
VERTEX
  5
D14
  100
AcDbEntity
  8
Layer 1
  62
0
  100
AcDb2dVertex
  10
0.83400
  20
0.72400
  30
0.00000
  42
-0.0578
  70
32
  0
VERTEX
  5
D15
  100
AcDbEntity
  8
Layer 1
  62
0
  100
AcDb2dVertex
  10
0.84622
  20
0.74430
  30
0.00000
  42
-0.1967
  70
32
  0
VERTEX
  5
D16
  100
AcDbEntity
  8
Layer 1
  62
0
  100
AcDb2dVertex
  10
0.85360
  20
0.74899
  30
0.00000
  70
32
  0
VERTEX
  5
D17
  100
AcDbEntity
  8
Layer 1
  62
0
  100
AcDb2dVertex
  10
0.85400
  20
0.74900
  30
0.00000
  42
-0.1544
  70
32
  0
VERTEX
  5
D18
  100
AcDbEntity
  8
Layer 1
  62
0
  100
AcDb2dVertex
  10
0.86108
  20
0.74530
  30
0.00000
  42
-0.0511
  70
32
  0
VERTEX
  5
D19
  100
AcDbEntity
  8
Layer 1
  62
0
  100
AcDb2dVertex
  10
0.87700
  20
0.72800
  30
0.00000
  42
0.0754
  70
32
  0
VERTEX
  5
D1A
  100
AcDbEntity
  8
Layer 1
  62
0
  100
AcDb2dVertex
  10
0.89520
  20
0.70968
  30
0.00000
  42
0.1389
  70
32
  0
VERTEX
  5
D1B
  100
AcDbEntity
  8
Layer 1
  62
0
  100
AcDb2dVertex
  10
0.90200
  20
0.70700
  30
0.00000
  70
32
  0
VERTEX
  5
D1C
  100
AcDbEntity
  8
Layer 1
  62
0
  100
AcDb2dVertex
  10
0.91700
  20
0.71500
  30
0.00000
  70
32
  0
VERTEX
  5
D1D
  100
AcDbEntity
  8
Layer 1
  62
0
  100
AcDb2dVertex
  10
0.94400
  20
0.68400
  30
0.00000
  70
32
  0
VERTEX
  5
D1E
  100
AcDbEntity
  8
Layer 1
  62
0
  100
AcDb2dVertex
  10
0.87900
  20
0.62000
  30
0.00000
  70
32
  0
VERTEX
  5
D1F
  100
AcDbEntity
  8
Layer 1
  62
0
  100
AcDb2dVertex
  10
0.94400
  20
0.68400
  30
0.00000
  70
32
  0
VERTEX
  5
D20
  100
AcDbEntity
  8
Layer 1
  62
0
  100
AcDb2dVertex
  10
0.97200
  20
0.65500
  30
0.00000
  70
32
  0
SEQEND
  5
D21
  100
AcDbEntity
  8
Layer 1
  62
0
  0
POLYLINE
  5
D22
  100
AcDbEntity
  8
Layer 1
  62
0
  100
AcDb2dPolyline
 66
     1
  10
0
  20
0
  30
0
  70
1
  0
VERTEX
  5
D23
  100
AcDbEntity
  8
Layer 1
  62
0
  100
AcDb2dVertex
  10
0.71700
  20
0.47700
  30
0.00000
  42
-0.1071
  70
32
  0
VERTEX
  5
D24
  100
AcDbEntity
  8
Layer 1
  62
0
  100
AcDb2dVertex
  10
0.71316
  20
0.46638
  30
0.00000
  42
-0.0353
  70
32
  0
VERTEX
  5
D25
  100
AcDbEntity
  8
Layer 1
  62
0
  100
AcDb2dVertex
  10
0.69000
  20
0.43200
  30
0.00000
  42
-0.0844
  70
32
  0
VERTEX
  5
D26
  100
AcDbEntity
  8
Layer 1
  62
0
  100
AcDb2dVertex
  10
0.48473
  20
0.22882
  30
0.00000
  42
-0.0139
  70
32
  0
VERTEX
  5
D27
  100
AcDbEntity
  8
Layer 1
  62
0
  100
AcDb2dVertex
  10
0.44000
  20
0.19900
  30
0.00000
  42
-0.0505
  70
32
  0
VERTEX
  5
D28
  100
AcDbEntity
  8
Layer 1
  62
0
  100
AcDb2dVertex
  10
0.30319
  20
0.12821
  30
0.00000
  42
-0.0704
  70
32
  0
VERTEX
  5
D29
  100
AcDbEntity
  8
Layer 1
  62
0
  100
AcDb2dVertex
  10
0.16035
  20
0.09381
  30
0.00000
  42
-0.0223
  70
32
  0
VERTEX
  5
D2A
  100
AcDbEntity
  8
Layer 1
  62
0
  100
AcDb2dVertex
  10
0.12000
  20
0.09200
  30
0.00000
  42
-0.0420
  70
32
  0
VERTEX
  5
D2B
  100
AcDbEntity
  8
Layer 1
  62
0
  100
AcDb2dVertex
  10
0.05539
  20
0.09645
  30
0.00000
  42
-0.0768
  70
32
  0
VERTEX
  5
D2C
  100
AcDbEntity
  8
Layer 1
  62
0
  100
AcDb2dVertex
  10
0.02440
  20
0.10593
  30
0.00000
  42
-0.1566
  70
32
  0
VERTEX
  5
D2D
  100
AcDbEntity
  8
Layer 1
  62
0
  100
AcDb2dVertex
  10
0.01101
  20
0.11831
  30
0.00000
  42
-0.1175
  70
32
  0
VERTEX
  5
D2E
  100
AcDbEntity
  8
Layer 1
  62
0
  100
AcDb2dVertex
  10
0.00900
  20
0.12700
  30
0.00000
  42
-0.0934
  70
32
  0
VERTEX
  5
D2F
  100
AcDbEntity
  8
Layer 1
  62
0
  100
AcDb2dVertex
  10
0.01333
  20
0.14276
  30
0.00000
  42
-0.0256
  70
32
  0
VERTEX
  5
D30
  100
AcDbEntity
  8
Layer 1
  62
0
  100
AcDb2dVertex
  10
0.02400
  20
0.16400
  30
0.00000
  42
0.0314
  70
32
  0
VERTEX
  5
D31
  100
AcDbEntity
  8
Layer 1
  62
0
  100
AcDb2dVertex
  10
0.03896
  20
0.19541
  30
0.00000
  70
32
  0
VERTEX
  5
D32
  100
AcDbEntity
  8
Layer 1
  62
0
  100
AcDb2dVertex
  10
0.04000
  20
0.19900
  30
0.00000
  42
-0.1455
  70
32
  0
VERTEX
  5
D33
  100
AcDbEntity
  8
Layer 1
  62
0
  100
AcDb2dVertex
  10
0.05691
  20
0.20798
  30
0.00000
  42
-0.1377
  70
32
  0
VERTEX
  5
D34
  100
AcDbEntity
  8
Layer 1
  62
0
  100
AcDb2dVertex
  10
0.06500
  20
0.20700
  30
0.00000
  42
0.1047
  70
32
  0
VERTEX
  5
D35
  100
AcDbEntity
  8
Layer 1
  62
0
  100
AcDb2dVertex
  10
0.12348
  20
0.18049
  30
0.00000
  42
0.0584
  70
32
  0
VERTEX
  5
D36
  100
AcDbEntity
  8
Layer 1
  62
0
  100
AcDb2dVertex
  10
0.18400
  20
0.17400
  30
0.00000
  42
0.0496
  70
32
  0
VERTEX
  5
D37
  100
AcDbEntity
  8
Layer 1
  62
0
  100
AcDb2dVertex
  10
0.22737
  20
0.17965
  30
0.00000
  42
0.0258
  70
32
  0
VERTEX
  5
D38
  100
AcDbEntity
  8
Layer 1
  62
0
  100
AcDb2dVertex
  10
0.31921
  20
0.20532
  30
0.00000
  70
32
  0
VERTEX
  5
D39
  100
AcDbEntity
  8
Layer 1
  62
0
  100
AcDb2dVertex
  10
0.35400
  20
0.21700
  30
0.00000
  42
0.0284
  70
32
  0
VERTEX
  5
D3A
  100
AcDbEntity
  8
Layer 1
  62
0
  100
AcDb2dVertex
  10
0.43725
  20
0.24910
  30
0.00000
  42
0.0535
  70
32
  0
VERTEX
  5
D3B
  100
AcDbEntity
  8
Layer 1
  62
0
  100
AcDb2dVertex
  10
0.47407
  20
0.27039
  30
0.00000
  42
0.1104
  70
32
  0
VERTEX
  5
D3C
  100
AcDbEntity
  8
Layer 1
  62
0
  100
AcDb2dVertex
  10
0.48722
  20
0.28490
  30
0.00000
  42
0.1151
  70
32
  0
VERTEX
  5
D3D
  100
AcDbEntity
  8
Layer 1
  62
0
  100
AcDb2dVertex
  10
0.48900
  20
0.29200
  30
0.00000
  42
0.2942
  70
32
  0
VERTEX
  5
D3E
  100
AcDbEntity
  8
Layer 1
  62
0
  100
AcDb2dVertex
  10
0.48335
  20
0.29973
  30
0.00000
  42
0.0882
  70
32
  0
VERTEX
  5
D3F
  100
AcDbEntity
  8
Layer 1
  62
0
  100
AcDb2dVertex
  10
0.47500
  20
0.30200
  30
0.00000
  42
0.0171
  70
32
  0
VERTEX
  5
D40
  100
AcDbEntity
  8
Layer 1
  62
0
  100
AcDb2dVertex
  10
0.45700
  20
0.29700
  30
0.00000
  42
-0.2389
  70
32
  0
VERTEX
  5
D41
  100
AcDbEntity
  8
Layer 1
  62
0
  100
AcDb2dVertex
  10
0.44346
  20
0.30429
  30
0.00000
  42
-0.0922
  70
32
  0
VERTEX
  5
D42
  100
AcDbEntity
  8
Layer 1
  62
0
  100
AcDb2dVertex
  10
0.43364
  20
0.32517
  30
0.00000
  70
32
  0
VERTEX
  5
D43
  100
AcDbEntity
  8
Layer 1
  62
0
  100
AcDb2dVertex
  10
0.43200
  20
0.33100
  30
0.00000
  42
0.0730
  70
32
  0
VERTEX
  5
D44
  100
AcDbEntity
  8
Layer 1
  62
0
  100
AcDb2dVertex
  10
0.42090
  20
0.36309
  30
0.00000
  42
0.0879
  70
32
  0
VERTEX
  5
D45
  100
AcDbEntity
  8
Layer 1
  62
0
  100
AcDb2dVertex
  10
0.41400
  20
0.37200
  30
0.00000
  70
32
  0
VERTEX
  5
D46
  100
AcDbEntity
  8
Layer 1
  62
0
  100
AcDb2dVertex
  10
0.40800
  20
0.37649
  30
0.00000
  70
32
  0
VERTEX
  5
D47
  100
AcDbEntity
  8
Layer 1
  62
0
  100
AcDb2dVertex
  10
0.39839
  20
0.38376
  30
0.00000
  42
-0.1069
  70
32
  0
VERTEX
  5
D48
  100
AcDbEntity
  8
Layer 1
  62
0
  100
AcDb2dVertex
  10
0.39500
  20
0.38700
  30
0.00000
  42
-0.3009
  70
32
  0
VERTEX
  5
D49
  100
AcDbEntity
  8
Layer 1
  62
0
  100
AcDb2dVertex
  10
0.40058
  20
0.39729
  30
0.00000
  42
-0.1187
  70
32
  0
VERTEX
  5
D4A
  100
AcDbEntity
  8
Layer 1
  62
0
  100
AcDb2dVertex
  10
0.40900
  20
0.39900
  30
0.00000
  42
-0.1248
  70
32
  0
VERTEX
  5
D4B
  100
AcDbEntity
  8
Layer 1
  62
0
  100
AcDb2dVertex
  10
0.42996
  20
0.39286
  30
0.00000
  70
32
  0
VERTEX
  5
D4C
  100
AcDbEntity
  8
Layer 1
  62
0
  100
AcDb2dVertex
  10
0.43500
  20
0.39000
  30
0.00000
  70
32
  0
VERTEX
  5
D4D
  100
AcDbEntity
  8
Layer 1
  62
0
  100
AcDb2dVertex
  10
0.44000
  20
0.39500
  30
0.00000
  42
0.2382
  70
32
  0
VERTEX
  5
D4E
  100
AcDbEntity
  8
Layer 1
  62
0
  100
AcDb2dVertex
  10
0.43211
  20
0.40993
  30
0.00000
  42
0.0879
  70
32
  0
VERTEX
  5
D4F
  100
AcDbEntity
  8
Layer 1
  62
0
  100
AcDb2dVertex
  10
0.41400
  20
0.41900
  30
0.00000
  42
-0.1097
  70
32
  0
VERTEX
  5
D50
  100
AcDbEntity
  8
Layer 1
  62
0
  100
AcDb2dVertex
  10
0.39423
  20
0.42844
  30
0.00000
  42
-0.2281
  70
32
  0
VERTEX
  5
D51
  100
AcDbEntity
  8
Layer 1
  62
0
  100
AcDb2dVertex
  10
0.38700
  20
0.44400
  30
0.00000
  42
-0.1801
  70
32
  0
VERTEX
  5
D52
  100
AcDbEntity
  8
Layer 1
  62
0
  100
AcDb2dVertex
  10
0.39196
  20
0.46013
  30
0.00000
  42
-0.2061
  70
32
  0
VERTEX
  5
D53
  100
AcDbEntity
  8
Layer 1
  62
0
  100
AcDb2dVertex
  10
0.40728
  20
0.46691
  30
0.00000
  70
32
  0
VERTEX
  5
D54
  100
AcDbEntity
  8
Layer 1
  62
0
  100
AcDb2dVertex
  10
0.41000
  20
0.46700
  30
0.00000
  42
-0.0688
  70
32
  0
VERTEX
  5
D55
  100
AcDbEntity
  8
Layer 1
  62
0
  100
AcDb2dVertex
  10
0.42945
  20
0.46288
  30
0.00000
  70
32
  0
VERTEX
  5
D56
  100
AcDbEntity
  8
Layer 1
  62
0
  100
AcDb2dVertex
  10
0.43800
  20
0.46000
  30
0.00000
  42
0.0403
  70
32
  0
VERTEX
  5
D57
  100
AcDbEntity
  8
Layer 1
  62
0
  100
AcDb2dVertex
  10
0.46366
  20
0.45406
  30
0.00000
  70
32
  0
VERTEX
  5
D58
  100
AcDbEntity
  8
Layer 1
  62
0
  100
AcDb2dVertex
  10
0.46500
  20
0.45400
  30
0.00000
  42
0.0165
  70
32
  0
VERTEX
  5
D59
  100
AcDbEntity
  8
Layer 1
  62
0
  100
AcDb2dVertex
  10
0.49946
  20
0.47433
  30
0.00000
  70
32
  0
VERTEX
  5
D5A
  100
AcDbEntity
  8
Layer 1
  62
0
  100
AcDb2dVertex
  10
0.50700
  20
0.47900
  30
0.00000
  42
-0.0565
  70
32
  0
VERTEX
  5
D5B
  100
AcDbEntity
  8
Layer 1
  62
0
  100
AcDb2dVertex
  10
0.54044
  20
0.49522
  30
0.00000
  42
-0.0723
  70
32
  0
VERTEX
  5
D5C
  100
AcDbEntity
  8
Layer 1
  62
0
  100
AcDb2dVertex
  10
0.55000
  20
0.49700
  30
0.00000
  42
-0.0724
  70
32
  0
VERTEX
  5
D5D
  100
AcDbEntity
  8
Layer 1
  62
0
  100
AcDb2dVertex
  10
0.57005
  20
0.49274
  30
0.00000
  70
32
  0
VERTEX
  5
D5E
  100
AcDbEntity
  8
Layer 1
  62
0
  100
AcDb2dVertex
  10
0.58100
  20
0.48900
  30
0.00000
  42
0.0649
  70
32
  0
VERTEX
  5
D5F
  100
AcDbEntity
  8
Layer 1
  62
0
  100
AcDb2dVertex
  10
0.60896
  20
0.48020
  30
0.00000
  70
32
  0
VERTEX
  5
D60
  100
AcDbEntity
  8
Layer 1
  62
0
  100
AcDb2dVertex
  10
0.61200
  20
0.48000
  30
0.00000
  42
0.1465
  70
32
  0
VERTEX
  5
D61
  100
AcDbEntity
  8
Layer 1
  62
0
  100
AcDb2dVertex
  10
0.63800
  20
0.48900
  30
0.00000
  42
-0.1006
  70
32
  0
VERTEX
  5
D62
  100
AcDbEntity
  8
Layer 1
  62
0
  100
AcDb2dVertex
  10
0.65512
  20
0.49848
  30
0.00000
  42
-0.0607
  70
32
  0
VERTEX
  5
D63
  100
AcDbEntity
  8
Layer 1
  62
0
  100
AcDb2dVertex
  10
0.65900
  20
0.49900
  30
0.00000
  42
-0.1271
  70
32
  0
VERTEX
  5
D64
  100
AcDbEntity
  8
Layer 1
  62
0
  100
AcDb2dVertex
  10
0.66725
  20
0.49546
  30
0.00000
  70
32
  0
VERTEX
  5
D65
  100
AcDbEntity
  8
Layer 1
  62
0
  100
AcDb2dVertex
  10
0.67500
  20
0.49000
  30
0.00000
  42
0.1328
  70
32
  0
VERTEX
  5
D66
  100
AcDbEntity
  8
Layer 1
  62
0
  100
AcDb2dVertex
  10
0.69361
  20
0.48205
  30
0.00000
  70
32
  0
VERTEX
  5
D67
  100
AcDbEntity
  8
Layer 1
  62
0
  100
AcDb2dVertex
  10
0.69500
  20
0.48200
  30
0.00000
  42
0.1217
  70
32
  0
VERTEX
  5
D68
  100
AcDbEntity
  8
Layer 1
  62
0
  100
AcDb2dVertex
  10
0.70700
  20
0.48400
  30
0.00000
  70
32
  0
VERTEX
  5
D69
  100
AcDbEntity
  8
Layer 1
  62
0
  100
AcDb2dVertex
  10
0.71700
  20
0.47700
  30
0.00000
  70
32
  0
SEQEND
  5
D6A
  100
AcDbEntity
  8
Layer 1
  62
0
  0
POLYLINE
  5
D6B
  100
AcDbEntity
  8
Layer 1
  62
0
  100
AcDb2dPolyline
 66
     1
  10
0
  20
0
  30
0
  70
1
  0
VERTEX
  5
D6C
  100
AcDbEntity
  8
Layer 1
  62
0
  100
AcDb2dVertex
  10
0.28400
  20
0.39700
  30
0.00000
  70
32
  0
VERTEX
  5
D6D
  100
AcDbEntity
  8
Layer 1
  62
0
  100
AcDb2dVertex
  10
0.27700
  20
0.38200
  30
0.00000
  42
-0.0363
  70
32
  0
VERTEX
  5
D6E
  100
AcDbEntity
  8
Layer 1
  62
0
  100
AcDb2dVertex
  10
0.24948
  20
0.36463
  30
0.00000
  42
-0.0086
  70
32
  0
VERTEX
  5
D6F
  100
AcDbEntity
  8
Layer 1
  62
0
  100
AcDb2dVertex
  10
0.17900
  20
0.32700
  30
0.00000
  70
32
  0
VERTEX
  5
D70
  100
AcDbEntity
  8
Layer 1
  62
0
  100
AcDb2dVertex
  10
0.12700
  20
0.38900
  30
0.00000
  70
32
  0
VERTEX
  5
D71
  100
AcDbEntity
  8
Layer 1
  62
0
  100
AcDb2dVertex
  10
0.14900
  20
0.40400
  30
0.00000
  70
32
  0
VERTEX
  5
D72
  100
AcDbEntity
  8
Layer 1
  62
0
  100
AcDb2dVertex
  10
0.12700
  20
0.38900
  30
0.00000
  42
-0.0185
  70
32
  0
VERTEX
  5
D73
  100
AcDbEntity
  8
Layer 1
  62
0
  100
AcDb2dVertex
  10
0.09500
  20
0.42900
  30
0.00000
  42
-0.0528
  70
32
  0
VERTEX
  5
D74
  100
AcDbEntity
  8
Layer 1
  62
0
  100
AcDb2dVertex
  10
0.06678
  20
0.46490
  30
0.00000
  70
32
  0
VERTEX
  5
D75
  100
AcDbEntity
  8
Layer 1
  62
0
  100
AcDb2dVertex
  10
0.06400
  20
0.47000
  30
0.00000
  70
32
  0
VERTEX
  5
D76
  100
AcDbEntity
  8
Layer 1
  62
0
  100
AcDb2dVertex
  10
0.08400
  20
0.48500
  30
0.00000
  70
32
  0
VERTEX
  5
D77
  100
AcDbEntity
  8
Layer 1
  62
0
  100
AcDb2dVertex
  10
0.06400
  20
0.47000
  30
0.00000
  70
32
  0
VERTEX
  5
D78
  100
AcDbEntity
  8
Layer 1
  62
0
  100
AcDb2dVertex
  10
0.01500
  20
0.53000
  30
0.00000
  42
-0.0193
  70
32
  0
VERTEX
  5
D79
  100
AcDbEntity
  8
Layer 1
  62
0
  100
AcDb2dVertex
  10
0.07831
  20
0.59542
  30
0.00000
  42
-0.0491
  70
32
  0
VERTEX
  5
D7A
  100
AcDbEntity
  8
Layer 1
  62
0
  100
AcDb2dVertex
  10
0.10176
  20
0.61430
  30
0.00000
  42
-0.1232
  70
32
  0
VERTEX
  5
D7B
  100
AcDbEntity
  8
Layer 1
  62
0
  100
AcDb2dVertex
  10
0.10900
  20
0.61700
  30
0.00000
  42
-0.1584
  70
32
  0
VERTEX
  5
D7C
  100
AcDbEntity
  8
Layer 1
  62
0
  100
AcDb2dVertex
  10
0.11783
  20
0.61288
  30
0.00000
  42
-0.0444
  70
32
  0
VERTEX
  5
D7D
  100
AcDbEntity
  8
Layer 1
  62
0
  100
AcDb2dVertex
  10
0.12700
  20
0.60400
  30
0.00000
  42
-0.0427
  70
32
  0
VERTEX
  5
D7E
  100
AcDbEntity
  8
Layer 1
  62
0
  100
AcDb2dVertex
  10
0.16087
  20
0.56035
  30
0.00000
  42
-0.0555
  70
32
  0
VERTEX
  5
D7F
  100
AcDbEntity
  8
Layer 1
  62
0
  100
AcDb2dVertex
  10
0.16900
  20
0.54400
  30
0.00000
  42
-0.0370
  70
32
  0
VERTEX
  5
D80
  100
AcDbEntity
  8
Layer 1
  62
0
  100
AcDb2dVertex
  10
0.22700
  20
0.56400
  30
0.00000
  42
-0.1625
  70
32
  0
VERTEX
  5
D81
  100
AcDbEntity
  8
Layer 1
  62
0
  100
AcDb2dVertex
  10
0.24782
  20
0.55811
  30
0.00000
  42
-0.1887
  70
32
  0
VERTEX
  5
D82
  100
AcDbEntity
  8
Layer 1
  62
0
  100
AcDb2dVertex
  10
0.25886
  20
0.53925
  30
0.00000
  42
-0.0508
  70
32
  0
VERTEX
  5
D83
  100
AcDbEntity
  8
Layer 1
  62
0
  100
AcDb2dVertex
  10
0.26000
  20
0.52700
  30
0.00000
  42
-0.1117
  70
32
  0
VERTEX
  5
D84
  100
AcDbEntity
  8
Layer 1
  62
0
  100
AcDb2dVertex
  10
0.25443
  20
0.50792
  30
0.00000
  42
-0.0618
  70
32
  0
VERTEX
  5
D85
  100
AcDbEntity
  8
Layer 1
  62
0
  100
AcDb2dVertex
  10
0.22963
  20
0.47272
  30
0.00000
  70
32
  0
VERTEX
  5
D86
  100
AcDbEntity
  8
Layer 1
  62
0
  100
AcDb2dVertex
  10
0.22900
  20
0.47200
  30
0.00000
  70
32
  0
VERTEX
  5
D87
  100
AcDbEntity
  8
Layer 1
  62
0
  100
AcDb2dVertex
  10
0.19700
  20
0.43500
  30
0.00000
  70
32
  0
VERTEX
  5
D88
  100
AcDbEntity
  8
Layer 1
  62
0
  100
AcDb2dVertex
  10
0.22900
  20
0.47200
  30
0.00000
  70
32
  0
VERTEX
  5
D89
  100
AcDbEntity
  8
Layer 1
  62
0
  100
AcDb2dVertex
  10
0.27400
  20
0.41900
  30
0.00000
  70
32
  0
VERTEX
  5
D8A
  100
AcDbEntity
  8
Layer 1
  62
0
  100
AcDb2dVertex
  10
0.21400
  20
0.38500
  30
0.00000
  70
32
  0
VERTEX
  5
D8B
  100
AcDbEntity
  8
Layer 1
  62
0
  100
AcDb2dVertex
  10
0.27400
  20
0.41900
  30
0.00000
  42
-0.0792
  70
32
  0
VERTEX
  5
D8C
  100
AcDbEntity
  8
Layer 1
  62
0
  100
AcDb2dVertex
  10
0.28357
  20
0.40022
  30
0.00000
  70
32
  0
VERTEX
  5
D8D
  100
AcDbEntity
  8
Layer 1
  62
0
  100
AcDb2dVertex
  10
0.28400
  20
0.39700
  30
0.00000
  70
32
  0
SEQEND
  5
D8E
  100
AcDbEntity
  8
Layer 1
  62
0
  0
POLYLINE
  5
D8F
  100
AcDbEntity
  8
Layer 1
  62
0
  100
AcDb2dPolyline
 66
     1
  10
0
  20
0
  30
0
  70
1
  0
VERTEX
  5
D90
  100
AcDbEntity
  8
Layer 1
  62
0
  100
AcDb2dVertex
  10
0.13500
  20
0.23900
  30
0.00000
  42
-0.2153
  70
32
  0
VERTEX
  5
D91
  100
AcDbEntity
  8
Layer 1
  62
0
  100
AcDb2dVertex
  10
0.12754
  20
0.22386
  30
0.00000
  42
-0.0934
  70
32
  0
VERTEX
  5
D92
  100
AcDbEntity
  8
Layer 1
  62
0
  100
AcDb2dVertex
  10
0.10536
  20
0.21127
  30
0.00000
  70
32
  0
VERTEX
  5
D93
  100
AcDbEntity
  8
Layer 1
  62
0
  100
AcDb2dVertex
  10
0.09900
  20
0.20900
  30
0.00000
  42
-0.2839
  70
32
  0
VERTEX
  5
D94
  100
AcDbEntity
  8
Layer 1
  62
0
  100
AcDb2dVertex
  10
0.09154
  20
0.21384
  30
0.00000
  42
-0.0559
  70
32
  0
VERTEX
  5
D95
  100
AcDbEntity
  8
Layer 1
  62
0
  100
AcDb2dVertex
  10
0.08800
  20
0.22200
  30
0.00000
  42
0.1754
  70
32
  0
VERTEX
  5
D96
  100
AcDbEntity
  8
Layer 1
  62
0
  100
AcDb2dVertex
  10
0.08031
  20
0.23324
  30
0.00000
  42
0.1418
  70
32
  0
VERTEX
  5
D97
  100
AcDbEntity
  8
Layer 1
  62
0
  100
AcDb2dVertex
  10
0.07400
  20
0.23500
  30
0.00000
  42
0.1279
  70
32
  0
VERTEX
  5
D98
  100
AcDbEntity
  8
Layer 1
  62
0
  100
AcDb2dVertex
  10
0.05830
  20
0.22996
  30
0.00000
  70
32
  0
VERTEX
  5
D99
  100
AcDbEntity
  8
Layer 1
  62
0
  100
AcDb2dVertex
  10
0.05500
  20
0.22800
  30
0.00000
  42
-0.0754
  70
32
  0
VERTEX
  5
D9A
  100
AcDbEntity
  8
Layer 1
  62
0
  100
AcDb2dVertex
  10
0.03686
  20
0.22028
  30
0.00000
  70
32
  0
VERTEX
  5
D9B
  100
AcDbEntity
  8
Layer 1
  62
0
  100
AcDb2dVertex
  10
0.03400
  20
0.22000
  30
0.00000
  42
-0.1608
  70
32
  0
VERTEX
  5
D9C
  100
AcDbEntity
  8
Layer 1
  62
0
  100
AcDb2dVertex
  10
0.01906
  20
0.22392
  30
0.00000
  42
-0.2127
  70
32
  0
VERTEX
  5
D9D
  100
AcDbEntity
  8
Layer 1
  62
0
  100
AcDb2dVertex
  10
0.01228
  20
0.23714
  30
0.00000
  70
32
  0
VERTEX
  5
D9E
  100
AcDbEntity
  8
Layer 1
  62
0
  100
AcDb2dVertex
  10
0.01200
  20
0.24200
  30
0.00000
  42
-0.1065
  70
32
  0
VERTEX
  5
D9F
  100
AcDbEntity
  8
Layer 1
  62
0
  100
AcDb2dVertex
  10
0.01652
  20
0.25690
  30
0.00000
  42
-0.0406
  70
32
  0
VERTEX
  5
DA0
  100
AcDbEntity
  8
Layer 1
  62
0
  100
AcDb2dVertex
  10
0.03400
  20
0.28500
  30
0.00000
  42
0.2321
  70
32
  0
VERTEX
  5
DA1
  100
AcDbEntity
  8
Layer 1
  62
0
  100
AcDb2dVertex
  10
0.02837
  20
0.29548
  30
0.00000
  70
32
  0
VERTEX
  5
DA2
  100
AcDbEntity
  8
Layer 1
  62
0
  100
AcDb2dVertex
  10
0.02500
  20
0.29800
  30
0.00000
  42
0.0269
  70
32
  0
VERTEX
  5
DA3
  100
AcDbEntity
  8
Layer 1
  62
0
  100
AcDb2dVertex
  10
0.01700
  20
0.30350
  30
0.00000
  42
-0.0269
  70
32
  0
VERTEX
  5
DA4
  100
AcDbEntity
  8
Layer 1
  62
0
  100
AcDb2dVertex
  10
0.00900
  20
0.30900
  30
0.00000
  70
32
  0
VERTEX
  5
DA5
  100
AcDbEntity
  8
Layer 1
  62
0
  100
AcDb2dVertex
  10
0.00700
  20
0.31500
  30
0.00000
  42
-0.1882
  70
32
  0
VERTEX
  5
DA6
  100
AcDbEntity
  8
Layer 1
  62
0
  100
AcDb2dVertex
  10
0.01175
  20
0.32446
  30
0.00000
  42
-0.0748
  70
32
  0
VERTEX
  5
DA7
  100
AcDbEntity
  8
Layer 1
  62
0
  100
AcDb2dVertex
  10
0.03201
  20
0.33885
  30
0.00000
  70
32
  0
VERTEX
  5
DA8
  100
AcDbEntity
  8
Layer 1
  62
0
  100
AcDb2dVertex
  10
0.04400
  20
0.34500
  30
0.00000
  42
-0.1811
  70
32
  0
VERTEX
  5
DA9
  100
AcDbEntity
  8
Layer 1
  62
0
  100
AcDb2dVertex
  10
0.04877
  20
0.34176
  30
0.00000
  42
-0.0500
  70
32
  0
VERTEX
  5
DAA
  100
AcDbEntity
  8
Layer 1
  62
0
  100
AcDb2dVertex
  10
0.06365
  20
0.31960
  30
0.00000
  42
-0.0143
  70
32
  0
VERTEX
  5
DAB
  100
AcDbEntity
  8
Layer 1
  62
0
  100
AcDb2dVertex
  10
0.08200
  20
0.28500
  30
0.00000
  70
32
  0
VERTEX
  5
DAC
  100
AcDbEntity
  8
Layer 1
  62
0
  100
AcDb2dVertex
  10
0.13500
  20
0.23900
  30
0.00000
  70
32
  0
SEQEND
  5
DAD
  100
AcDbEntity
  8
Layer 1
  62
0
  0
POLYLINE
  5
DAE
  100
AcDbEntity
  8
Layer 1
  62
0
  100
AcDb2dPolyline
 66
     1
  10
0
  20
0
  30
0
  70
1
  0
VERTEX
  5
DAF
  100
AcDbEntity
  8
Layer 1
  62
0
  100
AcDb2dVertex
  10
0.92600
  20
1.36400
  30
0.00000
  70
32
  0
VERTEX
  5
DB0
  100
AcDbEntity
  8
Layer 1
  62
0
  100
AcDb2dVertex
  10
0.91200
  20
1.37200
  30
0.00000
  42
0.0909
  70
32
  0
VERTEX
  5
DB1
  100
AcDbEntity
  8
Layer 1
  62
0
  100
AcDb2dVertex
  10
0.88393
  20
1.36783
  30
0.00000
  42
0.2006
  70
32
  0
VERTEX
  5
DB2
  100
AcDbEntity
  8
Layer 1
  62
0
  100
AcDb2dVertex
  10
0.86847
  20
1.35439
  30
0.00000
  42
0.1092
  70
32
  0
VERTEX
  5
DB3
  100
AcDbEntity
  8
Layer 1
  62
0
  100
AcDb2dVertex
  10
0.86600
  20
1.34200
  30
0.00000
  42
0.1783
  70
32
  0
VERTEX
  5
DB4
  100
AcDbEntity
  8
Layer 1
  62
0
  100
AcDb2dVertex
  10
0.87073
  20
1.32633
  30
0.00000
  42
0.2142
  70
32
  0
VERTEX
  5
DB5
  100
AcDbEntity
  8
Layer 1
  62
0
  100
AcDb2dVertex
  10
0.88535
  20
1.32004
  30
0.00000
  70
32
  0
VERTEX
  5
DB6
  100
AcDbEntity
  8
Layer 1
  62
0
  100
AcDb2dVertex
  10
0.88700
  20
1.32000
  30
0.00000
  42
0.1786
  70
32
  0
VERTEX
  5
DB7
  100
AcDbEntity
  8
Layer 1
  62
0
  100
AcDb2dVertex
  10
0.90445
  20
1.32762
  30
0.00000
  70
32
  0
VERTEX
  5
DB8
  100
AcDbEntity
  8
Layer 1
  62
0
  100
AcDb2dVertex
  10
0.90700
  20
1.33000
  30
0.00000
  42
0.0895
  70
32
  0
VERTEX
  5
DB9
  100
AcDbEntity
  8
Layer 1
  62
0
  100
AcDb2dVertex
  10
0.92131
  20
1.35253
  30
0.00000
  70
32
  0
VERTEX
  5
DBA
  100
AcDbEntity
  8
Layer 1
  62
0
  100
AcDb2dVertex
  10
0.92600
  20
1.36400
  30
0.00000
  70
32
  0
SEQEND
  5
DBB
  100
AcDbEntity
  8
Layer 1
  62
0
  0
POLYLINE
  5
DBC
  100
AcDbEntity
  8
Layer 1
  62
0
  100
AcDb2dPolyline
 66
     1
  10
0
  20
0
  30
0
  70
1
  0
VERTEX
  5
DBD
  100
AcDbEntity
  8
Layer 1
  62
0
  100
AcDb2dVertex
  10
0.84600
  20
1.33000
  30
0.00000
  42
0.0971
  70
32
  0
VERTEX
  5
DBE
  100
AcDbEntity
  8
Layer 1
  62
0
  100
AcDb2dVertex
  10
0.83757
  20
1.34511
  30
0.00000
  42
0.2122
  70
32
  0
VERTEX
  5
DBF
  100
AcDbEntity
  8
Layer 1
  62
0
  100
AcDb2dVertex
  10
0.82900
  20
1.34900
  30
0.00000
  42
0.0873
  70
32
  0
VERTEX
  5
DC0
  100
AcDbEntity
  8
Layer 1
  62
0
  100
AcDb2dVertex
  10
0.81231
  20
1.34470
  30
0.00000
  42
0.0287
  70
32
  0
VERTEX
  5
DC1
  100
AcDbEntity
  8
Layer 1
  62
0
  100
AcDb2dVertex
  10
0.78200
  20
1.33000
  30
0.00000
  42
0.0500
  70
32
  0
VERTEX
  5
DC2
  100
AcDbEntity
  8
Layer 1
  62
0
  100
AcDb2dVertex
  10
0.75449
  20
1.31300
  30
0.00000
  42
0.1391
  70
32
  0
VERTEX
  5
DC3
  100
AcDbEntity
  8
Layer 1
  62
0
  100
AcDb2dVertex
  10
0.74731
  20
1.30399
  30
0.00000
  70
32
  0
VERTEX
  5
DC4
  100
AcDbEntity
  8
Layer 1
  62
0
  100
AcDb2dVertex
  10
0.74700
  20
1.30200
  30
0.00000
  42
-0.0269
  70
32
  0
VERTEX
  5
DC5
  100
AcDbEntity
  8
Layer 1
  62
0
  100
AcDb2dVertex
  10
0.74900
  20
1.29000
  30
0.00000
  42
-0.1639
  70
32
  0
VERTEX
  5
DC6
  100
AcDbEntity
  8
Layer 1
  62
0
  100
AcDb2dVertex
  10
0.77074
  20
1.26329
  30
0.00000
  70
32
  0
VERTEX
  5
DC7
  100
AcDbEntity
  8
Layer 1
  62
0
  100
AcDb2dVertex
  10
0.77200
  20
1.26000
  30
0.00000
  70
32
  0
VERTEX
  5
DC8
  100
AcDbEntity
  8
Layer 1
  62
0
  100
AcDb2dVertex
  10
0.78900
  20
1.25700
  30
0.00000
  42
0.2584
  70
32
  0
VERTEX
  5
DC9
  100
AcDbEntity
  8
Layer 1
  62
0
  100
AcDb2dVertex
  10
0.80677
  20
1.26563
  30
0.00000
  42
0.0586
  70
32
  0
VERTEX
  5
DCA
  100
AcDbEntity
  8
Layer 1
  62
0
  100
AcDb2dVertex
  10
0.80900
  20
1.27000
  30
0.00000
  70
32
  0
VERTEX
  5
DCB
  100
AcDbEntity
  8
Layer 1
  62
0
  100
AcDb2dVertex
  10
0.80900
  20
1.27700
  30
0.00000
  42
-0.1152
  70
32
  0
VERTEX
  5
DCC
  100
AcDbEntity
  8
Layer 1
  62
0
  100
AcDb2dVertex
  10
0.81296
  20
1.28749
  30
0.00000
  42
-0.0434
  70
32
  0
VERTEX
  5
DCD
  100
AcDbEntity
  8
Layer 1
  62
0
  100
AcDb2dVertex
  10
0.83643
  20
1.31903
  30
0.00000
  70
32
  0
VERTEX
  5
DCE
  100
AcDbEntity
  8
Layer 1
  62
0
  100
AcDb2dVertex
  10
0.84600
  20
1.33000
  30
0.00000
  70
32
  0
SEQEND
  5
DCF
  100
AcDbEntity
  8
Layer 1
  62
0
  0
POLYLINE
  5
DD0
  100
AcDbEntity
  8
Layer 1
  62
0
  100
AcDb2dPolyline
 66
     1
  10
0
  20
0
  30
0
  70
1
  0
VERTEX
  5
DD1
  100
AcDbEntity
  8
Layer 1
  62
0
  100
AcDb2dVertex
  10
0.67400
  20
0.45500
  30
0.00000
  70
32
  0
VERTEX
  5
DD2
  100
AcDbEntity
  8
Layer 1
  62
0
  100
AcDb2dVertex
  10
0.67200
  20
0.45900
  30
0.00000
  70
32
  0
VERTEX
  5
DD3
  100
AcDbEntity
  8
Layer 1
  62
0
  100
AcDb2dVertex
  10
0.66400
  20
0.46200
  30
0.00000
  42
0.0220
  70
32
  0
VERTEX
  5
DD4
  100
AcDbEntity
  8
Layer 1
  62
0
  100
AcDb2dVertex
  10
0.63000
  20
0.46000
  30
0.00000
  42
0.2074
  70
32
  0
VERTEX
  5
DD5
  100
AcDbEntity
  8
Layer 1
  62
0
  100
AcDb2dVertex
  10
0.61633
  20
0.45379
  30
0.00000
  42
0.1756
  70
32
  0
VERTEX
  5
DD6
  100
AcDbEntity
  8
Layer 1
  62
0
  100
AcDb2dVertex
  10
0.61200
  20
0.43900
  30
0.00000
  42
0.1728
  70
32
  0
VERTEX
  5
DD7
  100
AcDbEntity
  8
Layer 1
  62
0
  100
AcDb2dVertex
  10
0.61585
  20
0.42536
  30
0.00000
  42
0.1985
  70
32
  0
VERTEX
  5
DD8
  100
AcDbEntity
  8
Layer 1
  62
0
  100
AcDb2dVertex
  10
0.62840
  20
0.41933
  30
0.00000
  70
32
  0
VERTEX
  5
DD9
  100
AcDbEntity
  8
Layer 1
  62
0
  100
AcDb2dVertex
  10
0.63400
  20
0.41900
  30
0.00000
  42
0.1353
  70
32
  0
VERTEX
  5
DDA
  100
AcDbEntity
  8
Layer 1
  62
0
  100
AcDb2dVertex
  10
0.64928
  20
0.42455
  30
0.00000
  42
0.0424
  70
32
  0
VERTEX
  5
DDB
  100
AcDbEntity
  8
Layer 1
  62
0
  100
AcDb2dVertex
  10
0.65900
  20
0.43200
  30
0.00000
  42
0.1008
  70
32
  0
VERTEX
  5
DDC
  100
AcDbEntity
  8
Layer 1
  62
0
  100
AcDb2dVertex
  10
0.67248
  20
0.44869
  30
0.00000
  42
0.1043
  70
32
  0
VERTEX
  5
DDD
  100
AcDbEntity
  8
Layer 1
  62
0
  100
AcDb2dVertex
  10
0.67400
  20
0.45500
  30
0.00000
  70
32
  0
SEQEND
  5
DDE
  100
AcDbEntity
  8
Layer 1
  62
0
  0
POLYLINE
  5
DDF
  100
AcDbEntity
  8
Layer 1
  62
0
  100
AcDb2dPolyline
 66
     1
  10
0
  20
0
  30
0
  70
1
  0
VERTEX
  5
DE0
  100
AcDbEntity
  8
Layer 1
  62
0
  100
AcDb2dVertex
  10
0.61200
  20
0.39000
  30
0.00000
  42
0.1695
  70
32
  0
VERTEX
  5
DE1
  100
AcDbEntity
  8
Layer 1
  62
0
  100
AcDb2dVertex
  10
0.60822
  20
0.40373
  30
0.00000
  42
0.2269
  70
32
  0
VERTEX
  5
DE2
  100
AcDbEntity
  8
Layer 1
  62
0
  100
AcDb2dVertex
  10
0.59603
  20
0.40898
  30
0.00000
  70
32
  0
VERTEX
  5
DE3
  100
AcDbEntity
  8
Layer 1
  62
0
  100
AcDb2dVertex
  10
0.59500
  20
0.40900
  30
0.00000
  42
0.0992
  70
32
  0
VERTEX
  5
DE4
  100
AcDbEntity
  8
Layer 1
  62
0
  100
AcDb2dVertex
  10
0.58047
  20
0.40467
  30
0.00000
  70
32
  0
VERTEX
  5
DE5
  100
AcDbEntity
  8
Layer 1
  62
0
  100
AcDb2dVertex
  10
0.57700
  20
0.40300
  30
0.00000
  42
-0.0722
  70
32
  0
VERTEX
  5
DE6
  100
AcDbEntity
  8
Layer 1
  62
0
  100
AcDb2dVertex
  10
0.56208
  20
0.39717
  30
0.00000
  70
32
  0
VERTEX
  5
DE7
  100
AcDbEntity
  8
Layer 1
  62
0
  100
AcDb2dVertex
  10
0.56000
  20
0.39700
  30
0.00000
  42
-0.0717
  70
32
  0
VERTEX
  5
DE8
  100
AcDbEntity
  8
Layer 1
  62
0
  100
AcDb2dVertex
  10
0.54600
  20
0.40000
  30
0.00000
  70
32
  0
VERTEX
  5
DE9
  100
AcDbEntity
  8
Layer 1
  62
0
  100
AcDb2dVertex
  10
0.54239
  20
0.40123
  30
0.00000
  42
0.0678
  70
32
  0
VERTEX
  5
DEA
  100
AcDbEntity
  8
Layer 1
  62
0
  100
AcDb2dVertex
  10
0.53200
  20
0.40400
  30
0.00000
  42
0.2291
  70
32
  0
VERTEX
  5
DEB
  100
AcDbEntity
  8
Layer 1
  62
0
  100
AcDb2dVertex
  10
0.51545
  20
0.39715
  30
0.00000
  42
0.1720
  70
32
  0
VERTEX
  5
DEC
  100
AcDbEntity
  8
Layer 1
  62
0
  100
AcDb2dVertex
  10
0.51001
  20
0.37986
  30
0.00000
  70
32
  0
VERTEX
  5
DED
  100
AcDbEntity
  8
Layer 1
  62
0
  100
AcDb2dVertex
  10
0.51000
  20
0.37900
  30
0.00000
  70
32
  0
VERTEX
  5
DEE
  100
AcDbEntity
  8
Layer 1
  62
0
  100
AcDb2dVertex
  10
0.52900
  20
0.33500
  30
0.00000
  42
0.1096
  70
32
  0
VERTEX
  5
DEF
  100
AcDbEntity
  8
Layer 1
  62
0
  100
AcDb2dVertex
  10
0.54200
  20
0.33200
  30
0.00000
  42
0.1013
  70
32
  0
VERTEX
  5
DF0
  100
AcDbEntity
  8
Layer 1
  62
0
  100
AcDb2dVertex
  10
0.54924
  20
0.33560
  30
0.00000
  42
0.0248
  70
32
  0
VERTEX
  5
DF1
  100
AcDbEntity
  8
Layer 1
  62
0
  100
AcDb2dVertex
  10
0.58000
  20
0.35900
  30
0.00000
  70
32
  0
VERTEX
  5
DF2
  100
AcDbEntity
  8
Layer 1
  62
0
  100
AcDb2dVertex
  10
0.60388
  20
0.38087
  30
0.00000
  70
32
  0
VERTEX
  5
DF3
  100
AcDbEntity
  8
Layer 1
  62
0
  100
AcDb2dVertex
  10
0.60995
  20
0.38698
  30
0.00000
  42
0.1278
  70
32
  0
VERTEX
  5
DF4
  100
AcDbEntity
  8
Layer 1
  62
0
  100
AcDb2dVertex
  10
0.61200
  20
0.39000
  30
0.00000
  70
32
  0
SEQEND
  5
DF5
  100
AcDbEntity
  8
Layer 1
  62
0
 0
ENDSEC
 0
EOF
