  0
SECTION
  2
HEADER
  9
$ACADVER
  1
AC1015
  9
$ACADMAINTVER
 70
     6
  9
$DWGCODEPAGE
  3
ANSI_1252
  9
$INSBASE
 10
0.0
 20
0.0
 30
0.0
  9
$EXTMIN
 10
1.000000E+20
 20
1.000000E+20
 30
1.000000E+20
  9
$EXTMAX
 10
-1.000000E+20
 20
-1.000000E+20
 30
-1.000000E+20
  9
$LIMMIN
 10
0.0
 20
0.0
  9
$LIMMAX
 10
420.0
 20
297.0
  9
$ORTHOMODE
 70
     0
  9
$REGENMODE
 70
     1
  9
$FILLMODE
 70
     1
  9
$QTEXTMODE
 70
     0
  9
$MIRRTEXT
 70
     1
  9
$LTSCALE
 40
1.0
  9
$ATTMODE
 70
     1
  9
$TEXTSIZE
 40
2.5
  9
$TRACEWID
 40
1.0
  9
$TEXTSTYLE
  7
Standard
  9
$CLAYER
  8
0
  9
$CELTYPE
  6
ByLayer
  9
$CECOLOR
 62
   256
  9
$CELTSCALE
 40
1.0
  9
$DISPSILH
 70
     0
  9
$DIMSCALE
 40
1.0
  9
$DIMASZ
 40
2.5
  9
$DIMEXO
 40
0.625
  9
$DIMDLI
 40
3.75
  9
$DIMRND
 40
0.0
  9
$DIMDLE
 40
0.0
  9
$DIMEXE
 40
1.25
  9
$DIMTP
 40
0.0
  9
$DIMTM
 40
0.0
  9
$DIMTXT
 40
2.5
  9
$DIMCEN
 40
2.5
  9
$DIMTSZ
 40
0.0
  9
$DIMTOL
 70
     0
  9
$DIMLIM
 70
     0
  9
$DIMTIH
 70
     0
  9
$DIMTOH
 70
     0
  9
$DIMSE1
 70
     0
  9
$DIMSE2
 70
     0
  9
$DIMTAD
 70
     1
  9
$DIMZIN
 70
     8
  9
$DIMBLK
  1

  9
$DIMASO
 70
     1
  9
$DIMSHO
 70
     1
  9
$DIMPOST
  1

  9
$DIMAPOST
  1

  9
$DIMALT
 70
     0
  9
$DIMALTD
 70
     3
  9
$DIMALTF
 40
0.03937
  9
$DIMLFAC
 40
1.0
  9
$DIMTOFL
 70
     1
  9
$DIMTVP
 40
0.0
  9
$DIMTIX
 70
     0
  9
$DIMSOXD
 70
     0
  9
$DIMSAH
 70
     0
  9
$DIMBLK1
  1

  9
$DIMBLK2
  1

  9
$DIMSTYLE
  2
ISO-25
  9
$DIMCLRD
 70
     0
  9
$DIMCLRE
 70
     0
  9
$DIMCLRT
 70
     0
  9
$DIMTFAC
 40
1.0
  9
$DIMGAP
 40
0.625
  9
$DIMJUST
 70
     0
  9
$DIMSD1
 70
     0
  9
$DIMSD2
 70
     0
  9
$DIMTOLJ
 70
     0
  9
$DIMTZIN
 70
     8
  9
$DIMALTZ
 70
     0
  9
$DIMALTTZ
 70
     0
  9
$DIMUPT
 70
     0
  9
$DIMDEC
 70
     2
  9
$DIMTDEC
 70
     2
  9
$DIMALTU
 70
     2
  9
$DIMALTTD
 70
     3
  9
$DIMTXSTY
  7
Standard
  9
$DIMAUNIT
 70
     0
  9
$DIMADEC
 70
     0
  9
$DIMALTRND
 40
0.0
  9
$DIMAZIN
 70
     0
  9
$DIMDSEP
 70
    44
  9
$DIMATFIT
 70
     3
  9
$DIMFRAC
 70
     0
  9
$DIMLDRBLK
  1

  9
$DIMLUNIT
 70
     2
  9
$DIMLWD
 70
    -2
  9
$DIMLWE
 70
    -2
  9
$DIMTMOVE
 70
     0
  9
$LUNITS
 70
     2
  9
$LUPREC
 70
     4
  9
$SKETCHINC
 40
1.0
  9
$FILLETRAD
 40
10.0
  9
$AUNITS
 70
     0
  9
$AUPREC
 70
     0
  9
$MENU
  1
.
  9
$ELEVATION
 40
0.0
  9
$PELEVATION
 40
0.0
  9
$THICKNESS
 40
0.0
  9
$LIMCHECK
 70
     0
  9
$CHAMFERA
 40
10.0
  9
$CHAMFERB
 40
10.0
  9
$CHAMFERC
 40
20.0
  9
$CHAMFERD
 40
0.0
  9
$SKPOLY
 70
     0
  9
$TDCREATE
 40
2455270.676293403
  9
$TDUCREATE
 40
2455270.134626736
  9
$TDUPDATE
 40
2455270.676293415
  9
$TDUUPDATE
 40
2455270.134626748
  9
$TDINDWG
 40
0.0000000116
  9
$TDUSRTIMER
 40
0.0000000116
  9
$USRTIMER
 70
     1
  9
$ANGBASE
 50
0.0
  9
$ANGDIR
 70
     0
  9
$PDMODE
 70
     3
  9
$PDSIZE
 40
-0.7
  9
$PLINEWID
 40
0.0
  9
$SPLFRAME
 70
     0
  9
$SPLINETYPE
 70
     6
  9
$SPLINESEGS
 70
     8
  9
$HANDSEED
  5
37
  9
$SURFTAB1
 70
     6
  9
$SURFTAB2
 70
     6
  9
$SURFTYPE
 70
     6
  9
$SURFU
 70
     6
  9
$SURFV
 70
     6
  9
$UCSBASE
  2

  9
$UCSNAME
  2

  9
$UCSORG
 10
0.0
 20
0.0
 30
0.0
  9
$UCSXDIR
 10
1.0
 20
0.0
 30
0.0
  9
$UCSYDIR
 10
0.0
 20
1.0
 30
0.0
  9
$UCSORTHOREF
  2

  9
$UCSORTHOVIEW
 70
     0
  9
$UCSORGTOP
 10
0.0
 20
0.0
 30
0.0
  9
$UCSORGBOTTOM
 10
0.0
 20
0.0
 30
0.0
  9
$UCSORGLEFT
 10
0.0
 20
0.0
 30
0.0
  9
$UCSORGRIGHT
 10
0.0
 20
0.0
 30
0.0
  9
$UCSORGFRONT
 10
0.0
 20
0.0
 30
0.0
  9
$UCSORGBACK
 10
0.0
 20
0.0
 30
0.0
  9
$PUCSBASE
  2

  9
$PUCSNAME
  2

  9
$PUCSORG
 10
0.0
 20
0.0
 30
0.0
  9
$PUCSXDIR
 10
1.0
 20
0.0
 30
0.0
  9
$PUCSYDIR
 10
0.0
 20
1.0
 30
0.0
  9
$PUCSORTHOREF
  2

  9
$PUCSORTHOVIEW
 70
     0
  9
$PUCSORGTOP
 10
0.0
 20
0.0
 30
0.0
  9
$PUCSORGBOTTOM
 10
0.0
 20
0.0
 30
0.0
  9
$PUCSORGLEFT
 10
0.0
 20
0.0
 30
0.0
  9
$PUCSORGRIGHT
 10
0.0
 20
0.0
 30
0.0
  9
$PUCSORGFRONT
 10
0.0
 20
0.0
 30
0.0
  9
$PUCSORGBACK
 10
0.0
 20
0.0
 30
0.0
  9
$USERI1
 70
     0
  9
$USERI2
 70
     0
  9
$USERI3
 70
     0
  9
$USERI4
 70
     0
  9
$USERI5
 70
     0
  9
$USERR1
 40
0.0
  9
$USERR2
 40
0.0
  9
$USERR3
 40
0.0
  9
$USERR4
 40
0.0
  9
$USERR5
 40
0.0
  9
$WORLDVIEW
 70
     1
  9
$SHADEDGE
 70
     3
  9
$SHADEDIF
 70
    70
  9
$TILEMODE
 70
     1
  9
$MAXACTVP
 70
    64
  9
$PINSBASE
 10
0.0
 20
0.0
 30
0.0
  9
$PLIMCHECK
 70
     0
  9
$PEXTMIN
 10
1.000000E+20
 20
1.000000E+20
 30
1.000000E+20
  9
$PEXTMAX
 10
-1.000000E+20
 20
-1.000000E+20
 30
-1.000000E+20
  9
$PLIMMIN
 10
0.0
 20
0.0
  9
$PLIMMAX
 10
420.0
 20
297.0
  9
$UNITMODE
 70
     0
  9
$VISRETAIN
 70
     1
  9
$PLINEGEN
 70
     0
  9
$PSLTSCALE
 70
     1
  9
$TREEDEPTH
 70
  3020
  9
$CMLSTYLE
  2
Standard
  9
$CMLJUST
 70
     1
  9
$CMLSCALE
 40
1.0
  9
$PROXYGRAPHICS
 70
     1
  9
$MEASUREMENT
 70
     1
  9
$CELWEIGHT
370
    -1
  9
$ENDCAPS
280
     0
  9
$JOINSTYLE
280
     0
  9
$LWDISPLAY
290
     0
  9
$INSUNITS
 70
     4
  9
$HYPERLINKBASE
  1

  9
$STYLESHEET
  1

  9
$XEDIT
290
     1
  9
$CEPSNTYPE
380
     0
  9
$PSTYLEMODE
290
     1
  9
$FINGERPRINTGUID
  2
{FAEB1C30-E019-11D5-929B-00C0DF256EC4}
  9
$VERSIONGUID
  2
{FAEB1C32-E019-11D5-929B-00C0DF256EC4}
  9
$EXTNAMES
290
     1
  9
$PSVPSCALE
 40
0.0
  9
$OLESTARTUP
290
     0
  0
ENDSEC
  0
SECTION
  2
CLASSES
  0
CLASS
  1
ACDBDICTIONARYWDFLT
  2
AcDbDictionaryWithDefault
  3
ObjectDBX Classes
 90
        0
280
     0
281
     0
  0
CLASS
  1
ACDBPLACEHOLDER
  2
AcDbPlaceHolder
  3
ObjectDBX Classes
 90
        0
280
     0
281
     0
  0
CLASS
  1
LAYOUT
  2
AcDbLayout
  3
ObjectDBX Classes
 90
        0
280
     0
281
     0
  0
ENDSEC
  0
SECTION
  2
TABLES
  0
TABLE
  2
VPORT
  5
8
330
0
100
AcDbSymbolTable
 70
     2
  0
VPORT
  5
29
330
8
100
AcDbSymbolTableRecord
100
AcDbViewportTableRecord
  2
*Active
 70
     0
 10
0.0
 20
0.0
 11
1.0
 21
1.0
 12
50.0
 22
50.0
 13
0.0
 23
0.0
 14
10.0
 24
10.0
 15
10.0
 25
10.0
 16
0.0
 26
0.0
 36
1.0
 17
0.0
 27
0.0
 37
0.0
 40
103.921569
 41
1.0
 42
50.0
 43
0.0
 44
0.0
 50
0.0
 51
0.0
 71
     0
 72
   100
 73
     1
 74
     3
 75
     0
 76
     0
 77
     0
 78
     0
281
     0
 65
     1
110
0.0
120
0.0
130
0.0
111
1.0
121
0.0
131
0.0
112
0.0
122
1.0
132
0.0
 79
     0
146
0.0
  0
ENDTAB
  0
TABLE
  2
LTYPE
  5
5
330
0
100
AcDbSymbolTable
 70
     1
  0
LTYPE
  5
14
330
5
100
AcDbSymbolTableRecord
100
AcDbLinetypeTableRecord
  2
ByBlock
 70
     0
  3

 72
    65
 73
     0
 40
0.0
  0
LTYPE
  5
15
330
5
100
AcDbSymbolTableRecord
100
AcDbLinetypeTableRecord
  2
ByLayer
 70
     0
  3

 72
    65
 73
     0
 40
0.0
  0
LTYPE
  5
16
330
5
100
AcDbSymbolTableRecord
100
AcDbLinetypeTableRecord
  2
Continuous
 70
     0
  3

 72
    65
 73
     0
 40
0.0
  0
ENDTAB
  0
TABLE
  2
LAYER
  5
2
330
0
100
AcDbSymbolTable
 70
     1
  0
LAYER
  5
10
330
2
100
AcDbSymbolTableRecord
100
AcDbLayerTableRecord
  2
0
 70
     0
 62
     7
  6
Continuous
370
    -3
390
F
  0
ENDTAB
  0
TABLE
  2
STYLE
  5
3
330
0
100
AcDbSymbolTable
 70
     1
  0
STYLE
  5
11
330
3
100
AcDbSymbolTableRecord
100
AcDbTextStyleTableRecord
  2
Standard
 70
     0
 40
1.0
 41
1.0
 50
0.0
 71
     0
 42
2.5
  3
RomanS
  4

  0
ENDTAB
  0
TABLE
  2
VIEW
  5
6
330
0
100
AcDbSymbolTable
 70
     0
  0
ENDTAB
  0
TABLE
  2
UCS
  5
7
330
0
100
AcDbSymbolTable
 70
     0
  0
ENDTAB
  0
TABLE
  2
APPID
  5
9
330
0
100
AcDbSymbolTable
 70
     1
  0
APPID
  5
12
330
9
100
AcDbSymbolTableRecord
100
AcDbRegAppTableRecord
  2
ACAD
 70
     0
  0
ENDTAB
  0
TABLE
  2
DIMSTYLE
  5
A
330
0
100
AcDbSymbolTable
 70
     1
100
AcDbDimStyleTable
  0
DIMSTYLE
105
27
330
A
100
AcDbSymbolTableRecord
100
AcDbDimStyleTableRecord
  2
ISO-25
 70
     0
 41
2.5
 42
0.625
 44
1.25
 73
     0
 74
     0
 77
     1
 78
     8
 79
     2
140
2.5
141
2.5
146
0.0
147
0.625
271
     2
272
     0
273
     0
274
     0
278
    44
283
     0
289
     0
340
11
  0
ENDTAB
  0
TABLE
  2
BLOCK_RECORD
  5
1
330
0
100
AcDbSymbolTable
 70
     1
  0
BLOCK_RECORD
  5
1F
330
1
100
AcDbSymbolTableRecord
100
AcDbBlockTableRecord
  2
*Model_Space
340
22
  0
BLOCK_RECORD
  5
1B
330
1
100
AcDbSymbolTableRecord
100
AcDbBlockTableRecord
  2
*Paper_Space
340
1E
  0
BLOCK_RECORD
  5
23
330
1
100
AcDbSymbolTableRecord
100
AcDbBlockTableRecord
  2
*Paper_Space0
340
26
  0
ENDTAB
  0
ENDSEC
  0
SECTION
  2
BLOCKS
  0
BLOCK
  5
20
330
1F
100
AcDbEntity
  8
0
100
AcDbBlockBegin
  2
*Model_Space
 70
     0
 71
     0
 10
0.0
 20
0.0
 30
0.0
  3
*Model_Space
  1

  0
ENDBLK
  5
21
330
1F
100
AcDbEntity
  8
0
100
AcDbBlockEnd
  0
BLOCK
  5
1C
330
1B
100
AcDbEntity
 67
     1
  8
0
100
AcDbBlockBegin
  2
*Paper_Space
 70
     0
 71
     0
 10
0.0
 20
0.0
 30
0.0
  3
*Paper_Space
  1

  0
ENDBLK
  5
1D
330
1B
100
AcDbEntity
 67
     1
  8
0
100
AcDbBlockEnd
  0
BLOCK
  5
24
330
23
100
AcDbEntity
  8
0
100
AcDbBlockBegin
  2
*Paper_Space0
 70
     0
 71
     0
 10
0.0
 20
0.0
 30
0.0
  3
*Paper_Space0
  1

  0
ENDBLK
  5
25
330
23
100
AcDbEntity
  8
0
100
AcDbBlockEnd
  0
ENDSEC
  0
SECTION
  2
ENTITIES
  0
LWPOLYLINE
  5
2A
330
1F
100
AcDbEntity
  8
0
100
AcDbPolyline
 90
      114
 70
   128
 43
0.0
 10
65.2761
 20
-46.9019
 10
65.157333
 20
-46.388058
 10
64.324317
 20
-45.611467
 10
63.681467
 20
-45.9236
 10
61.944533
 20
-47.8912
 10
61.939233
 20
-47.89735
 10
63.654967
 20
-45.95435
 10
63.959033
 20
-45.334283
 10
63.367117
 20
-44.712
 10
62.850017
 20
-44.245017
 10
62.635683
 20
-44.22075
 10
62.424833
 20
-44.397383
 10
62.110017
 20
-44.564367
 10
61.589033
 20
-44.20115
 10
60.342283
 20
-43.191217
 10
59.778117
 20
-42.940283
 10
59.39525
 20
-43.2733
 10
59.049233
 20
-43.793033
 10
59.1721
 20
-44.208933
 10
60.001767
 20
-44.9397
 10
60.880317
 20
-45.787567
 10
60.912867
 20
-46.302167
 10
60.366
 20
-46.360233
 10
59.35915
 20
-45.71725
 10
58.534417
 20
-45.129533
 10
58.158617
 20
-45.019633
 10
57.891567
 20
-45.211983
 10
57.621883
 20
-45.59975
 10
57.433417
 20
-45.998617
 10
57.53535
 20
-46.36435
 10
58.0521
 20
-46.8256
 10
59.220383
 20
-47.709317
 10
59.52215
 20
-48.29
 10
59.2245
 20
-48.610867
 10
58.787467
 20
-48.603183
 10
58.040767
 20
-48.06145
 10
57.048767
 20
-47.46335
 10
56.436483
 20
-47.49175
 10
56.1528
 20
-47.846083
 10
56.011483
 20
-48.339067
 10
56.46345
 20
-48.8568
 10
57.4427
 20
-49.513367
 10
58.07935
 20
-49.965783
 10
58.168983
 20
-50.320983
 10
57.962617
 20
-50.635033
 10
57.494867
 20
-50.675617
 10
56.620383
 20
-50.26965
 10
55.747317
 20
-49.88095
 10
55.252667
 20
-49.946633
 10
54.904683
 20
-50.363217
 10
54.778367
 20
-50.8263
 10
55.056933
 20
-51.173067
 10
55.689633
 20
-51.49355
 10
56.480617
 20
-51.8597
 10
56.926633
 20
-52.142417
 10
57.086233
 20
-52.43505
 10
57.026533
 20
-52.7899
 10
56.880567
 20
-53.220117
 10
57.09705
 20
-53.428033
 10
58.09565
 20
-53.882167
 10
58.077833
 20
-53.873533
 10
57.026217
 20
-53.399233
 10
56.6864
 20
-53.69575
 10
56.12325
 20
-55.154983
 10
56.204267
 20
-55.6257
 10
57.109733
 20
-56.0637
 10
57.111
 20
-56.0632
 10
56.209333
 20
-55.6237
 10
55.813933
 20
-55.918617
 10
55.151733
 20
-57.530783
 10
55.195733
 20
-58.044483
 10
56.032667
 20
-58.487617
 10
56.032617
 20
-58.4868
 10
55.19595
 20
-58.046933
 10
54.792633
 20
-58.33795
 10
54.0095
 20
-59.850417
 10
54.017133
 20
-60.3381
 10
54.831267
 20
-60.7829
 10
54.824117
 20
-60.778067
 10
53.988967
 20
-60.324483
 10
53.60445
 20
-60.593283
 10
52.795367
 20
-61.974367
 10
52.766617
 20
-62.436033
 10
53.468283
 20
-62.912167
 10
53.465633
 20
-62.915933
 10
52.760417
 20
-62.43815
 10
52.36645
 20
-62.597033
 10
51.3971
 20
-63.944383
 10
51.32925
 20
-64.41585
 10
52.03425
 20
-64.93765
 10
52.03635
 20
-64.938033
 10
51.331933
 20
-64.417783
 10
50.88555
 20
-64.598733
 10
49.914283
 20
-65.848217
 10
49.82925
 20
-66.32545
 10
50.4463
 20
-66.899883
 10
50.421267
 20
-66.860067
 10
49.729667
 20
-66.255783
 10
49.3435
 20
-66.5111
 10
48.2795
 20
-67.64725
 10
48.163767
 20
-68.098167
 10
48.764833
 20
-68.765633
 10
48.75455
 20
-68.752867
 10
48.116967
 20
-68.0475
 10
47.71335
 20
-68.18705
 10
46.671833
 20
-69.266283
 10
46.536883
 20
-69.689983
 10
47.043217
 20
-70.318717
 10
47.038367
 20
-70.31045
 10
46.512183
 20
-69.66305
 10
46.075767
 20
-69.801833
 10
44.862583
 20
-70.802767
 10
44.698667
 20
-71.222833
 10
45.255733
 20
-71.916567
  0
LWPOLYLINE
  5
2B
330
1F
100
AcDbEntity
  8
0
100
AcDbPolyline
 90
       12
 70
   128
 43
0.0
 10
45.255733
 20
-71.916567
 10
44.698667
 20
-71.222833
 10
44.279033
 20
-71.294317
 10
43.157567
 20
-72.273983
 10
42.974383
 20
-72.666767
 10
43.363117
 20
-73.258233
 10
43.358583
 20
-73.250083
 10
42.950583
 20
-72.6346
 10
42.554
 20
-72.701117
 10
41.391533
 20
-73.4625
 10
41.179917
 20
-73.7827
 10
41.494783
 20
-74.3107
  0
LWPOLYLINE
  5
2C
330
1F
100
AcDbEntity
  8
0
100
AcDbPolyline
 90
      190
 70
   128
 43
0.0
 10
41.494783
 20
-74.3107
 10
41.179917
 20
-73.7827
 10
41.01195
 20
-73.686067
 10
40.5957
 20
-73.803233
 10
40.219933
 20
-73.6934
 10
39.820467
 20
-73.41875
 10
39.098967
 20
-73.213983
 10
38.5154
 20
-73.550433
 10
38.326133
 20
-74.0931
 10
38.37125
 20
-74.698617
 10
38.23365
 20
-75.08795
 10
37.95145
 20
-75.154917
 10
37.533183
 20
-74.858617
 10
37.079133
 20
-74.467433
 10
36.719533
 20
-74.419533
 10
36.502883
 20
-74.826367
 10
36.5298
 20
-75.34135
 10
36.4073
 20
-75.856033
 10
36.075167
 20
-76.099033
 10
35.63015
 20
-75.753017
 10
35.12035
 20
-75.308517
 10
34.711583
 20
-75.4481
 10
34.675033
 20
-75.881633
 10
34.59845
 20
-76.31815
 10
34.184217
 20
-76.5386
 10
33.7678
 20
-76.190467
 10
33.345883
 20
-75.923283
 10
33.006267
 20
-76.143817
 10
32.888933
 20
-76.57185
 10
32.666183
 20
-76.973417
 10
32.181167
 20
-77.015283
 10
31.7755
 20
-76.580283
 10
31.284133
 20
-76.5364
 10
31.152183
 20
-76.999883
 10
31.02625
 20
-77.313817
 10
30.595083
 20
-77.23105
 10
30.148033
 20
-77.011633
 10
29.212667
 20
-77.0986
 10
27.596567
 20
-77.448733
 10
25.629133
 20
-77.7102
 10
24.50355
 20
-77.863
 10
24.107333
 20
-78.248717
 10
24.187183
 20
-78.62775
 10
25.825467
 20
-78.879083
 10
31.249083
 20
-78.917167
 10
35.11265
 20
-78.904917
 10
35.969833
 20
-78.617
 10
36.2723
 20
-78.359083
 10
36.6641
 20
-78.5309
 10
36.941017
 20
-78.780167
 10
37.270783
 20
-78.81305
 10
37.431683
 20
-78.5827
 10
37.52445
 20
-78.208183
 10
37.703667
 20
-77.993817
 10
38.031467
 20
-78.3083
 10
38.308483
 20
-78.712667
 10
38.732567
 20
-78.6236
 10
38.967683
 20
-78.15805
 10
39.10585
 20
-77.699783
 10
39.455817
 20
-77.926517
 10
39.875317
 20
-78.3146
 10
40.257883
 20
-78.28615
 10
40.40095
 20
-77.741233
 10
40.505017
 20
-77.210683
 10
40.761183
 20
-77.180067
 10
41.011833
 20
-77.61515
 10
41.2607
 20
-78.0275
 10
41.6112
 20
-78.030133
 10
41.84455
 20
-77.771483
 10
41.863758
 20
-77.25885
 10
41.9027
 20
-76.779
 10
42.070183
 20
-76.559708
 10
42.355783
 20
-76.693533
 10
42.557817
 20
-77.247267
 10
42.838467
 20
-77.622683
 10
43.273417
 20
-77.527067
 10
43.389533
 20
-76.92675
 10
43.354217
 20
-76.452583
 10
43.40145
 20
-76.006733
 10
43.69755
 20
-75.9732
 10
44.027267
 20
-76.546033
 10
44.400217
 20
-77.081167
 10
44.696033
 20
-77.197083
 10
44.97265
 20
-76.82605
 10
45.028983
 20
-76.040633
 10
45.04225
 20
-75.29295
 10
45.2344
 20
-75.1752
 10
45.53745
 20
-75.543267
 10
45.7499
 20
-76.159217
 10
46.11745
 20
-76.5454
 10
46.489017
 20
-76.368383
 10
46.608683
 20
-75.7392
 10
46.572383
 20
-74.943367
 10
46.6071
 20
-74.176733
 10
46.989983
 20
-73.998867
 10
47.247517
 20
-74.2955
 10
47.4714
 20
-74.910733
 10
47.7574
 20
-75.435217
 10
48.163767
 20
-75.571467
 10
48.3958
 20
-75.140567
 10
48.454767
 20
-74.159683
 10
48.447767
 20
-73.06305
 10
48.676767
 20
-72.6669
 10
48.98795
 20
-72.913683
 10
49.2881
 20
-73.6266
 10
49.68395
 20
-74.31515
 10
50.127483
 20
-74.488867
 10
50.373367
 20
-74.0914
 10
50.300783
 20
-72.8848
 10
50.292967
 20
-71.546983
 10
50.568433
 20
-71.158767
 10
50.925383
 20
-71.402167
 10
51.18925
 20
-72.169467
 10
51.463983
 20
-73.004883
 10
51.866767
 20
-73.170133
 10
52.248217
 20
-72.739633
 10
52.215133
 20
-71.834583
 10
51.979133
 20
-70.5941
 10
52.176917
 20
-69.780817
 10
52.495417
 20
-69.739917
 10
52.731633
 20
-70.136
 10
52.987617
 20
-70.949867
 10
53.281317
 20
-71.576983
 10
53.771833
 20
-71.764433
 10
54.058867
 20
-71.30075
 10
53.947767
 20
-70.039533
 10
53.688117
 20
-68.404583
 10
53.9554
 20
-67.90785
 10
54.312717
 20
-68.156933
 10
54.643517
 20
-69.0514
 10
55.099483
 20
-69.9307
 10
55.550583
 20
-70.126883
 10
55.71365
 20
-69.3853
 10
55.449167
 20
-67.9173
 10
55.260933
 20
-66.472183
 10
55.4312
 20
-65.9827
 10
55.879717
 20
-66.299617
 10
56.3136
 20
-67.266883
 10
56.885033
 20
-68.2295
 10
57.356183
 20
-68.309317
 10
57.482783
 20
-67.696783
 10
57.215733
 20
-66.039333
 10
56.909517
 20
-64.3963
 10
57.157517
 20
-63.87235
 10
57.495383
 20
-64.16885
 10
57.940417
 20
-65.209783
 10
58.535533
 20
-66.33725
 10
59.017233
 20
-66.404733
 10
59.156967
 20
-65.659117
 10
58.808
 20
-63.904517
 10
58.4911
 20
-62.11865
 10
58.755217
 20
-61.501533
 10
59.165033
 20
-61.838617
 10
59.5664
 20
-62.986267
 10
59.882467
 20
-63.990983
 10
60.404867
 20
-64.296667
 10
60.843133
 20
-63.781483
 10
60.58015
 20
-62.255867
 10
60.161083
 20
-60.178933
 10
60.081117
 20
-59.10495
 10
60.4287
 20
-59.067633
 10
60.8743
 20
-59.884583
 10
61.4573
 20
-61.311633
 10
62.056
 20
-61.795517
 10
62.384117
 20
-61.0357
 10
61.905317
 20
-58.693317
 10
61.43215
 20
-56.505517
 10
61.645483
 20
-55.9783
 10
62.0797
 20
-56.4861
 10
62.790125
 20
-58.006975
 10
63.322733
 20
-58.834617
 10
63.787283
 20
-58.748367
 10
63.80585
 20
-57.9199
 10
63.2123
 20
-55.580267
 10
62.696783
 20
-53.826517
 10
62.9654
 20
-53.346933
 10
63.616533
 20
-53.453517
 10
64.123583
 20
-53.323733
 10
64.2711
 20
-52.991017
 10
64.072517
 20
-52.638083
 10
63.7689
 20
-52.339167
 10
63.786967
 20
-51.809367
 10
64.28595
 20
-51.5711
 10
64.943567
 20
-51.688683
 10
65.360233
 20
-51.577167
 10
65.423817
 20
-51.04395
 10
64.972133
 20
-50.37685
 10
64.478933
 20
-49.075167
 10
64.837592
 20
-47.646875
 10
65.2761
 20
-46.9019
  0
LWPOLYLINE
  5
2D
330
1F
100
AcDbEntity
  8
0
100
AcDbPolyline
 90
      271
 70
   128
 43
0.0
 10
101.635
 20
-17.9326
 10
103.100833
 20
-18.69975
 10
104.040017
 20
-19.40725
 10
105.0045
 20
-20.314833
 10
105.781833
 20
-21.209517
 10
106.4362
 20
-22.041767
 10
107.07395
 20
-22.775867
 10
107.4777
 20
-23.40415
 10
107.471933
 20
-23.85205
 10
107.276583
 20
-24.121083
 10
106.854183
 20
-24.101933
 10
106.4452
 20
-23.959817
 10
106.156967
 20
-24.012867
 10
105.95805
 20
-24.374083
 10
105.671717
 20
-24.87735
 10
105.273817
 20
-25.116283
 10
104.628767
 20
-24.9292
 10
104.130633
 20
-24.640033
 10
103.440883
 20
-24.366667
 10
102.77435
 20
-24.274483
 10
101.82365
 20
-24.49115
 10
100.907483
 20
-24.960617
 10
99.894833
 20
-25.306217
 10
98.9224
 20
-25.282717
 10
98.04725
 20
-25.099067
 10
97.370017
 20
-24.97385
 10
96.967233
 20
-24.893067
 10
96.681183
 20
-25.086767
 10
96.7179
 20
-25.6414
 10
97.1099
 20
-26.0115
 10
97.488533
 20
-26.343417
 10
97.482933
 20
-26.804
 10
97.195017
 20
-27.204983
 10
96.704467
 20
-27.24065
 10
96.221817
 20
-27.291533
 10
95.930483
 20
-27.636267
 10
95.9778
 20
-28.05
 10
96.25595
 20
-28.337433
 10
96.6145
 20
-28.69265
 10
96.64405
 20
-29.270433
 10
96.350633
 20
-29.648417
 10
95.928617
 20
-29.6549
 10
95.49925
 20
-29.510583
 10
95.087817
 20
-29.537283
 10
94.875433
 20
-29.860367
 10
94.913617
 20
-30.343333
 10
95.202983
 20
-30.689383
 10
95.477683
 20
-31.0817
 10
95.41155
 20
-31.59955
 10
94.996033
 20
-31.854133
 10
94.49795
 20
-31.738933
 10
94.102383
 20
-31.634917
 10
93.726167
 20
-31.617717
 10
93.494283
 20
-31.841283
 10
93.4761
 20
-32.3149
 10
93.64
 20
-32.655183
 10
93.913333
 20
-32.958033
 10
93.9775
 20
-33.4662
 10
93.7908
 20
-33.96285
 10
93.405783
 20
-34.040383
 10
92.955067
 20
-33.8426
 10
92.533367
 20
-33.53955
 10
92.18695
 20
-33.306917
 10
91.88
 20
-33.472733
 10
91.716183
 20
-33.78995
 10
91.778017
 20
-34.144567
 10
92.001367
 20
-34.52495
 10
92.1072
 20
-34.914767
 10
91.935567
 20
-35.390767
 10
91.62335
 20
-35.70765
 10
91.1581
 20
-35.730167
 10
90.715483
 20
-35.560417
 10
90.424683
 20
-35.286
 10
90.09615
 20
-35.050533
 10
89.6986
 20
-34.979933
 10
89.39955
 20
-35.16105
 10
89.349883
 20
-35.586433
 10
89.462217
 20
-36.063133
 10
89.54695
 20
-36.573533
 10
89.286567
 20
-37.10205
 10
88.869967
 20
-37.2926
 10
88.426567
 20
-37.2329
 10
88.0678
 20
-37.026017
 10
87.869167
 20
-36.755317
 10
87.639867
 20
-36.48765
 10
87.3231
 20
-36.34925
 10
86.9472
 20
-36.3576
 10
86.842367
 20
-36.6892
 10
86.750233
 20
-37.1818
 10
86.687417
 20
-37.743067
 10
86.25335
 20
-38.284383
 10
85.761733
 20
-38.256067
 10
85.2814
 20
-37.964217
 10
84.968533
 20
-37.585267
 10
84.639067
 20
-37.2858
 10
84.277833
 20
-37.247833
 10
84.06215
 20
-37.5274
 10
83.935567
 20
-37.941283
 10
83.9373
 20
-38.3788
 10
83.8193
 20
-38.846183
 10
83.451783
 20
-39.2305
 10
82.919767
 20
-39.236033
 10
82.4989
 20
-38.9841
 10
82.243033
 20
-38.652917
 10
81.964433
 20
-38.33995
 10
81.288633
 20
-38.304283
 10
81.09265
 20
-38.696117
 10
81.101633
 20
-39.271583
 10
80.947417
 20
-39.8803
 10
80.561883
 20
-40.254683
 10
79.97005
 20
-40.194683
 10
79.555067
 20
-39.830017
 10
79.1828
 20
-39.411017
 10
78.746633
 20
-39.328133
 10
78.466017
 20
-39.544767
 10
78.428817
 20
-39.944433
 10
78.423633
 20
-40.430633
 10
78.369633
 20
-40.909933
 10
78.158817
 20
-41.3353
 10
77.8089
 20
-41.53
 10
77.36145
 20
-41.375667
 10
76.928233
 20
-40.9883
 10
76.498167
 20
-40.644367
 10
76.085567
 20
-40.594467
 10
75.7699
 20
-40.8551
 10
75.760033
 20
-41.208333
 10
75.898533
 20
-41.561867
 10
75.96685
 20
-42.003417
 10
75.827083
 20
-42.5531
 10
75.516733
 20
-42.8239
 10
75.077083
 20
-42.846033
 10
74.690417
 20
-42.660017
 10
74.358283
 20
-42.355533
 10
74.06095
 20
-42.155367
 10
73.660967
 20
-42.09245
 10
73.321767
 20
-42.320283
 10
73.212883
 20
-42.718517
 10
73.375517
 20
-43.143233
 10
73.5398
 20
-43.509117
 10
73.562833
 20
-43.999983
 10
73.186217
 20
-44.453567
 10
72.726483
 20
-44.498917
 10
72.284433
 20
-44.367567
 10
71.956067
 20
-44.144883
 10
71.489533
 20
-43.9166
 10
71.102283
 20
-44.014667
 10
70.96475
 20
-44.54385
 10
71.171383
 20
-45.0037
 10
71.270667
 20
-45.46785
 10
71.097417
 20
-46.002683
 10
70.7038
 20
-46.349
 10
70.172217
 20
-46.380167
 10
69.722183
 20
-46.059483
 10
69.1944
 20
-45.514983
 10
68.3778
 20
-45.146333
 10
67.3571
 20
-45.141483
 10
66.575783
 20
-45.560267
 10
66.050117
 20
-46.136317
 10
65.70535
 20
-46.502333
 10
65.44735
 20
-46.526783
 10
64.93945
 20
-46.107267
 10
64.34355
 20
-45.456317
 10
64.666633
 20
-44.85015
 10
66.429933
 20
-42.934967
 10
66.424867
 20
-42.937617
 10
64.643933
 20
-44.868483
 10
63.962717
 20
-45.145
 10
63.018783
 20
-44.3202
 10
62.800267
 20
-44.0856
 10
62.90445
 20
-43.8768
 10
63.043167
 20
-43.424367
 10
62.920083
 20
-43.075783
 10
62.377933
 20
-42.590283
 10
61.627767
 20
-41.890517
 10
61.332233
 20
-41.148017
 10
61.51645
 20
-40.65915
 10
61.9024
 20
-40.310417
 10
62.302717
 20
-40.224933
 10
62.7771
 20
-40.629533
 10
63.387633
 20
-41.234183
 10
63.950017
 20
-41.87035
 10
64.359533
 20
-42.050783
 10
64.722333
 20
-41.85595
 10
64.598033
 20
-41.4306
 10
64.029383
 20
-40.720383
 10
63.252483
 20
-39.783117
 10
63.20695
 20
-39.162083
 10
63.612017
 20
-38.5648
 10
64.037117
 20
-38.42785
 10
64.539783
 20
-38.675983
 10
65.090433
 20
-39.215067
 10
65.678067
 20
-39.986367
 10
66.1044
 20
-40.261233
 10
66.489833
 20
-40.048117
 10
66.534983
 20
-39.6637
 10
66.125608
 20
-39.160883
 10
65.568
 20
-38.5094
 10
65.138967
 20
-37.894225
 10
65.103133
 20
-37.403533
 10
65.4414
 20
-36.9506
 10
65.830183
 20
-36.780867
 10
66.270167
 20
-36.94555
 10
66.921067
 20
-37.516383
 10
67.566067
 20
-38.360983
 10
68.075633
 20
-38.721583
 10
68.429233
 20
-38.595983
 10
68.55795
 20
-38.161583
 10
68.21715
 20
-37.6295
 10
67.656533
 20
-36.947283
 10
67.235783
 20
-36.373
 10
67.1726
 20
-35.928817
 10
67.518183
 20
-35.452783
 10
68.028683
 20
-35.2198
 10
68.521483
 20
-35.324883
 10
68.896217
 20
-35.736167
 10
69.292683
 20
-36.387617
 10
69.67775
 20
-36.967617
 10
69.950383
 20
-37.23205
 10
70.176817
 20
-37.3207
 10
70.503383
 20
-37.271667
 10
70.69225
 20
-37.2647
 10
70.853233
 20
-37.560483
 10
70.983883
 20
-38.551633
 10
70.988733
 20
-38.536217
 10
70.835
 20
-37.533117
 10
70.931517
 20
-37.160683
 10
71.721483
 20
-36.524633
 10
72.841867
 20
-35.845567
 10
73.157967
 20
-36.126467
 10
73.385467
 20
-37.38145
 10
73.3853
 20
-37.368667
 10
73.1609
 20
-36.092933
 10
73.456833
 20
-35.572633
 10
74.888833
 20
-34.799033
 10
75.394717
 20
-35.023567
 10
75.652117
 20
-36.249167
 10
75.64685
 20
-36.239
 10
75.39225
 20
-35.0046
 10
75.707583
 20
-34.55715
 10
77.223517
 20
-34.00175
 10
77.668183
 20
-34.1382
 10
77.935983
 20
-35.236767
 10
77.9459
 20
-35.218733
 10
77.646833
 20
-34.0849
 10
77.962767
 20
-33.675833
 10
79.530633
 20
-33.170767
 10
79.990917
 20
-33.324883
 10
80.264183
 20
-34.446417
 10
80.266617
 20
-34.4387
 10
80.003083
 20
-33.2863
 10
80.321833
 20
-32.8951
 10
81.863017
 20
-32.487767
 10
82.323933
 20
-32.68025
 10
82.589317
 20
-33.786583
 10
82.326583
 20
-32.685317
 10
82.658533
 20
-32.319483
 10
84.249067
 20
-31.957417
 10
84.71745
 20
-32.139567
 10
85.00045
 20
-33.230233
 10
84.997817
 20
-33.22515
 10
84.704283
 20
-32.11415
 10
84.998267
 20
-31.7745
 10
86.467733
 20
-31.5269
 10
86.91825
 20
-31.711883
 10
87.25085
 20
-32.699417
 10
86.920883
 20
-31.71695
 10
87.074817
 20
-31.417783
 10
88.161067
 20
-31.0276
 10
89.097283
 20
-30.53485
 10
89.360083
 20
-30.6562
 10
89.701617
 20
-31.5618
  0
LWPOLYLINE
  5
2E
330
1F
100
AcDbEntity
  8
0
100
AcDbPolyline
 90
       55
 70
   128
 43
0.0
 10
89.701617
 20
-31.5618
 10
89.360083
 20
-30.6562
 10
89.462067
 20
-30.306667
 10
90.354883
 20
-29.655883
 10
91.11565
 20
-28.89975
 10
91.3598
 20
-28.972767
 10
91.763
 20
-29.897833
 10
91.768267
 20
-29.908
 10
91.388767
 20
-29.028667
 10
91.439183
 20
-28.654333
 10
92.048983
 20
-27.834767
 10
92.488133
 20
-27.0912
 10
92.828667
 20
-26.978567
 10
93.310517
 20
-27.766
 10
93.331433
 20
-27.793783
 10
92.86695
 20
-27.035883
 10
92.8204
 20
-26.673317
 10
93.178283
 20
-25.836433
 10
93.545867
 20
-24.968567
 10
93.612983
 20
-24.3535
 10
93.423892
 20
-24.039133
 10
93.115
 20
-23.7547
 10
92.605283
 20
-23.542567
 10
92.260133
 20
-23.225483
 10
92.180883
 20
-22.899233
 10
92.32185
 20
-22.58745
 10
92.5883
 20
-22.455483
 10
93.2496
 20
-22.376283
 10
93.816767
 20
-22.326633
 10
93.959083
 20
-22.10445
 10
93.7787
 20
-21.856467
 10
93.189167
 20
-21.614733
 10
92.560433
 20
-21.322483
 10
92.408083
 20
-20.905267
 10
92.612067
 20
-20.528633
 10
93.102883
 20
-20.34455
 10
93.464983
 20
-20.2725
 10
93.502433
 20
-19.8856
 10
93.2001
 20
-19.5269
 10
92.778867
 20
-19.0882
 10
92.90605
 20
-18.551517
 10
93.354933
 20
-18.299017
 10
93.689667
 20
-18.112283
 10
94.052183
 20
-17.4083
 10
94.757083
 20
-16.5199
 10
95.85785
 20
-16.244667
 10
97.11745
 20
-16.31235
 10
97.839267
 20
-16.51105
 10
97.753783
 20
-17.264533
 10
96.930767
 20
-20.09655
 10
96.936283
 20
-20.119517
 10
97.744267
 20
-17.3082
 10
98.292633
 20
-16.7139
 10
99.948467
 20
-17.259025
 10
101.635
 20
-17.9326
  0
LWPOLYLINE
  5
2F
330
1F
100
AcDbEntity
  8
0
100
AcDbPolyline
 90
        2
 70
   128
 43
0.0
 10
24.2654
 20
-79.0635
 10
115.8972
 20
-79.0635
  0
LWPOLYLINE
  5
30
330
1F
100
AcDbEntity
  8
0
100
AcDbPolyline
 90
      101
 70
   128
 43
0.0
 10
102.9437
 20
-19.047
 10
102.8928
 20
-18.9826
 10
102.8396
 20
-18.9128
 10
102.783
 20
-18.8353
 10
102.6641
 20
-18.78
 10
102.5376
 20
-18.7276
 10
102.4062
 20
-18.6778
 10
102.3979
 20
-18.6594
 10
102.3822
 20
-18.6385
 10
102.3549
 20
-18.6132
 10
102.1643
 20
-18.4805
 10
101.9682
 20
-18.3506
 10
101.7649
 20
-18.2238
 10
101.5775
 20
-18.0026
 10
101.3851
 20
-17.7834
 10
101.1853
 20
-17.5675
 10
101.0911
 20
-17.4071
 10
100.9932
 20
-17.239
 10
100.8935
 20
-17.0655
 10
100.8204
 20
-16.9671
 10
100.741
 20
-16.8725
 10
100.6554
 20
-16.7799
 10
100.5945
 20
-16.7417
 10
100.528
 20
-16.7061
 10
100.4547
 20
-16.6738
 10
100.3965
 20
-16.6561
 10
100.3287
 20
-16.6366
 10
100.2522
 20
-16.6119
 10
100.145
 20
-16.6165
 10
100.0378
 20
-16.6214
 10
99.9308
 20
-16.6256
 10
99.8345
 20
-16.669
 10
99.7284
 20
-16.7103
 10
99.614
 20
-16.747
 10
99.5494
 20
-16.7975
 10
99.485
 20
-16.8483
 10
99.4205
 20
-16.8995
 10
99.4228
 20
-16.9046
 10
99.4232
 20
-16.9201
 10
99.4184
 20
-16.9439
 10
99.3908
 20
-16.9783
 10
99.3571
 20
-17.0152
 10
99.3162
 20
-17.0555
 10
99.299
 20
-17.1288
 10
99.2744
 20
-17.2056
 10
99.2445
 20
-17.2844
 10
99.2328
 20
-17.3553
 10
99.2233
 20
-17.4315
 10
99.2174
 20
-17.5149
 10
99.1674
 20
-17.6469
 10
99.1121
 20
-17.7808
 10
99.0497
 20
-17.9184
 10
98.9259
 20
-18.0461
 10
98.7983
 20
-18.1843
 10
98.6673
 20
-18.3306
 10
98.6478
 20
-18.3835
 10
98.6246
 20
-18.4438
 10
98.5977
 20
-18.5149
 10
98.5867
 20
-18.6361
 10
98.5733
 20
-18.7665
 10
98.555
 20
-18.9055
 10
98.6288
 20
-19.0693
 10
98.708
 20
-19.2299
 10
98.7945
 20
-19.3875
 10
98.8976
 20
-19.4722
 10
99.0066
 20
-19.5539
 10
99.1226
 20
-19.6327
 10
99.2385
 20
-19.6461
 10
99.3561
 20
-19.6651
 10
99.4773
 20
-19.6912
 10
99.5583
 20
-19.6771
 10
99.6388
 20
-19.6627
 10
99.7195
 20
-19.6479
 10
99.7613
 20
-19.6291
 10
99.808
 20
-19.6014
 10
99.8566
 20
-19.5645
 10
99.9611
 20
-19.539
 10
100.0726
 20
-19.5107
 10
100.1899
 20
-19.4795
 10
100.3153
 20
-19.467
 10
100.4429
 20
-19.4596
 10
100.5741
 20
-19.4597
 10
100.742
 20
-19.4778
 10
100.9199
 20
-19.5
 10
101.1061
 20
-19.5255
 10
101.2379
 20
-19.5756
 10
101.3752
 20
-19.6229
 10
101.5194
 20
-19.6669
 10
101.7072
 20
-19.7789
 10
101.9028
 20
-19.8877
 10
102.1033
 20
-19.9934
 10
102.1743
 20
-20.0055
 10
102.2531
 20
-20.0199
 10
102.3424
 20
-20.0391
 10
102.49
 20
-19.979
 10
102.6408
 20
-19.926
 10
102.7945
 20
-19.8791
 10
102.8508
 20
-19.81
 10
102.9047
 20
-19.7356
 10
102.955
 20
-19.6538
 10
102.9437
 20
-19.047
  0
LWPOLYLINE
  5
31
330
1F
100
AcDbEntity
  8
0
100
AcDbPolyline
 90
       64
 70
   128
 43
0.0
 10
105.6351
 20
-22.1595
 10
105.4292
 20
-21.8965
 10
105.2146
 20
-21.6282
 10
104.9899
 20
-21.358
 10
104.8357
 20
-21.2243
 10
104.6711
 20
-21.0865
 10
104.4985
 20
-20.9459
 10
104.3847
 20
-20.8879
 10
104.2712
 20
-20.8297
 10
104.1581
 20
-20.7721
 10
103.9882
 20
-20.7829
 10
103.8158
 20
-20.7883
 10
103.6404
 20
-20.7865
 10
103.5675
 20
-20.8194
 10
103.4972
 20
-20.8574
 10
103.4306
 20
-20.9028
 10
103.3844
 20
-20.9458
 10
103.3379
 20
-20.9882
 10
103.2917
 20
-21.0312
 10
103.248
 20
-21.0943
 10
103.1998
 20
-21.1665
 10
103.1492
 20
-21.2481
 10
103.1316
 20
-21.3063
 10
103.1122
 20
-21.3743
 10
103.0877
 20
-21.4505
 10
103.0842
 20
-21.5396
 10
103.0825
 20
-21.6343
 10
103.0849
 20
-21.7357
 10
103.1078
 20
-21.8344
 10
103.1331
 20
-21.9393
 10
103.1611
 20
-22.0506
 10
103.2364
 20
-22.1548
 10
103.322
 20
-22.2622
 10
103.4155
 20
-22.3734
 10
103.4214
 20
-22.3707
 10
103.4366
 20
-22.3703
 10
103.4605
 20
-22.3748
 10
103.5239
 20
-22.4185
 10
103.5958
 20
-22.4668
 10
103.6772
 20
-22.5174
 10
103.7799
 20
-22.5365
 10
103.8899
 20
-22.5526
 10
104.0051
 20
-22.5662
 10
104.0415
 20
-22.5498
 10
104.0779
 20
-22.5334
 10
104.1139
 20
-22.5172
 10
104.3308
 20
-22.5134
 10
104.5508
 20
-22.5169
 10
104.7735
 20
-22.526
 10
104.9761
 20
-22.5876
 10
105.184
 20
-22.6468
 10
105.3992
 20
-22.7026
 10
105.4535
 20
-22.6781
 10
105.5105
 20
-22.6592
 10
105.5707
 20
-22.6472
 10
105.6142
 20
-22.5839
 10
105.6652
 20
-22.5175
 10
105.7213
 20
-22.4482
 10
105.7186
 20
-22.4277
 10
105.7208
 20
-22.3983
 10
105.7251
 20
-22.3594
 10
105.698
 20
-22.2993
 10
105.6678
 20
-22.2321
 10
105.6351
 20
-22.1595
  0
LWPOLYLINE
  5
32
330
1F
100
AcDbEntity
  8
0
100
AcDbPolyline
 90
      514
 70
   128
 43
0.0
 10
107.8639
 20
-22.759
 10
107.6693
 20
-22.4319
 10
107.4747
 20
-22.1051
 10
107.2798
 20
-21.7783
 10
106.96
 20
-21.2897
 10
106.6309
 20
-20.7992
 10
106.2924
 20
-20.3038
 10
105.7974
 20
-19.6265
 10
105.2921
 20
-18.9448
 10
104.7789
 20
-18.2606
 10
104.7334
 20
-18.2089
 10
104.6791
 20
-18.153
 10
104.615
 20
-18.095
 10
104.5013
 20
-17.9434
 10
104.3839
 20
-17.785
 10
104.2644
 20
-17.6205
 10
103.857
 20
-17.166
 10
103.4464
 20
-16.7042
 10
103.0333
 20
-16.2365
 10
102.6537
 20
-15.8415
 10
102.2716
 20
-15.4412
 10
101.8859
 20
-15.0333
 10
101.5576
 20
-14.7021
 10
101.224
 20
-14.3735
 10
100.8831
 20
-14.0486
 10
100.7704
 20
-13.9469
 10
100.6523
 20
-13.8483
 10
100.527
 20
-13.7523
 10
100.363
 20
-13.5868
 10
100.1908
 20
-13.4181
 10
100.0082
 20
-13.2462
 10
99.9386
 20
-13.1905
 10
99.8609
 20
-13.1321
 10
99.773
 20
-13.069
 10
99.6927
 20
-12.9902
 10
99.6088
 20
-12.9039
 10
99.523
 20
-12.812
 10
99.4269
 20
-12.7466
 10
99.3282
 20
-12.6759
 10
99.2263
 20
-12.5979
 10
99.2155
 20
-12.5745
 10
99.1959
 20
-12.546
 10
99.1669
 20
-12.5158
 10
99.0708
 20
-12.4503
 10
98.9749
 20
-12.385
 10
98.8788
 20
-12.3197
 10
98.868
 20
-12.2962
 10
98.8481
 20
-12.268
 10
98.8188
 20
-12.2377
 10
98.7229
 20
-12.172
 10
98.6268
 20
-12.1069
 10
98.5308
 20
-12.0414
 10
98.52
 20
-12.0178
 10
98.5008
 20
-11.9895
 10
98.4713
 20
-11.9594
 10
97.8702
 20
-11.5127
 10
97.2615
 20
-11.0632
 10
96.6421
 20
-10.6101
 10
96.6132
 20
-10.595
 10
96.5756
 20
-10.575
 10
96.5279
 20
-10.5531
 10
96.5169
 20
-10.5295
 10
96.4979
 20
-10.5012
 10
96.4683
 20
-10.4709
 10
96.154
 20
-10.2651
 10
95.8372
 20
-10.0537
 10
95.5168
 20
-9.8354
 10
95.5115
 20
-9.8379
 10
95.4961
 20
-9.8382
 10
95.4726
 20
-9.8341
 10
95.3891
 20
-9.7629
 10
95.2983
 20
-9.6948
 10
95.2023
 20
-9.6297
 10
94.8146
 20
-9.4071
 10
94.4235
 20
-9.1776
 10
94.03
 20
-8.9422
 10
94.0213
 20
-8.924
 10
94.0056
 20
-8.903
 10
93.9786
 20
-8.8784
 10
93.3213
 20
-8.5235
 10
92.6641
 20
-8.1688
 10
92.0067
 20
-7.8144
 10
91.3495
 20
-7.4596
 10
91.2176
 20
-7.4108
 10
91.0828
 20
-7.3569
 10
90.9452
 20
-7.2954
 10
90.8834
 20
-7.2579
 10
90.8224
 20
-7.2205
 10
90.7611
 20
-7.1829
 10
90.2343
 20
-6.9587
 10
89.6972
 20
-6.7308
 10
89.152
 20
-6.4997
 10
89.1437
 20
-6.482
 10
89.1296
 20
-6.4659
 10
89.1089
 20
-6.4539
 10
88.9742
 20
-6.3996
 10
88.8308
 20
-6.341
 10
88.6777
 20
-6.2798
 10
88.6594
 20
-6.2884
 10
88.6392
 20
-6.2912
 10
88.4743
 20
-6.2201
 10
88.3263
 20
-6.1506
 10
88.1671
 20
-6.0769
 10
88.0673
 20
-6.0504
 10
87.9586
 20
-6.0194
 10
87.8401
 20
-5.9867
 10
87.8318
 20
-5.9687
 10
87.8183
 20
-5.9526
 10
87.797
 20
-5.9403
 10
87.7654
 20
-5.933
 10
87.7261
 20
-5.9295
 10
87.6817
 20
-5.928
 10
87.6733
 20
-5.9102
 10
87.6599
 20
-5.8944
 10
87.6384
 20
-5.882
 10
87.2892
 20
-5.7581
 10
86.9333
 20
-5.6372
 10
86.572
 20
-5.5189
 10
86.2158
 20
-5.4134
 10
85.8514
 20
-5.3033
 10
85.477
 20
-5.1907
 10
85.4687
 20
-5.1726
 10
85.4546
 20
-5.1568
 10
85.434
 20
-5.1449
 10
85.1076
 20
-5.0695
 10
84.7703
 20
-4.9902
 10
84.4255
 20
-4.9085
 10
84.1098
 20
-4.8568
 10
83.7845
 20
-4.8026
 10
83.4502
 20
-4.7443
 10
82.9385
 20
-4.695
 10
82.4171
 20
-4.6439
 10
81.8872
 20
-4.5887
 10
81.78
 20
-4.594
 10
81.6726
 20
-4.5993
 10
81.5656
 20
-4.6051
 10
81.3798
 20
-4.5966
 10
81.1829
 20
-4.5844
 10
80.9786
 20
-4.5687
 10
80.2373
 20
-4.626
 10
79.4934
 20
-4.6776
 10
78.7466
 20
-4.7219
 10
78.3872
 20
-4.7999
 10
78.0261
 20
-4.872
 10
77.6612
 20
-4.9374
 10
77.4668
 20
-5.0055
 10
77.2623
 20
-5.0712
 10
77.049
 20
-5.1322
 10
76.949
 20
-5.2006
 10
76.8488
 20
-5.2683
 10
76.7488
 20
-5.3366
 10
76.6456
 20
-5.4938
 10
76.543
 20
-5.651
 10
76.4398
 20
-5.8079
 10
76.416
 20
-5.9945
 10
76.3924
 20
-6.1809
 10
76.3692
 20
-6.3676
 10
76.3868
 20
-6.4538
 10
76.408
 20
-6.5469
 10
76.4317
 20
-6.6455
 10
76.4984
 20
-6.7903
 10
76.5731
 20
-6.9379
 10
76.6583
 20
-7.0889
 10
76.7363
 20
-7.1629
 10
76.8221
 20
-7.2395
 10
76.9182
 20
-7.3204
 10
76.9725
 20
-7.3896
 10
77.0298
 20
-7.4664
 10
77.0898
 20
-7.5483
 10
77.1033
 20
-7.5638
 10
77.1246
 20
-7.5762
 10
77.1505
 20
-7.5861
 10
77.2363
 20
-7.7721
 10
77.3206
 20
-7.9682
 10
77.3997
 20
-8.1727
 10
77.4206
 20
-8.3605
 10
77.4439
 20
-8.5539
 10
77.4706
 20
-8.7544
 10
77.5567
 20
-8.9406
 10
77.6511
 20
-9.1314
 10
77.7559
 20
-9.3249
 10
77.8685
 20
-9.4261
 10
77.9869
 20
-9.5251
 10
78.1118
 20
-9.6207
 10
78.2432
 20
-9.6543
 10
78.3858
 20
-9.6917
 10
78.5359
 20
-9.7319
 10
78.693
 20
-9.7254
 10
78.8576
 20
-9.7153
 10
79.0269
 20
-9.7027
 10
79.536
 20
-9.4747
 10
80.0483
 20
-9.2536
 10
80.5626
 20
-9.0383
 10
80.8506
 20
-8.9487
 10
81.1439
 20
-8.8576
 10
81.4446
 20
-8.7628
 10
81.8241
 20
-8.6821
 10
82.207
 20
-8.608
 10
82.5921
 20
-8.5402
 10
83.1008
 20
-8.4876
 10
83.3695
 20
-8.4663
 10
83.5843
 20
-8.4552
 10
83.8008
 20
-8.4496
 10
84.0211
 20
-8.4513
 10
84.545
 20
-8.4944
 10
85.0776
 20
-8.5404
 10
85.6202
 20
-8.5904
 10
85.894
 20
-8.6611
 10
86.1737
 20
-8.7295
 10
86.46
 20
-8.7946
 10
86.5131
 20
-8.8139
 10
86.5685
 20
-8.8389
 10
86.6273
 20
-8.8713
 10
86.8483
 20
-8.9225
 10
87.0718
 20
-8.9796
 10
87.2992
 20
-9.0436
 10
87.8371
 20
-9.2122
 10
88.3781
 20
-9.3858
 10
88.9225
 20
-9.5669
 10
88.9835
 20
-9.6041
 10
89.0502
 20
-9.6395
 10
89.124
 20
-9.671
 10
89.6078
 20
-9.8492
 10
90.1019
 20
-10.0318
 10
90.6042
 20
-10.2164
 10
90.9982
 20
-10.3919
 10
91.4041
 20
-10.5713
 10
91.8167
 20
-10.7534
 10
91.8224
 20
-10.751
 10
91.8351
 20
-10.7451
 10
91.8529
 20
-10.7368
 10
91.861
 20
-10.7546
 10
91.8753
 20
-10.7704
 10
91.8962
 20
-10.7823
 10
91.9753
 20
-10.8119
 10
92.0546
 20
-10.8407
 10
92.1338
 20
-10.8705
 10
92.1422
 20
-10.8884
 10
92.1561
 20
-10.9038
 10
92.1767
 20
-10.9163
 10
92.3381
 20
-10.9801
 10
92.5082
 20
-11.0485
 10
92.6878
 20
-11.1194
 10
93.3593
 20
-11.4675
 10
94.0407
 20
-11.8173
 10
94.7308
 20
-12.1721
 10
94.9838
 20
-12.3251
 10
95.2468
 20
-12.4826
 10
95.5182
 20
-12.6425
 10
95.5388
 20
-12.6392
 10
95.5626
 20
-12.6438
 10
95.5893
 20
-12.6533
 10
96.1273
 20
-12.9972
 10
96.675
 20
-13.3431
 10
97.2317
 20
-13.6937
 10
97.4262
 20
-13.8299
 10
97.6239
 20
-13.9733
 10
97.8242
 20
-14.1223
 10
97.866
 20
-14.2131
 10
97.9048
 20
-14.311
 10
97.9398
 20
-14.4199
 10
97.9287
 20
-14.4911
 10
97.9147
 20
-14.5697
 10
97.8967
 20
-14.659
 10
97.8816
 20
-14.6883
 10
97.8616
 20
-14.726
 10
97.8399
 20
-14.7732
 10
97.8059
 20
-14.7955
 10
97.7702
 20
-14.8272
 10
97.73
 20
-14.8677
 10
97.6365
 20
-14.9039
 10
97.5351
 20
-14.9358
 10
97.4237
 20
-14.9654
 10
97.3499
 20
-14.9488
 10
97.2734
 20
-14.9248
 10
97.1939
 20
-14.8955
 10
97.1333
 20
-14.8583
 10
97.0723
 20
-14.8203
 10
97.0105
 20
-14.7835
 10
96.8689
 20
-14.7606
 10
96.7246
 20
-14.7332
 10
96.5767
 20
-14.6983
 10
96.5265
 20
-14.6991
 10
96.467
 20
-14.6984
 10
96.3984
 20
-14.6926
 10
96.2817
 20
-14.7248
 10
96.1653
 20
-14.7567
 10
96.0481
 20
-14.788
 10
95.9242
 20
-14.8524
 10
95.7977
 20
-14.9263
 10
95.6672
 20
-15.0084
 10
95.6058
 20
-15.0801
 10
95.5402
 20
-15.161
 10
95.4723
 20
-15.2519
 10
95.4122
 20
-15.3736
 10
95.3485
 20
-15.5064
 10
95.2816
 20
-15.6468
 10
95.2677
 20
-15.8068
 10
95.2218
 20
-16.135
 10
95.1882
 20
-16.2665
 10
95.1512
 20
-16.4089
 10
95.1105
 20
-16.559
 10
95.0621
 20
-16.6913
 10
95.0078
 20
-16.8259
 10
94.9463
 20
-16.9642
 10
94.881
 20
-17.0597
 10
94.8179
 20
-17.1612
 10
94.7587
 20
-17.2703
 10
94.6182
 20
-17.4074
 10
94.4736
 20
-17.5551
 10
94.3261
 20
-17.7111
 10
94.3231
 20
-17.7189
 10
94.3163
 20
-17.7372
 10
94.3063
 20
-17.7639
 10
94.0786
 20
-17.935
 10
93.8476
 20
-18.114
 10
93.6124
 20
-18.3038
 10
93.593
 20
-18.3563
 10
93.5709
 20
-18.4171
 10
93.5444
 20
-18.4881
 10
93.5456
 20
-18.5537
 10
93.5402
 20
-18.6218
 10
93.529
 20
-18.6931
 10
93.5622
 20
-18.7652
 10
93.5928
 20
-18.8457
 10
93.6195
 20
-18.9362
 10
93.6625
 20
-18.9824
 10
93.7054
 20
-19.0282
 10
93.7488
 20
-19.0741
 10
93.8042
 20
-19.099
 10
93.8683
 20
-19.129
 10
93.9422
 20
-19.16
 10
94.0366
 20
-19.1603
 10
94.1405
 20
-19.1628
 10
94.2538
 20
-19.1701
 10
94.4451
 20
-19.11
 10
94.6459
 20
-19.0547
 10
94.856
 20
-19.0016
 10
94.9826
 20
-18.9433
 10
95.1144
 20
-18.8824
 10
95.2537
 20
-18.818
 10
95.2981
 20
-18.8196
 10
95.3455
 20
-18.8262
 10
95.3955
 20
-18.8403
 10
95.4246
 20
-18.8554
 10
95.4568
 20
-18.878
 10
95.4917
 20
-18.9057
 10
95.5084
 20
-18.9419
 10
95.5251
 20
-18.9782
 10
95.5418
 20
-19.0143
 10
95.5401
 20
-19.0586
 10
95.5389
 20
-19.1034
 10
95.5376
 20
-19.1478
 10
95.5099
 20
-19.1826
 10
95.4842
 20
-19.223
 10
95.4624
 20
-19.2701
 10
95.3065
 20
-19.4076
 10
95.151
 20
-19.5453
 10
94.9952
 20
-19.6831
 10
94.7597
 20
-19.7916
 10
94.5218
 20
-19.908
 10
94.28
 20
-20.0353
 10
94.1758
 20
-20.061
 10
94.0618
 20
-20.0854
 10
93.9391
 20
-20.1045
 10
93.8102
 20
-20.1574
 10
93.6722
 20
-20.206
 10
93.525
 20
-20.2522
 10
93.4705
 20
-20.2773
 10
93.4136
 20
-20.3103
 10
93.3521
 20
-20.3536
 10
93.2788
 20
-20.4319
 10
93.2073
 20
-20.5148
 10
93.1394
 20
-20.6053
 10
93.1035
 20
-20.7315
 10
93.06
 20
-20.8614
 10
93.0116
 20
-20.9932
 10
93.0117
 20
-21.1031
 10
93.0071
 20
-21.2216
 10
93.0004
 20
-21.3499
 10
93.0754
 20
-21.5125
 10
93.1452
 20
-21.6776
 10
93.2078
 20
-21.846
 10
93.302
 20
-21.941
 10
93.4064
 20
-22.0397
 10
93.519
 20
-22.1409
 10
93.5857
 20
-22.1762
 10
93.6595
 20
-22.2077
 10
93.7389
 20
-22.2371
 10
93.8544
 20
-22.2499
 10
93.9777
 20
-22.2652
 10
94.1119
 20
-22.2843
 10
94.2157
 20
-22.258
 10
94.3296
 20
-22.2341
 10
94.4524
 20
-22.2146
 10
94.6073
 20
-22.1217
 10
94.761
 20
-22.0283
 10
95.0423
 20
-21.8768
 10
95.1771
 20
-21.8212
 10
95.3218
 20
-21.7696
 10
95.4521
 20
-21.7533
 10
95.5928
 20
-21.7388
 10
95.7419
 20
-21.7294
 10
95.8657
 20
-21.7601
 10
95.9947
 20
-21.7881
 10
96.1314
 20
-21.8129
 10
96.181
 20
-21.8149
 10
96.476
 20
-21.9144
 10
97.1818
 20
-19.6376
 10
97.1817
 20
-19.6374
 10
97.1748
 20
-19.663
 10
97.1608
 20
-19.7131
 10
97.1454
 20
-19.762
 10
97.1216
 20
-19.8338
 10
97.0818
 20
-19.982
 10
97.0016
 20
-20.2339
 10
96.8494
 20
-20.7118
 10
96.7739
 20
-20.9592
 10
96.6619
 20
-21.3112
 10
96.5758
 20
-21.5988
 10
96.5385
 20
-21.7212
 10
96.476
 20
-21.9144
 10
96.5447
 20
-21.9378
 10
96.7644
 20
-21.9812
 10
96.7932
 20
-22.0118
 10
96.8989
 20
-22.0505
 10
97.0129
 20
-22.0924
 10
97.1371
 20
-22.1385
 10
97.382
 20
-22.2887
 10
97.6346
 20
-22.4417
 10
97.8981
 20
-22.5987
 10
98.2192
 20
-22.8671
 10
98.543
 20
-23.1409
 10
98.8702
 20
-23.4222
 10
98.9924
 20
-23.4972
 10
99.1202
 20
-23.5698
 10
99.2554
 20
-23.6391
 10
99.3348
 20
-23.6685
 10
99.4218
 20
-23.7006
 10
99.5198
 20
-23.7364
 10
99.5513
 20
-23.7439
 10
99.5903
 20
-23.7477
 10
99.6353
 20
-23.7491
 10
99.638
 20
-23.7545
 10
99.6437
 20
-23.7671
 10
99.6519
 20
-23.7852
 10
99.8726
 20
-23.8215
 10
100.104
 20
-23.8618
 10
100.3429
 20
-23.9049
 10
100.3665
 20
-23.8938
 10
100.4
 20
-23.8855
 10
100.4422
 20
-23.8813
 10
100.5312
 20
-23.8841
 10
100.6229
 20
-23.8923
 10
100.7173
 20
-23.9077
 10
100.8662
 20
-23.8831
 10
101.0244
 20
-23.8603
 10
101.1915
 20
-23.8423
 10
101.5619
 20
-23.6932
 10
101.9344
 20
-23.5502
 10
102.3101
 20
-23.4137
 10
102.5333
 20
-23.3612
 10
102.7676
 20
-23.3123
 10
103.0095
 20
-23.2667
 10
103.2404
 20
-23.2918
 10
103.474
 20
-23.3219
 10
103.7108
 20
-23.3595
 10
103.7192
 20
-23.3778
 10
103.7327
 20
-23.3932
 10
103.7538
 20
-23.4055
 10
103.8857
 20
-23.4542
 10
104.0206
 20
-23.5086
 10
104.1585
 20
-23.5698
 10
104.6133
 20
-23.9367
 10
104.8538
 20
-24.1261
 10
104.923
 20
-24.1666
 10
105.0028
 20
-24.2107
 10
105.0904
 20
-24.2586
 10
105.1879
 20
-24.2794
 10
105.2852
 20
-24.3
 10
105.3825
 20
-24.3212
 10
105.4683
 20
-24.3032
 10
105.562
 20
-24.282
 10
105.6608
 20
-24.2582
 10
105.7848
 20
-24.1943
 10
105.911
 20
-24.121
 10
106.0418
 20
-24.0384
 10
106.1199
 20
-23.9081
 10
106.2019
 20
-23.7673
 10
106.2868
 20
-23.6184
 10
106.4107
 20
-23.5547
 10
106.537
 20
-23.4811
 10
106.6676
 20
-23.3987
 10
106.7569
 20
-23.4013
 10
106.8515
 20
-23.4019
 10
106.9533
 20
-23.3987
 10
107.0852
 20
-23.4472
 10
107.2169
 20
-23.4961
 10
107.3495
 20
-23.5449
 10
107.3939
 20
-23.5463
 10
107.4467
 20
-23.5506
 10
107.5094
 20
-23.5588
 10
107.5998
 20
-23.5171
 10
107.6983
 20
-23.4782
 10
107.8072
 20
-23.4434
 10
107.85
 20
-23.3795
 10
107.8979
 20
-23.307
 10
107.9473
 20
-23.2247
 10
107.9505
 20
-23.136
 10
107.953
 20
-23.0467
 10
107.9557
 20
-22.9578
 10
107.9281
 20
-22.8982
 10
107.8972
 20
-22.8313
 10
107.8639
 20
-22.759
  0
LWPOLYLINE
  5
33
330
1F
100
AcDbEntity
  8
0
100
AcDbPolyline
 90
      609
 70
   128
 43
0.0
 10
84.329
 20
-69.7995
 10
84.2152
 20
-69.455
 10
84.0961
 20
-69.1028
 10
83.9704
 20
-68.505
 10
83.8371
 20
-67.9016
 10
83.6974
 20
-67.2901
 10
83.6974
 20
-67.2104
 10
83.6914
 20
-67.1309
 10
83.6777
 20
-67.0513
 10
83.6717
 20
-67.0255
 10
83.6576
 20
-66.9915
 10
83.6374
 20
-66.9518
 10
83.5981
 20
-66.5535
 10
83.5521
 20
-66.155
 10
83.498
 20
-65.7569
 10
83.4981
 20
-65.3982
 10
83.492
 20
-65.0398
 10
83.4782
 20
-64.6812
 10
83.484
 20
-64.2829
 10
83.498
 20
-63.8785
 10
83.5182
 20
-63.4664
 10
83.5576
 20
-63.0422
 10
83.6037
 20
-62.61
 10
83.6571
 20
-62.1719
 10
83.777
 20
-61.5883
 10
83.8962
 20
-60.9969
 10
84.0155
 20
-60.3996
 10
84.0216
 20
-60.3795
 10
84.0356
 20
-60.3595
 10
84.0556
 20
-60.3397
 10
84.0614
 20
-60.2801
 10
84.0754
 20
-60.214
 10
84.0954
 20
-60.1405
 10
84.0953
 20
-59.9614
 10
84.0891
 20
-59.7822
 10
84.0751
 20
-59.6031
 10
84.0357
 20
-59.5234
 10
83.9893
 20
-59.4376
 10
83.936
 20
-59.3439
 10
83.896
 20
-59.2843
 10
83.8501
 20
-59.2245
 10
83.7963
 20
-59.165
 10
83.7304
 20
-59.1186
 10
83.6569
 20
-59.0653
 10
83.5772
 20
-59.0058
 10
83.4774
 20
-58.9655
 10
83.3781
 20
-58.9256
 10
83.2784
 20
-58.8859
 10
83.0995
 20
-58.8661
 10
82.9201
 20
-58.8401
 10
82.7408
 20
-58.8062
 10
82.701
 20
-58.7866
 10
82.6615
 20
-58.7662
 10
82.6213
 20
-58.7467
 10
82.5955
 20
-58.6806
 10
82.5619
 20
-58.6071
 10
82.5218
 20
-58.5276
 10
82.6071
 20
-58.3085
 10
82.701
 20
-58.0835
 10
82.8005
 20
-57.8503
 10
82.8005
 20
-57.7051
 10
82.8005
 20
-57.5515
 10
82.8005
 20
-57.3922
 10
82.7605
 20
-57.2671
 10
82.7149
 20
-57.1334
 10
82.6613
 20
-56.9941
 10
82.6013
 20
-56.9083
 10
82.5356
 20
-56.8149
 10
82.4621
 20
-56.7153
 10
82.4421
 20
-56.7152
 10
82.4219
 20
-56.7092
 10
82.402
 20
-56.6952
 10
82.3823
 20
-56.6695
 10
82.3625
 20
-56.6356
 10
82.3423
 20
-56.5958
 10
82.2226
 20
-56.5358
 10
82.1037
 20
-56.4703
 10
81.9839
 20
-56.3967
 10
81.7448
 20
-56.3169
 10
81.5002
 20
-56.2311
 10
81.247
 20
-56.1377
 10
80.8488
 20
-55.9587
 10
80.4444
 20
-55.7794
 10
80.0322
 20
-55.6001
 10
79.7332
 20
-55.4352
 10
79.4348
 20
-55.2616
 10
79.1359
 20
-55.0827
 10
79.0302
 20
-54.997
 10
78.9164
 20
-54.9034
 10
78.7971
 20
-54.8036
 10
78.7177
 20
-54.7638
 10
78.632
 20
-54.724
 10
78.5384
 20
-54.6839
 10
78.1996
 20
-54.4253
 10
77.8612
 20
-54.1603
 10
77.5227
 20
-53.8878
 10
77.3236
 20
-53.7088
 10
77.1243
 20
-53.5231
 10
76.9246
 20
-53.3301
 10
76.7001
 20
-53.0916
 10
76.228
 20
-52.6136
 10
76.0486
 20
-52.3942
 10
75.8695
 20
-52.1689
 10
75.6902
 20
-51.9363
 10
75.6702
 20
-51.9302
 10
75.6506
 20
-51.9162
 10
75.6307
 20
-51.8962
 10
75.6306
 20
-51.8764
 10
75.6245
 20
-51.8563
 10
75.6104
 20
-51.8367
 10
75.2918
 20
-51.4782
 10
74.9673
 20
-51.1137
 10
74.6343
 20
-50.7413
 10
74.6149
 20
-50.7413
 10
74.5948
 20
-50.735
 10
74.5747
 20
-50.7212
 10
74.1905
 20
-50.3032
 10
73.798
 20
-49.8791
 10
73.3997
 20
-49.4468
 10
73.0412
 20
-49.1084
 10
72.683
 20
-48.7639
 10
72.3239
 20
-48.4115
 10
72.1648
 20
-48.2719
 10
72.0053
 20
-48.1324
 10
71.8463
 20
-47.9932
 10
71.8464
 20
-47.9732
 10
71.8403
 20
-47.9537
 10
71.8263
 20
-47.9333
 10
71.7803
 20
-47.8939
 10
71.7267
 20
-47.8538
 10
71.6669
 20
-47.8138
 10
71.6609
 20
-47.7939
 10
71.6471
 20
-47.7681
 10
71.6273
 20
-47.7342
 10
71.6068
 20
-47.7343
 10
71.5812
 20
-47.7285
 10
71.5475
 20
-47.7142
 10
70.994
 20
-47.2024
 10
70.4419
 20
-46.6869
 10
69.8887
 20
-46.1652
 10
69.3368
 20
-45.6434
 10
69.2771
 20
-45.6038
 10
69.2171
 20
-45.5637
 10
69.2239
 20
-45.5622
 10
69.1177
 20
-45.464
 10
69.0717
 20
-45.4045
 10
69.0181
 20
-45.3445
 10
68.4342
 20
-44.8029
 10
67.8508
 20
-44.2574
 10
67.2613
 20
-43.7058
 10
66.6679
 20
-43.1545
 10
66.6218
 20
-43.1145
 10
66.5682
 20
-43.0743
 10
66.5084
 20
-43.035
 10
66.4625
 20
-42.9753
 10
66.4086
 20
-42.9153
 10
66.3491
 20
-42.8553
 10
66.2896
 20
-42.8159
 10
66.2297
 20
-42.7757
 10
66.1703
 20
-42.7363
 10
66.1436
 20
-42.7362
 10
66.1103
 20
-42.7299
 10
66.0702
 20
-42.7161
 10
66.0443
 20
-42.7364
 10
66.0104
 20
-42.7561
 10
65.9708
 20
-42.7758
 10
65.871
 20
-42.8758
 10
65.7719
 20
-42.9811
 10
65.6719
 20
-43.0948
 10
65.6719
 20
-43.1145
 10
65.6123
 20
-43.1772
 10
65.4938
 20
-43.3246
 10
65.3333
 20
-43.4791
 10
65.0149
 20
-43.8118
 10
64.6963
 20
-44.15
 10
64.577
 20
-44.3517
 10
64.4547
 20
-44.4844
 10
66.6452
 20
-46.5372
 10
66.5829
 20
-46.4804
 10
66.5288
 20
-46.433
 10
66.461
 20
-46.3652
 10
66.3486
 20
-46.2623
 10
66.2336
 20
-46.1472
 10
66.0332
 20
-45.9766
 10
65.7502
 20
-45.7018
 10
65.6677
 20
-45.6246
 10
65.5012
 20
-45.4675
 10
65.2954
 20
-45.2726
 10
65.1398
 20
-45.1371
 10
65.0558
 20
-45.0505
 10
64.9908
 20
-44.9881
 10
64.9069
 20
-44.9083
 10
64.7661
 20
-44.7823
 10
64.6023
 20
-44.624
 10
64.4547
 20
-44.4844
 10
64.3212
 20
-44.6258
 10
64.1984
 20
-44.7077
 10
63.86
 20
-45.0527
 10
63.5213
 20
-45.405
 10
63.3792
 20
-45.5518
 10
63.1829
 20
-45.7835
 10
63.1767
 20
-45.8032
 10
63.163
 20
-45.8234
 10
63.165
 20
-45.8094
 10
63.1389
 20
-45.8293
 10
63.11
 20
-45.8948
 10
63.0832
 20
-45.903
 10
63.0776
 20
-45.9226
 10
62.9466
 20
-46.0646
 10
62.8443
 20
-46.1675
 10
62.6191
 20
-46.401
 10
62.3864
 20
-46.64
 10
62.3009
 20
-46.7593
 10
62.2071
 20
-46.8783
 10
62.1077
 20
-46.9982
 10
62.1932
 20
-47.1178
 10
62.2867
 20
-47.2375
 10
62.3864
 20
-47.3567
 10
62.446
 20
-47.4166
 10
62.5115
 20
-47.4763
 10
62.5851
 20
-47.5361
 10
62.7307
 20
-47.5958
 10
62.8845
 20
-47.6611
 10
63.0437
 20
-47.7349
 10
63.1432
 20
-47.741
 10
63.2488
 20
-47.7551
 10
63.3621
 20
-47.7749
 10
63.4681
 20
-47.7553
 10
63.5811
 20
-47.7349
 10
63.7007
 20
-47.7151
 10
63.8603
 20
-47.7214
 10
64.0254
 20
-47.7349
 10
64.1986
 20
-47.7551
 10
64.2842
 20
-47.7946
 10
64.378
 20
-47.8406
 10
64.4772
 20
-47.8944
 10
64.9017
 20
-48.2788
 10
65.3338
 20
-48.6712
 10
65.7725
 20
-49.0692
 10
65.8118
 20
-49.109
 10
65.8518
 20
-49.1547
 10
65.8916
 20
-49.2088
 10
65.9375
 20
-49.2486
 10
65.991
 20
-49.2881
 10
66.051
 20
-49.3282
 10
66.0709
 20
-49.3539
 10
66.0906
 20
-49.3876
 10
66.1108
 20
-49.4279
 10
66.5546
 20
-49.8261
 10
67.0069
 20
-50.224
 10
67.465
 20
-50.6224
 10
67.7899
 20
-50.8871
 10
68.1222
 20
-51.1601
 10
68.461
 20
-51.4388
 10
68.4609
 20
-51.4587
 10
68.4668
 20
-51.4787
 10
68.4806
 20
-51.4987
 10
68.5068
 20
-51.4987
 10
68.5405
 20
-51.5046
 10
68.5802
 20
-51.5186
 10
68.8394
 20
-51.7237
 10
69.104
 20
-51.9368
 10
69.377
 20
-52.1558
 10
69.4169
 20
-52.1756
 10
69.4625
 20
-52.1958
 10
69.5162
 20
-52.2152
 10
70.0399
 20
-52.574
 10
70.5723
 20
-52.9385
 10
71.1099
 20
-53.3105
 10
71.488
 20
-53.5294
 10
71.8668
 20
-53.7486
 10
72.2449
 20
-53.9675
 10
72.2708
 20
-53.9938
 10
72.3048
 20
-54.0277
 10
72.3445
 20
-54.0676
 10
72.3903
 20
-54.0874
 10
72.4443
 20
-54.1072
 10
72.5041
 20
-54.1272
 10
72.8224
 20
-54.3063
 10
73.1414
 20
-54.4857
 10
73.46
 20
-54.6646
 10
73.7189
 20
-54.7842
 10
74.2366
 20
-55.0232
 10
74.4755
 20
-55.1486
 10
74.7147
 20
-55.2823
 10
74.9537
 20
-55.4215
 10
75.2524
 20
-55.6267
 10
75.5508
 20
-55.8399
 10
75.85
 20
-56.0587
 10
76.0692
 20
-56.2381
 10
76.2939
 20
-56.423
 10
76.527
 20
-56.6161
 10
76.5671
 20
-56.6622
 10
76.6065
 20
-56.7158
 10
76.6465
 20
-56.7756
 10
76.7263
 20
-56.841
 10
76.8119
 20
-56.9152
 10
76.9057
 20
-56.9945
 10
76.9056
 20
-57.0146
 10
76.9112
 20
-57.0346
 10
76.9251
 20
-57.0544
 10
77.0309
 20
-57.174
 10
77.1444
 20
-57.2933
 10
77.2638
 20
-57.4125
 10
77.4432
 20
-57.6378
 10
77.6225
 20
-57.8709
 10
77.802
 20
-58.1098
 10
77.8814
 20
-58.249
 10
77.9672
 20
-58.3886
 10
78.0606
 20
-58.528
 10
78.1802
 20
-58.6476
 10
78.2995
 20
-58.7666
 10
78.4195
 20
-58.8864
 10
78.4982
 20
-58.943
 10
78.5693
 20
-58.9712
 10
78.6671
 20
-59.0262
 10
78.7543
 20
-59.0664
 10
78.8723
 20
-59.0946
 10
78.9434
 20
-59.1294
 10
79.0761
 20
-59.1603
 10
79.1954
 20
-59.1643
 10
79.2758
 20
-59.1778
 10
79.4087
 20
-59.1698
 10
79.4568
 20
-59.1711
 10
79.4823
 20
-59.1617
 10
79.5292
 20
-59.1484
 10
79.5654
 20
-59.1403
 10
79.5936
 20
-59.143
 10
79.615
 20
-59.1456
 10
79.6377
 20
-59.151
 10
79.6511
 20
-59.1577
 10
79.6809
 20
-59.1675
 10
79.6939
 20
-59.2153
 10
79.674
 20
-59.2704
 10
79.6445
 20
-59.3119
 10
79.588
 20
-59.4237
 10
79.5453
 20
-59.5023
 10
79.5132
 20
-59.572
 10
79.489
 20
-59.631
 10
79.4352
 20
-59.7027
 10
79.3696
 20
-59.7884
 10
79.2956
 20
-59.8823
 10
79.216
 20
-59.9816
 10
79.1767
 20
-60.0382
 10
79.143
 20
-60.1119
 10
79.1163
 20
-60.2008
 10
79.1163
 20
-60.2666
 10
79.1102
 20
-60.3401
 10
79.0965
 20
-60.4196
 10
79.1025
 20
-60.5649
 10
79.1163
 20
-60.7187
 10
79.1364
 20
-60.8781
 10
79.3555
 20
-61.2962
 10
79.5803
 20
-61.7201
 10
79.8135
 20
-62.1526
 10
79.8138
 20
-62.1922
 10
79.8197
 20
-62.2323
 10
79.8334
 20
-62.272
 10
79.9133
 20
-62.4173
 10
79.9929
 20
-62.5707
 10
80.0724
 20
-62.7301
 10
80.2519
 20
-63.2074
 10
80.4311
 20
-63.6857
 10
80.6105
 20
-64.1639
 10
80.6903
 20
-64.4624
 10
80.7756
 20
-64.7672
 10
80.8692
 20
-65.0799
 10
80.9492
 20
-65.4982
 10
81.0349
 20
-65.9222
 10
81.1283
 20
-66.3544
 10
81.1881
 20
-66.7327
 10
81.248
 20
-67.1174
 10
81.3078
 20
-67.5093
 10
81.3278
 20
-67.9277
 10
81.3474
 20
-68.352
 10
81.3675
 20
-68.7844
 10
81.3675
 20
-68.9834
 10
81.3616
 20
-69.1884
 10
81.3474
 20
-69.4016
 10
81.3476
 20
-69.72
 10
81.3535
 20
-70.039
 10
81.4076
 20
-70.7757
 10
81.4535
 20
-71.2
 10
81.5072
 20
-71.6319
 10
81.5729
 20
-72.0362
 10
81.647
 20
-72.4486
 10
81.7267
 20
-72.8668
 10
81.7664
 20
-73.0122
 10
81.812
 20
-73.1655
 10
81.8658
 20
-73.3244
 10
81.9456
 20
-73.4504
 10
82.0312
 20
-73.5836
 10
82.1246
 20
-73.7229
 10
82.1709
 20
-73.7629
 10
82.2241
 20
-73.8087
 10
82.2837
 20
-73.8626
 10
82.3641
 20
-73.902
 10
82.4435
 20
-73.9483
 10
82.5232
 20
-74.0018
 10
82.7025
 20
-74.0216
 10
82.8816
 20
-74.0414
 10
83.0607
 20
-74.0617
 10
83.1405
 20
-74.0616
 10
83.2263
 20
-74.0557
 10
83.3196
 20
-74.0412
 10
83.3655
 20
-74.0617
 10
83.4193
 20
-74.0875
 10
83.479
 20
-74.1216
 10
83.4989
 20
-74.1414
 10
83.5246
 20
-74.1669
 10
83.5585
 20
-74.2009
 10
83.5587
 20
-74.2466
 10
83.565
 20
-74.3003
 10
83.5785
 20
-74.3602
 10
83.5786
 20
-74.4061
 10
83.5726
 20
-74.4598
 10
83.5586
 20
-74.5194
 10
83.5193
 20
-74.5794
 10
83.4732
 20
-74.639
 10
83.4194
 20
-74.6989
 10
83.3196
 20
-74.7049
 10
83.22
 20
-74.7189
 10
83.1205
 20
-74.7385
 10
83.0547
 20
-74.7786
 10
82.9812
 20
-74.8243
 10
82.9016
 20
-74.8782
 10
82.8417
 20
-74.9636
 10
82.7759
 20
-75.0575
 10
82.7025
 20
-75.157
 10
82.6965
 20
-75.2427
 10
82.6827
 20
-75.336
 10
82.6629
 20
-75.4357
 10
82.6827
 20
-75.5154
 10
82.7025
 20
-75.601
 10
82.7224
 20
-75.6947
 10
82.7823
 20
-75.7604
 10
82.848
 20
-75.8341
 10
82.9214
 20
-75.9139
 10
83.0271
 20
-75.9534
 10
83.1406
 20
-75.9936
 10
83.2603
 20
-76.0331
 10
83.3998
 20
-76.0528
 10
83.545
 20
-76.0792
 10
83.6981
 20
-76.1126
 10
83.7843
 20
-76.1526
 10
83.8777
 20
-76.1984
 10
83.9772
 20
-76.2522
 10
84.0769
 20
-76.332
 10
84.1825
 20
-76.4173
 10
84.2959
 20
-76.5107
 10
84.3417
 20
-76.571
 10
84.3954
 20
-76.6363
 10
84.4553
 20
-76.71
 10
84.495
 20
-76.7901
 10
84.5408
 20
-76.8756
 10
84.5945
 20
-76.9688
 10
84.6204
 20
-77.1483
 10
84.6544
 20
-77.3274
 10
84.6942
 20
-77.5069
 10
84.7336
 20
-77.6321
 10
84.7798
 20
-77.7653
 10
84.8336
 20
-77.905
 10
84.9334
 20
-78.0304
 10
85.0328
 20
-78.1642
 10
85.1327
 20
-78.3032
 10
85.2379
 20
-78.3631
 10
85.3515
 20
-78.4286
 10
85.4709
 20
-78.5027
 10
85.5567
 20
-78.5082
 10
85.6503
 20
-78.5225
 10
85.7499
 20
-78.5422
 10
85.9887
 20
-78.5224
 10
86.2338
 20
-78.4965
 10
86.4867
 20
-78.4625
 10
86.586
 20
-78.3766
 10
86.692
 20
-78.2836
 10
86.8051
 20
-78.1837
 10
86.8711
 20
-78.1437
 10
86.9447
 20
-78.0981
 10
87.0243
 20
-78.0442
 10
87.2296
 20
-77.9585
 10
87.3431
 20
-77.9047
 10
87.5877
 20
-77.9048
 10
87.8411
 20
-77.9109
 10
88.0996
 20
-77.9248
 10
88.2191
 20
-77.9644
 10
88.3386
 20
-78.0104
 10
88.458
 20
-78.0643
 10
88.5775
 20
-78.1497
 10
88.7034
 20
-78.2431
 10
88.8367
 20
-78.3427
 10
88.9224
 20
-78.3889
 10
89.0161
 20
-78.4425
 10
89.1157
 20
-78.5024
 10
89.1811
 20
-78.5221
 10
89.2549
 20
-78.5421
 10
89.3347
 20
-78.5618
 10
90.1909
 20
-78.5618
 10
91.0473
 20
-78.5673
 10
91.9035
 20
-78.5816
 10
92.0033
 20
-78.5418
 10
92.109
 20
-78.4961
 10
92.2222
 20
-78.4422
 10
92.2623
 20
-78.3964
 10
92.3081
 20
-78.3424
 10
92.3618
 20
-78.2831
 10
92.3678
 20
-78.203
 10
92.3815
 20
-78.1175
 10
92.4013
 20
-78.0237
 10
92.3815
 20
-77.9445
 10
92.3618
 20
-77.8647
 10
92.3417
 20
-77.7849
 10
92.296
 20
-77.739
 10
92.2422
 20
-77.6854
 10
92.1822
 20
-77.6257
 10
92.1425
 20
-77.6058
 10
92.103
 20
-77.586
 10
92.0628
 20
-77.5661
 10
91.9436
 20
-77.5457
 10
91.8239
 20
-77.526
 10
91.7042
 20
-77.5062
 10
91.5392
 20
-77.5062
 10
91.3658
 20
-77.5122
 10
91.1868
 20
-77.526
 10
90.9874
 20
-77.4864
 10
90.7887
 20
-77.4464
 10
90.5893
 20
-77.4066
 10
90.3702
 20
-77.2811
 10
90.1452
 20
-77.1478
 10
89.912
 20
-77.0086
 10
89.8723
 20
-76.9626
 10
89.8266
 20
-76.9093
 10
89.7727
 20
-76.8494
 10
89.6868
 20
-76.7835
 10
89.5932
 20
-76.7097
 10
89.4935
 20
-76.63
 10
89.3941
 20
-76.604
 10
89.2886
 20
-76.5706
 10
89.1752
 20
-76.5306
 10
89.0694
 20
-76.5306
 10
88.9562
 20
-76.5246
 10
88.8366
 20
-76.5104
 10
88.7966
 20
-76.5169
 10
88.751
 20
-76.5307
 10
88.6973
 20
-76.5502
 10
88.5317
 20
-76.5504
 10
88.3588
 20
-76.5566
 10
88.1793
 20
-76.5705
 10
88.0598
 20
-76.5308
 10
87.9345
 20
-76.4848
 10
87.801
 20
-76.4312
 10
87.7354
 20
-76.3912
 10
87.6613
 20
-76.3515
 10
87.582
 20
-76.3117
 10
87.4822
 20
-76.2122
 10
87.3769
 20
-76.1067
 10
87.2632
 20
-75.9933
 10
87.2234
 20
-75.9333
 10
87.1775
 20
-75.8674
 10
87.1241
 20
-75.7938
 10
87.0839
 20
-75.5949
 10
87.0381
 20
-75.3954
 10
86.9842
 20
-75.1961
 10
86.9245
 20
-75.0371
 10
86.8589
 20
-74.8777
 10
86.785
 20
-74.7185
 10
86.6199
 20
-74.553
 10
86.4464
 20
-74.3801
 10
86.2674
 20
-74.2006
 10
86.188
 20
-74.161
 10
86.1022
 20
-74.1154
 10
86.0083
 20
-74.0614
 10
85.8093
 20
-74.0159
 10
85.61
 20
-73.9616
 10
85.4107
 20
-73.9019
 10
85.3709
 20
-73.876
 10
85.3255
 20
-73.8422
 10
85.2716
 20
-73.8024
 10
85.2714
 20
-73.7167
 10
85.2656
 20
-73.6234
 10
85.2514
 20
-73.5235
 10
85.3511
 20
-73.3643
 10
85.4509
 20
-73.1988
 10
85.55
 20
-73.0259
 10
85.5563
 20
-72.9461
 10
85.5701
 20
-72.8606
 10
85.5902
 20
-72.7668
 10
85.5701
 20
-72.6609
 10
85.5501
 20
-72.5477
 10
85.5304
 20
-72.4282
 10
85.4704
 20
-72.3028
 10
85.4047
 20
-72.1694
 10
85.3312
 20
-72.0302
 10
85.3253
 20
-72.03
 10
85.3109
 20
-72.0239
 10
85.2913
 20
-72.0101
 10
85.2115
 20
-71.8507
 10
85.1259
 20
-71.6855
 10
85.0323
 20
-71.5122
 10
84.8527
 20
-71.1141
 10
84.6737
 20
-70.7094
 10
84.4945
 20
-70.2972
 10
84.4944
 20
-70.2577
 10
84.4883
 20
-70.2174
 10
84.4744
 20
-70.1778
 10
84.4686
 20
-70.1719
 10
84.4546
 20
-70.1581
 10
84.4348
 20
-70.1382
 10
84.329
 20
-69.7995
  0
LWPOLYLINE
  5
34
330
1F
100
AcDbEntity
  8
0
100
AcDbPolyline
 90
      605
 70
   128
 43
0.0
 10
115.3496
 20
-48.9381
 10
115.138
 20
-48.7496
 10
114.933
 20
-48.5604
 10
114.7352
 20
-48.37
 10
114.6121
 20
-48.1878
 10
114.4961
 20
-48.0044
 10
114.3864
 20
-47.8201
 10
114.2442
 20
-47.5202
 10
114.1096
 20
-47.2186
 10
113.9812
 20
-46.9164
 10
113.8877
 20
-46.7958
 10
113.8028
 20
-46.6826
 10
113.7251
 20
-46.574
 10
113.6082
 20
-46.4714
 10
113.4972
 20
-46.3679
 10
113.3942
 20
-46.2633
 10
113.2469
 20
-46.1859
 10
113.1073
 20
-46.1072
 10
112.9733
 20
-46.0274
 10
112.7818
 20
-45.9627
 10
112.5974
 20
-45.9052
 10
112.4215
 20
-45.8525
 10
111.6533
 20
-45.7122
 10
110.8916
 20
-45.5763
 10
110.1395
 20
-45.4475
 10
109.7307
 20
-45.411
 10
109.3224
 20
-45.381
 10
108.9157
 20
-45.3588
 10
108.0613
 20
-45.387
 10
107.2131
 20
-45.4164
 10
106.3689
 20
-45.4448
 10
105.526
 20
-45.4714
 10
105.2547
 20
-45.4134
 10
104.9904
 20
-45.3607
 10
104.7347
 20
-45.314
 10
104.5689
 20
-45.246
 10
104.4121
 20
-45.184
 10
104.2621
 20
-45.1269
 10
104.1156
 20
-45.0957
 10
103.9707
 20
-45.0723
 10
103.827
 20
-45.0546
 10
103.6922
 20
-45.0962
 10
103.5635
 20
-45.1367
 10
103.443
 20
-45.1757
 10
103.3928
 20
-45.2037
 10
103.3507
 20
-45.2312
 10
103.3143
 20
-45.2568
 10
103.2315
 20
-45.3709
 10
103.1481
 20
-45.4787
 10
103.0631
 20
-45.5786
 10
102.9679
 20
-45.6142
 10
102.8785
 20
-45.6484
 10
102.797
 20
-45.6814
 10
102.7543
 20
-45.6681
 10
102.7191
 20
-45.6596
 10
102.6922
 20
-45.6576
 10
102.624
 20
-45.6078
 10
102.5615
 20
-45.5573
 10
102.507
 20
-45.5053
 10
102.4997
 20
-45.3716
 10
102.4862
 20
-45.2469
 10
102.4675
 20
-45.1286
 10
102.4167
 20
-44.9347
 10
102.3728
 20
-44.7462
 10
102.3381
 20
-44.5646
 10
102.2189
 20
-44.4482
 10
102.1066
 20
-44.3387
 10
102.0035
 20
-44.2342
 10
101.8221
 20
-43.9805
 10
101.6468
 20
-43.7262
 10
101.4792
 20
-43.4703
 10
101.3664
 20
-43.2263
 10
101.2609
 20
-42.9807
 10
101.1613
 20
-42.7343
 10
101.0958
 20
-42.4077
 10
101.0389
 20
-42.0881
 10
100.9892
 20
-41.7734
 10
100.9954
 20
-41.5568
 10
100.9967
 20
-41.3489
 10
100.991
 20
-41.1481
 10
101.0191
 20
-40.9822
 10
101.0408
 20
-40.8236
 10
101.0573
 20
-40.674
 10
101.0737
 20
-40.651
 10
101.0852
 20
-40.635
 10
101.0902
 20
-40.6281
 10
101.1487
 20
-40.3972
 10
101.2
 20
-40.1733
 10
101.2462
 20
-39.9585
 10
101.2655
 20
-39.7337
 10
101.2773
 20
-39.5159
 10
101.2845
 20
-39.3071
 10
101.2394
 20
-39.1125
 10
101.2028
 20
-38.9167
 10
101.1716
 20
-38.72
 10
101.0428
 20
-38.418
 10
100.9152
 20
-38.1214
 10
100.7892
 20
-37.833
 10
100.7721
 20
-37.6342
 10
100.7474
 20
-37.4422
 10
100.7448
 20
-37.0799
 10
100.7639
 20
-36.9095
 10
100.7783
 20
-36.7458
 10
100.7461
 20
-36.6302
 10
100.7214
 20
-36.5128
 10
100.7027
 20
-36.3949
 10
100.677
 20
-36.3587
 10
100.6515
 20
-36.3221
 10
100.6249
 20
-36.2867
 10
100.5624
 20
-36.2355
 10
100.5093
 20
-36.1895
 10
100.4626
 20
-36.1506
 10
100.3619
 20
-36.1119
 10
100.2699
 20
-36.0804
 10
100.185
 20
-36.0532
 10
100.0453
 20
-36.0614
 10
99.9066
 20
-36.0773
 10
99.7691
 20
-36.0988
 10
99.723
 20
-36.066
 10
99.678
 20
-36.0327
 10
99.6322
 20
-35.9996
 10
99.6092
 20
-35.9431
 10
99.5939
 20
-35.8851
 10
99.5845
 20
-35.8259
 10
99.6346
 20
-35.7575
 10
99.6791
 20
-35.6957
 10
99.7171
 20
-35.6434
 10
99.8067
 20
-35.6091
 10
99.8882
 20
-35.5763
 10
99.9634
 20
-35.544
 10
100.0634
 20
-35.4477
 10
100.1556
 20
-35.3586
 10
100.2437
 20
-35.2778
 10
100.2542
 20
-35.2155
 10
100.2647
 20
-35.1536
 10
100.2748
 20
-35.0913
 10
100.2487
 20
-35.0149
 10
100.2312
 20
-34.9432
 10
100.2211
 20
-34.8782
 10
100.1692
 20
-34.8056
 10
100.1183
 20
-34.7391
 10
100.0688
 20
-34.6805
 10
99.9183
 20
-34.5835
 10
99.7758
 20
-34.4849
 10
99.639
 20
-34.3854
 10
99.5848
 20
-34.2994
 10
99.5324
 20
-34.2211
 10
99.4805
 20
-34.1486
 10
99.3963
 20
-33.9601
 10
99.3202
 20
-33.7706
 10
99.2494
 20
-33.5801
 10
99.1384
 20
-33.4767
 10
99.0349
 20
-33.3721
 10
98.9377
 20
-33.2665
 10
98.8702
 20
-33.2224
 10
98.804
 20
-33.1868
 10
98.7389
 20
-33.1571
 10
98.6401
 20
-33.132
 10
98.5495
 20
-33.1063
 10
98.4644
 20
-33.0792
 10
98.0792
 20
-33.0658
 10
97.6952
 20
-33.0601
 10
97.3125
 20
-33.0599
 10
96.7591
 20
-33.0061
 10
96.2134
 20
-32.9577
 10
95.6762
 20
-32.9151
 10
95.4474
 20
-32.8709
 10
95.2246
 20
-32.8255
 10
95.0093
 20
-32.7788
 10
94.9279
 20
-32.7716
 10
94.8457
 20
-32.7649
 10
94.764
 20
-32.7575
 10
94.3229
 20
-32.6455
 10
93.8815
 20
-32.5342
 10
93.441
 20
-32.422
 10
93.0448
 20
-32.3033
 10
92.657
 20
-32.1835
 10
92.275
 20
-32.0624
 10
92.0438
 20
-32.0042
 10
91.814
 20
-31.954
 10
91.5854
 20
-31.9093
 10
91.3012
 20
-31.8595
 10
91.0263
 20
-31.8161
 10
90.7581
 20
-31.7779
 10
90.6935
 20
-31.7536
 10
90.6364
 20
-31.7369
 10
90.588
 20
-31.7244
 10
90.2589
 20
-31.6813
 10
89.9306
 20
-31.6464
 10
89.6037
 20
-31.6176
 10
89.1956
 20
-31.5877
 10
88.7943
 20
-31.5644
 10
88.4025
 20
-31.5456
 10
87.7772
 20
-31.5439
 10
87.1585
 20
-31.5471
 10
86.5491
 20
-31.5566
 10
86.1781
 20
-31.5953
 10
85.8152
 20
-31.6324
 10
85.4578
 20
-31.6687
 10
85.2838
 20
-31.7161
 10
85.1149
 20
-31.7572
 10
84.9526
 20
-31.7894
 10
84.8833
 20
-31.8203
 10
84.8212
 20
-31.85
 10
84.7652
 20
-31.8792
 10
84.6628
 20
-31.9963
 10
84.5594
 20
-32.1072
 10
84.4547
 20
-32.2105
 10
84.4133
 20
-32.2917
 10
84.3783
 20
-32.3637
 10
84.3485
 20
-32.4289
 10
84.316
 20
-32.5692
 10
84.2906
 20
-32.7003
 10
84.2696
 20
-32.8243
 10
84.3113
 20
-32.9591
 10
84.3529
 20
-33.0937
 10
84.394
 20
-33.2282
 10
84.448
 20
-33.3145
 10
84.5526
 20
-33.4656
 10
84.6727
 20
-33.5875
 10
84.7861
 20
-33.7047
 10
84.8902
 20
-33.8155
 10
84.9193
 20
-33.8709
 10
84.9473
 20
-33.9211
 10
84.974
 20
-33.9635
 10
85.0508
 20
-34.1931
 10
85.1266
 20
-34.4169
 10
85.2009
 20
-34.6331
 10
85.175
 20
-34.8126
 10
85.1557
 20
-34.9831
 10
85.1413
 20
-35.1466
 10
85.1757
 20
-35.2762
 10
85.201
 20
-35.3992
 10
85.2198
 20
-35.5171
 10
85.3007
 20
-35.6458
 10
85.3815
 20
-35.7738
 10
85.4621
 20
-35.9021
 10
85.4989
 20
-35.9166
 10
85.5278
 20
-35.9325
 10
85.5501
 20
-35.949
 10
85.5671
 20
-35.9664
 10
85.5763
 20
-35.985
 10
85.5795
 20
-36.0048
 10
85.6675
 20
-36.0516
 10
85.7545
 20
-36.0921
 10
85.8402
 20
-36.1246
 10
85.9664
 20
-36.1592
 10
86.0918
 20
-36.1857
 10
86.216
 20
-36.2065
 10
86.3165
 20
-36.2049
 10
86.4101
 20
-36.1958
 10
86.4945
 20
-36.1826
 10
86.6264
 20
-36.1216
 10
86.7526
 20
-36.0671
 10
86.8723
 20
-36.0219
 10
87.1069
 20
-35.8842
 10
87.334
 20
-35.7535
 10
87.5568
 20
-35.6315
 10
87.5858
 20
-35.6013
 10
87.6406
 20
-35.5688
 10
87.6935
 20
-35.5431
 10
87.7593
 20
-35.5032
 10
87.8074
 20
-35.4733
 10
87.8467
 20
-35.4439
 10
87.867
 20
-35.4272
 10
87.9573
 20
-35.3661
 10
88.1305
 20
-35.2805
 10
88.0443
 20
-35.1161
 10
88.0014
 20
-35.033
 10
87.9466
 20
-34.9281
 10
87.7608
 20
-34.5794
 10
87.713
 20
-34.4834
 10
87.6588
 20
-34.3792
 10
87.6043
 20
-34.2787
 10
87.5585
 20
-34.1913
 10
87.5278
 20
-34.1311
 10
87.4905
 20
-34.0592
 10
88.1319
 20
-35.2804
 10
88.2901
 20
-35.1932
 10
88.3695
 20
-35.1603
 10
88.449
 20
-35.1155
 10
88.6166
 20
-35.0665
 10
88.823
 20
-34.9676
 10
89.0301
 20
-34.874
 10
89.392
 20
-34.7425
 10
89.7553
 20
-34.6184
 10
90.1203
 20
-34.4999
 10
90.3384
 20
-34.4793
 10
90.556
 20
-34.4515
 10
90.7723
 20
-34.4173
 10
91.1377
 20
-34.4339
 10
91.4963
 20
-34.4439
 10
91.8458
 20
-34.4489
 10
91.9301
 20
-34.47
 10
92.0127
 20
-34.4829
 10
92.0945
 20
-34.4902
 10
92.2152
 20
-34.4913
 10
92.3309
 20
-34.4933
 10
92.4379
 20
-34.4963
 10
92.8928
 20
-34.5656
 10
93.3403
 20
-34.63
 10
93.7787
 20
-34.6875
 10
93.9902
 20
-34.7488
 10
94.2006
 20
-34.802
 10
94.4097
 20
-34.8499
 10
94.5629
 20
-34.9265
 10
94.7153
 20
-34.9973
 10
94.9801
 20
-35.1428
 10
95.0937
 20
-35.2257
 10
95.2079
 20
-35.3084
 10
95.3279
 20
-35.4305
 10
95.4423
 20
-35.5536
 10
95.5488
 20
-35.6779
 10
95.6551
 20
-35.8424
 10
95.7619
 20
-36.007
 10
95.8688
 20
-36.1715
 10
95.9312
 20
-36.2222
 10
95.9858
 20
-36.274
 10
96.0343
 20
-36.3269
 10
96.1353
 20
-36.3652
 10
96.2271
 20
-36.3974
 10
96.3121
 20
-36.4238
 10
96.4323
 20
-36.4195
 10
96.5452
 20
-36.4072
 10
96.6494
 20
-36.3908
 10
96.6858
 20
-36.3649
 10
96.717
 20
-36.3461
 10
96.7414
 20
-36.3362
 10
96.834
 20
-36.3216
 10
96.9188
 20
-36.3082
 10
96.9973
 20
-36.2957
 10
97.0648
 20
-36.3392
 10
97.131
 20
-36.375
 10
97.1962
 20
-36.4052
 10
97.2276
 20
-36.5153
 10
97.25
 20
-36.6185
 10
97.2655
 20
-36.717
 10
97.2156
 20
-36.7855
 10
97.1661
 20
-36.8534
 10
97.1164
 20
-36.9218
 10
96.9974
 20
-37.0213
 10
96.8849
 20
-37.1139
 10
96.777
 20
-37.1974
 10
96.7463
 20
-37.2569
 10
96.7197
 20
-37.307
 10
96.7005
 20
-37.3509
 10
96.6632
 20
-37.4571
 10
96.6333
 20
-37.5629
 10
96.6097
 20
-37.6675
 10
96.651
 20
-37.8424
 10
96.6852
 20
-38.0184
 10
96.7134
 20
-38.1956
 10
96.7777
 20
-38.2599
 10
96.8334
 20
-38.3176
 10
96.8819
 20
-38.3702
 10
96.9953
 20
-38.4475
 10
97.1006
 20
-38.5172
 10
97.1978
 20
-38.5825
 10
97.2985
 20
-38.6209
 10
97.3904
 20
-38.6529
 10
97.4755
 20
-38.68
 10
97.5921
 20
-38.7823
 10
97.7083
 20
-38.8788
 10
97.8234
 20
-38.9674
 10
97.9591
 20
-39.2281
 10
98.0865
 20
-39.4844
 10
98.2069
 20
-39.7335
 10
98.3614
 20
-40.1122
 10
98.5081
 20
-40.4924
 10
98.6492
 20
-40.8733
 10
98.7519
 20
-41.1796
 10
98.8462
 20
-41.4813
 10
98.9327
 20
-41.7761
 10
99.0754
 20
-42.3325
 10
99.2086
 20
-42.8818
 10
99.3351
 20
-43.4264
 10
99.3993
 20
-43.9203
 10
99.4711
 20
-44.4128
 10
99.5489
 20
-44.9049
 10
99.5601
 20
-45.1047
 10
99.5718
 20
-45.3045
 10
99.583
 20
-45.5043
 10
99.6063
 20
-45.561
 10
99.6206
 20
-45.6134
 10
99.6279
 20
-45.6585
 10
99.7054
 20
-45.767
 10
99.7824
 20
-45.8699
 10
99.8577
 20
-45.965
 10
99.9192
 20
-46.0095
 10
99.9716
 20
-46.0477
 10
100.0172
 20
-46.0809
 10
100.1182
 20
-46.1192
 10
100.2096
 20
-46.1509
 10
100.2947
 20
-46.178
 10
100.3903
 20
-46.1828
 10
100.477
 20
-46.1831
 10
100.5567
 20
-46.1772
 10
100.6725
 20
-46.1446
 10
100.7834
 20
-46.1206
 10
100.8881
 20
-46.1043
 10
100.9445
 20
-46.1159
 10
100.9922
 20
-46.1283
 10
101.0352
 20
-46.1415
 10
101.0607
 20
-46.1778
 10
101.0865
 20
-46.2141
 10
101.1127
 20
-46.2502
 10
101.104
 20
-46.4128
 10
101.1105
 20
-46.4924
 10
101.0825
 20
-46.5315
 10
101.0606
 20
-46.561
 10
101.0443
 20
-46.5837
 10
100.7836
 20
-46.7195
 10
100.5277
 20
-46.847
 10
100.2783
 20
-46.9667
 10
100.1044
 20
-47.0148
 10
99.9303
 20
-47.0625
 10
99.7568
 20
-47.11
 10
99.7038
 20
-47.1588
 10
99.6512
 20
-47.2072
 10
99.5983
 20
-47.2563
 10
99.5596
 20
-47.357
 10
99.5279
 20
-47.4487
 10
99.5007
 20
-47.5334
 10
99.5123
 20
-47.606
 10
99.5226
 20
-47.6713
 10
99.532
 20
-47.7303
 10
99.5808
 20
-47.7832
 10
99.6233
 20
-47.8369
 10
99.6587
 20
-47.8917
 10
99.7373
 20
-47.9196
 10
99.8077
 20
-47.9428
 10
99.8709
 20
-47.9588
 10
100.1231
 20
-47.8987
 10
100.377
 20
-47.8446
 10
100.6317
 20
-47.7983
 10
100.9361
 20
-47.8107
 10
101.2339
 20
-47.8179
 10
101.5221
 20
-47.8183
 10
101.7986
 20
-47.9101
 10
102.0738
 20
-47.9934
 10
102.3482
 20
-48.071
 10
102.5961
 20
-48.1066
 10
102.8362
 20
-48.1355
 10
103.0676
 20
-48.1589
 10
103.2225
 20
-48.1545
 10
103.3693
 20
-48.1513
 10
103.5099
 20
-48.1496
 10
103.9141
 20
-48.0653
 10
104.3109
 20
-47.9884
 10
104.704
 20
-47.9202
 10
105.183
 20
-47.764
 10
105.6564
 20
-47.6083
 10
106.122
 20
-47.454
 10
106.6676
 20
-47.3336
 10
107.2082
 20
-47.2218
 10
107.7421
 20
-47.1169
 10
108.2498
 20
-47.0509
 10
108.7487
 20
-46.9782
 10
109.2408
 20
-46.9003
 10
109.5612
 20
-46.8898
 10
109.8816
 20
-46.8733
 10
110.1999
 20
-46.8495
 10
110.2367
 20
-46.8638
 10
110.2644
 20
-46.8733
 10
110.2848
 20
-46.876
 10
110.4416
 20
-46.8855
 10
110.5895
 20
-46.8882
 10
110.73
 20
-46.8865
 10
110.7748
 20
-46.9135
 10
110.8123
 20
-46.9338
 10
110.8408
 20
-46.9492
 10
110.869
 20
-46.9994
 10
110.8959
 20
-47.0414
 10
110.9216
 20
-47.078
 10
110.9173
 20
-47.1391
 10
110.92
 20
-47.1932
 10
110.927
 20
-47.2382
 10
110.8968
 20
-47.3036
 10
110.8672
 20
-47.3688
 10
110.8371
 20
-47.4338
 10
110.7676
 20
-47.5054
 10
110.7032
 20
-47.57
 10
110.6456
 20
-47.6256
 10
110.607
 20
-47.7265
 10
110.5752
 20
-47.8179
 10
110.5482
 20
-47.9032
 10
110.5746
 20
-47.9796
 10
110.5929
 20
-48.0572
 10
110.6054
 20
-48.1362
 10
110.6771
 20
-48.2053
 10
110.7426
 20
-48.2759
 10
110.8
 20
-48.3469
 10
110.8221
 20
-48.3579
 10
110.8422
 20
-48.3606
 10
110.8624
 20
-48.3575
 10
110.9335
 20
-48.4268
 10
111.0043
 20
-48.4902
 10
111.0735
 20
-48.5458
 10
111.1422
 20
-48.6358
 10
111.203
 20
-48.7269
 10
111.2578
 20
-48.8191
 10
111.2992
 20
-48.9537
 10
111.3349
 20
-49.0888
 10
111.3624
 20
-49.2262
 10
111.3229
 20
-49.4479
 10
111.2624
 20
-49.8671
 10
111.2746
 20
-49.9453
 10
111.2862
 20
-50.0187
 10
111.2965
 20
-50.0833
 10
111.3225
 20
-50.1195
 10
111.3415
 20
-50.1507
 10
111.351
 20
-50.1753
 10
111.3969
 20
-50.2089
 10
111.4427
 20
-50.2414
 10
111.4882
 20
-50.2748
 10
111.5303
 20
-50.2882
 10
111.573
 20
-50.3019
 10
111.6154
 20
-50.315
 10
111.7058
 20
-50.2867
 10
111.7898
 20
-50.2677
 10
111.8682
 20
-50.2552
 10
111.9042
 20
-50.2289
 10
111.9404
 20
-50.2033
 10
111.9765
 20
-50.1774
 10
112.0204
 20
-50.1101
 10
112.0572
 20
-50.0497
 10
112.0896
 20
-49.9982
 10
112.164
 20
-49.8312
 10
112.2337
 20
-49.6726
 10
112.2963
 20
-49.5217
 10
112.3378
 20
-49.3135
 10
112.373
 20
-49.1124
 10
112.4027
 20
-48.92
 10
112.3762
 20
-48.6625
 10
112.3412
 20
-48.4057
 10
112.3009
 20
-48.1499
 10
112.328
 20
-48.0653
 10
112.3564
 20
-47.9861
 10
112.3849
 20
-47.9148
 10
112.4212
 20
-47.8892
 10
112.4513
 20
-47.8638
 10
112.4741
 20
-47.8407
 10
112.5687
 20
-47.8397
 10
112.654
 20
-47.8318
 10
112.7327
 20
-47.8193
 10
112.8045
 20
-47.889
 10
112.8748
 20
-47.9523
 10
112.9445
 20
-48.0079
 10
113.0023
 20
-48.12
 10
113.0602
 20
-48.2315
 10
113.1181
 20
-48.3433
 10
113.2466
 20
-48.5187
 10
113.3682
 20
-48.6868
 10
113.4807
 20
-48.8506
 10
113.5941
 20
-48.9679
 10
113.6981
 20
-49.0785
 10
113.7955
 20
-49.1839
 10
113.9117
 20
-49.2806
 10
114.0205
 20
-49.37
 10
114.1208
 20
-49.4551
 10
114.1426
 20
-49.4658
 10
114.1631
 20
-49.4686
 10
114.1827
 20
-49.4656
 10
114.2509
 20
-49.5153
 10
114.3195
 20
-49.5647
 10
114.3879
 20
-49.6142
 10
114.6399
 20
-49.7157
 10
114.8828
 20
-49.8125
 10
115.1187
 20
-49.9022
 10
115.2009
 20
-49.909
 10
115.2766
 20
-49.9175
 10
115.3447
 20
-49.927
 10
115.4152
 20
-49.9014
 10
115.4792
 20
-49.8854
 10
115.5382
 20
-49.8761
 10
115.5943
 20
-49.8467
 10
115.6446
 20
-49.8191
 10
115.686
 20
-49.7923
 10
115.7203
 20
-49.7523
 10
115.7498
 20
-49.7215
 10
115.772
 20
-49.6979
 10
115.802
 20
-49.633
 10
115.8262
 20
-49.5684
 10
115.8424
 20
-49.5057
 10
115.8162
 20
-49.4289
 10
115.7988
 20
-49.3569
 10
115.7885
 20
-49.2918
 10
115.746
 20
-49.2788
 10
115.7098
 20
-49.2642
 10
115.6811
 20
-49.2482
 10
115.6519
 20
-49.1926
 10
115.6298
 20
-49.1419
 10
115.6167
 20
-49.0975
 10
115.5919
 20
-49.0671
 10
115.5678
 20
-49.0446
 10
115.5452
 20
-49.0283
 10
115.5233
 20
-49.0174
 10
115.5028
 20
-49.0144
 10
115.4831
 20
-49.0176
 10
115.4584
 20
-48.9873
 10
115.4343
 20
-48.9653
 10
115.4116
 20
-48.9481
 10
115.3897
 20
-48.9377
 10
115.3693
 20
-48.9349
 10
115.3496
 20
-48.9381
  0
LWPOLYLINE
  5
35
330
1F
100
AcDbEntity
  8
0
100
AcDbPolyline
 90
      594
 70
   128
 43
0.0
 10
69.8438
 20
-77.896
 10
69.9172
 20
-77.8557
 10
70.0904
 20
-77.808
 10
70.2525
 20
-77.7603
 10
70.406
 20
-77.7132
 10
70.4299
 20
-77.7166
 10
70.4484
 20
-77.7259
 10
70.4631
 20
-77.7395
 10
70.543
 20
-77.7328
 10
70.6131
 20
-77.725
 10
70.6738
 20
-77.7184
 10
70.8248
 20
-77.7322
 10
70.9704
 20
-77.7517
 10
71.112
 20
-77.7752
 10
71.2364
 20
-77.8179
 10
71.3503
 20
-77.8621
 10
71.4546
 20
-77.9049
 10
71.5837
 20
-77.9715
 10
71.7123
 20
-78.0378
 10
71.8416
 20
-78.104
 10
71.9508
 20
-78.1329
 10
72.055
 20
-78.1677
 10
72.1549
 20
-78.2068
 10
72.316
 20
-78.2299
 10
72.4662
 20
-78.2532
 10
72.6077
 20
-78.277
 10
72.7118
 20
-78.2736
 10
72.8045
 20
-78.2704
 10
72.8889
 20
-78.2681
 10
72.9594
 20
-78.2517
 10
73.0292
 20
-78.2351
 10
73.0989
 20
-78.219
 10
73.3243
 20
-78.2116
 10
73.541
 20
-78.2046
 10
73.7466
 20
-78.1982
 10
74.2196
 20
-78.1507
 10
74.6831
 20
-78.1019
 10
75.1366
 20
-78.0551
 10
75.2067
 20
-78.0388
 10
75.2764
 20
-78.0226
 10
75.3465
 20
-78.0061
 10
75.4131
 20
-78.0136
 10
75.4736
 20
-78.0164
 10
75.53
 20
-78.0146
 10
75.6939
 20
-77.9853
 10
75.8524
 20
-77.9617
 10
76.0068
 20
-77.9427
 10
76.114
 20
-77.9071
 10
76.2158
 20
-77.8657
 10
76.3127
 20
-77.8204
 10
76.3433
 20
-77.7673
 10
76.3799
 20
-77.7197
 10
76.4208
 20
-77.676
 10
76.4463
 20
-77.5905
 10
76.4761
 20
-77.5091
 10
76.5115
 20
-77.4336
 10
76.4954
 20
-77.3635
 10
76.479
 20
-77.2936
 10
76.4626
 20
-77.2236
 10
76.4081
 20
-77.1454
 10
76.3591
 20
-77.0722
 10
76.315
 20
-77.0031
 10
76.1951
 20
-76.9644
 10
76.0872
 20
-76.9259
 10
75.9868
 20
-76.8864
 10
75.7207
 20
-76.9374
 10
75.4632
 20
-76.9879
 10
75.217
 20
-77.0378
 10
75.0764
 20
-77.0426
 10
74.9398
 20
-77.0513
 10
74.8095
 20
-77.0653
 10
74.5833
 20
-77.0441
 10
74.3653
 20
-77.023
 10
74.1589
 20
-77.0012
 10
73.9788
 20
-76.9607
 10
73.8085
 20
-76.9177
 10
73.6478
 20
-76.877
 10
73.524
 20
-76.8342
 10
73.4098
 20
-76.7904
 10
73.3058
 20
-76.7467
 10
72.9373
 20
-76.5569
 10
72.5748
 20
-76.3615
 10
72.216
 20
-76.1618
 10
72.1067
 20
-76.133
 10
72.0028
 20
-76.0981
 10
71.9025
 20
-76.059
 10
71.7475
 20
-76.05
 10
71.5962
 20
-76.0366
 10
71.4506
 20
-76.0172
 10
71.2871
 20
-76.0461
 10
71.1328
 20
-76.0742
 10
70.9886
 20
-76.1027
 10
70.8956
 20
-76.1435
 10
70.8078
 20
-76.1784
 10
70.724
 20
-76.2096
 10
70.4996
 20
-76.245
 10
70.2795
 20
-76.2758
 10
70.0648
 20
-76.3009
 10
70.0409
 20
-76.2976
 10
70.0221
 20
-76.2883
 10
69.9839
 20
-76.2793
 10
69.9698
 20
-76.2857
 10
69.9657
 20
-76.2901
 10
69.7862
 20
-76.2577
 10
69.6158
 20
-76.2267
 10
69.4554
 20
-76.1936
 10
69.3317
 20
-76.1511
 10
69.2174
 20
-76.107
 10
69.1133
 20
-76.0637
 10
68.9116
 20
-75.929
 10
68.7104
 20
-75.7947
 10
68.5086
 20
-75.6605
 10
68.4053
 20
-75.5173
 10
68.3027
 20
-75.3854
 10
68.2001
 20
-75.2615
 10
68.1399
 20
-75.1507
 10
68.0798
 20
-75.0401
 10
68.0204
 20
-74.9293
 10
67.9315
 20
-74.7995
 10
67.8432
 20
-74.6813
 10
67.7555
 20
-74.5714
 10
67.6339
 20
-74.4768
 10
67.5239
 20
-74.3818
 10
67.4219
 20
-74.2861
 10
67.3263
 20
-74.251
 10
67.2409
 20
-74.2169
 10
67.1649
 20
-74.1818
 10
66.9747
 20
-74.1313
 10
66.7958
 20
-74.0806
 10
66.6247
 20
-74.0302
 10
66.5167
 20
-74.0377
 10
66.4142
 20
-74.0509
 10
66.3162
 20
-74.0679
 10
66.2214
 20
-74.061
 10
66.1368
 20
-74.055
 10
66.0618
 20
-74.0476
 10
66.0278
 20
-73.9969
 10
65.9928
 20
-73.9558
 10
65.9591
 20
-73.9242
 10
65.9535
 20
-73.8725
 10
65.942
 20
-73.8261
 10
65.9263
 20
-73.7842
 10
65.9624
 20
-73.717
 10
65.9972
 20
-73.6598
 10
66.034
 20
-73.6121
 10
66.1696
 20
-73.5751
 10
66.2991
 20
-73.5327
 10
66.4242
 20
-73.487
 10
66.4934
 20
-73.4424
 10
66.5624
 20
-73.3979
 10
66.6314
 20
-73.3531
 10
66.737
 20
-73.2613
 10
66.8327
 20
-73.1681
 10
66.9186
 20
-73.0766
 10
66.9745
 20
-72.9382
 10
67.0325
 20
-72.8093
 10
67.0894
 20
-72.6904
 10
67.342
 20
-72.2176
 10
67.5991
 20
-71.7483
 10
67.8616
 20
-71.2851
 10
68.023
 20
-71.0545
 10
68.1811
 20
-70.8282
 10
68.333
 20
-70.608
 10
68.3902
 20
-70.4977
 10
68.4488
 20
-70.3969
 10
68.5063
 20
-70.3061
 10
68.7362
 20
-70.0032
 10
68.9707
 20
-69.7042
 10
69.2105
 20
-69.4103
 10
69.4415
 20
-69.1438
 10
69.6732
 20
-68.8882
 10
69.9048
 20
-68.6414
 10
70.0782
 20
-68.4765
 10
70.2462
 20
-68.3063
 10
70.4097
 20
-68.132
 10
70.7249
 20
-67.8545
 10
71.0359
 20
-67.5726
 10
71.3407
 20
-67.2849
 10
71.7223
 20
-67.0153
 10
72.0983
 20
-66.7398
 10
72.4695
 20
-66.4602
 10
72.779
 20
-66.2671
 10
73.0773
 20
-66.0747
 10
73.3674
 20
-65.8821
 10
73.626
 20
-65.7427
 10
73.8794
 20
-65.5982
 10
74.128
 20
-65.4488
 10
74.3507
 20
-65.3576
 10
74.5646
 20
-65.266
 10
74.7672
 20
-65.175
 10
74.8638
 20
-65.1015
 10
74.96
 20
-65.028
 10
75.0564
 20
-64.9544
 10
75.1194
 20
-64.8583
 10
75.1816
 20
-64.7715
 10
75.2451
 20
-64.695
 10
75.2974
 20
-64.5604
 10
75.3497
 20
-64.438
 10
75.4023
 20
-64.3234
 10
75.4123
 20
-64.1964
 10
75.4106
 20
-64.1401
 10
75.3917
 20
-63.9857
 10
75.3729
 20
-63.8395
 10
75.3545
 20
-63.7046
 10
75.3186
 20
-63.5976
 10
75.2772
 20
-63.4963
 10
75.2323
 20
-63.3989
 10
75.1295
 20
-63.2753
 10
75.0371
 20
-63.1893
 10
74.9693
 20
-63.1079
 10
74.8973
 20
-63.0294
 10
74.8782
 20
-62.9412
 10
74.9467
 20
-62.812
 10
74.9699
 20
-62.7669
 10
75.0522
 20
-62.6582
 10
75.0703
 20
-62.6473
 10
75.1098
 20
-62.6109
 10
75.1396
 20
-62.5746
 10
75.1659
 20
-62.552
 10
75.1984
 20
-62.525
 10
75.22
 20
-62.5022
 10
75.2437
 20
-62.4817
 10
75.2853
 20
-62.4293
 10
75.3242
 20
-62.3833
 10
75.3508
 20
-62.3564
 10
75.5014
 20
-62.259
 10
75.6574
 20
-62.1597
 10
75.8089
 20
-62.0562
 10
75.8398
 20
-62.003
 10
75.8722
 20
-61.9598
 10
75.9036
 20
-61.9265
 10
75.9598
 20
-61.7879
 10
76.0174
 20
-61.659
 10
76.0746
 20
-61.5403
 10
76.0899
 20
-61.4458
 10
76.1064
 20
-61.3607
 10
76.1226
 20
-61.2856
 10
76.1182
 20
-61.1444
 10
76.1136
 20
-61.0035
 10
76.1091
 20
-60.8629
 10
76.0878
 20
-60.7693
 10
76.0651
 20
-60.6854
 10
76.0447
 20
-60.6113
 10
75.9746
 20
-60.4912
 10
75.9062
 20
-60.3808
 10
75.8369
 20
-60.2799
 10
75.6608
 20
-60.0604
 10
75.4893
 20
-59.8443
 10
75.3232
 20
-59.6343
 10
75.0114
 20
-59.1508
 10
74.7011
 20
-58.6762
 10
74.3899
 20
-58.2127
 10
74.3254
 20
-58.0782
 10
74.2592
 20
-57.9536
 10
74.195
 20
-57.8382
 10
74.1939
 20
-57.8104
 10
74.1936
 20
-57.7907
 10
74.1932
 20
-57.7822
 10
74.1638
 20
-57.7356
 10
74.134
 20
-57.6997
 10
74.105
 20
-57.6725
 10
73.9187
 20
-57.2596
 10
73.7311
 20
-56.8572
 10
73.5449
 20
-56.4645
 10
73.396
 20
-56.0787
 10
73.2527
 20
-55.6989
 10
73.1142
 20
-55.3227
 10
73.0972
 20
-55.2334
 10
73.0808
 20
-55.155
 10
73.0644
 20
-55.085
 10
73.0449
 20
-55.0477
 10
73.0243
 20
-55.0197
 10
73.0057
 20
-55.0023
 10
72.8032
 20
-54.2801
 10
72.6013
 20
-53.5584
 10
72.4035
 20
-52.8407
 10
72.2088
 20
-52.1253
 10
72.2217
 20
-52.0827
 10
72.2343
 20
-52.04
 10
72.247
 20
-51.9974
 10
72.2176
 20
-51.9701
 10
72.1933
 20
-51.947
 10
72.1743
 20
-51.9292
 10
71.9913
 20
-51.4842
 10
71.8075
 20
-51.0391
 10
71.6245
 20
-50.5942
 10
71.3742
 20
-50.1134
 10
71.1254
 20
-49.6423
 10
70.8751
 20
-49.1809
 10
70.6963
 20
-48.8768
 10
70.5133
 20
-48.5766
 10
70.325
 20
-48.2827
 10
70.0445
 20
-47.8917
 10
69.765
 20
-47.5119
 10
69.4851
 20
-47.1403
 10
69.159
 20
-46.7602
 10
68.8269
 20
-46.386
 10
68.4914
 20
-46.0166
 10
68.1614
 20
-45.7072
 10
67.8376
 20
-45.4034
 10
67.5179
 20
-45.1035
 10
67.017
 20
-44.7156
 10
66.5213
 20
-44.332
 10
66.0303
 20
-43.9535
 10
65.9048
 20
-43.8548
 10
65.7841
 20
-43.7501
 10
65.6678
 20
-43.6412
 10
65.5571
 20
-43.5643
 10
65.4518
 20
-43.493
 10
65.3512
 20
-43.4259
 10
65.3084
 20
-43.4129
 10
65.2378
 20
-43.4013
 10
65.1633
 20
-43.4599
 10
65.1004
 20
-43.5184
 10
65.046
 20
-43.5764
 10
64.6943
 20
-44.0387
 10
64.3428
 20
-44.5007
 10
63.9526
 20
-44.9734
 10
63.8749
 20
-45.0713
 10
63.7618
 20
-45.2271
 10
66.1584
 20
-47.1279
 10
66.1525
 20
-47.1226
 10
66.1643
 20
-47.1334
 10
66.0371
 20
-47.0211
 10
65.8537
 20
-46.8847
 10
65.6045
 20
-46.6803
 10
65.4285
 20
-46.5446
 10
65.21
 20
-46.3795
 10
65.0527
 20
-46.2415
 10
64.9112
 20
-46.1417
 10
64.6549
 20
-45.933
 10
64.2366
 20
-45.6008
 10
63.7618
 20
-45.2271
 10
63.5764
 20
-45.4703
 10
63.467
 20
-45.6407
 10
63.3826
 20
-45.7568
 10
62.8787
 20
-46.4309
 10
62.3732
 20
-47.0955
 10
61.8682
 20
-47.7501
 10
61.8282
 20
-47.8215
 10
61.7882
 20
-47.8933
 10
61.7484
 20
-47.9652
 10
61.7491
 20
-47.993
 10
61.7543
 20
-48.017
 10
61.7647
 20
-48.0349
 10
61.8758
 20
-48.1202
 10
61.9773
 20
-48.207
 10
62.0688
 20
-48.293
 10
62.1261
 20
-48.3195
 10
62.1749
 20
-48.3458
 10
62.2122
 20
-48.373
 10
62.3925
 20
-48.4137
 10
62.563
 20
-48.4561
 10
62.7234
 20
-48.4972
 10
62.9705
 20
-48.4373
 10
63.2128
 20
-48.3833
 10
63.4511
 20
-48.3331
 10
63.5312
 20
-48.3348
 10
63.6063
 20
-48.3424
 10
63.6769
 20
-48.3545
 10
63.7447
 20
-48.3903
 10
63.806
 20
-48.4206
 10
63.8633
 20
-48.4471
 10
64.1758
 20
-48.6665
 10
64.4835
 20
-48.8919
 10
64.7861
 20
-49.1219
 10
65.0136
 20
-49.3075
 10
65.2348
 20
-49.4881
 10
65.4518
 20
-49.6643
 10
65.8243
 20
-49.9946
 10
66.1921
 20
-50.3309
 10
66.5551
 20
-50.6714
 10
66.7694
 20
-50.9
 10
66.9776
 20
-51.1231
 10
67.1822
 20
-51.3418
 10
67.4802
 20
-51.723
 10
67.7839
 20
-52.0976
 10
68.0917
 20
-52.4681
 10
68.413
 20
-52.9611
 10
68.7329
 20
-53.444
 10
69.0538
 20
-53.9167
 10
69.2342
 20
-54.2778
 10
69.4189
 20
-54.6335
 10
69.6092
 20
-54.9839
 10
69.7109
 20
-55.2158
 10
69.8111
 20
-55.4382
 10
69.9123
 20
-55.6508
 10
70.0657
 20
-56.0403
 10
70.2189
 20
-56.4213
 10
70.3714
 20
-56.7912
 10
70.4839
 20
-57.2161
 10
70.5955
 20
-57.6296
 10
70.707
 20
-58.0346
 10
70.722
 20
-58.0675
 10
70.737
 20
-58.0901
 10
70.7705
 20
-58.2582
 10
70.7934
 20
-58.4082
 10
70.822
 20
-58.5522
 10
70.9035
 20
-58.7569
 10
70.9857
 20
-58.9513
 10
71.0664
 20
-59.1362
 10
71.1702
 20
-59.308
 10
71.274
 20
-59.4677
 10
71.3775
 20
-59.6194
 10
71.4945
 20
-59.7481
 10
71.6106
 20
-59.8655
 10
71.7268
 20
-59.9745
 10
71.7826
 20
-60.0813
 10
71.8363
 20
-60.1783
 10
71.8913
 20
-60.265
 10
71.9085
 20
-60.3545
 10
71.9245
 20
-60.433
 10
71.9413
 20
-60.5028
 10
71.8928
 20
-60.7584
 10
71.8446
 20
-61.005
 10
71.7956
 20
-61.2403
 10
71.8118
 20
-61.3102
 10
71.8241
 20
-61.3761
 10
71.8303
 20
-61.4366
 10
71.8659
 20
-61.5439
 10
71.9029
 20
-61.6414
 10
71.9384
 20
-61.7291
 10
72.0155
 20
-61.821
 10
72.0947
 20
-61.9028
 10
72.1715
 20
-61.975
 10
72.2972
 20
-62.0658
 10
72.4164
 20
-62.1503
 10
72.5318
 20
-62.2311
 10
72.5481
 20
-62.3012
 10
72.5603
 20
-62.367
 10
72.5663
 20
-62.4273
 10
72.522
 20
-62.495
 10
72.4758
 20
-62.5527
 10
72.4307
 20
-62.6008
 10
72.3464
 20
-62.6036
 10
72.2659
 20
-62.602
 10
72.1911
 20
-62.5945
 10
72.1341
 20
-62.568
 10
72.0812
 20
-62.5458
 10
72.0341
 20
-62.5291
 10
71.9436
 20
-62.518
 10
71.864
 20
-62.506
 10
71.7934
 20
-62.4943
 10
71.7517
 20
-62.5098
 10
71.7142
 20
-62.521
 10
71.6817
 20
-62.526
 10
71.6434
 20
-62.5177
 10
71.611
 20
-62.5144
 10
71.5828
 20
-62.5151
 10
71.472
 20
-62.5753
 10
71.3652
 20
-62.6307
 10
71.264
 20
-62.6808
 10
71.1029
 20
-62.8027
 10
70.9522
 20
-62.9257
 10
70.8329
 20
-63.0317
 10
70.8094
 20
-63.0739
 10
70.7916
 20
-63.126
 10
70.7716
 20
-63.18
 10
70.5881
 20
-63.5754
 10
70.3397
 20
-64.0442
 10
70.0967
 20
-64.5071
 10
69.815
 20
-64.953
 10
69.529
 20
-65.3943
 10
69.2371
 20
-65.8309
 10
68.9803
 20
-66.1633
 10
68.7226
 20
-66.4868
 10
68.4651
 20
-66.7993
 10
68.155
 20
-67.1094
 10
67.8509
 20
-67.4248
 10
67.5512
 20
-67.7443
 10
67.3733
 20
-67.9052
 10
67.1994
 20
-68.0615
 10
67.0307
 20
-68.2116
 10
66.4855
 20
-68.6477
 10
65.9496
 20
-69.0822
 10
65.4241
 20
-69.5172
 10
65.2051
 20
-69.7215
 10
64.9861
 20
-69.9258
 10
64.7672
 20
-70.1302
 10
64.4093
 20
-70.5318
 10
64.0502
 20
-70.9235
 10
63.6917
 20
-71.3057
 10
63.5469
 20
-71.4892
 10
63.4073
 20
-71.6672
 10
63.2722
 20
-71.8403
 10
63.1238
 20
-72.0564
 10
62.9757
 20
-72.2726
 10
62.8279
 20
-72.4885
 10
62.8126
 20
-72.5837
 10
62.7913
 20
-72.673
 10
62.7658
 20
-72.7579
 10
62.7686
 20
-72.8426
 10
62.7669
 20
-72.923
 10
62.7596
 20
-72.9979
 10
62.8051
 20
-73.0947
 10
62.8206
 20
-73.1371
 10
62.817
 20
-73.1609
 10
62.8116
 20
-73.1752
 10
62.8075
 20
-73.1795
 10
62.8957
 20
-73.2898
 10
62.9837
 20
-73.3994
 10
63.0722
 20
-73.5093
 10
63.1676
 20
-73.5525
 10
63.258
 20
-73.602
 10
63.344
 20
-73.6555
 10
63.5283
 20
-73.692
 10
63.7085
 20
-73.7325
 10
63.8836
 20
-73.7792
 10
63.9129
 20
-73.8066
 10
63.9416
 20
-73.8335
 10
63.9706
 20
-73.8607
 10
64.0021
 20
-73.9643
 10
64.0331
 20
-74.0563
 10
64.0642
 20
-74.14
 10
64.0421
 20
-74.1926
 10
64.0251
 20
-74.2393
 10
64.0123
 20
-74.2823
 10
63.9478
 20
-74.3307
 10
63.8929
 20
-74.3803
 10
63.8478
 20
-74.4284
 10
63.7408
 20
-74.4643
 10
63.6431
 20
-74.5013
 10
63.5553
 20
-74.5365
 10
63.4635
 20
-74.6141
 10
63.3816
 20
-74.6928
 10
63.3093
 20
-74.7697
 10
63.2828
 20
-74.8271
 10
63.2566
 20
-74.8842
 10
63.2304
 20
-74.9415
 10
63.2311
 20
-74.9692
 10
63.2364
 20
-74.9935
 10
63.2467
 20
-75.0115
 10
63.233
 20
-75.0261
 10
63.2235
 20
-75.0362
 10
63.2194
 20
-75.0405
 10
63.2356
 20
-75.1103
 10
63.2518
 20
-75.1718
 10
63.2672
 20
-75.2221
 10
63.355
 20
-75.3235
 10
63.4426
 20
-75.4138
 10
63.5296
 20
-75.4953
 10
63.6994
 20
-75.5181
 10
63.8647
 20
-75.5366
 10
64.0244
 20
-75.5501
 10
64.08
 20
-75.5197
 10
64.1352
 20
-75.49
 10
64.1906
 20
-75.4602
 10
64.388
 20
-75.4542
 10
64.5765
 20
-75.4479
 10
64.7535
 20
-75.4423
 10
64.9299
 20
-75.4788
 10
65.0942
 20
-75.5159
 10
65.2505
 20
-75.5529
 10
65.4181
 20
-75.6365
 10
65.5798
 20
-75.7257
 10
65.7378
 20
-75.8192
 10
65.8492
 20
-75.9046
 10
65.9552
 20
-75.9955
 10
66.057
 20
-76.0911
 10
66.1764
 20
-76.3039
 10
66.2952
 20
-76.5061
 10
66.4143
 20
-76.6994
 10
66.4108
 20
-76.7234
 10
66.4061
 20
-76.7378
 10
66.4018
 20
-76.7424
 10
66.4821
 20
-77.0638
 10
66.5631
 20
-77.3852
 10
66.6436
 20
-77.7065
 10
66.7035
 20
-77.8173
 10
66.7676
 20
-77.9237
 10
66.8369
 20
-78.0245
 10
66.9392
 20
-78.1393
 10
67.0413
 20
-78.2436
 10
67.1428
 20
-78.3387
 10
67.2719
 20
-78.405
 10
67.397
 20
-78.4758
 10
67.5161
 20
-78.5521
 10
67.6257
 20
-78.5811
 10
67.7251
 20
-78.6118
 10
67.815
 20
-78.6412
 10
67.9661
 20
-78.6549
 10
68.1115
 20
-78.6742
 10
68.2533
 20
-78.6976
 10
68.3619
 20
-78.6901
 10
68.4639
 20
-78.6769
 10
68.5621
 20
-78.6594
 10
68.7626
 20
-78.5827
 10
68.9517
 20
-78.5066
 10
69.1325
 20
-78.4297
 10
69.3205
 20
-78.279
 10
69.5032
 20
-78.1222
 10
69.6814
 20
-77.9618
 10
69.7646
 20
-77.9306
 10
69.8438
 20
-77.896
  0
LWPOLYLINE
  5
36
330
1F
100
AcDbEntity
  8
0
100
AcDbPolyline
 90
        2
 70
   128
 43
0.0
 10
80.6242
 20
-4.5381
 10
80.6242
 20
-79.3794
  0
ENDSEC
  0
SECTION
  2
OBJECTS
  0
DICTIONARY
  5
C
330
0
100
AcDbDictionary
281
     1
  3
ACAD_GROUP
350
D
  3
ACAD_LAYOUT
350
1A
  3
ACAD_MLINESTYLE
350
17
  3
ACAD_PLOTSETTINGS
350
19
  3
ACAD_PLOTSTYLENAME
350
E
  0
DICTIONARY
  5
D
102
{ACAD_REACTORS
330
C
102
}
330
C
100
AcDbDictionary
281
     1
  0
DICTIONARY
  5
1A
102
{ACAD_REACTORS
330
C
102
}
330
C
100
AcDbDictionary
281
     1
  3
Layout1
350
1E
  3
Layout2
350
26
  3
Model
350
22
  0
DICTIONARY
  5
17
102
{ACAD_REACTORS
330
C
102
}
330
C
100
AcDbDictionary
281
     1
  3
Standard
350
18
  0
DICTIONARY
  5
19
102
{ACAD_REACTORS
330
C
102
}
330
C
100
AcDbDictionary
281
     1
  0
ACDBDICTIONARYWDFLT
  5
E
102
{ACAD_REACTORS
330
C
102
}
330
C
100
AcDbDictionary
281
     1
  3
Normal
350
F
100
AcDbDictionaryWithDefault
340
F
  0
LAYOUT
  5
1E
102
{ACAD_REACTORS
330
1A
102
}
330
1A
100
AcDbPlotSettings
  1

  2

  4

  6

 40
0.0
 41
0.0
 42
0.0
 43
0.0
 44
0.0
 45
0.0
 46
0.0
 47
0.0
 48
0.0
 49
0.0
140
0.0
141
0.0
142
1.0
143
1.0
 70
   688
 72
     0
 73
     0
 74
     5
  7

 75
    16
147
1.0
148
0.0
149
0.0
100
AcDbLayout
  1
Layout1
 70
     1
 71
     1
 10
0.0
 20
0.0
 11
420.0
 21
297.0
 12
0.0
 22
0.0
 32
0.0
 14
1.000000E+20
 24
1.000000E+20
 34
1.000000E+20
 15
-1.000000E+20
 25
-1.000000E+20
 35
-1.000000E+20
146
0.0
 13
0.0
 23
0.0
 33
0.0
 16
1.0
 26
0.0
 36
0.0
 17
0.0
 27
1.0
 37
0.0
 76
     0
330
1B
  0
LAYOUT
  5
26
102
{ACAD_REACTORS
330
1A
102
}
330
1A
100
AcDbPlotSettings
  1

  2

  4

  6

 40
0.0
 41
0.0
 42
0.0
 43
0.0
 44
0.0
 45
0.0
 46
0.0
 47
0.0
 48
0.0
 49
0.0
140
0.0
141
0.0
142
1.0
143
1.0
 70
   688
 72
     0
 73
     0
 74
     5
  7

 75
    16
147
1.0
148
0.0
149
0.0
100
AcDbLayout
  1
Layout2
 70
     1
 71
     2
 10
0.0
 20
0.0
 11
0.0
 21
0.0
 12
0.0
 22
0.0
 32
0.0
 14
0.0
 24
0.0
 34
0.0
 15
0.0
 25
0.0
 35
0.0
146
0.0
 13
0.0
 23
0.0
 33
0.0
 16
1.0
 26
0.0
 36
0.0
 17
0.0
 27
1.0
 37
0.0
 76
     0
330
23
  0
LAYOUT
  5
22
102
{ACAD_REACTORS
330
1A
102
}
330
1A
100
AcDbPlotSettings
  1

  2

  4

  6

 40
0.0
 41
0.0
 42
0.0
 43
0.0
 44
0.0
 45
0.0
 46
0.0
 47
0.0
 48
0.0
 49
0.0
140
0.0
141
0.0
142
1.0
143
1.0
 70
  1712
 72
     0
 73
     0
 74
     0
  7

 75
     0
147
1.0
148
0.0
149
0.0
100
AcDbLayout
  1
Model
 70
     1
 71
     0
 10
0.0
 20
0.0
 11
0.0
 21
0.0
 12
0.0
 22
0.0
 32
0.0
 14
0.0
 24
0.0
 34
0.0
 15
0.0
 25
0.0
 35
0.0
146
0.0
 13
0.0
 23
0.0
 33
0.0
 16
1.0
 26
0.0
 36
0.0
 17
0.0
 27
1.0
 37
0.0
 76
     0
330
1F
  0
MLINESTYLE
  5
18
102
{ACAD_REACTORS
330
17
102
}
330
17
100
AcDbMlineStyle
  2
Standard
 70
     0
  3

 62
   256
 51
90.0
 52
90.0
 71
     2
 49
1.0
 62
   256
  6
BYLAYER
 49
-1.0
 62
   256
  6
BYLAYER
  0
ACDBPLACEHOLDER
  5
F
102
{ACAD_REACTORS
330
E
102
}
330
E
  0
ENDSEC
  0
EOF
