  0
SECTION
  2
HEADER
  9
$ACADVER
  1
AC1015
  9
$ACADMAINTVER
 70
     6
  9
$DWGCODEPAGE
  3
ANSI_1252
  9
$INSBASE
 10
0.0
 20
0.0
 30
0.0
  9
$EXTMIN
 10
1.000000E+20
 20
1.000000E+20
 30
1.000000E+20
  9
$EXTMAX
 10
-1.000000E+20
 20
-1.000000E+20
 30
-1.000000E+20
  9
$LIMMIN
 10
0.0
 20
0.0
  9
$LIMMAX
 10
420.0
 20
297.0
  9
$ORTHOMODE
 70
     0
  9
$REGENMODE
 70
     1
  9
$FILLMODE
 70
     1
  9
$QTEXTMODE
 70
     0
  9
$MIRRTEXT
 70
     1
  9
$LTSCALE
 40
1.0
  9
$ATTMODE
 70
     1
  9
$TEXTSIZE
 40
2.5
  9
$TRACEWID
 40
1.0
  9
$TEXTSTYLE
  7
Standard
  9
$CLAYER
  8
0
  9
$CELTYPE
  6
ByLayer
  9
$CECOLOR
 62
   256
  9
$CELTSCALE
 40
1.0
  9
$DISPSILH
 70
     0
  9
$DIMSCALE
 40
1.0
  9
$DIMASZ
 40
2.5
  9
$DIMEXO
 40
0.625
  9
$DIMDLI
 40
3.75
  9
$DIMRND
 40
0.0
  9
$DIMDLE
 40
0.0
  9
$DIMEXE
 40
1.25
  9
$DIMTP
 40
0.0
  9
$DIMTM
 40
0.0
  9
$DIMTXT
 40
2.5
  9
$DIMCEN
 40
2.5
  9
$DIMTSZ
 40
0.0
  9
$DIMTOL
 70
     0
  9
$DIMLIM
 70
     0
  9
$DIMTIH
 70
     0
  9
$DIMTOH
 70
     0
  9
$DIMSE1
 70
     0
  9
$DIMSE2
 70
     0
  9
$DIMTAD
 70
     1
  9
$DIMZIN
 70
     8
  9
$DIMBLK
  1

  9
$DIMASO
 70
     1
  9
$DIMSHO
 70
     1
  9
$DIMPOST
  1

  9
$DIMAPOST
  1

  9
$DIMALT
 70
     0
  9
$DIMALTD
 70
     3
  9
$DIMALTF
 40
0.03937
  9
$DIMLFAC
 40
1.0
  9
$DIMTOFL
 70
     1
  9
$DIMTVP
 40
0.0
  9
$DIMTIX
 70
     0
  9
$DIMSOXD
 70
     0
  9
$DIMSAH
 70
     0
  9
$DIMBLK1
  1

  9
$DIMBLK2
  1

  9
$DIMSTYLE
  2
ISO-25
  9
$DIMCLRD
 70
     0
  9
$DIMCLRE
 70
     0
  9
$DIMCLRT
 70
     0
  9
$DIMTFAC
 40
1.0
  9
$DIMGAP
 40
0.625
  9
$DIMJUST
 70
     0
  9
$DIMSD1
 70
     0
  9
$DIMSD2
 70
     0
  9
$DIMTOLJ
 70
     0
  9
$DIMTZIN
 70
     8
  9
$DIMALTZ
 70
     0
  9
$DIMALTTZ
 70
     0
  9
$DIMUPT
 70
     0
  9
$DIMDEC
 70
     2
  9
$DIMTDEC
 70
     2
  9
$DIMALTU
 70
     2
  9
$DIMALTTD
 70
     3
  9
$DIMTXSTY
  7
Standard
  9
$DIMAUNIT
 70
     0
  9
$DIMADEC
 70
     0
  9
$DIMALTRND
 40
0.0
  9
$DIMAZIN
 70
     0
  9
$DIMDSEP
 70
    44
  9
$DIMATFIT
 70
     3
  9
$DIMFRAC
 70
     0
  9
$DIMLDRBLK
  1

  9
$DIMLUNIT
 70
     2
  9
$DIMLWD
 70
    -2
  9
$DIMLWE
 70
    -2
  9
$DIMTMOVE
 70
     0
  9
$LUNITS
 70
     2
  9
$LUPREC
 70
     4
  9
$SKETCHINC
 40
1.0
  9
$FILLETRAD
 40
10.0
  9
$AUNITS
 70
     0
  9
$AUPREC
 70
     0
  9
$MENU
  1
.
  9
$ELEVATION
 40
0.0
  9
$PELEVATION
 40
0.0
  9
$THICKNESS
 40
0.0
  9
$LIMCHECK
 70
     0
  9
$CHAMFERA
 40
10.0
  9
$CHAMFERB
 40
10.0
  9
$CHAMFERC
 40
20.0
  9
$CHAMFERD
 40
0.0
  9
$SKPOLY
 70
     0
  9
$TDCREATE
 40
2455270.676076748
  9
$TDUCREATE
 40
2455270.134410081
  9
$TDUPDATE
 40
2455270.676076759
  9
$TDUUPDATE
 40
2455270.134410093
  9
$TDINDWG
 40
0.0000000116
  9
$TDUSRTIMER
 40
0.0000000116
  9
$USRTIMER
 70
     1
  9
$ANGBASE
 50
0.0
  9
$ANGDIR
 70
     0
  9
$PDMODE
 70
     3
  9
$PDSIZE
 40
-0.7
  9
$PLINEWID
 40
0.0
  9
$SPLFRAME
 70
     0
  9
$SPLINETYPE
 70
     6
  9
$SPLINESEGS
 70
     8
  9
$HANDSEED
  5
3B
  9
$SURFTAB1
 70
     6
  9
$SURFTAB2
 70
     6
  9
$SURFTYPE
 70
     6
  9
$SURFU
 70
     6
  9
$SURFV
 70
     6
  9
$UCSBASE
  2

  9
$UCSNAME
  2

  9
$UCSORG
 10
0.0
 20
0.0
 30
0.0
  9
$UCSXDIR
 10
1.0
 20
0.0
 30
0.0
  9
$UCSYDIR
 10
0.0
 20
1.0
 30
0.0
  9
$UCSORTHOREF
  2

  9
$UCSORTHOVIEW
 70
     0
  9
$UCSORGTOP
 10
0.0
 20
0.0
 30
0.0
  9
$UCSORGBOTTOM
 10
0.0
 20
0.0
 30
0.0
  9
$UCSORGLEFT
 10
0.0
 20
0.0
 30
0.0
  9
$UCSORGRIGHT
 10
0.0
 20
0.0
 30
0.0
  9
$UCSORGFRONT
 10
0.0
 20
0.0
 30
0.0
  9
$UCSORGBACK
 10
0.0
 20
0.0
 30
0.0
  9
$PUCSBASE
  2

  9
$PUCSNAME
  2

  9
$PUCSORG
 10
0.0
 20
0.0
 30
0.0
  9
$PUCSXDIR
 10
1.0
 20
0.0
 30
0.0
  9
$PUCSYDIR
 10
0.0
 20
1.0
 30
0.0
  9
$PUCSORTHOREF
  2

  9
$PUCSORTHOVIEW
 70
     0
  9
$PUCSORGTOP
 10
0.0
 20
0.0
 30
0.0
  9
$PUCSORGBOTTOM
 10
0.0
 20
0.0
 30
0.0
  9
$PUCSORGLEFT
 10
0.0
 20
0.0
 30
0.0
  9
$PUCSORGRIGHT
 10
0.0
 20
0.0
 30
0.0
  9
$PUCSORGFRONT
 10
0.0
 20
0.0
 30
0.0
  9
$PUCSORGBACK
 10
0.0
 20
0.0
 30
0.0
  9
$USERI1
 70
     0
  9
$USERI2
 70
     0
  9
$USERI3
 70
     0
  9
$USERI4
 70
     0
  9
$USERI5
 70
     0
  9
$USERR1
 40
0.0
  9
$USERR2
 40
0.0
  9
$USERR3
 40
0.0
  9
$USERR4
 40
0.0
  9
$USERR5
 40
0.0
  9
$WORLDVIEW
 70
     1
  9
$SHADEDGE
 70
     3
  9
$SHADEDIF
 70
    70
  9
$TILEMODE
 70
     1
  9
$MAXACTVP
 70
    64
  9
$PINSBASE
 10
0.0
 20
0.0
 30
0.0
  9
$PLIMCHECK
 70
     0
  9
$PEXTMIN
 10
1.000000E+20
 20
1.000000E+20
 30
1.000000E+20
  9
$PEXTMAX
 10
-1.000000E+20
 20
-1.000000E+20
 30
-1.000000E+20
  9
$PLIMMIN
 10
0.0
 20
0.0
  9
$PLIMMAX
 10
420.0
 20
297.0
  9
$UNITMODE
 70
     0
  9
$VISRETAIN
 70
     1
  9
$PLINEGEN
 70
     0
  9
$PSLTSCALE
 70
     1
  9
$TREEDEPTH
 70
  3020
  9
$CMLSTYLE
  2
Standard
  9
$CMLJUST
 70
     1
  9
$CMLSCALE
 40
1.0
  9
$PROXYGRAPHICS
 70
     1
  9
$MEASUREMENT
 70
     1
  9
$CELWEIGHT
370
    -1
  9
$ENDCAPS
280
     0
  9
$JOINSTYLE
280
     0
  9
$LWDISPLAY
290
     0
  9
$INSUNITS
 70
     4
  9
$HYPERLINKBASE
  1

  9
$STYLESHEET
  1

  9
$XEDIT
290
     1
  9
$CEPSNTYPE
380
     0
  9
$PSTYLEMODE
290
     1
  9
$FINGERPRINTGUID
  2
{FAEB1C30-E019-11D5-929B-00C0DF256EC4}
  9
$VERSIONGUID
  2
{FAEB1C32-E019-11D5-929B-00C0DF256EC4}
  9
$EXTNAMES
290
     1
  9
$PSVPSCALE
 40
0.0
  9
$OLESTARTUP
290
     0
  0
ENDSEC
  0
SECTION
  2
CLASSES
  0
CLASS
  1
ACDBDICTIONARYWDFLT
  2
AcDbDictionaryWithDefault
  3
ObjectDBX Classes
 90
        0
280
     0
281
     0
  0
CLASS
  1
ACDBPLACEHOLDER
  2
AcDbPlaceHolder
  3
ObjectDBX Classes
 90
        0
280
     0
281
     0
  0
CLASS
  1
LAYOUT
  2
AcDbLayout
  3
ObjectDBX Classes
 90
        0
280
     0
281
     0
  0
ENDSEC
  0
SECTION
  2
TABLES
  0
TABLE
  2
VPORT
  5
8
330
0
100
AcDbSymbolTable
 70
     2
  0
VPORT
  5
29
330
8
100
AcDbSymbolTableRecord
100
AcDbViewportTableRecord
  2
*Active
 70
     0
 10
0.0
 20
0.0
 11
1.0
 21
1.0
 12
50.0
 22
50.0
 13
0.0
 23
0.0
 14
10.0
 24
10.0
 15
10.0
 25
10.0
 16
0.0
 26
0.0
 36
1.0
 17
0.0
 27
0.0
 37
0.0
 40
103.921569
 41
1.0
 42
50.0
 43
0.0
 44
0.0
 50
0.0
 51
0.0
 71
     0
 72
   100
 73
     1
 74
     3
 75
     0
 76
     0
 77
     0
 78
     0
281
     0
 65
     1
110
0.0
120
0.0
130
0.0
111
1.0
121
0.0
131
0.0
112
0.0
122
1.0
132
0.0
 79
     0
146
0.0
  0
ENDTAB
  0
TABLE
  2
LTYPE
  5
5
330
0
100
AcDbSymbolTable
 70
     1
  0
LTYPE
  5
14
330
5
100
AcDbSymbolTableRecord
100
AcDbLinetypeTableRecord
  2
ByBlock
 70
     0
  3

 72
    65
 73
     0
 40
0.0
  0
LTYPE
  5
15
330
5
100
AcDbSymbolTableRecord
100
AcDbLinetypeTableRecord
  2
ByLayer
 70
     0
  3

 72
    65
 73
     0
 40
0.0
  0
LTYPE
  5
16
330
5
100
AcDbSymbolTableRecord
100
AcDbLinetypeTableRecord
  2
Continuous
 70
     0
  3

 72
    65
 73
     0
 40
0.0
  0
ENDTAB
  0
TABLE
  2
LAYER
  5
2
330
0
100
AcDbSymbolTable
 70
     1
  0
LAYER
  5
10
330
2
100
AcDbSymbolTableRecord
100
AcDbLayerTableRecord
  2
0
 70
     0
 62
     7
  6
Continuous
370
    -3
390
F
  0
ENDTAB
  0
TABLE
  2
STYLE
  5
3
330
0
100
AcDbSymbolTable
 70
     1
  0
STYLE
  5
11
330
3
100
AcDbSymbolTableRecord
100
AcDbTextStyleTableRecord
  2
Standard
 70
     0
 40
1.0
 41
1.0
 50
0.0
 71
     0
 42
2.5
  3
RomanS
  4

  0
ENDTAB
  0
TABLE
  2
VIEW
  5
6
330
0
100
AcDbSymbolTable
 70
     0
  0
ENDTAB
  0
TABLE
  2
UCS
  5
7
330
0
100
AcDbSymbolTable
 70
     0
  0
ENDTAB
  0
TABLE
  2
APPID
  5
9
330
0
100
AcDbSymbolTable
 70
     1
  0
APPID
  5
12
330
9
100
AcDbSymbolTableRecord
100
AcDbRegAppTableRecord
  2
ACAD
 70
     0
  0
ENDTAB
  0
TABLE
  2
DIMSTYLE
  5
A
330
0
100
AcDbSymbolTable
 70
     1
100
AcDbDimStyleTable
  0
DIMSTYLE
105
27
330
A
100
AcDbSymbolTableRecord
100
AcDbDimStyleTableRecord
  2
ISO-25
 70
     0
 41
2.5
 42
0.625
 44
1.25
 73
     0
 74
     0
 77
     1
 78
     8
 79
     2
140
2.5
141
2.5
146
0.0
147
0.625
271
     2
272
     0
273
     0
274
     0
278
    44
283
     0
289
     0
340
11
  0
ENDTAB
  0
TABLE
  2
BLOCK_RECORD
  5
1
330
0
100
AcDbSymbolTable
 70
     1
  0
BLOCK_RECORD
  5
1F
330
1
100
AcDbSymbolTableRecord
100
AcDbBlockTableRecord
  2
*Model_Space
340
22
  0
BLOCK_RECORD
  5
1B
330
1
100
AcDbSymbolTableRecord
100
AcDbBlockTableRecord
  2
*Paper_Space
340
1E
  0
BLOCK_RECORD
  5
23
330
1
100
AcDbSymbolTableRecord
100
AcDbBlockTableRecord
  2
*Paper_Space0
340
26
  0
ENDTAB
  0
ENDSEC
  0
SECTION
  2
BLOCKS
  0
BLOCK
  5
20
330
1F
100
AcDbEntity
  8
0
100
AcDbBlockBegin
  2
*Model_Space
 70
     0
 71
     0
 10
0.0
 20
0.0
 30
0.0
  3
*Model_Space
  1

  0
ENDBLK
  5
21
330
1F
100
AcDbEntity
  8
0
100
AcDbBlockEnd
  0
BLOCK
  5
1C
330
1B
100
AcDbEntity
 67
     1
  8
0
100
AcDbBlockBegin
  2
*Paper_Space
 70
     0
 71
     0
 10
0.0
 20
0.0
 30
0.0
  3
*Paper_Space
  1

  0
ENDBLK
  5
1D
330
1B
100
AcDbEntity
 67
     1
  8
0
100
AcDbBlockEnd
  0
BLOCK
  5
24
330
23
100
AcDbEntity
  8
0
100
AcDbBlockBegin
  2
*Paper_Space0
 70
     0
 71
     0
 10
0.0
 20
0.0
 30
0.0
  3
*Paper_Space0
  1

  0
ENDBLK
  5
25
330
23
100
AcDbEntity
  8
0
100
AcDbBlockEnd
  0
ENDSEC
  0
SECTION
  2
ENTITIES
  0
LWPOLYLINE
  5
2A
330
1F
100
AcDbEntity
  8
0
100
AcDbPolyline
 90
      166
 70
   128
 43
0.0
 10
104.3516
 20
13.5479
 10
104.3516
 20
13.1837
 10
104.3516
 20
13.038
 10
104.3488
 20
12.8924
 10
104.3516
 20
12.7915
 10
104.3516
 20
12.7383
 10
104.3516
 20
12.6738
 10
104.3501
 20
12.5508
 10
104.3628
 20
16.4222
 10
104.1898
 20
16.4476
 10
103.9905
 20
16.5273
 10
103.7854
 20
16.6135
 10
103.5725
 20
16.707
 10
103.3737
 20
16.887
 10
103.1748
 20
17.0662
 10
102.9761
 20
17.2459
 10
102.8365
 20
17.3058
 10
102.6971
 20
17.3718
 10
102.5578
 20
17.4458
 10
102.4186
 20
17.4657
 10
102.2731
 20
17.4857
 10
102.1198
 20
17.506
 10
101.9807
 20
17.5003
 10
101.8407
 20
17.4863
 10
101.7018
 20
17.4666
 10
101.5818
 20
17.4269
 10
101.4568
 20
17.3814
 10
101.3229
 20
17.328
 10
101.2573
 20
17.2878
 10
101.1835
 20
17.2426
 10
101.1042
 20
17.1885
 10
101.0837
 20
17.1885
 10
101.058
 20
17.1827
 10
101.0243
 20
17.1689
 10
101.0241
 20
17.1491
 10
101.0182
 20
17.1291
 10
101.0041
 20
17.1093
 10
100.9641
 20
17.0694
 10
100.9182
 20
17.0296
 10
100.8642
 20
16.9899
 10
100.8188
 20
16.9299
 10
100.7648
 20
16.8645
 10
100.7047
 20
16.791
 10
100.645
 20
16.6658
 10
100.5795
 20
16.5321
 10
100.505
 20
16.393
 10
100.479
 20
16.2535
 10
100.4451
 20
16.1141
 10
100.4052
 20
15.9748
 10
100.4043
 20
15.3711
 10
100.3975
 20
14.76
 10
100.3824
 20
14.1428
 10
100.3228
 20
14.0034
 10
100.2566
 20
13.864
 10
100.183
 20
13.7247
 10
100.0234
 20
13.6058
 10
99.8642
 20
13.4863
 10
99.7042
 20
13.3668
 10
99.4655
 20
13.2878
 10
99.2261
 20
13.2026
 10
98.987
 20
13.109
 10
98.9412
 20
13.0694
 10
98.8874
 20
13.0236
 10
98.8276
 20
12.97
 10
98.8276
 20
12.9502
 10
98.8216
 20
12.9301
 10
98.8076
 20
12.9099
 10
98.7677
 20
12.8702
 10
98.7219
 20
12.8245
 10
98.668
 20
12.7706
 10
98.628
 20
12.6913
 10
98.5818
 20
12.611
 10
98.5282
 20
12.5318
 10
98.5025
 20
12.4328
 10
98.4682
 20
12.3267
 10
98.4285
 20
12.2137
 10
98.4284
 20
12.0541
 10
98.422
 20
11.8948
 10
98.4074
 20
11.7353
 10
98.3876
 20
11.7296
 10
98.3619
 20
11.7158
 10
98.3278
 20
11.6958
 10
98.3278
 20
11.676
 10
98.3338
 20
11.6562
 10
98.3477
 20
11.6362
 10
98.3676
 20
11.6364
 10
98.3875
 20
11.6302
 10
98.4068
 20
11.2976
 10
98.4127
 20
10.9787
 10
98.4264
 20
10.6601
 10
98.42
 20
10.4747
 10
98.4054
 20
10.2816
 10
98.3854
 20
10.0828
 10
98.3455
 20
10.0032
 10
98.2996
 20
9.9235
 10
98.2458
 20
9.8437
 10
98.1858
 20
9.7842
 10
98.1198
 20
9.7186
 10
98.0462
 20
9.645
 10
97.9666
 20
9.6052
 10
97.8808
 20
9.5659
 10
97.7871
 20
9.5257
 10
97.6676
 20
9.4401
 10
97.5416
 20
9.3471
 10
97.4085
 20
9.2473
 10
97.3687
 20
9.202
 10
97.3227
 20
9.1482
 10
97.269
 20
9.0885
 10
97.2487
 20
9.0488
 10
97.2287
 20
9.0029
 10
97.209
 20
8.949
 10
97.1886
 20
8.9294
 10
97.163
 20
8.9034
 10
97.129
 20
8.8697
 10
97.1091
 20
8.7897
 10
97.0891
 20
8.7043
 10
97.0688
 20
8.6105
 10
97.0687
 20
8.451
 10
97.0625
 20
8.2919
 10
97.0485
 20
8.1327
 10
97.0681
 20
8.0531
 10
97.088
 20
7.9736
 10
97.1079
 20
7.8934
 10
97.1478
 20
7.8143
 10
97.1932
 20
7.7282
 10
97.2467
 20
7.6348
 10
97.3463
 20
7.5491
 10
97.4457
 20
7.4551
 10
97.5452
 20
7.3557
 10
97.6907
 20
7.2754
 10
97.844
 20
7.19
 10
98.0032
 20
7.0961
 10
98.0885
 20
7.0301
 10
98.1819
 20
6.9561
 10
98.2812
 20
6.8766
 10
98.3211
 20
6.7965
 10
98.361
 20
6.7171
 10
98.4004
 20
6.6372
 10
98.4063
 20
6.3524
 10
98.4201
 20
6.06
 10
98.4392
 20
5.7608
 10
98.4786
 20
5.6215
 10
98.5245
 20
5.4821
 10
98.5782
 20
5.3426
 10
98.6576
 20
5.2166
 10
98.7433
 20
5.0833
 10
98.8361
 20
4.9438
 10
98.9418
 20
4.8579
 10
99.0548
 20
4.7643
 10
99.1745
 20
4.6644
 10
99.3136
 20
4.6049
 10
99.4533
 20
4.5386
 10
99.5926
 20
4.4648
 10
99.6723
 20
4.4586
 10
99.7579
 20
4.4444
 10
99.8516
 20
4.4248
 10
100.0304
 20
4.4246
 10
100.2098
 20
4.4182
 10
100.3891
 20
4.4037
 10
100.9068
 20
4.4235
 10
101.4244
 20
4.4423
 10
101.9011
 20
4.4292
 10
102.2146
 20
4.4393
 10
102.2146
 20
4.4564
 10
102.2147
 20
4.5189
 10
102.2146
 20
4.4393
  0
LWPOLYLINE
  5
2B
330
1F
100
AcDbEntity
  8
0
100
AcDbPolyline
 90
      230
 70
   128
 43
0.0
 10
102.2146
 20
4.4393
 10
102.2219
 20
10.3039
 10
102.2243
 20
10.2183
 10
102.2195
 20
10.1367
 10
102.2243
 20
10.0311
 10
102.2243
 20
9.8391
 10
102.2243
 20
9.4935
 10
102.2243
 20
8.9512
 10
102.2195
 20
8.2072
 10
102.2195
 20
7.5496
 10
102.2195
 20
6.796
 10
102.2195
 20
6.5464
 10
102.2147
 20
5.8168
 10
102.2161
 20
4.9224
 10
102.2146
 20
4.4393
 10
102.4211
 20
3.4353
 10
102.4278
 20
2.7521
 10
102.4371
 20
2.0709
 10
102.4765
 20
1.9516
 10
102.5224
 20
1.8261
 10
102.5762
 20
1.6925
 10
102.6157
 20
1.6327
 10
102.6553
 20
1.567
 10
102.6952
 20
1.493
 10
102.8007
 20
1.4072
 10
102.9141
 20
1.3135
 10
103.033
 20
1.2136
 10
103.1327
 20
1.174
 10
103.2323
 20
1.1279
 10
103.3322
 20
1.0742
 10
103.3718
 20
1.0741
 10
103.4176
 20
1.068
 10
103.471
 20
1.0538
 10
103.6586
 20
1.0487
 10
103.8279
 20
1.053
 10
103.965
 20
1.0498
 10
104.0214
 20
1.0513
 10
104.1464
 20
1.0511
 10
104.2714
 20
1.0509
 10
104.47
 20
1.0533
 10
104.4635
 20
4.4258
 10
104.4672
 20
4.2476
 10
104.4645
 20
4.1213
 10
104.4672
 20
3.7811
 10
104.47
 20
3.6438
 10
104.4672
 20
2.0357
 10
104.47
 20
1.5829
 10
104.47
 20
1.3222
 10
104.47
 20
1.0533
 10
104.7656
 20
1.0722
 10
104.8656
 20
1.0719
 10
104.971
 20
1.0659
 10
105.0843
 20
1.0516
 10
105.2037
 20
1.0514
 10
105.3236
 20
1.057
 10
105.4432
 20
1.0713
 10
105.562
 20
1.1108
 10
105.6884
 20
1.1565
 10
105.8215
 20
1.2099
 10
105.9409
 20
1.2896
 10
106.0607
 20
1.3748
 10
106.1802
 20
1.4681
 10
106.2667
 20
1.6076
 10
106.3598
 20
1.7471
 10
106.46
 20
1.8862
 10
106.4656
 20
1.9322
 10
106.4794
 20
1.9859
 10
106.4998
 20
2.0456
 10
106.5063
 20
2.2249
 10
106.5204
 20
2.4037
 10
106.5233
 20
2.5477
 10
106.5244
 20
3.2978
 10
106.5255
 20
3.7977
 10
106.5791
 20
4.4201
 10
106.5983
 20
10.3095
 10
106.5983
 20
9.9015
 10
106.5983
 20
9.6999
 10
106.5983
 20
9.6135
 10
106.5935
 20
9.5175
 10
106.5935
 20
9.1527
 10
106.5935
 20
8.2216
 10
106.5887
 20
7.66
 10
106.5935
 20
6.7912
 10
106.5839
 20
6.0616
 10
106.5839
 20
5.2745
 10
106.5791
 20
4.4201
 10
106.9015
 20
4.4222
 10
107.0265
 20
4.422
 10
107.1515
 20
4.422
 10
107.5987
 20
4.4536
 10
108.142
 20
4.453
 10
108.6939
 20
4.4521
 10
108.8788
 20
4.4723
 10
109.0724
 20
4.4977
 10
109.2715
 20
4.5313
 10
109.371
 20
4.5708
 10
109.4769
 20
4.6105
 10
109.5903
 20
4.65
 10
109.67
 20
4.6899
 10
109.7557
 20
4.7354
 10
109.8494
 20
4.7892
 10
109.9489
 20
4.8746
 10
110.0489
 20
4.968
 10
110.1481
 20
5.0675
 10
110.2286
 20
5.2068
 10
110.3141
 20
5.3522
 10
110.4082
 20
5.5057
 10
110.4277
 20
5.565
 10
110.448
 20
5.6306
 10
110.4681
 20
5.7045
 10
110.4884
 20
6.0492
 10
110.5147
 20
6.4015
 10
110.5494
 20
6.76
 10
110.6352
 20
6.8988
 10
110.7285
 20
7.0387
 10
110.8287
 20
7.1776
 10
110.9082
 20
7.2433
 10
110.9941
 20
7.3169
 10
111.0879
 20
7.3964
 10
111.1672
 20
7.436
 10
111.2532
 20
7.4759
 10
111.347
 20
7.5154
 10
111.4466
 20
7.6152
 10
111.5465
 20
7.7143
 10
111.6458
 20
7.814
 10
111.7058
 20
7.9394
 10
111.7717
 20
8.0724
 10
111.8459
 20
8.2116
 10
111.8517
 20
8.3911
 10
111.866
 20
8.5704
 10
111.8862
 20
8.7496
 10
111.8665
 20
8.8155
 10
111.8468
 20
8.8889
 10
111.8266
 20
8.9687
 10
111.7472
 20
9.0746
 10
111.6681
 20
9.188
 10
111.5882
 20
9.3075
 10
111.4829
 20
9.3874
 10
111.3693
 20
9.4729
 10
111.25
 20
9.5666
 10
111.1643
 20
9.6071
 10
111.071
 20
9.6529
 10
110.9715
 20
9.7067
 10
110.9256
 20
9.7463
 10
110.8721
 20
9.7865
 10
110.8123
 20
9.8263
 10
110.7663
 20
9.8863
 10
110.7127
 20
9.946
 10
110.6533
 20
10.006
 10
110.6139
 20
10.0915
 10
110.5738
 20
10.1852
 10
110.5341
 20
10.2851
 10
110.5149
 20
10.4841
 10
110.4889
 20
10.6891
 10
110.4552
 20
10.9024
 10
110.4561
 20
11.3864
 10
110.4506
 20
11.8781
 10
110.4373
 20
12.3761
 10
110.3778
 20
12.5213
 10
110.312
 20
12.6752
 10
110.2391
 20
12.8348
 10
110.1397
 20
12.9343
 10
110.0402
 20
13.0338
 10
109.9407
 20
13.1338
 10
109.8809
 20
13.1734
 10
109.8156
 20
13.2195
 10
109.7418
 20
13.2734
 10
109.4628
 20
13.3532
 10
109.1785
 20
13.4393
 10
108.8859
 20
13.5333
 10
108.8204
 20
13.5933
 10
108.746
 20
13.6531
 10
108.6668
 20
13.7132
 10
108.6069
 20
13.8523
 10
108.5417
 20
13.9919
 10
108.4683
 20
14.1315
 10
108.4693
 20
14.7946
 10
108.4642
 20
15.4656
 10
108.4508
 20
16.1429
 10
108.4116
 20
16.2827
 10
108.366
 20
16.4218
 10
108.3123
 20
16.5614
 10
108.2269
 20
16.7006
 10
108.1333
 20
16.8402
 10
108.0341
 20
16.9798
 10
107.9145
 20
17.0657
 10
107.7895
 20
17.1595
 10
107.6559
 20
17.2594
 10
107.497
 20
17.3195
 10
107.3378
 20
17.3851
 10
107.1785
 20
17.4591
 10
107.0786
 20
17.4654
 10
106.9735
 20
17.4792
 10
106.8598
 20
17.4993
 10
106.6407
 20
17.4598
 10
106.4156
 20
17.4202
 10
106.1822
 20
17.3808
 10
106.1569
 20
17.3609
 10
106.1226
 20
17.335
 10
106.0828
 20
17.3011
 10
106.0032
 20
17.2617
 10
105.9172
 20
17.2221
 10
105.8239
 20
17.182
 10
105.7377
 20
17.0964
 10
105.6443
 20
17.0032
 10
105.5449
 20
16.9036
 10
105.5244
 20
16.8775
 10
105.5048
 20
16.8439
 10
105.4904
 20
16.8268
 10
105.4646
 20
16.8045
 10
105.4449
 20
16.7985
 10
105.4251
 20
16.7846
 10
105.3794
 20
16.7386
 10
105.3252
 20
16.6848
 10
105.2655
 20
16.6255
 10
105.2056
 20
16.5995
 10
105.14
 20
16.5658
 10
105.0661
 20
16.5258
 10
104.9667
 20
16.5063
 10
104.8605
 20
16.4862
 10
104.7865
 20
16.4515
 10
104.6678
 20
16.4253
 10
104.3628
 20
16.4222
 10
104.3656
 20
15.9992
 10
104.3572
 20
15.6154
 10
104.3572
 20
15.1251
 10
104.3572
 20
14.6349
 10
104.3544
 20
14.1894
 10
104.3544
 20
13.9093
 10
104.3516
 20
13.5479
  0
LWPOLYLINE
  5
2C
330
1F
100
AcDbEntity
  8
0
100
AcDbPolyline
 90
      609
 70
   128
 43
0.0
 10
158.2442
 20
12.4794
 10
158.1919
 20
12.8384
 10
158.1409
 20
13.2067
 10
157.986
 20
13.7976
 10
157.8354
 20
14.3969
 10
157.6869
 20
15.0063
 10
157.6513
 20
15.0776
 10
157.6211
 20
15.1514
 10
157.5977
 20
15.2287
 10
157.5915
 20
15.2545
 10
157.589
 20
15.2912
 10
157.5893
 20
15.3357
 10
157.4463
 20
15.7096
 10
157.3092
 20
16.0866
 10
157.1796
 20
16.4668
 10
157.0191
 20
16.7876
 10
156.8642
 20
17.1109
 10
156.7162
 20
17.4378
 10
156.5329
 20
17.7915
 10
156.3396
 20
18.1469
 10
156.1372
 20
18.5065
 10
155.9122
 20
18.8683
 10
155.6777
 20
19.2342
 10
155.434
 20
19.6022
 10
155.0658
 20
20.0706
 10
154.6947
 20
20.5462
 10
154.3209
 20
21.0271
 10
154.3064
 20
21.0424
 10
154.285
 20
21.054
 10
154.2582
 20
21.0628
 10
154.2264
 20
21.1135
 10
154.1843
 20
21.1663
 10
154.1335
 20
21.2231
 10
154.0535
 20
21.3834
 10
153.9789
 20
21.5464
 10
153.9113
 20
21.7129
 10
153.911
 20
21.8018
 10
153.9141
 20
21.8993
 10
153.9199
 20
22.0069
 10
153.929
 20
22.0781
 10
153.9433
 20
22.1521
 10
153.9648
 20
22.2294
 10
154.003
 20
22.3004
 10
154.0449
 20
22.3809
 10
154.0896
 20
22.4698
 10
154.1608
 20
22.5504
 10
154.2318
 20
22.6306
 10
154.3032
 20
22.7107
 10
154.4544
 20
22.8084
 10
154.6032
 20
22.9118
 10
154.7484
 20
23.0223
 10
154.7752
 20
23.0577
 10
154.8015
 20
23.0936
 10
154.8287
 20
23.129
 10
154.8222
 20
23.1997
 10
154.8194
 20
23.2804
 10
154.8197
 20
23.3695
 10
154.6454
 20
23.5273
 10
154.4608
 20
23.6866
 10
154.2675
 20
23.8506
 10
154.2026
 20
23.9805
 10
154.1339
 20
24.1179
 10
154.0627
 20
24.2604
 10
154.0425
 20
24.3902
 10
154.0235
 20
24.5301
 10
154.0091
 20
24.6787
 10
154.0244
 20
24.7823
 10
154.0414
 20
24.8952
 10
154.0626
 20
25.0172
 10
154.0805
 20
25.0262
 10
154.0958
 20
25.0406
 10
154.1074
 20
25.062
 10
154.1135
 20
25.0938
 10
154.116
 20
25.133
 10
154.1163
 20
25.1776
 10
154.1966
 20
25.2848
 10
154.2736
 20
25.3966
 10
154.3478
 20
25.516
 10
154.526
 20
25.6943
 10
154.7064
 20
25.8804
 10
154.8911
 20
26.0772
 10
155.1672
 20
26.4154
 10
155.4488
 20
26.7566
 10
155.7373
 20
27.1013
 10
155.9309
 20
27.3825
 10
156.1202
 20
27.6712
 10
156.3076
 20
27.9649
 10
156.3638
 20
28.0888
 10
156.4237
 20
28.2235
 10
156.4858
 20
28.3661
 10
156.539
 20
28.4372
 10
156.5978
 20
28.5111
 10
156.6636
 20
28.5888
 10
156.851
 20
28.9716
 10
157.0352
 20
29.36
 10
157.2161
 20
29.7551
 10
157.3141
 20
30.0043
 10
157.4093
 20
30.2595
 10
157.5016
 20
30.5214
 10
157.5958
 20
30.8351
 10
157.8042
 20
31.4738
 10
157.8666
 20
31.7503
 10
157.926
 20
32.0319
 10
157.9824
 20
32.3201
 10
157.9975
 20
32.3345
 10
158.0088
 20
32.3558
 10
158.0177
 20
32.3826
 10
158.0089
 20
32.4003
 10
158.0054
 20
32.421
 10
158.0092
 20
32.4449
 10
158.1338
 20
32.908
 10
158.2611
 20
33.3791
 10
158.3924
 20
33.8612
 10
158.4098
 20
33.8698
 10
158.4249
 20
33.8845
 10
158.4367
 20
33.9058
 10
158.5934
 20
34.4515
 10
158.7548
 20
35.0063
 10
158.9177
 20
35.5711
 10
159.0871
 20
36.0341
 10
159.2534
 20
36.5024
 10
159.417
 20
36.9782
 10
159.4968
 20
37.1742
 10
159.5771
 20
37.3703
 10
159.6571
 20
37.566
 10
159.648
 20
37.5838
 10
159.6448
 20
37.604
 10
159.6482
 20
37.6285
 10
159.6717
 20
37.6843
 10
159.7017
 20
37.7441
 10
159.7373
 20
37.8066
 10
159.7338
 20
37.8271
 10
159.7346
 20
37.8564
 10
159.7371
 20
37.8955
 10
159.7555
 20
37.9046
 10
159.7758
 20
37.9213
 10
159.7996
 20
37.9491
 10
160.0658
 20
38.6544
 10
160.329
 20
39.3624
 10
160.5905
 20
40.0764
 10
160.8508
 20
40.79
 10
160.8865
 20
40.8521
 10
160.9222
 20
40.9148
 10
160.9154
 20
40.9131
 10
160.9665
 20
41.0484
 10
160.9811
 20
41.1222
 10
161.0022
 20
41.1998
 10
161.2822
 20
41.9454
 10
161.5601
 20
42.6942
 10
161.8407
 20
43.4512
 10
162.1249
 20
44.2097
 10
162.1482
 20
44.2661
 10
162.1782
 20
44.326
 10
162.2141
 20
44.3879
 10
162.2284
 20
44.4618
 10
162.2498
 20
44.5396
 10
162.2762
 20
44.6198
 10
162.3118
 20
44.6817
 10
162.3474
 20
44.7444
 10
162.3829
 20
44.8062
 10
162.4067
 20
44.8183
 10
162.4337
 20
44.8388
 10
162.4634
 20
44.8691
 10
162.4956
 20
44.8625
 10
162.5348
 20
44.86
 10
162.579
 20
44.8601
 10
162.713
 20
44.8153
 10
162.8487
 20
44.7654
 10
162.989
 20
44.7085
 10
162.9978
 20
44.6909
 10
163.0792
 20
44.6614
 10
163.2511
 20
44.5826
 10
163.4637
 20
44.5162
 10
163.8973
 20
44.361
 10
164.3335
 20
44.201
 10
164.5304
 20
44.0739
 10
164.6992
 20
44.0099
 10
163.658
 20
41.1942
 10
163.6883
 20
41.2729
 10
163.7155
 20
41.3395
 10
163.7458
 20
41.4304
 10
163.8003
 20
41.5727
 10
163.8517
 20
41.7271
 10
163.9546
 20
41.9693
 10
164.0848
 20
42.3417
 10
164.1241
 20
42.4476
 10
164.2028
 20
42.6626
 10
164.2997
 20
42.929
 10
164.3783
 20
43.1198
 10
164.4147
 20
43.2348
 10
164.4449
 20
43.3196
 10
164.4843
 20
43.4286
 10
164.5539
 20
43.6042
 10
164.6296
 20
43.8191
 10
164.6992
 20
44.0099
 10
164.8818
 20
43.9431
 10
165.0283
 20
43.9248
 10
165.4852
 20
43.7676
 10
165.9457
 20
43.6039
 10
166.1385
 20
43.5362
 10
166.4177
 20
43.4167
 10
166.432
 20
43.4019
 10
166.4533
 20
43.3899
 10
166.4453
 20
43.4016
 10
166.4775
 20
43.3954
 10
166.5326
 20
43.3498
 10
166.5603
 20
43.3544
 10
166.5741
 20
43.3394
 10
166.7547
 20
43.271
 10
166.8923
 20
43.2247
 10
167.1981
 20
43.1166
 10
167.5131
 20
43.0069
 10
167.6429
 20
42.9384
 10
167.7801
 20
42.8739
 10
167.9226
 20
42.8111
 10
167.8996
 20
42.6659
 10
167.8695
 20
42.517
 10
167.8336
 20
42.3658
 10
167.8071
 20
42.2856
 10
167.7752
 20
42.2029
 10
167.7361
 20
42.1165
 10
167.6326
 20
41.998
 10
167.5243
 20
41.8708
 10
167.4149
 20
41.7336
 10
167.3286
 20
41.6837
 10
167.2405
 20
41.6238
 10
167.148
 20
41.5554
 10
167.0444
 20
41.5256
 10
166.9342
 20
41.4933
 10
166.8184
 20
41.4575
 10
166.6784
 20
41.3805
 10
166.5368
 20
41.2946
 10
166.3909
 20
41.199
 10
166.332
 20
41.1254
 10
166.2687
 20
41.0423
 10
166.204
 20
40.9498
 10
165.9962
 20
40.4162
 10
165.7852
 20
39.872
 10
165.5709
 20
39.3198
 10
165.5535
 20
39.2666
 10
165.5381
 20
39.2079
 10
165.5267
 20
39.1417
 10
165.5035
 20
39.0856
 10
165.4733
 20
39.0263
 10
165.4376
 20
38.9636
 10
165.4313
 20
38.9317
 10
165.4287
 20
38.8928
 10
165.4287
 20
38.8477
 10
165.2098
 20
38.293
 10
164.9832
 20
37.7349
 10
164.7516
 20
37.1737
 10
164.5794
 20
36.7916
 10
164.4043
 20
36.3989
 10
164.2259
 20
35.998
 10
164.2349
 20
35.9803
 10
164.2385
 20
35.9598
 10
164.2352
 20
35.9357
 10
164.2117
 20
35.924
 10
164.1842
 20
35.9036
 10
164.155
 20
35.8734
 10
164.0149
 20
35.574
 10
163.8735
 20
35.2651
 10
163.7273
 20
34.9471
 10
163.7004
 20
34.9115
 10
163.6687
 20
34.8731
 10
163.6293
 20
34.8317
 10
163.3213
 20
34.2766
 10
163.0082
 20
33.7125
 10
162.6937
 20
33.1393
 10
162.4534
 20
32.7744
 10
162.2126
 20
32.409
 10
161.9723
 20
32.0441
 10
161.9609
 20
32.009
 10
161.9457
 20
31.9635
 10
161.928
 20
31.91
 10
161.8959
 20
31.8719
 10
161.8564
 20
31.83
 10
161.8119
 20
31.7853
 10
161.6073
 20
31.4828
 10
161.4022
 20
31.1797
 10
161.1973
 20
30.8772
 10
161.0192
 20
30.6545
 10
160.663
 20
30.2092
 10
160.5054
 20
29.9901
 10
160.3513
 20
29.7636
 10
160.1998
 20
29.5322
 10
160.0243
 20
29.2151
 10
159.8528
 20
28.8909
 10
159.683
 20
28.5614
 10
159.5672
 20
28.303
 10
159.4489
 20
28.0371
 10
159.3268
 20
27.7601
 10
159.3115
 20
27.7009
 10
159.3002
 20
27.6354
 10
159.2912
 20
27.564
 10
159.2491
 20
27.4698
 10
159.2057
 20
27.3652
 10
159.1573
 20
27.2523
 10
159.1664
 20
27.2344
 10
159.1703
 20
27.214
 10
159.1667
 20
27.1901
 10
159.1256
 20
27.0358
 10
159.0774
 20
26.8783
 10
159.0239
 20
26.7183
 10
158.9642
 20
26.4365
 10
158.9081
 20
26.1479
 10
158.8544
 20
25.8539
 10
158.8456
 20
25.6939
 10
158.8313
 20
25.5307
 10
158.8101
 20
25.3642
 10
158.7566
 20
25.2038
 10
158.7031
 20
25.044
 10
158.6494
 20
24.8832
 10
158.6043
 20
24.7973
 10
158.5533
 20
24.7403
 10
158.4904
 20
24.6474
 10
158.4304
 20
24.5724
 10
158.3375
 20
24.4945
 10
158.2895
 20
24.4315
 10
158.1846
 20
24.3445
 10
158.0797
 20
24.2876
 10
158.0138
 20
24.2396
 10
157.8913
 20
24.1873
 10
157.8489
 20
24.1646
 10
157.8219
 20
24.1616
 10
157.774
 20
24.1526
 10
157.738
 20
24.1436
 10
157.714
 20
24.1286
 10
157.696
 20
24.1167
 10
157.6781
 20
24.1017
 10
157.6691
 20
24.0897
 10
157.6469
 20
24.0676
 10
157.6566
 20
24.019
 10
157.699
 20
23.9787
 10
157.744
 20
23.9547
 10
157.8445
 20
23.88
 10
157.9179
 20
23.8288
 10
157.9778
 20
23.7808
 10
158.0258
 20
23.7389
 10
158.106
 20
23.6988
 10
158.203
 20
23.6515
 10
158.3111
 20
23.6006
 10
158.4267
 20
23.5474
 10
158.4872
 20
23.5143
 10
158.5503
 20
23.4635
 10
158.614
 20
23.3959
 10
158.6434
 20
23.3371
 10
158.6817
 20
23.274
 10
158.7295
 20
23.209
 10
158.7891
 20
23.0764
 10
158.8456
 20
22.9327
 10
158.8989
 20
22.7811
 10
158.8899
 20
22.3092
 10
158.8784
 20
21.8295
 10
158.8632
 20
21.3383
 10
158.8807
 20
21.3028
 10
158.8933
 20
21.2643
 10
158.8988
 20
21.2227
 10
158.8923
 20
21.057
 10
158.8897
 20
20.8842
 10
158.8899
 20
20.706
 10
158.9428
 20
20.1989
 10
158.9964
 20
19.6909
 10
159.0498
 20
19.183
 10
159.1119
 20
18.8803
 10
159.172
 20
18.5695
 10
159.2281
 20
18.248
 10
159.3436
 20
17.8381
 10
159.4566
 20
17.4205
 10
159.5663
 20
16.9922
 10
159.682
 20
16.627
 10
159.8005
 20
16.2562
 10
159.9223
 20
15.8789
 10
160.0915
 20
15.4957
 10
160.2637
 20
15.1075
 10
160.4391
 20
14.7117
 10
160.5281
 20
14.5337
 10
160.625
 20
14.353
 10
160.7331
 20
14.1687
 10
160.8753
 20
13.8838
 10
161.0127
 20
13.5959
 10
161.2938
 20
12.9127
 10
161.4424
 20
12.5127
 10
161.5876
 20
12.1024
 10
161.7096
 20
11.7114
 10
161.8278
 20
11.3094
 10
161.9435
 20
10.8997
 10
161.973
 20
10.7519
 10
162.0008
 20
10.5944
 10
162.0237
 20
10.4282
 10
162.0087
 20
10.2798
 10
161.9917
 20
10.1224
 10
161.9705
 20
9.956
 10
161.947
 20
9.8995
 10
161.9198
 20
9.8348
 10
161.8906
 20
9.7599
 10
161.8364
 20
9.6887
 10
161.786
 20
9.6118
 10
161.7387
 20
9.5283
 10
161.5872
 20
9.4304
 10
161.4358
 20
9.3326
 10
161.2847
 20
9.2343
 10
161.2133
 20
9.1987
 10
161.1339
 20
9.1657
 10
161.044
 20
9.1369
 10
161.0121
 20
9.098
 10
160.9755
 20
9.0509
 10
160.9373
 20
8.9937
 10
160.9284
 20
8.9671
 10
160.9168
 20
8.9328
 10
160.9017
 20
8.8872
 10
160.922
 20
8.8463
 10
160.9404
 20
8.7954
 10
160.9551
 20
8.7358
 10
160.9755
 20
8.6947
 10
161.0049
 20
8.6494
 10
161.0441
 20
8.6023
 10
161.106
 20
8.5662
 10
161.1739
 20
8.5335
 10
161.2488
 20
8.504
 10
161.3408
 20
8.5433
 10
161.4361
 20
8.5753
 10
161.5339
 20
8.6022
 10
161.6107
 20
8.5958
 10
161.6969
 20
8.5878
 10
161.7922
 20
8.5752
 10
161.8839
 20
8.5256
 10
161.9848
 20
8.471
 10
162.0949
 20
8.4148
 10
162.1386
 20
8.3409
 10
162.1927
 20
8.2636
 10
162.255
 20
8.1833
 10
162.2729
 20
8.1031
 10
162.2935
 20
8.0177
 10
162.3176
 20
7.925
 10
162.2934
 20
7.8395
 10
162.2676
 20
7.7442
 10
162.2376
 20
7.64
 10
162.1607
 20
7.5574
 10
162.0772
 20
7.4707
 10
161.9878
 20
7.3818
 10
161.8718
 20
7.3018
 10
161.7538
 20
7.2133
 10
161.6318
 20
7.1149
 10
161.5726
 20
7.0406
 10
161.5095
 20
6.9578
 10
161.4446
 20
6.8652
 10
161.3911
 20
6.7493
 10
161.3348
 20
6.6258
 10
161.2751
 20
6.4915
 10
161.2611
 20
6.4171
 10
161.2423
 20
6.3346
 10
161.2217
 20
6.2419
 10
161.222
 20
6.1525
 10
161.2193
 20
6.0556
 10
161.2129
 20
5.9482
 10
161.27
 20
5.7761
 10
161.3197
 20
5.6007
 10
161.3644
 20
5.4223
 10
161.3851
 20
5.2927
 10
161.4034
 20
5.1529
 10
161.4177
 20
5.0039
 10
161.3846
 20
4.8471
 10
161.3555
 20
4.683
 10
161.3283
 20
4.514
 10
161.261
 20
4.4134
 10
161.1887
 20
4.304
 10
161.115
 20
4.1843
 10
161.0407
 20
4.141
 10
160.9634
 20
4.0864
 10
160.8831
 20
4.0242
 10
160.6607
 20
3.9351
 10
160.4299
 20
3.8487
 10
160.1885
 20
3.766
 10
160.0612
 20
3.7984
 10
159.9248
 20
3.8342
 10
159.779
 20
3.873
 10
159.7021
 20
3.8792
 10
159.6159
 20
3.8871
 10
159.5206
 20
3.8997
 10
159.2986
 20
3.8846
 10
159.173
 20
3.8819
 10
158.9543
 20
3.7724
 10
158.7304
 20
3.6537
 10
158.5054
 20
3.5256
 10
158.4162
 20
3.4368
 10
158.3299
 20
3.3422
 10
158.2472
 20
3.2406
 10
158.1785
 20
3.1107
 10
158.1077
 20
2.9709
 10
158.033
 20
2.8222
 10
157.977
 20
2.7425
 10
157.9172
 20
2.6527
 10
157.8549
 20
2.5546
 10
157.8052
 20
2.5077
 10
157.7481
 20
2.4568
 10
157.6856
 20
2.4035
 10
156.9197
 20
2.0206
 10
156.1562
 20
1.6327
 10
155.3968
 20
1.237
 10
155.2897
 20
1.228
 10
155.1748
 20
1.2216
 10
155.0494
 20
1.2192
 10
154.9931
 20
1.2422
 10
154.9279
 20
1.27
 10
154.8534
 20
1.2991
 10
154.8122
 20
1.368
 10
154.7617
 20
1.4383
 10
154.7021
 20
1.5134
 10
154.6843
 20
1.5931
 10
154.6663
 20
1.6733
 10
154.6486
 20
1.7536
 10
154.6689
 20
1.8151
 10
154.6931
 20
1.8871
 10
154.72
 20
1.9674
 10
154.7466
 20
2.0029
 10
154.7731
 20
2.0383
 10
154.8002
 20
2.0741
 10
154.8977
 20
2.1456
 10
154.9959
 20
2.2168
 10
155.0941
 20
2.288
 10
155.2417
 20
2.3618
 10
155.3995
 20
2.434
 10
155.5658
 20
2.5017
 10
155.7264
 20
2.6263
 10
155.8863
 20
2.7509
 10
156.0468
 20
2.8757
 10
156.1866
 20
3.0859
 10
156.3282
 20
3.3058
 10
156.4746
 20
3.5346
 10
156.4895
 20
3.5935
 10
156.5066
 20
3.6616
 10
156.528
 20
3.7393
 10
156.5754
 20
3.8366
 10
156.6261
 20
3.9445
 10
156.6796
 20
4.0604
 10
156.7569
 20
4.1281
 10
156.8363
 20
4.2051
 10
156.9198
 20
4.2916
 10
157.0145
 20
4.3389
 10
157.1131
 20
4.3949
 10
157.2137
 20
4.4611
 10
157.2523
 20
4.4732
 10
157.2993
 20
4.4812
 10
157.3561
 20
4.4878
 10
157.5042
 20
4.5617
 10
157.6617
 20
4.6335
 10
157.8284
 20
4.7013
 10
157.9176
 20
4.7903
 10
158.0091
 20
4.8874
 10
158.1045
 20
4.9951
 10
158.1453
 20
5.0602
 10
158.1938
 20
5.1288
 10
158.2469
 20
5.1999
 10
158.2917
 20
5.3335
 10
158.3387
 20
5.475
 10
158.3897
 20
5.6273
 10
158.3985
 20
5.6987
 10
158.4101
 20
5.7782
 10
158.4249
 20
5.8679
 10
158.3719
 20
6.0638
 10
158.3237
 20
6.2627
 10
158.2827
 20
6.4651
 10
158.265
 20
6.634
 10
158.2524
 20
6.8059
 10
158.2473
 20
6.9813
 10
158.321
 20
7.2032
 10
158.3988
 20
7.4354
 10
158.4787
 20
7.676
 10
158.532
 20
7.747
 10
158.5883
 20
7.8261
 10
158.6482
 20
7.9164
 10
158.8058
 20
8.0461
 10
158.9598
 20
8.1838
 10
159.1113
 20
8.3263
 10
159.1353
 20
8.3673
 10
159.1608
 20
8.4178
 10
159.1913
 20
8.4775
 10
159.1531
 20
8.5543
 10
159.1166
 20
8.6403
 10
159.0846
 20
8.736
 10
158.9242
 20
8.8338
 10
158.7609
 20
8.9372
 10
158.595
 20
9.0475
 10
158.5537
 20
9.1161
 10
158.5031
 20
9.1864
 10
158.4432
 20
9.2613
 10
158.4138
 20
9.365
 10
158.3811
 20
9.4752
 10
158.3452
 20
9.5909
 10
158.3428
 20
9.7299
 10
158.3419
 20
9.8786
 10
158.3454
 20
10.036
 10
158.3506
 20
10.0388
 10
158.3607
 20
10.0507
 10
158.3721
 20
10.0718
 10
158.3722
 20
10.2501
 10
158.3749
 20
10.4361
 10
158.3811
 20
10.633
 10
158.3637
 20
11.0694
 10
158.3428
 20
11.5114
 10
158.3188
 20
11.9602
 10
158.3012
 20
11.9956
 10
158.2886
 20
12.0343
 10
158.2833
 20
12.076
 10
158.2859
 20
12.0839
 10
158.2922
 20
12.1025
 10
158.301
 20
12.1291
 10
158.2442
 20
12.4794
  0
LWPOLYLINE
  5
2D
330
1F
100
AcDbEntity
  8
0
100
AcDbPolyline
 90
       37
 70
   128
 43
0.0
 10
114.2318
 20
5.0848
 10
114.2594
 20
4.9402
 10
114.2766
 20
4.7991
 10
114.2903
 20
4.6717
 10
114.3075
 20
4.5409
 10
114.3545
 20
4.2546
 10
113.9049
 20
7.2396
 10
114.081
 20
7.2329
 10
114.1155
 20
7.23
 10
114.1386
 20
7.2272
 10
114.1732
 20
7.23
 10
114.1933
 20
7.2387
 10
114.202
 20
7.2358
 10
114.2106
 20
7.2387
 10
114.268
 20
7.2297
 10
114.4669
 20
7.2361
 10
114.6706
 20
7.246
 10
114.8807
 20
7.261
 10
115.0534
 20
7.2463
 10
115.2321
 20
7.2363
 10
115.4159
 20
7.2304
 10
115.6947
 20
7.2422
 10
115.9848
 20
7.2525
 10
116.2834
 20
7.2621
 10
116.4145
 20
7.2572
 10
116.5138
 20
7.2701
 10
116.6662
 20
7.2619
 10
116.7178
 20
7.2583
 10
116.7505
 20
7.2611
 10
116.8078
 20
7.2456
 10
117.0418
 20
7.2156
 10
116.971
 20
6.8808
 10
116.8186
 20
6.1267
 10
116.6989
 20
5.6067
 10
116.5764
 20
5.0323
 10
116.5182
 20
4.7709
 10
116.518
 20
4.7709
  0
LWPOLYLINE
  5
2E
330
1F
100
AcDbEntity
  8
0
100
AcDbPolyline
 90
       68
 70
   128
 43
0.0
 10
116.518
 20
4.7709
 10
116.5182
 20
4.7709
 10
117.0418
 20
7.2156
 10
117.0309
 20
7.1694
 10
117.05
 20
7.2502
 10
117.0418
 20
7.2156
 10
117.3682
 20
7.8505
 10
117.4829
 20
8.2811
 10
117.5918
 20
8.7184
 10
117.6979
 20
9.16
 10
117.7892
 20
9.31
 10
117.8867
 20
9.4651
 10
117.9897
 20
9.6239
 10
118.0982
 20
9.7109
 10
118.2035
 20
9.8025
 10
118.3037
 20
9.9007
 10
118.4089
 20
9.9599
 10
118.5186
 20
10.0144
 10
118.6329
 20
10.063
 10
118.7357
 20
10.094
 10
118.8383
 20
10.1248
 10
118.9408
 20
10.1561
 10
119.0173
 20
10.1661
 10
119.1033
 20
10.1768
 10
119.1992
 20
10.1841
 10
119.4018
 20
10.2011
 10
119.643
 20
10.1487
 10
119.905
 20
10.0355
 10
120.0273
 20
9.9469
 10
120.1388
 20
9.8886
 10
120.2805
 20
9.7981
 10
120.5151
 20
9.5773
 10
120.7337
 20
9.1835
 10
120.8271
 20
8.9799
 10
120.8751
 20
8.8474
 10
120.9202
 20
8.7047
 10
121.1217
 20
8.166
 10
121.2739
 20
7.6822
 10
121.3313
 20
7.439
 10
121.5614
 20
7.2656
 10
122.156
 20
4.8062
 10
122.15
 20
4.8003
 10
122.1351
 20
4.8984
 10
122.1203
 20
4.9698
 10
122.0995
 20
5.0501
 10
122.0727
 20
5.1691
 10
122.043
 20
5.2731
 10
121.9419
 20
5.7014
 10
121.7457
 20
6.4954
 10
121.5614
 20
7.2656
 10
121.7538
 20
7.282
 10
121.887
 20
7.2729
 10
122.0638
 20
7.2686
 10
122.1811
 20
7.2576
 10
122.3819
 20
7.2537
 10
122.6351
 20
7.2638
 10
122.9317
 20
7.2541
 10
123.2378
 20
7.2437
 10
123.5838
 20
7.2586
 10
123.9348
 20
7.2661
 10
124.2895
 20
7.2699
 10
124.3171
 20
7.2667
 10
124.3451
 20
7.2663
 10
124.3916
 20
7.2596
 10
124.4978
 20
7.2559
 10
124.6904
 20
7.2437
 10
124.2269
 20
4.2617
 10
124.2258
 20
4.2593
  0
LWPOLYLINE
  5
2F
330
1F
100
AcDbEntity
  8
0
100
AcDbPolyline
 90
      120
 70
   128
 43
0.0
 10
124.2258
 20
4.2593
 10
124.2269
 20
4.2617
 10
124.2396
 20
4.3469
 10
124.295
 20
4.6573
 10
124.3301
 20
4.9379
 10
124.3492
 20
5.04
 10
124.3747
 20
5.1867
 10
124.3875
 20
5.2664
 10
124.3875
 20
5.3047
 10
124.4002
 20
5.3684
 10
124.4034
 20
5.4131
 10
124.4162
 20
5.4673
 10
124.4608
 20
5.7575
 10
124.5309
 20
6.2646
 10
124.617
 20
6.7334
 10
124.6457
 20
6.8993
 10
124.6648
 20
7.0651
 10
124.6904
 20
7.2437
 10
124.8143
 20
7.2118
 10
124.8408
 20
7.2118
 10
124.8688
 20
7.2118
 10
124.894
 20
7.2158
 10
124.9128
 20
7.2168
 10
124.922
 20
7.2178
 10
124.9639
 20
7.2234
 10
125.0163
 20
7.2237
 10
125.0761
 20
7.2304
 10
125.1718
 20
7.229
 10
125.2874
 20
7.202
 10
125.4118
 20
7.1739
 10
125.481
 20
7.1478
 10
125.5375
 20
7.1087
 10
125.5831
 20
7.0561
 10
125.6627
 20
6.9664
 10
125.7483
 20
6.8818
 10
125.8384
 20
6.801
 10
125.9056
 20
6.6764
 10
125.9698
 20
6.5414
 10
126.0345
 20
6.3967
 10
126.0488
 20
6.3333
 10
126.0584
 20
6.2572
 10
126.0621
 20
6.1878
 10
126.0609
 20
6.163
 10
126.059
 20
6.1483
 10
126.0594
 20
6.1316
 10
126.0605
 20
6.0989
 10
126.0559
 20
6.0589
 10
126.0504
 20
6.0267
 10
125.9899
 20
5.5192
 10
125.9273
 20
5.0016
 10
125.865
 20
4.4745
 10
125.825
 20
4.3328
 10
125.7901
 20
4.1853
 10
125.7595
 20
4.0329
 10
125.6212
 20
3.0804
 10
125.4774
 20
2.1229
 10
125.3284
 20
1.1619
 10
125.2929
 20
1.1333
 10
125.2471
 20
1.1042
 10
125.1916
 20
1.0777
 10
124.3792
 20
1.0827
 10
123.5607
 20
1.0885
 10
122.7338
 20
1.0946
 10
121.9825
 20
1.0821
 10
121.8767
 20
1.0789
 10
121.7856
 20
1.0792
 10
121.6073
 20
1.0821
 10
121.6118
 20
2.4559
 10
121.6105
 20
2.3154
 10
121.6121
 20
2.2015
 10
121.6121
 20
2.0428
 10
121.6089
 20
1.629
 10
121.6105
 20
1.4734
 10
121.6089
 20
1.2216
 10
121.6073
 20
1.0821
 10
121.4106
 20
1.0827
 10
121.354
 20
1.0789
 10
121.291
 20
1.0738
 10
121.1103
 20
1.0757
 10
120.7933
 20
1.0585
 10
120.3304
 20
1.0626
 10
119.8981
 20
1.0869
 10
119.8421
 20
1.0881
 10
119.8107
 20
1.096
 10
119.7674
 20
1.0963
 10
119.7522
 20
1.0933
 10
119.7298
 20
1.0965
 10
119.6993
 20
1.0965
 10
119.6484
 20
1.1003
 10
119.5233
 20
1.1015
 10
119.345
 20
1.1045
 10
119.3514
 20
1.3579
 10
119.3514
 20
1.738
 10
119.3482
 20
1.8744
 10
119.3498
 20
2.1117
 10
119.3482
 20
2.2801
 10
119.3514
 20
2.3812
 10
119.3498
 20
2.4149
 10
119.3496
 20
2.4783
 10
119.345
 20
1.1045
 10
119.1486
 20
1.1053
 10
119.0756
 20
1.1013
 10
119.0243
 20
1.0981
 10
118.9695
 20
1.0953
 10
118.872
 20
1.0997
 10
118.5761
 20
1.0865
 10
118.2289
 20
1.0965
 10
117.727
 20
1.095
 10
117.5801
 20
1.0874
 10
117.4285
 20
1.0858
 10
117.2622
 20
1.0973
 10
117.0786
 20
1.1046
 10
117.0895
 20
1.2755
 10
117.0841
 20
1.5373
 10
117.0895
 20
1.7809
 10
117.0895
 20
2.0408
 10
117.0932
 20
2.1663
 10
117.095
 20
2.2717
 10
117.0945
 20
2.5164
 10
117.0952
 20
2.5149
  0
LWPOLYLINE
  5
30
330
1F
100
AcDbEntity
  8
0
100
AcDbPolyline
 90
        2
 70
   128
 43
0.0
 10
117.0952
 20
2.5149
 10
117.0945
 20
2.5164
  0
LWPOLYLINE
  5
31
330
1F
100
AcDbEntity
  8
0
100
AcDbPolyline
 90
        2
 70
   128
 43
0.0
 10
117.0945
 20
2.5164
 10
117.0952
 20
2.5149
  0
LWPOLYLINE
  5
32
330
1F
100
AcDbEntity
  8
0
100
AcDbPolyline
 90
       76
 70
   128
 43
0.0
 10
117.0952
 20
2.5149
 10
117.0945
 20
2.5164
 10
117.0786
 20
1.1046
 10
116.9205
 20
1.0991
 10
116.8842
 20
1.0991
 10
116.8369
 20
1.1009
 10
116.7733
 20
1.0955
 10
116.7388
 20
1.0955
 10
116.6788
 20
1.0977
 10
116.1845
 20
1.1099
 10
115.6852
 20
1.1183
 10
115.1799
 20
1.1219
 10
115.0367
 20
1.1092
 10
114.8901
 20
1.1012
 10
114.7383
 20
1.0995
 10
114.6737
 20
1.1068
 10
114.5983
 20
1.1151
 10
114.5145
 20
1.1246
 10
114.5096
 20
1.1208
 10
114.4983
 20
1.1118
 10
114.4828
 20
1.0994
 10
114.4513
 20
1.1073
 10
114.4102
 20
1.1172
 10
114.3584
 20
1.1273
 10
114.0842
 20
1.1194
 10
113.805
 20
1.1177
 10
113.522
 20
1.1207
 10
113.4576
 20
1.128
 10
113.3819
 20
1.1361
 10
113.2982
 20
1.1456
 10
113.2668
 20
1.248
 10
113.2321
 20
1.3553
 10
113.1924
 20
1.4689
 10
113.1233
 20
1.873
 10
113.0547
 20
2.2774
 10
112.9859
 20
2.6818
 10
112.9906
 20
2.6854
 10
112.9982
 20
2.6988
 10
113.0048
 20
2.7221
 10
112.8752
 20
3.4347
 10
112.7481
 20
4.1576
 10
112.6208
 20
4.8898
 10
112.6077
 20
4.9378
 10
112.5897
 20
4.9927
 10
112.5677
 20
5.0514
 10
112.5163
 20
5.3167
 10
112.4713
 20
5.5865
 10
112.4304
 20
5.86
 10
112.4339
 20
6.0156
 10
112.4327
 20
6.1759
 10
112.4271
 20
6.3424
 10
112.4491
 20
6.4106
 10
112.4715
 20
6.4873
 10
112.4955
 20
6.5755
 10
112.5792
 20
6.6938
 10
112.6634
 20
6.8121
 10
112.7472
 20
6.93
 10
112.8405
 20
7.0048
 10
112.9374
 20
7.0749
 10
113.0394
 20
7.1388
 10
113.1419
 20
7.1698
 10
113.2532
 20
7.2
 10
113.3753
 20
7.2292
 10
113.4469
 20
7.2354
 10
113.5221
 20
7.2387
 10
113.5677
 20
7.2431
 10
113.6124
 20
7.2431
 10
113.6881
 20
7.2431
 10
113.9049
 20
7.2396
 10
113.9462
 20
6.9677
 10
113.9703
 20
6.8128
 10
114.015
 20
6.534
 10
114.0839
 20
6.0762
 10
114.1561
 20
5.6115
 10
114.2077
 20
5.2397
 10
114.2318
 20
5.0848
  0
LWPOLYLINE
  5
33
330
1F
100
AcDbEntity
  8
0
100
AcDbPolyline
 90
      594
 70
   128
 43
0.0
 10
97.9329
 20
22.6579
 10
97.9729
 20
22.5844
 10
98.0199
 20
22.411
 10
98.0669
 20
22.2487
 10
98.1133
 20
22.095
 10
98.1098
 20
22.0711
 10
98.1005
 20
22.0526
 10
98.0868
 20
22.038
 10
98.0932
 20
21.9581
 10
98.1007
 20
21.8879
 10
98.107
 20
21.8272
 10
98.0926
 20
21.6763
 10
98.0725
 20
21.5307
 10
98.0484
 20
21.3892
 10
98.0051
 20
21.265
 10
97.9605
 20
21.1513
 10
97.9172
 20
21.0472
 10
97.8501
 20
20.9184
 10
97.7832
 20
20.79
 10
97.7165
 20
20.661
 10
97.6871
 20
20.552
 10
97.6519
 20
20.4479
 10
97.6124
 20
20.3482
 10
97.5886
 20
20.1872
 10
97.5647
 20
20.0371
 10
97.5403
 20
19.8957
 10
97.5432
 20
19.7916
 10
97.546
 20
19.6988
 10
97.548
 20
19.6144
 10
97.5641
 20
19.5439
 10
97.5804
 20
19.474
 10
97.5962
 20
19.4042
 10
97.6026
 20
19.1788
 10
97.6087
 20
18.9621
 10
97.6142
 20
18.7564
 10
97.6598
 20
18.2832
 10
97.7066
 20
17.8195
 10
97.7515
 20
17.3659
 10
97.7675
 20
17.2957
 10
97.7834
 20
17.2259
 10
97.7996
 20
17.1557
 10
97.7918
 20
17.0892
 10
97.7888
 20
17.0287
 10
97.7903
 20
16.9723
 10
97.8189
 20
16.8083
 10
97.8419
 20
16.6497
 10
97.8602
 20
16.4952
 10
97.8954
 20
16.3878
 10
97.9363
 20
16.2859
 10
97.9812
 20
16.1888
 10
98.0342
 20
16.1579
 10
98.0816
 20
16.1211
 10
98.1252
 20
16.0801
 10
98.2105
 20
16.0542
 10
98.2918
 20
16.0241
 10
98.3672
 20
15.9883
 10
98.4373
 20
16.0041
 10
98.5073
 20
16.0202
 10
98.5774
 20
16.0364
 10
98.6558
 20
16.0905
 10
98.7292
 20
16.1392
 10
98.7985
 20
16.183
 10
98.8377
 20
16.3028
 10
98.8767
 20
16.4105
 10
98.9166
 20
16.5107
 10
98.8667
 20
16.777
 10
98.8173
 20
17.0347
 10
98.7684
 20
17.2812
 10
98.7642
 20
17.4218
 10
98.7561
 20
17.5584
 10
98.7427
 20
17.6888
 10
98.7648
 20
17.9149
 10
98.7868
 20
18.1328
 10
98.8095
 20
18.3391
 10
98.8508
 20
18.519
 10
98.8945
 20
18.6891
 10
98.9359
 20
18.8497
 10
98.9792
 20
18.9733
 10
99.0235
 20
19.0873
 10
99.0676
 20
19.1911
 10
99.2589
 20
19.5588
 10
99.4559
 20
19.9205
 10
99.6571
 20
20.2784
 10
99.6864
 20
20.3876
 10
99.7217
 20
20.4914
 10
99.7612
 20
20.5915
 10
99.7709
 20
20.7465
 10
99.7849
 20
20.8977
 10
99.8049
 20
21.0432
 10
99.7767
 20
21.2068
 10
99.7493
 20
21.3613
 10
99.7214
 20
21.5056
 10
99.681
 20
21.5987
 10
99.6464
 20
21.6867
 10
99.6156
 20
21.7706
 10
99.5811
 20
21.9952
 10
99.5513
 20
22.2154
 10
99.5271
 20
22.4302
 10
99.5305
 20
22.4541
 10
99.5399
 20
22.4728
 10
99.549
 20
22.511
 10
99.5427
 20
22.5251
 10
99.5383
 20
22.5293
 10
99.5714
 20
22.7086
 10
99.6032
 20
22.8789
 10
99.6369
 20
23.0391
 10
99.68
 20
23.1627
 10
99.7245
 20
23.2768
 10
99.7683
 20
23.3807
 10
99.9038
 20
23.5818
 10
100.039
 20
23.7825
 10
100.174
 20
23.9837
 10
100.3177
 20
24.0864
 10
100.45
 20
24.1884
 10
100.5743
 20
24.2905
 10
100.6854
 20
24.3502
 10
100.7962
 20
24.4099
 10
100.9073
 20
24.4688
 10
101.0375
 20
24.5571
 10
101.156
 20
24.6449
 10
101.2663
 20
24.7322
 10
101.3614
 20
24.8534
 10
101.4569
 20
24.963
 10
101.553
 20
25.0646
 10
101.5885
 20
25.16
 10
101.623
 20
25.2453
 10
101.6584
 20
25.3211
 10
101.7097
 20
25.5111
 10
101.7611
 20
25.6898
 10
101.8123
 20
25.8607
 10
101.8052
 20
25.9687
 10
101.7925
 20
26.0713
 10
101.7759
 20
26.1693
 10
101.7832
 20
26.2641
 10
101.7895
 20
26.3487
 10
101.7972
 20
26.4237
 10
101.8481
 20
26.4574
 10
101.8893
 20
26.4923
 10
101.9211
 20
26.5258
 10
101.9728
 20
26.5312
 10
102.0193
 20
26.5425
 10
102.0612
 20
26.558
 10
102.1283
 20
26.5217
 10
102.1853
 20
26.4866
 10
102.2329
 20
26.4496
 10
102.2693
 20
26.3139
 10
102.3111
 20
26.1842
 10
102.3563
 20
26.0589
 10
102.4006
 20
25.9895
 10
102.4448
 20
25.9203
 10
102.4893
 20
25.8511
 10
102.5807
 20
25.7451
 10
102.6735
 20
25.6491
 10
102.7646
 20
25.5628
 10
102.9028
 20
25.5063
 10
103.0314
 20
25.4477
 10
103.1501
 20
25.3903
 10
103.6218
 20
25.1357
 10
104.09
 20
24.8767
 10
104.5521
 20
24.6122
 10
104.782
 20
24.4498
 10
105.0077
 20
24.2908
 10
105.2272
 20
24.138
 10
105.3373
 20
24.0803
 10
105.4378
 20
24.0213
 10
105.5284
 20
23.9634
 10
105.8303
 20
23.7322
 10
106.1283
 20
23.4964
 10
106.4212
 20
23.2554
 10
106.6867
 20
23.0233
 10
106.9414
 20
22.7905
 10
107.1872
 20
22.5579
 10
107.3513
 20
22.3838
 10
107.5208
 20
22.2151
 10
107.6944
 20
22.0508
 10
107.9706
 20
21.7345
 10
108.2512
 20
21.4223
 10
108.5376
 20
21.1163
 10
108.8056
 20
20.7335
 10
109.0795
 20
20.3564
 10
109.3575
 20
19.984
 10
109.5493
 20
19.6737
 10
109.7405
 20
19.3746
 10
109.9318
 20
19.0837
 10
110.0701
 20
18.8245
 10
110.2136
 20
18.5705
 10
110.3619
 20
18.3212
 10
110.4522
 20
18.0982
 10
110.5429
 20
17.8839
 10
110.633
 20
17.6809
 10
110.7061
 20
17.584
 10
110.7792
 20
17.4875
 10
110.8524
 20
17.3908
 10
110.9482
 20
17.3274
 10
111.0348
 20
17.2648
 10
111.111
 20
17.201
 10
111.2454
 20
17.1481
 10
111.3676
 20
17.0953
 10
111.4819
 20
17.0422
 10
111.6089
 20
17.0317
 10
111.6652
 20
17.0331
 10
111.8197
 20
17.0514
 10
111.966
 20
17.0696
 10
112.1009
 20
17.0874
 10
112.2081
 20
17.1228
 10
112.3096
 20
17.1638
 10
112.4071
 20
17.2083
 10
112.5312
 20
17.3106
 10
112.6176
 20
17.4026
 10
112.6993
 20
17.4701
 10
112.7781
 20
17.5417
 10
112.8663
 20
17.5605
 10
112.9952
 20
17.4914
 10
113.0402
 20
17.468
 10
113.1486
 20
17.3853
 10
113.1594
 20
17.3671
 10
113.1957
 20
17.3275
 10
113.2318
 20
17.2975
 10
113.2543
 20
17.2711
 10
113.2812
 20
17.2385
 10
113.3039
 20
17.2168
 10
113.3243
 20
17.193
 10
113.3765
 20
17.1512
 10
113.4223
 20
17.1121
 10
113.4491
 20
17.0854
 10
113.5459
 20
16.9344
 10
113.6445
 20
16.778
 10
113.7474
 20
16.626
 10
113.8005
 20
16.5949
 10
113.8435
 20
16.5623
 10
113.8767
 20
16.5308
 10
114.0151
 20
16.474
 10
114.1437
 20
16.4159
 10
114.2622
 20
16.3582
 10
114.3566
 20
16.3425
 10
114.4416
 20
16.3256
 10
114.5167
 20
16.3091
 10
114.6579
 20
16.3129
 10
114.7988
 20
16.3169
 10
114.9394
 20
16.3208
 10
115.0331
 20
16.3417
 10
115.1171
 20
16.364
 10
115.1913
 20
16.3841
 10
115.3117
 20
16.4537
 10
115.4224
 20
16.5217
 10
115.5236
 20
16.5905
 10
115.7438
 20
16.7657
 10
115.9606
 20
16.9363
 10
116.1713
 20
17.1015
 10
116.6561
 20
17.4113
 10
117.132
 20
17.7196
 10
117.5969
 20
18.0288
 10
117.7316
 20
18.0927
 10
117.8565
 20
18.1584
 10
117.9722
 20
18.2221
 10
118.0
 20
18.2231
 10
118.0197
 20
18.2233
 10
118.0282
 20
18.2237
 10
118.0749
 20
18.2529
 10
118.1109
 20
18.2825
 10
118.1383
 20
18.3114
 10
118.5519
 20
18.496
 10
118.9551
 20
18.6819
 10
119.3486
 20
18.8664
 10
119.735
 20
19.0137
 10
120.1154
 20
19.1554
 10
120.4922
 20
19.2923
 10
120.5816
 20
19.3089
 10
120.6601
 20
19.325
 10
120.7301
 20
19.3411
 10
120.7675
 20
19.3604
 10
120.7956
 20
19.3809
 10
120.8131
 20
19.3994
 10
121.5361
 20
19.5989
 10
122.2587
 20
19.7977
 10
122.9772
 20
19.9925
 10
123.6934
 20
20.1842
 10
123.736
 20
20.1711
 10
123.7786
 20
20.1583
 10
123.8211
 20
20.1454
 10
123.8486
 20
20.1747
 10
123.8718
 20
20.1989
 10
123.8897
 20
20.2179
 10
124.3354
 20
20.399
 10
124.7813
 20
20.5809
 10
125.227
 20
20.762
 10
125.7088
 20
21.0103
 10
126.181
 20
21.2571
 10
126.6434
 20
21.5054
 10
126.9483
 20
21.683
 10
127.2492
 20
21.8647
 10
127.5439
 20
22.0517
 10
127.9361
 20
22.3306
 10
128.3171
 20
22.6085
 10
128.6899
 20
22.8868
 10
129.0713
 20
23.2113
 10
129.4469
 20
23.5418
 10
129.8177
 20
23.8758
 10
130.1285
 20
24.2045
 10
130.4337
 20
24.527
 10
130.7349
 20
24.8454
 10
131.125
 20
25.3447
 10
131.5106
 20
25.8387
 10
131.8912
 20
26.3281
 10
131.9904
 20
26.4532
 10
132.0956
 20
26.5735
 10
132.205
 20
26.6893
 10
132.2824
 20
26.7997
 10
132.3541
 20
26.9047
 10
132.4217
 20
27.005
 10
132.4349
 20
27.0477
 10
132.4468
 20
27.1183
 10
132.3885
 20
27.193
 10
132.3302
 20
27.2562
 10
132.2725
 20
27.3108
 10
131.8117
 20
27.6645
 10
131.3511
 20
28.0179
 10
130.8801
 20
28.4101
 10
130.7825
 20
28.4882
 10
130.6272
 20
28.602
 10
128.7163
 20
26.2134
 10
128.7216
 20
26.2193
 10
128.7108
 20
26.2076
 10
128.8236
 20
26.3343
 10
128.9608
 20
26.5171
 10
129.1662
 20
26.7654
 10
129.3027
 20
26.9409
 10
129.4687
 20
27.1587
 10
129.6074
 20
27.3154
 10
129.7078
 20
27.4565
 10
129.9175
 20
27.7119
 10
130.2515
 20
28.1288
 10
130.6272
 20
28.602
 10
130.3848
 20
28.7884
 10
130.2148
 20
28.8985
 10
130.0991
 20
28.9834
 10
129.4271
 20
29.4902
 10
128.7647
 20
29.9985
 10
128.1122
 20
30.5062
 10
128.041
 20
30.5465
 10
127.9694
 20
30.5868
 10
127.8976
 20
30.6269
 10
127.8698
 20
30.6263
 10
127.8458
 20
30.6213
 10
127.8279
 20
30.6109
 10
127.7421
 20
30.5002
 10
127.6549
 20
30.3991
 10
127.5685
 20
30.3079
 10
127.5417
 20
30.2507
 10
127.5152
 20
30.202
 10
127.4879
 20
30.1649
 10
127.4464
 20
29.9847
 10
127.4033
 20
29.8144
 10
127.3615
 20
29.6542
 10
127.4204
 20
29.4068
 10
127.4733
 20
29.1643
 10
127.5225
 20
28.9258
 10
127.5205
 20
28.8457
 10
127.5126
 20
28.7706
 10
127.5002
 20
28.7001
 10
127.4641
 20
28.6324
 10
127.4335
 20
28.5713
 10
127.4068
 20
28.5141
 10
127.1861
 20
28.2025
 10
126.9594
 20
27.8958
 10
126.7281
 20
27.5941
 10
126.5416
 20
27.3674
 10
126.36
 20
27.147
 10
126.1829
 20
26.9307
 10
125.851
 20
26.5596
 10
125.5132
 20
26.1933
 10
125.1712
 20
25.8317
 10
124.9417
 20
25.6184
 10
124.7177
 20
25.4111
 10
124.4981
 20
25.2074
 10
124.1157
 20
24.911
 10
123.7398
 20
24.6089
 10
123.368
 20
24.3027
 10
122.8736
 20
23.9835
 10
122.3894
 20
23.6656
 10
121.9153
 20
23.3467
 10
121.5535
 20
23.1678
 10
121.197
 20
22.9846
 10
120.8458
 20
22.7958
 10
120.6135
 20
22.6951
 10
120.3907
 20
22.5958
 10
120.1776
 20
22.4955
 10
119.7875
 20
22.3438
 10
119.4058
 20
22.1922
 10
119.0353
 20
22.0413
 10
118.6099
 20
21.9306
 10
118.196
 20
21.8207
 10
117.7905
 20
21.7109
 10
117.7575
 20
21.6961
 10
117.7349
 20
21.6811
 10
117.5666
 20
21.6484
 10
117.4165
 20
21.6261
 10
117.2724
 20
21.5981
 10
117.0674
 20
21.5175
 10
116.8726
 20
21.4361
 10
116.6874
 20
21.3562
 10
116.5152
 20
21.2531
 10
116.355
 20
21.15
 10
116.2029
 20
21.0471
 10
116.0737
 20
20.9307
 10
115.9558
 20
20.815
 10
115.8463
 20
20.6993
 10
115.7393
 20
20.644
 10
115.6421
 20
20.5907
 10
115.5551
 20
20.536
 10
115.4655
 20
20.5192
 10
115.387
 20
20.5035
 10
115.3171
 20
20.487
 10
115.0617
 20
20.5366
 10
114.8153
 20
20.5859
 10
114.5802
 20
20.6359
 10
114.5103
 20
20.6199
 10
114.4443
 20
20.6079
 10
114.3838
 20
20.602
 10
114.2763
 20
20.5668
 10
114.1787
 20
20.5302
 10
114.0908
 20
20.4951
 10
113.9986
 20
20.4184
 10
113.9165
 20
20.3396
 10
113.844
 20
20.2631
 10
113.7526
 20
20.1377
 10
113.6676
 20
20.0189
 10
113.5863
 20
19.9038
 10
113.5162
 20
19.8878
 10
113.4503
 20
19.8759
 10
113.39
 20
19.8702
 10
113.3225
 20
19.9148
 10
113.265
 20
19.9612
 10
113.2171
 20
20.0065
 10
113.2146
 20
20.0908
 10
113.2166
 20
20.1713
 10
113.2244
 20
20.2461
 10
113.2511
 20
20.303
 10
113.2735
 20
20.3558
 10
113.2904
 20
20.4028
 10
113.3019
 20
20.4932
 10
113.3143
 20
20.5728
 10
113.3263
 20
20.6433
 10
113.3109
 20
20.6851
 10
113.2999
 20
20.7227
 10
113.295
 20
20.7552
 10
113.3035
 20
20.7934
 10
113.3069
 20
20.8258
 10
113.3063
 20
20.854
 10
113.2466
 20
20.9651
 10
113.1917
 20
21.0721
 10
113.142
 20
21.1735
 10
113.0208
 20
21.3351
 10
112.8984
 20
21.4864
 10
112.7929
 20
21.6061
 10
112.7508
 20
21.6298
 10
112.6988
 20
21.6478
 10
112.6449
 20
21.668
 10
112.2502
 20
21.8532
 10
111.7825
 20
22.1036
 10
111.3206
 20
22.3485
 10
110.8759
 20
22.6321
 10
110.4358
 20
22.92
 10
110.0005
 20
23.2137
 10
109.6692
 20
23.4719
 10
109.3467
 20
23.731
 10
109.0353
 20
23.9898
 10
108.7266
 20
24.3012
 10
108.4124
 20
24.6066
 10
108.0942
 20
24.9077
 10
107.9341
 20
25.0862
 10
107.7785
 20
25.2608
 10
107.6291
 20
25.4301
 10
107.1953
 20
25.9772
 10
106.7631
 20
26.5149
 10
106.3303
 20
27.0422
 10
106.1269
 20
27.2621
 10
105.9236
 20
27.4819
 10
105.7201
 20
27.7017
 10
105.32
 20
28.0613
 10
104.9298
 20
28.4221
 10
104.5491
 20
28.7822
 10
104.3662
 20
28.9277
 10
104.1888
 20
29.0681
 10
104.0163
 20
29.2039
 10
103.8008
 20
29.3532
 10
103.5853
 20
29.5022
 10
103.37
 20
29.6509
 10
103.2748
 20
29.6666
 10
103.1856
 20
29.6883
 10
103.1008
 20
29.7142
 10
103.0161
 20
29.7117
 10
102.9357
 20
29.7138
 10
102.8609
 20
29.7214
 10
102.7639
 20
29.6763
 10
102.7214
 20
29.661
 10
102.6976
 20
29.6647
 10
102.6834
 20
29.6701
 10
102.6791
 20
29.6743
 10
102.5684
 20
29.5865
 10
102.4584
 20
29.499
 10
102.3482
 20
29.411
 10
102.3046
 20
29.3157
 10
102.2547
 20
29.2256
 10
102.2008
 20
29.1398
 10
102.1635
 20
28.9556
 10
102.1223
 20
28.7756
 10
102.0748
 20
28.6007
 10
102.0473
 20
28.5715
 10
102.0203
 20
28.5429
 10
101.993
 20
28.514
 10
101.8892
 20
28.483
 10
101.7971
 20
28.4524
 10
101.7133
 20
28.4216
 10
101.6608
 20
28.444
 10
101.6141
 20
28.4611
 10
101.5712
 20
28.4741
 10
101.5231
 20
28.5388
 10
101.4737
 20
28.5939
 10
101.4258
 20
28.6392
 10
101.3903
 20
28.7464
 10
101.3538
 20
28.8442
 10
101.3189
 20
28.9322
 10
101.2417
 20
29.0243
 10
101.1634
 20
29.1066
 10
101.0868
 20
29.1792
 10
101.0295
 20
29.2059
 10
100.9725
 20
29.2324
 10
100.9153
 20
29.2588
 10
100.8876
 20
29.2582
 10
100.8633
 20
29.253
 10
100.8452
 20
29.2428
 10
100.8307
 20
29.2566
 10
100.8206
 20
29.2661
 10
100.8164
 20
29.2702
 10
100.7465
 20
29.2543
 10
100.6849
 20
29.2384
 10
100.6346
 20
29.2232
 10
100.5328
 20
29.1358
 10
100.4421
 20
29.0486
 10
100.3602
 20
28.9619
 10
100.3367
 20
28.7922
 10
100.3175
 20
28.627
 10
100.3034
 20
28.4674
 10
100.3335
 20
28.4117
 10
100.363
 20
28.3563
 10
100.3926
 20
28.3008
 10
100.3977
 20
28.1034
 10
100.4032
 20
27.9149
 10
100.4081
 20
27.7378
 10
100.3708
 20
27.5616
 10
100.333
 20
27.3974
 10
100.2954
 20
27.2413
 10
100.2111
 20
27.0741
 10
100.1212
 20
26.9127
 10
100.027
 20
26.7551
 10
99.9412
 20
26.6441
 10
99.8498
 20
26.5385
 10
99.7538
 20
26.4371
 10
99.5405
 20
26.3186
 10
99.3378
 20
26.2006
 10
99.144
 20
26.0824
 10
99.12
 20
26.086
 10
99.1056
 20
26.0907
 10
99.101
 20
26.095
 10
98.7793
 20
26.0161
 10
98.4576
 20
25.9364
 10
98.1359
 20
25.8573
 10
98.0249
 20
25.7979
 10
97.9182
 20
25.7342
 10
97.8171
 20
25.6653
 10
97.7019
 20
25.5635
 10
97.5972
 20
25.4619
 10
97.5016
 20
25.3608
 10
97.4348
 20
25.232
 10
97.3635
 20
25.1072
 10
97.2866
 20
24.9884
 10
97.2572
 20
24.8789
 10
97.2261
 20
24.7796
 10
97.1963
 20
24.6899
 10
97.182
 20
24.5388
 10
97.162
 20
24.3935
 10
97.138
 20
24.2518
 10
97.1451
 20
24.1432
 10
97.1578
 20
24.0411
 10
97.1749
 20
23.9428
 10
97.2508
 20
23.742
 10
97.3261
 20
23.5526
 10
97.4022
 20
23.3715
 10
97.5521
 20
23.1828
 10
97.7082
 20
22.9995
 10
97.8678
 20
22.8206
 10
97.8987
 20
22.7373
 10
97.9329
 20
22.6579
  0
LWPOLYLINE
  5
34
330
1F
100
AcDbEntity
  8
0
100
AcDbPolyline
 90
      605
 70
   128
 43
0.0
 10
98.6954
 20
34.0935
 10
98.9736
 20
34.147
 10
99.2466
 20
34.2045
 10
99.514
 20
34.2668
 10
99.713
 20
34.3602
 10
99.9066
 20
34.4583
 10
100.0952
 20
34.5604
 10
100.371
 20
34.7452
 10
100.641
 20
34.9353
 10
100.9061
 20
35.1291
 10
101.0481
 20
35.1848
 10
101.179
 20
35.2386
 10
101.3014
 20
35.292
 10
101.4543
 20
35.3203
 10
101.6027
 20
35.3523
 10
101.7447
 20
35.3894
 10
101.9109
 20
35.3805
 10
102.0711
 20
35.3766
 10
102.227
 20
35.3765
 10
102.4247
 20
35.334
 10
102.6125
 20
35.2889
 10
102.7906
 20
35.2441
 10
103.5222
 20
34.9712
 10
104.246
 20
34.6978
 10
104.958
 20
34.4233
 10
105.3278
 20
34.2452
 10
105.6938
 20
34.0619
 10
106.0545
 20
33.8727
 10
106.7739
 20
33.4109
 10
107.4874
 20
32.9512
 10
108.198
 20
32.4945
 10
108.9083
 20
32.04
 10
109.171
 20
31.9508
 10
109.425
 20
31.8608
 10
109.6685
 20
31.7699
 10
109.8458
 20
31.7434
 10
110.0122
 20
31.7163
 10
110.1703
 20
31.6886
 10
110.3121
 20
31.6403
 10
110.4485
 20
31.5862
 10
110.581
 20
31.5278
 10
110.6755
 20
31.423
 10
110.7653
 20
31.3224
 10
110.8488
 20
31.2272
 10
110.8776
 20
31.1774
 10
110.8997
 20
31.1322
 10
110.9178
 20
31.0916
 10
110.9305
 20
30.9512
 10
110.9469
 20
30.8159
 10
110.9688
 20
30.6865
 10
111.0323
 20
30.6072
 10
111.0916
 20
30.532
 10
111.1447
 20
30.462
 10
111.1882
 20
30.4515
 10
111.2228
 20
30.4408
 10
111.2469
 20
30.4287
 10
111.331
 20
30.4366
 10
111.4105
 20
30.448
 10
111.4839
 20
30.4647
 10
111.5587
 20
30.5758
 10
111.6342
 20
30.676
 10
111.7108
 20
30.768
 10
111.8537
 20
30.9085
 10
111.988
 20
31.048
 10
112.1108
 20
31.1862
 10
112.2728
 20
31.2251
 10
112.4253
 20
31.2616
 10
112.5674
 20
31.2986
 10
112.8531
 20
31.4236
 10
113.1339
 20
31.5522
 10
113.4089
 20
31.6862
 10
113.6308
 20
31.838
 10
113.8472
 20
31.9949
 10
114.0589
 20
32.1555
 10
114.2825
 20
32.4025
 10
114.495
 20
32.6479
 10
114.6989
 20
32.8927
 10
114.8044
 20
33.0819
 10
114.9098
 20
33.2612
 10
115.0176
 20
33.4307
 10
115.0784
 20
33.5876
 10
115.141
 20
33.7349
 10
115.2034
 20
33.8718
 10
115.2011
 20
33.9
 10
115.1994
 20
33.9196
 10
115.1986
 20
33.9281
 10
115.2667
 20
34.1564
 10
115.3373
 20
34.375
 10
115.4076
 20
34.5831
 10
115.5062
 20
34.7861
 10
115.6075
 20
34.9792
 10
115.7083
 20
35.1622
 10
115.8467
 20
35.3063
 10
115.9784
 20
35.4557
 10
116.106
 20
35.6087
 10
116.3712
 20
35.8021
 10
116.6327
 20
35.9915
 10
116.8887
 20
36.1747
 10
117.0052
 20
36.3367
 10
117.1247
 20
36.4889
 10
117.3125
 20
36.7988
 10
117.3834
 20
36.9549
 10
117.4548
 20
37.1029
 10
117.5417
 20
37.1857
 10
117.623
 20
37.2739
 10
117.6995
 20
37.3656
 10
117.7401
 20
37.3835
 10
117.7807
 20
37.4019
 10
117.8217
 20
37.4187
 10
117.9016
 20
37.4306
 10
117.9708
 20
37.4429
 10
118.0308
 20
37.4525
 10
118.1371
 20
37.4341
 10
118.2323
 20
37.414
 10
118.3191
 20
37.3939
 10
118.4349
 20
37.3153
 10
118.5459
 20
37.2307
 10
118.653
 20
37.1417
 10
118.7094
 20
37.1463
 10
118.7651
 20
37.1519
 10
118.8214
 20
37.1568
 10
118.8701
 20
37.1936
 10
118.9129
 20
37.2356
 10
118.9513
 20
37.2816
 10
118.9433
 20
37.366
 10
118.9368
 20
37.4419
 10
118.9309
 20
37.5063
 10
118.8715
 20
37.5816
 10
118.8183
 20
37.6515
 10
118.7703
 20
37.7178
 10
118.7337
 20
37.8517
 10
118.7001
 20
37.9755
 10
118.6658
 20
38.09
 10
118.6887
 20
38.1489
 10
118.7114
 20
38.2074
 10
118.7346
 20
38.2661
 10
118.7962
 20
38.3183
 10
118.8479
 20
38.371
 10
118.8899
 20
38.4216
 10
118.9716
 20
38.4574
 10
119.0494
 20
38.4884
 10
119.1219
 20
38.5134
 10
119.3009
 20
38.5197
 10
119.4738
 20
38.5314
 10
119.6422
 20
38.5468
 10
119.7328
 20
38.5929
 10
119.818
 20
38.6333
 10
119.8997
 20
38.669
 10
120.0685
 20
38.7878
 10
120.2309
 20
38.9116
 10
120.3893
 20
39.0389
 10
120.5376
 20
39.0709
 10
120.68
 20
39.1077
 10
120.8176
 20
39.1486
 10
120.8982
 20
39.1519
 10
120.9733
 20
39.1486
 10
121.0444
 20
39.1408
 10
121.1421
 20
39.1118
 10
121.2331
 20
39.0874
 10
121.3201
 20
39.0671
 10
121.6578
 20
38.8813
 10
121.9905
 20
38.6896
 10
122.3193
 20
38.4937
 10
122.8222
 20
38.2565
 10
123.3157
 20
38.0186
 10
123.7989
 20
37.7801
 10
124.018
 20
37.7009
 10
124.2327
 20
37.6258
 10
124.4415
 20
37.5556
 10
124.5151
 20
37.5201
 10
124.5891
 20
37.4838
 10
124.6631
 20
37.4483
 10
125.0993
 20
37.3186
 10
125.5354
 20
37.1881
 10
125.9712
 20
37.0589
 10
126.3723
 20
36.9579
 10
126.7668
 20
36.8622
 10
127.1569
 20
36.7706
 10
127.3853
 20
36.7022
 10
127.6084
 20
36.6276
 10
127.8276
 20
36.5489
 10
128.0972
 20
36.4461
 10
128.3555
 20
36.3426
 10
128.6055
 20
36.2381
 10
128.6734
 20
36.2259
 10
128.731
 20
36.2109
 10
128.779
 20
36.1969
 10
129.0837
 20
36.0654
 10
129.3835
 20
35.9272
 10
129.6791
 20
35.7845
 10
130.0449
 20
35.6012
 10
130.4015
 20
35.4157
 10
130.7477
 20
35.2312
 10
131.2856
 20
34.9124
 10
131.8154
 20
34.5928
 10
132.3339
 20
34.2726
 10
132.6327
 20
34.0493
 10
132.9255
 20
33.8316
 10
133.2138
 20
33.6174
 10
133.339
 20
33.4875
 10
133.463
 20
33.3657
 10
133.5859
 20
33.255
 10
133.6296
 20
33.1929
 10
133.6677
 20
33.1356
 10
133.7009
 20
33.0819
 10
133.7289
 20
32.9288
 10
133.7609
 20
32.7806
 10
133.7979
 20
32.6383
 10
133.7919
 20
32.5473
 10
133.7851
 20
32.4676
 10
133.7773
 20
32.3963
 10
133.7333
 20
32.2592
 10
133.688
 20
32.1335
 10
133.6425
 20
32.0163
 10
133.5377
 20
31.9219
 10
133.433
 20
31.8276
 10
133.3288
 20
31.7331
 10
133.2383
 20
31.6866
 10
133.071
 20
31.6104
 10
132.9054
 20
31.5672
 10
132.748
 20
31.5246
 10
132.6019
 20
31.4828
 10
132.5485
 20
31.4501
 10
132.4987
 20
31.4213
 10
132.4541
 20
31.3986
 10
132.2705
 20
31.2407
 10
132.0908
 20
31.0873
 10
131.9163
 20
30.9397
 10
131.8466
 20
30.7722
 10
131.7759
 20
30.6159
 10
131.7045
 20
30.4681
 10
131.6086
 20
30.3744
 10
131.5238
 20
30.2817
 10
131.4473
 20
30.1901
 10
131.3119
 20
30.121
 10
131.177
 20
30.0524
 10
131.042
 20
29.9835
 10
131.003
 20
29.9899
 10
130.97
 20
29.991
 10
130.9424
 20
29.9883
 10
130.9189
 20
29.9821
 10
130.9015
 20
29.9708
 10
130.8886
 20
29.9554
 10
130.7891
 20
29.9603
 10
130.6936
 20
29.9701
 10
130.6033
 20
29.986
 10
130.4772
 20
30.0209
 10
130.3559
 20
30.0624
 10
130.2386
 20
30.1082
 10
130.1531
 20
30.161
 10
130.0774
 20
30.2167
 10
130.0116
 20
30.2713
 10
129.9296
 20
30.3912
 10
129.8491
 20
30.5027
 10
129.7694
 20
30.6028
 10
129.6385
 20
30.8412
 10
129.5104
 20
31.0698
 10
129.3815
 20
31.2887
 10
129.372
 20
31.3295
 10
129.3416
 20
31.3855
 10
129.3093
 20
31.4346
 10
129.2732
 20
31.5026
 10
129.2472
 20
31.5529
 10
129.2286
 20
31.5983
 10
129.2197
 20
31.623
 10
129.1734
 20
31.7218
 10
129.0685
 20
31.884
 10
129.2267
 20
31.981
 10
129.3061
 20
32.0305
 10
129.4069
 20
32.0925
 10
129.7451
 20
32.2968
 10
129.8353
 20
32.3548
 10
129.9352
 20
32.4165
 10
130.0335
 20
32.475
 10
130.1176
 20
32.5265
 10
130.1748
 20
32.5625
 10
130.2437
 20
32.6052
 10
129.0673
 20
31.8848
 10
128.9761
 20
32.0407
 10
128.9248
 20
32.1096
 10
128.8794
 20
32.1888
 10
128.7606
 20
32.3167
 10
128.6339
 20
32.5074
 10
128.504
 20
32.6938
 10
128.2605
 20
32.9922
 10
128.012
 20
33.2848
 10
127.7592
 20
33.5735
 10
127.5824
 20
33.7029
 10
127.4098
 20
33.8382
 10
127.2415
 20
33.9784
 10
126.9192
 20
34.1512
 10
126.6061
 20
34.3263
 10
126.3033
 20
34.501
 10
126.2201
 20
34.5261
 10
126.1425
 20
34.5573
 10
126.0685
 20
34.5929
 10
125.9643
 20
34.6538
 10
125.8639
 20
34.7113
 10
125.7705
 20
34.7635
 10
125.3443
 20
34.937
 10
124.9269
 20
35.1109
 10
124.5209
 20
35.286
 10
124.3079
 20
35.3416
 10
124.0999
 20
35.4037
 10
123.8958
 20
35.4697
 10
123.725
 20
35.4823
 10
123.5578
 20
35.4996
 10
123.2559
 20
35.5102
 10
123.1159
 20
35.4972
 10
122.9754
 20
35.4847
 10
122.8098
 20
35.4413
 10
122.6485
 20
35.3941
 10
122.4934
 20
35.3419
 10
122.3178
 20
35.255
 10
122.1418
 20
35.1684
 10
121.9657
 20
35.0818
 10
121.8862
 20
35.0702
 10
121.8128
 20
35.0537
 10
121.744
 20
35.0331
 10
121.6376
 20
35.0519
 10
121.5423
 20
35.0713
 10
121.4558
 20
35.0921
 10
121.3547
 20
35.1574
 10
121.2641
 20
35.2258
 10
121.183
 20
35.2932
 10
121.165
 20
35.3341
 10
121.1478
 20
35.3662
 10
121.1319
 20
35.3873
 10
121.0598
 20
35.4472
 10
120.9939
 20
35.5021
 10
120.9329
 20
35.5531
 10
120.8526
 20
35.5503
 10
120.7774
 20
35.5534
 10
120.7059
 20
35.5609
 10
120.6226
 20
35.4824
 10
120.5505
 20
35.4053
 10
120.4867
 20
35.3286
 10
120.4945
 20
35.2442
 10
120.5022
 20
35.1605
 10
120.5099
 20
35.0763
 10
120.5611
 20
34.9299
 10
120.6104
 20
34.7928
 10
120.6603
 20
34.6658
 10
120.6562
 20
34.599
 10
120.6533
 20
34.5423
 10
120.6474
 20
34.4948
 10
120.625
 20
34.3844
 10
120.5965
 20
34.2783
 10
120.5632
 20
34.1763
 10
120.4382
 20
34.0473
 10
120.3186
 20
33.9136
 10
120.2037
 20
33.7758
 10
120.1155
 20
33.7536
 10
120.0381
 20
33.7325
 10
119.9695
 20
33.7122
 10
119.8326
 20
33.7039
 10
119.7064
 20
33.6979
 10
119.5895
 20
33.6916
 10
119.4833
 20
33.7102
 10
119.388
 20
33.7298
 10
119.301
 20
33.7501
 10
119.1485
 20
33.722
 10
118.9993
 20
33.6986
 10
118.855
 20
33.6814
 10
118.605
 20
33.527
 10
118.3643
 20
33.3721
 10
118.1333
 20
33.2198
 10
117.8066
 20
32.9737
 10
117.4859
 20
32.7223
 10
117.1697
 20
32.4674
 10
116.9246
 20
32.2569
 10
116.6891
 20
32.0461
 10
116.4638
 20
31.8372
 10
116.0563
 20
31.4323
 10
115.6606
 20
31.0288
 10
115.273
 20
30.6258
 10
114.9649
 20
30.2345
 10
114.651
 20
29.8482
 10
114.3322
 20
29.4654
 10
114.2202
 20
29.2996
 10
114.1078
 20
29.1339
 10
113.9959
 20
28.968
 10
113.9469
 20
28.9313
 10
113.9077
 20
28.8936
 10
113.8784
 20
28.8586
 10
113.7562
 20
28.8051
 10
113.6374
 20
28.7561
 10
113.524
 20
28.713
 10
113.4484
 20
28.7063
 10
113.3838
 20
28.7003
 10
113.3277
 20
28.6952
 10
113.2213
 20
28.714
 10
113.1265
 20
28.7336
 10
113.0396
 20
28.7539
 10
112.955
 20
28.7987
 10
112.8804
 20
28.8429
 10
112.815
 20
28.8888
 10
112.7322
 20
28.9761
 10
112.6492
 20
29.0535
 10
112.5677
 20
29.1211
 10
112.5133
 20
29.14
 10
112.466
 20
29.1538
 10
112.4223
 20
29.1645
 10
112.3818
 20
29.1464
 10
112.341
 20
29.1284
 10
112.3
 20
29.1108
 10
112.2242
 20
28.9667
 10
112.1779
 20
28.9017
 10
112.1819
 20
28.8537
 10
112.1856
 20
28.8172
 10
112.188
 20
28.7893
 10
112.3423
 20
28.5392
 10
112.4968
 20
28.2986
 10
112.6498
 20
28.0681
 10
112.7745
 20
27.9377
 10
112.8996
 20
27.8076
 10
113.0243
 20
27.6779
 10
113.0448
 20
27.6089
 10
113.0652
 20
27.5403
 10
113.0855
 20
27.4711
 10
113.0672
 20
27.3648
 10
113.0474
 20
27.2698
 10
113.0274
 20
27.1831
 10
112.9803
 20
27.1267
 10
112.938
 20
27.0759
 10
112.8996
 20
27.03
 10
112.8307
 20
27.0096
 10
112.7667
 20
26.9852
 10
112.7082
 20
26.9563
 10
112.6264
 20
26.9726
 10
112.554
 20
26.9887
 10
112.4916
 20
27.0073
 10
112.3057
 20
27.1881
 10
112.1154
 20
27.3646
 10
111.9203
 20
27.5348
 10
111.6525
 20
27.6801
 10
111.3931
 20
27.8264
 10
111.1453
 20
27.9737
 10
110.8608
 20
28.0364
 10
110.5818
 20
28.1058
 10
110.3063
 20
28.1797
 10
110.0752
 20
28.276
 10
109.8542
 20
28.3742
 10
109.6434
 20
28.4726
 10
109.5126
 20
28.5557
 10
109.3882
 20
28.6336
 10
109.2683
 20
28.7071
 10
108.9643
 20
28.9866
 10
108.6629
 20
29.2558
 10
108.3602
 20
29.5157
 10
108.0288
 20
29.8952
 10
107.7019
 20
30.2714
 10
107.381
 20
30.6424
 10
106.9741
 20
31.0252
 10
106.567
 20
31.3981
 10
106.1621
 20
31.7616
 10
105.7599
 20
32.0783
 10
105.3686
 20
32.3963
 10
104.9859
 20
32.7152
 10
104.716
 20
32.8883
 10
104.4493
 20
33.0666
 10
104.1881
 20
33.25
 10
104.1492
 20
33.2566
 10
104.1205
 20
33.2626
 10
104.1016
 20
33.2707
 10
103.9621
 20
33.3429
 10
103.8336
 20
33.4163
 10
103.7138
 20
33.4897
 10
103.6615
 20
33.4895
 10
103.6189
 20
33.4912
 10
103.5866
 20
33.4926
 10
103.5366
 20
33.4639
 10
103.492
 20
33.4416
 10
103.4512
 20
33.4234
 10
103.4236
 20
33.3687
 10
103.3936
 20
33.3236
 10
103.3645
 20
33.2885
 10
103.357
 20
33.2169
 10
103.349
 20
33.1457
 10
103.3415
 20
33.0745
 10
103.3646
 20
32.9774
 10
103.3868
 20
32.8889
 10
103.4078
 20
32.8117
 10
103.3893
 20
32.7052
 10
103.3698
 20
32.6104
 10
103.3493
 20
32.5233
 10
103.2875
 20
32.4713
 10
103.232
 20
32.414
 10
103.1808
 20
32.3525
 10
103.0839
 20
32.3299
 10
102.9914
 20
32.3028
 10
102.9058
 20
32.2712
 10
102.8812
 20
32.2731
 10
102.8625
 20
32.2811
 10
102.8468
 20
32.2941
 10
102.7502
 20
32.271
 10
102.6569
 20
32.2528
 10
102.569
 20
32.2405
 10
102.4639
 20
32.1984
 10
102.365
 20
32.1512
 10
102.2707
 20
32.1001
 10
102.1663
 20
32.0057
 10
102.0664
 20
31.9079
 10
101.9724
 20
31.804
 10
101.8928
 20
31.5934
 10
101.7301
 20
31.2023
 10
101.6795
 20
31.1414
 10
101.632
 20
31.0843
 10
101.59
 20
31.0341
 10
101.5492
 20
31.0163
 10
101.5169
 20
30.9993
 10
101.4961
 20
30.983
 10
101.4395
 20
30.9777
 10
101.3835
 20
30.9732
 10
101.3273
 20
30.9678
 10
101.2843
 20
30.9779
 10
101.2406
 20
30.988
 10
101.1975
 20
30.9984
 10
101.1343
 20
31.069
 10
101.0719
 20
31.1284
 10
101.011
 20
31.1792
 10
100.9935
 20
31.2203
 10
100.9755
 20
31.2608
 10
100.9578
 20
31.3016
 10
100.9546
 20
31.3818
 10
100.9539
 20
31.4525
 10
100.9525
 20
31.5134
 10
100.9741
 20
31.6949
 10
100.9954
 20
31.8668
 10
101.0189
 20
32.0285
 10
101.0899
 20
32.2286
 10
101.1627
 20
32.4193
 10
101.2357
 20
32.5998
 10
101.3903
 20
32.8074
 10
101.5519
 20
33.01
 10
101.7176
 20
33.2091
 10
101.7376
 20
33.2957
 10
101.7538
 20
33.3782
 10
101.7658
 20
33.4541
 10
101.7477
 20
33.4946
 10
101.7349
 20
33.5318
 10
101.7272
 20
33.5634
 10
101.6464
 20
33.6127
 10
101.5772
 20
33.6631
 10
101.516
 20
33.7142
 10
101.4186
 20
33.6911
 10
101.3258
 20
33.6727
 10
101.2375
 20
33.6607
 10
101.1304
 20
33.594
 10
101.0236
 20
33.5279
 10
100.9166
 20
33.4615
 10
100.7164
 20
33.3767
 10
100.5259
 20
33.2946
 10
100.3454
 20
33.2115
 10
100.1879
 20
33.1688
 10
100.0419
 20
33.1271
 10
99.9043
 20
33.0864
 10
99.755
 20
33.0629
 10
99.6157
 20
33.0418
 10
99.486
 20
33.0201
 10
99.4618
 20
33.0221
 10
99.4428
 20
33.0302
 10
99.4275
 20
33.0428
 10
99.3434
 20
33.0351
 10
99.2592
 20
33.0277
 10
99.1751
 20
33.0202
 10
98.9067
 20
33.0621
 10
98.6485
 20
33.1034
 10
98.3999
 20
33.1472
 10
98.3258
 20
33.1834
 10
98.2565
 20
33.2149
 10
98.1931
 20
33.2416
 10
98.1456
 20
33.2997
 10
98.0989
 20
33.3462
 10
98.053
 20
33.3844
 10
98.0198
 20
33.4384
 10
97.9908
 20
33.4879
 10
97.9689
 20
33.5321
 10
97.96
 20
33.584
 10
97.9504
 20
33.6256
 10
97.9434
 20
33.6572
 10
97.9509
 20
33.7283
 10
97.9632
 20
33.7962
 10
97.9814
 20
33.8584
 10
98.0432
 20
33.9109
 10
98.095
 20
33.9638
 10
98.1372
 20
34.0145
 10
98.1804
 20
34.0039
 10
98.219
 20
33.9979
 10
98.2518
 20
33.9969
 10
98.3054
 20
34.0297
 10
98.3503
 20
34.0619
 10
98.3843
 20
34.0934
 10
98.4212
 20
34.1068
 10
98.4534
 20
34.1138
 10
98.4812
 20
34.1162
 10
98.5055
 20
34.1143
 10
98.5247
 20
34.1064
 10
98.54
 20
34.0936
 10
98.5767
 20
34.1069
 10
98.6087
 20
34.1135
 10
98.637
 20
34.1166
 10
98.6611
 20
34.1144
 10
98.6801
 20
34.1063
 10
98.6954
 20
34.0935
  0
LWPOLYLINE
  5
35
330
1F
100
AcDbEntity
  8
0
100
AcDbPolyline
 90
      503
 70
   128
 43
0.0
 10
151.5719
 20
3.4409
 10
151.4902
 20
3.3937
 10
151.4038
 20
3.3396
 10
151.314
 20
3.2813
 10
150.933
 20
3.086
 10
150.5448
 20
2.8891
 10
150.1293
 20
2.693
 10
150.0171
 20
2.6379
 10
149.7199
 20
2.4935
 10
149.6373
 20
2.6635
 10
149.3029
 20
3.3627
 10
148.993
 20
3.9921
 10
148.6247
 20
4.759
 10
148.3915
 20
5.2344
 10
148.2769
 20
5.4751
 10
148.1402
 20
5.755
 10
149.7199
 20
2.4935
 10
149.456
 20
2.3628
 10
149.3838
 20
2.3001
 10
149.172
 20
2.1814
 10
148.9528
 20
2.0674
 10
148.7293
 20
1.9568
 10
148.7227
 20
1.9517
 10
148.7091
 20
1.9489
 10
148.6923
 20
1.9368
 10
148.6695
 20
1.9271
 10
148.6464
 20
1.918
 10
148.6117
 20
1.8935
 10
148.0974
 20
1.6461
 10
147.5833
 20
1.399
 10
147.0691
 20
1.1517
 10
147.0201
 20
1.1861
 10
146.9747
 20
1.2247
 10
146.9336
 20
1.2708
 10
146.6862
 20
1.7611
 10
146.4359
 20
2.2604
 10
146.1854
 20
2.7699
 10
146.1755
 20
2.801
 10
146.1626
 20
2.8413
 10
146.1493
 20
2.8921
 10
145.9723
 20
3.1941
 10
145.7994
 20
3.5028
 10
145.6304
 20
3.8164
 10
145.6338
 20
3.8212
 10
145.6369
 20
3.836
 10
145.637
 20
3.8601
 10
145.4921
 20
4.0349
 10
145.3458
 20
4.2182
 10
145.1972
 20
4.4125
 10
145.0002
 20
4.5578
 10
144.8011
 20
4.7148
 10
144.6008
 20
4.8796
 10
144.4754
 20
4.9436
 10
144.3448
 20
5.011
 10
144.208
 20
5.0828
 10
144.0102
 20
5.1482
 10
143.8049
 20
5.2126
 10
143.5882
 20
5.2744
 10
143.353
 20
5.2861
 10
143.1134
 20
5.2913
 10
142.8706
 20
5.2916
 10
142.3107
 20
5.1981
 10
141.7443
 20
5.1092
 10
141.1734
 20
5.0236
 10
140.9905
 20
5.0059
 10
140.7992
 20
4.9866
 10
140.5969
 20
4.9654
 10
140.5858
 20
4.9492
 10
140.5693
 20
4.9362
 10
140.5467
 20
4.9279
 10
140.2674
 20
4.922
 10
139.9772
 20
4.914
 10
139.6784
 20
4.9046
 10
139.6623
 20
4.916
 10
139.6375
 20
4.9262
 10
139.6018
 20
4.9341
 10
139.5741
 20
4.9295
 10
139.5426
 20
4.9197
 10
139.5073
 20
4.9032
 10
139.3523
 20
4.8905
 10
139.1922
 20
4.8813
 10
139.0255
 20
4.8762
 10
138.9379
 20
4.8895
 10
138.8449
 20
4.9061
 10
138.7452
 20
4.9271
 10
138.5931
 20
4.9291
 10
138.2592
 20
4.9279
 10
137.9229
 20
4.9692
 10
137.5867
 20
5.0108
 10
137.2509
 20
5.0517
 10
137.2476
 20
5.047
 10
137.2349
 20
5.039
 10
137.2116
 20
5.0302
 10
137.1904
 20
5.0453
 10
137.1594
 20
5.06
 10
137.1191
 20
5.0716
 10
137.0859
 20
5.0704
 10
137.0436
 20
5.0684
 10
136.9916
 20
5.0638
 10
136.7991
 20
5.1013
 10
136.6029
 20
5.1339
 10
136.4029
 20
5.1606
 10
135.941
 20
5.2655
 10
135.4793
 20
5.3708
 10
135.0179
 20
5.4757
 10
134.7602
 20
5.5595
 10
134.4993
 20
5.6381
 10
134.2337
 20
5.7104
 10
134.0413
 20
5.7482
 10
133.8403
 20
5.7845
 10
133.6283
 20
5.8187
 10
133.4765
 20
5.8209
 10
133.3136
 20
5.8209
 10
133.1419
 20
5.8196
 10
132.8761
 20
5.7871
 10
132.6069
 20
5.7502
 10
132.3329
 20
5.7065
 10
132.202
 20
5.6691
 10
132.0602
 20
5.6303
 10
131.9099
 20
5.5896
 10
131.8298
 20
5.59
 10
131.7389
 20
5.5883
 10
131.639
 20
5.5852
 10
131.5902
 20
5.5953
 10
131.5349
 20
5.6095
 10
131.4746
 20
5.628
 10
131.3931
 20
5.6852
 10
131.3082
 20
5.7374
 10
131.2185
 20
5.7832
 10
131.1652
 20
5.8452
 10
131.1061
 20
5.9107
 10
131.0412
 20
5.9808
 10
130.9922
 20
6.1193
 10
130.9487
 20
6.2647
 10
130.9081
 20
6.4152
 10
130.8901
 20
6.5735
 10
130.8692
 20
6.7411
 10
130.8481
 20
6.919
 10
130.8075
 20
7.0451
 10
130.7641
 20
7.1802
 10
130.72
 20
7.3257
 10
130.6515
 20
7.4707
 10
130.5816
 20
7.6245
 10
130.5099
 20
7.7893
 10
130.4254
 20
7.9462
 10
130.336
 20
8.1064
 10
130.2396
 20
8.2708
 10
130.1065
 20
8.4378
 10
129.97
 20
8.6139
 10
129.8327
 20
8.8002
 10
129.8131
 20
8.9112
 10
129.789
 20
9.0258
 10
129.7581
 20
9.1443
 10
129.7745
 20
9.2131
 10
129.7891
 20
9.293
 10
129.8026
 20
9.3809
 10
129.8598
 20
9.4626
 10
129.9219
 20
9.5407
 10
129.9903
 20
9.614
 10
130.069
 20
9.6561
 10
130.152
 20
9.6955
 10
130.2419
 20
9.7295
 10
130.3022
 20
9.7357
 10
130.3726
 20
9.7424
 10
130.4525
 20
9.7523
 10
130.4961
 20
9.7453
 10
130.5405
 20
9.739
 10
130.5844
 20
9.7324
 10
130.7263
 20
9.6571
 10
130.8681
 20
9.5819
 10
131.0102
 20
9.5067
 10
131.1893
 20
9.3809
 10
131.372
 20
9.2595
 10
131.5594
 20
9.1451
 10
132.006
 20
8.9046
 10
132.4625
 20
8.6645
 10
132.9289
 20
8.427
 10
133.2877
 20
8.2794
 10
133.6563
 20
8.1352
 10
134.0344
 20
7.9913
 10
134.3849
 20
7.8669
 10
134.7438
 20
7.7439
 10
135.1137
 20
7.6228
 10
135.7678
 20
7.48
 10
136.4305
 20
7.3388
 10
137.4676
 20
7.1625
 10
137.8365
 20
7.1227
 10
138.2117
 20
7.0786
 10
138.5426
 20
7.0647
 10
138.8788
 20
7.048
 10
139.2215
 20
7.0262
 10
139.5198
 20
7.0359
 10
139.8237
 20
7.0416
 10
140.1336
 20
7.0431
 10
140.4205
 20
7.0602
 10
140.7179
 20
7.0778
 10
141.0243
 20
7.0987
 10
141.429
 20
7.1554
 10
141.8338
 20
7.2117
 10
142.2382
 20
7.2686
 10
142.7885
 20
7.3932
 10
143.3418
 20
7.523
 10
143.8997
 20
7.6595
 10
144.1874
 20
7.7569
 10
144.4846
 20
7.8573
 10
144.7914
 20
7.9581
 10
144.8695
 20
8.0006
 10
144.9478
 20
8.0429
 10
145.026
 20
8.0852
 10
145.0523
 20
8.1229
 10
145.0784
 20
8.1703
 10
145.1015
 20
8.2271
 10
145.108
 20
8.2711
 10
145.1146
 20
8.315
 10
145.1213
 20
8.3592
 10
145.1114
 20
8.3907
 10
145.0987
 20
8.4309
 10
145.0854
 20
8.4815
 10
145.069
 20
8.4929
 10
145.0512
 20
8.5126
 10
145.032
 20
8.5437
 10
144.9831
 20
8.5781
 10
144.926
 20
8.6108
 10
144.8571
 20
8.6417
 10
144.7821
 20
8.6389
 10
144.7024
 20
8.6291
 10
144.6192
 20
8.6143
 10
144.3352
 20
8.5219
 10
144.0461
 20
8.4325
 10
143.7508
 20
8.3481
 10
143.5843
 20
8.3189
 10
143.4145
 20
8.2848
 10
143.2398
 20
8.2446
 10
143.2075
 20
8.2431
 10
143.1679
 20
8.2462
 10
143.1243
 20
8.2528
 10
143.0799
 20
8.2351
 10
143.0259
 20
8.2172
 10
142.9623
 20
8.196
 10
142.824
 20
8.1713
 10
142.6853
 20
8.147
 10
142.5463
 20
8.1231
 10
142.4746
 20
8.1246
 10
142.4026
 20
8.1267
 10
142.3312
 20
8.1281
 10
142.2722
 20
8.1138
 10
142.2036
 20
8.096
 10
142.1255
 20
8.0779
 10
141.8267
 20
8.0686
 10
141.5235
 20
8.0629
 10
141.2132
 20
8.0613
 10
141.0926
 20
8.073
 10
140.9618
 20
8.0844
 10
140.8218
 20
8.0928
 10
140.794
 20
8.088
 10
140.7629
 20
8.0781
 10
140.7273
 20
8.0622
 10
140.3712
 20
8.1097
 10
140.011
 20
8.1511
 10
139.6474
 20
8.1873
 10
139.43
 20
8.2352
 10
139.202
 20
8.281
 10
138.9656
 20
8.3257
 10
138.5673
 20
8.4519
 10
138.1647
 20
8.5714
 10
137.7588
 20
8.6862
 10
137.4472
 20
8.8318
 10
137.1272
 20
8.976
 10
136.7964
 20
9.118
 10
136.6791
 20
9.1933
 10
136.5521
 20
9.2655
 10
136.415
 20
9.3375
 10
136.2961
 20
9.421
 10
136.1739
 20
9.5139
 10
136.0518
 20
9.617
 10
136.0406
 20
9.705
 10
136.0341
 20
9.7995
 10
136.0308
 20
9.8994
 10
136.0718
 20
9.9675
 10
136.1094
 20
10.0459
 10
136.1468
 20
10.1344
 10
136.1697
 20
10.1666
 10
136.1977
 20
10.1959
 10
136.2319
 20
10.2202
 10
136.3705
 20
10.2448
 10
136.4538
 20
10.2595
 10
136.5633
 20
10.2308
 10
136.6791
 20
10.1988
 10
136.7998
 20
10.1623
 10
136.9857
 20
10.0804
 10
137.1714
 20
9.9986
 10
137.3574
 20
9.9171
 10
137.7229
 20
9.8134
 10
138.0978
 20
9.7135
 10
138.4829
 20
9.6133
 10
138.8789
 20
9.5544
 10
139.2805
 20
9.4912
 10
139.6882
 20
9.4241
 10
140.0028
 20
9.4217
 10
140.3228
 20
9.4167
 10
140.6489
 20
9.4065
 10
141.1027
 20
9.4285
 10
141.5644
 20
9.4525
 10
142.0372
 20
9.4778
 10
142.049
 20
9.4944
 10
142.0653
 20
9.5068
 10
142.0881
 20
9.5156
 10
142.0932
 20
9.5121
 10
142.1047
 20
9.5038
 10
142.1206
 20
9.4927
 10
142.3588
 20
9.5445
 10
142.6038
 20
9.5913
 10
142.8536
 20
9.6351
 10
142.8648
 20
9.6513
 10
142.8815
 20
9.6641
 10
142.9042
 20
9.6726
 10
143.0317
 20
9.7046
 10
143.1688
 20
9.7372
 10
143.3155
 20
9.773
 10
143.4482
 20
9.8575
 10
143.5898
 20
9.9455
 10
143.7416
 20
10.0337
 10
143.8101
 20
10.1315
 10
143.8873
 20
10.2304
 10
143.9756
 20
10.3318
 10
144.0768
 20
10.5112
 10
144.1829
 20
10.6969
 10
144.2926
 20
10.8875
 10
144.4447
 20
11.0
 10
144.5999
 20
11.1172
 10
144.7595
 20
11.2408
 10
144.8871
 20
11.2735
 10
145.0211
 20
11.3008
 10
145.1597
 20
11.3254
 10
145.2314
 20
11.3237
 10
145.3069
 20
11.3266
 10
145.3865
 20
11.3362
 10
145.4792
 20
11.3201
 10
145.579
 20
11.2985
 10
145.6834
 20
11.2739
 10
145.923
 20
11.1297
 10
146.1658
 20
10.9909
 10
146.4135
 20
10.8585
 10
146.5182
 20
10.834
 10
146.6258
 20
10.814
 10
146.7386
 20
10.8007
 10
146.8657
 20
10.8089
 10
147.0013
 20
10.8186
 10
147.1476
 20
10.8295
 10
147.2195
 20
10.8525
 10
147.3014
 20
10.8755
 10
147.3928
 20
10.9014
 10
147.525
 20
10.986
 10
147.6671
 20
11.0734
 10
147.8188
 20
11.1619
 10
147.9217
 20
11.3085
 10
148.0297
 20
11.4515
 10
148.1439
 20
11.5904
 10
148.2
 20
11.7046
 10
148.2605
 20
11.8251
 10
148.3239
 20
11.9503
 10
148.3553
 20
12.0992
 10
148.3852
 20
12.2557
 10
148.4133
 20
12.4235
 10
148.5456
 20
12.8902
 10
148.677
 20
13.3649
 10
148.8062
 20
13.8506
 10
148.913
 20
14.1406
 10
149.0179
 20
14.4394
 10
149.1212
 20
14.7491
 10
149.303
 20
15.1569
 10
149.4811
 20
15.5742
 10
149.6595
 20
16.0013
 10
149.848
 20
16.3388
 10
150.0404
 20
16.683
 10
150.237
 20
17.0318
 10
150.4724
 20
17.4015
 10
150.708
 20
17.7716
 10
150.9437
 20
18.142
 10
151.2916
 20
18.6031
 10
151.6447
 20
19.0609
 10
152.0041
 20
19.5141
 10
152.0939
 20
19.5726
 10
152.2736
 20
19.6899
 10
152.3374
 20
19.7012
 10
152.4124
 20
19.7142
 10
152.4956
 20
19.7286
 10
152.6118
 20
19.7205
 10
152.7356
 20
19.7136
 10
152.8707
 20
19.7084
 10
153.0338
 20
19.5939
 10
153.1934
 20
19.4748
 10
153.3487
 20
19.3492
 10
153.4294
 20
19.0729
 10
153.5139
 20
18.7875
 10
153.5982
 20
18.4923
 10
153.6572
 20
18.4021
 10
153.7202
 20
18.3092
 10
153.7907
 20
18.2112
 10
153.9305
 20
18.0645
 10
154.0719
 20
17.909
 10
154.2155
 20
17.7423
 10
154.2645
 20
17.6035
 10
154.3082
 20
17.4581
 10
154.349
 20
17.3082
 10
154.3368
 20
17.1875
 10
154.3256
 20
17.0568
 10
154.3174
 20
16.9167
 10
154.2224
 20
16.7815
 10
154.1277
 20
16.636
 10
154.036
 20
16.4812
 10
153.7076
 20
16.1523
 10
153.3745
 20
15.8265
 10
153.0346
 20
15.5053
 10
152.7697
 20
15.1978
 10
152.4952
 20
14.8863
 10
152.211
 20
14.5754
 10
151.822
 20
14.0212
 10
151.4241
 20
13.4652
 10
151.0157
 20
12.9077
 10
150.7444
 20
12.4171
 10
150.4745
 20
11.9179
 10
150.2063
 20
11.4076
 10
150.1243
 20
11.2222
 10
150.0476
 20
11.0326
 10
149.9771
 20
10.8389
 10
149.9358
 20
10.6415
 10
149.8948
 20
10.434
 10
149.8571
 20
10.2173
 10
149.8533
 20
10.0737
 10
149.8514
 20
9.9218
 10
149.8514
 20
9.7589
 10
149.8594
 20
9.6315
 10
149.8725
 20
9.5008
 10
149.8918
 20
9.3655
 10
149.958
 20
9.1488
 10
150.0248
 20
8.9315
 10
150.0914
 20
8.7146
 10
150.1498
 20
8.6246
 10
150.2102
 20
8.5265
 10
150.2721
 20
8.4172
 10
150.419
 20
8.3141
 10
150.562
 20
8.2064
 10
150.7005
 20
8.0919
 10
150.8051
 20
8.0676
 10
150.9178
 20
8.044
 10
151.0417
 20
8.0227
 10
151.161
 20
8.0438
 10
151.2911
 20
8.0669
 10
151.43
 20
8.0907
 10
151.5688
 20
8.1395
 10
151.7173
 20
8.1886
 10
151.8756
 20
8.2403
 10
152.0078
 20
8.2206
 10
152.1433
 20
8.2056
 10
152.2835
 20
8.1975
 10
152.4011
 20
8.1221
 10
152.5278
 20
8.0499
 10
152.6647
 20
7.9782
 10
152.7447
 20
7.8736
 10
152.8276
 20
7.7593
 10
152.9106
 20
7.635
 10
152.9171
 20
7.5992
 10
152.9253
 20
7.5522
 10
152.9348
 20
7.4965
 10
152.9514
 20
7.4849
 10
152.9692
 20
7.465
 10
152.9889
 20
7.4343
 10
152.9969
 20
7.3314
 10
153.0113
 20
7.224
 10
153.0309
 20
7.1129
 10
152.9945
 20
6.9923
 10
152.9637
 20
6.8683
 10
152.9389
 20
6.7393
 10
152.8164
 20
6.575
 10
152.6824
 20
6.4086
 10
152.5401
 20
6.2407
 10
152.3781
 20
6.1596
 10
152.2068
 20
6.0779
 10
152.0256
 20
5.9936
 10
151.9132
 20
5.9024
 10
151.8006
 20
5.8109
 10
151.6532
 20
5.6711
 10
151.6142
 20
5.6252
 10
151.5683
 20
5.5844
 10
151.5009
 20
5.4541
 10
151.4295
 20
5.3173
 10
151.3543
 20
5.1752
 10
151.3242
 20
4.9946
 10
151.2949
 20
4.8034
 10
151.2685
 20
4.603
 10
151.3007
 20
4.4758
 10
151.3284
 20
4.3415
 10
151.3528
 20
4.203
 10
151.4389
 20
4.0135
 10
151.5251
 20
3.8143
 10
151.6146
 20
3.6053
 10
151.6196
 20
3.5776
 10
151.6209
 20
3.5452
 10
151.6176
 20
3.5058
 10
151.6064
 20
3.4898
 10
151.5915
 20
3.4688
 10
151.5719
 20
3.4409
  0
LWPOLYLINE
  5
36
330
1F
100
AcDbEntity
  8
0
100
AcDbPolyline
 90
      271
 70
   128
 43
0.0
 10
143.6973
 20
36.0631
 10
144.644425
 20
37.419533
 10
145.151733
 20
38.480333
 10
145.589233
 20
39.730333
 10
145.866633
 20
40.882633
 10
146.06365
 20
41.92285
 10
146.291217
 20
42.868283
 10
146.359883
 20
43.61195
 10
146.1483
 20
44.0067
 10
145.850917
 20
44.155417
 10
145.484883
 20
43.94375
 10
145.1875
 20
43.62915
 10
144.907283
 20
43.543333
 10
144.564167
 20
43.77215
 10
144.078083
 20
44.08675
 10
143.614883
 20
44.115367
 10
143.12875
 20
43.652017
 10
142.819967
 20
43.165767
 10
142.333883
 20
42.605167
 10
141.784867
 20
42.216133
 10
140.841317
 20
41.97015
 10
139.811933
 20
41.96445
 10
138.753967
 20
41.804267
 10
137.901867
 20
41.33515
 10
137.209867
 20
40.768817
 10
136.6666
 20
40.3455
 10
136.3464
 20
40.088117
 10
136.00325
 20
40.128133
 10
135.780217
 20
40.637283
 10
135.9575
 20
41.1464
 10
136.1405
 20
41.615467
 10
135.923183
 20
42.021633
 10
135.482833
 20
42.244733
 10
135.031083
 20
42.050233
 10
134.579283
 20
41.872883
 10
134.1618
 20
42.044533
 10
134.013133
 20
42.433533
 10
134.127483
 20
42.816783
 10
134.281883
 20
43.2973
 10
134.041717
 20
43.823633
 10
133.607133
 20
44.023833
 10
133.229667
 20
43.835033
 10
132.915133
 20
43.508983
 10
132.537733
 20
43.343067
 10
132.20035
 20
43.531867
 10
132.011617
 20
43.97805
 10
132.1088
 20
44.418533
 10
132.171733
 20
44.893333
 10
131.874383
 20
45.3224
 10
131.388283
 20
45.356717
 10
130.999367
 20
45.024917
 10
130.696267
 20
44.750317
 10
130.370317
 20
44.561567
 10
130.061517
 20
44.653083
 10
129.82705
 20
45.064983
 10
129.815617
 20
45.442533
 10
129.918567
 20
45.837267
 10
129.741267
 20
46.317767
 10
129.34665
 20
46.672433
 10
128.969233
 20
46.56375
 10
128.660433
 20
46.180467
 10
128.42595
 20
45.717117
 10
128.225767
 20
45.351
 10
127.87695
 20
45.3567
 10
127.585317
 20
45.562667
 10
127.476683
 20
45.905883
 10
127.49955
 20
46.34635
 10
127.413767
 20
46.7411
 10
127.042033
 20
47.084367
 10
126.618867
 20
47.22165
 10
126.195667
 20
47.027133
 10
125.881133
 20
46.672483
 10
125.749567
 20
46.2949
 10
125.5666
 20
45.934483
 10
125.246367
 20
45.68855
 10
124.897483
 20
45.711433
 10
124.657283
 20
46.066067
 10
124.537217
 20
46.5409
 10
124.377117
 20
47.03285
 10
123.902467
 20
47.3818
 10
123.44495
 20
47.3589
 10
123.078967
 20
47.101517
 10
122.855933
 20
46.75255
 10
122.804467
 20
46.42075
 10
122.724417
 20
46.0775
 10
122.507083
 20
45.808667
 10
122.16965
 20
45.642767
 10
121.923767
 20
45.888733
 10
121.614933
 20
46.283467
 10
121.300433
 20
46.752533
 10
120.665667
 20
47.03285
 10
120.242483
 20
46.781117
 10
119.950783
 20
46.300617
 10
119.84785
 20
45.820117
 10
119.693483
 20
45.402517
 10
119.390417
 20
45.202267
 10
119.070167
 20
45.350983
 10
118.767025
 20
45.659925
 10
118.5669
 20
46.0489
 10
118.246675
 20
46.409325
 10
117.743417
 20
46.58095
 10
117.26875
 20
46.340633
 10
117.0114
 20
45.923033
 10
116.937067
 20
45.5112
 10
116.834117
 20
45.105033
 10
116.2508
 20
44.761817
 10
115.896233
 20
45.019217
 10
115.638883
 20
45.534067
 10
115.22145
 20
46.003133
 10
114.706767
 20
46.157617
 10
114.209233
 20
45.831533
 10
114.00905
 20
45.31665
 10
113.871817
 20
44.7732
 10
113.523
 20
44.498617
 10
113.174133
 20
44.561567
 10
112.95685
 20
44.89905
 10
112.7281
 20
45.328083
 10
112.4593
 20
45.728533
 10
112.076117
 20
46.00885
 10
111.675833
 20
46.020333
 10
111.349883
 20
45.677083
 10
111.143983
 20
45.133617
 10
110.920933
 20
44.6302
 10
110.577817
 20
44.395683
 10
110.1775
 20
44.481467
 10
110.005967
 20
44.7904
 10
109.96595
 20
45.167933
 10
109.823
 20
45.591267
 10
109.44555
 20
46.014617
 10
109.04525
 20
46.11185
 10
108.644917
 20
45.9288
 10
108.387567
 20
45.585533
 10
108.233183
 20
45.162217
 10
108.0616
 20
44.847583
 10
107.735633
 20
44.607333
 10
107.329583
 20
44.653133
 10
107.049367
 20
44.956317
 10
106.9979
 20
45.4082
 10
106.975033
 20
45.808617
 10
106.769183
 20
46.25485
 10
106.225883
 20
46.483683
 10
105.797
 20
46.31205
 10
105.465333
 20
45.991717
 10
105.276583
 20
45.642767
 10
104.967783
 20
45.225133
 10
104.578933
 20
45.1336
 10
104.212917
 20
45.539783
 10
104.1843
 20
46.043167
 10
104.0585
 20
46.5008
 10
103.658167
 20
46.895517
 10
103.149183
 20
47.021383
 10
102.6631
 20
46.804033
 10
102.411517
 20
46.312033
 10
102.194183
 20
45.585533
 10
101.639467
 20
44.8819
 10
100.73595
 20
44.407083
 10
99.849567
 20
44.41855
 10
99.11755
 20
44.6874
 10
98.642867
 20
44.853283
 10
98.40265
 20
44.75605
 10
98.1453
 20
44.149683
 10
97.91655
 20
43.297317
 10
98.482717
 20
42.90835
 10
100.930383
 20
42.021617
 10
100.924667
 20
42.021617
 10
98.454133
 20
42.914083
 10
97.722133
 20
42.84545
 10
97.264667
 20
41.67845
 10
97.1789
 20
41.369533
 10
97.367633
 20
41.232217
 10
97.699283
 20
40.894683
 10
97.750733
 20
40.528567
 10
97.4934
 20
39.84785
 10
97.150317
 20
38.88105
 10
97.230367
 20
38.085933
 10
97.61925
 20
37.736983
 10
98.12245
 20
37.6054
 10
98.517067
 20
37.714067
 10
98.751567
 20
38.291817
 10
99.014617
 20
39.109883
 10
99.22045
 20
39.933667
 10
99.500667
 20
40.282583
 10
99.912417
 20
40.2769
 10
99.9982
 20
39.84215
 10
99.82095
 20
38.949733
 10
99.563583
 20
37.75985
 10
99.809483
 20
37.187767
 10
100.444267
 20
36.844533
 10
100.8846
 20
36.918917
 10
101.216317
 20
37.370833
 10
101.456467
 20
38.103083
 10
101.622333
 20
39.058417
 10
101.873983
 20
39.498867
 10
102.314317
 20
39.487433
 10
102.531583
 20
39.1671
 10
102.400075
 20
38.532158
 10
102.2056
 20
37.697
 10
102.108375
 20
36.953225
 10
102.302833
 20
36.5013
 10
102.8118
 20
36.255367
 10
103.235017
 20
36.283967
 10
103.54955
 20
36.6329
 10
103.864067
 20
37.439467
 10
104.0471
 20
38.48635
 10
104.333033
 20
39.041233
 10
104.704717
 20
39.09275
 10
105.019217
 20
38.76665
 10
104.96205
 20
38.137383
 10
104.77905
 20
37.273567
 10
104.670417
 20
36.569983
 10
104.819083
 20
36.14665
 10
105.345183
 20
35.8835
 10
105.905617
 20
35.9121
 10
106.294517
 20
36.232483
 10
106.437467
 20
36.7702
 10
106.488933
 20
37.53105
 10
106.563317
 20
38.223233
 10
106.683383
 20
38.583617
 10
106.843483
 20
38.766667
 10
107.155883
 20
38.873733
 10
107.3267
 20
38.954617
 10
107.333183
 20
39.2913
 10
106.992217
 20
40.231083
 10
107.00365
 20
40.21965
 10
107.329633
 20
39.25865
 10
107.586967
 20
38.972633
 10
108.5812
 20
38.7723
 10
109.888467
 20
38.686167
 10
110.039467
 20
39.081167
 10
109.6628
 20
40.299733
 10
109.668533
 20
40.2883
 10
110.057467
 20
39.0527
 10
110.559933
 20
38.7274
 10
112.187367
 20
38.701083
 10
112.532833
 20
39.133567
 10
112.196267
 20
40.33985
 10
112.196267
 20
40.3284
 10
112.539333
 20
39.1156
 10
113.025417
 20
38.863883
 10
114.626683
 20
39.069817
 10
114.958383
 20
39.395883
 10
114.689633
 20
40.494217
 10
114.706783
 20
40.482783
 10
114.9641
 20
39.338717
 10
115.433033
 20
39.12135
 10
117.057167
 20
39.39595
 10
117.394567
 20
39.7449
 10
117.120033
 20
40.8661
 10
117.12575
 20
40.860367
 10
117.42315
 20
39.716233
 10
117.886367
 20
39.516017
 10
119.441833
 20
39.865
 10
119.762083
 20
40.248267
 10
119.487617
 20
41.352317
 10
119.762083
 20
40.253983
 10
120.2253
 20
40.082367
 10
121.8037
 20
40.494233
 10
122.135383
 20
40.871783
 10
121.883717
 20
41.970117
 10
121.883717
 20
41.9644
 10
122.135383
 20
40.8432
 10
122.55285
 20
40.677317
 10
123.97105
 20
41.134983
 10
124.285567
 20
41.506817
 10
124.125433
 20
42.536483
 10
124.285567
 20
41.512533
 10
124.560067
 20
41.318033
 10
125.703817
 20
41.4725
 10
126.761817
 20
41.46675
 10
126.9391
 20
41.695567
 10
126.8247
 20
42.656633
  0
LWPOLYLINE
  5
37
330
1F
100
AcDbEntity
  8
0
100
AcDbPolyline
 90
       55
 70
   128
 43
0.0
 10
126.8247
 20
42.656633
 10
126.9391
 20
41.695567
 10
127.190733
 20
41.432417
 10
128.283017
 20
41.266517
 10
129.30665
 20
40.946167
 10
129.48965
 20
41.1235
 10
129.42105
 20
42.1303
 10
129.42105
 20
42.14175
 10
129.48965
 20
41.186467
 10
129.70695
 20
40.87755
 10
130.625883
 20
40.4314
 10
131.358317
 20
39.973983
 10
131.71245
 20
40.030983
 10
131.777117
 20
40.951883
 10
131.782833
 20
40.986183
 10
131.71995
 20
40.0995
 10
131.845767
 20
39.756283
 10
132.549167
 20
39.178567
 10
133.27545
 20
38.577917
 10
133.618567
 20
38.06305
 10
133.5957
 20
37.696933
 10
133.4527
 20
37.3022
 10
133.098167
 20
36.878867
 10
132.938017
 20
36.4384
 10
133.018067
 20
36.112333
 10
133.286883
 20
35.90065
 10
133.584233
 20
35.906367
 10
134.207583
 20
36.140917
 10
134.733717
 20
36.3583
 10
134.962483
 20
36.22675
 10
134.916733
 20
35.92355
 10
134.504967
 20
35.437267
 10
134.081767
 20
34.888083
 10
134.138933
 20
34.447617
 10
134.493533
 20
34.2074
 10
135.013933
 20
34.2703
 10
135.368483
 20
34.373283
 10
135.580067
 20
34.047217
 10
135.4771
 20
33.589567
 10
135.30555
 20
33.006083
 10
135.66585
 20
32.58845
 10
136.180533
 20
32.571317
 10
136.563683
 20
32.5599
 10
137.209883
 20
32.102233
 10
138.244967
 20
31.638833
 10
139.3487
 20
31.902
 10
140.435283
 20
32.542717
 10
140.984233
 20
33.05185
 10
140.561033
 20
33.6811
 10
138.525167
 20
35.814833
 10
138.51945
 20
35.83775
 10
140.53245
 20
33.715417
 10
141.29305
 20
33.440817
 10
142.511175
 20
34.687858
 10
143.6973
 20
36.0631
  0
LWPOLYLINE
  5
38
330
1F
100
AcDbEntity
  8
0
100
AcDbPolyline
 90
      114
 70
   128
 43
0.0
 10
156.8921
 20
39.5404
 10
156.836592
 20
40.064908
 10
156.103883
 20
40.936767
 10
155.427917
 20
40.7049
 10
153.465183
 20
38.9625
 10
153.459183
 20
38.95705
 10
155.397917
 20
40.67765
 10
155.77495
 20
41.256267
 10
155.262883
 20
41.945733
 10
154.8062
 20
42.471967
 10
154.596383
 20
42.522017
 10
154.3657
 20
42.372267
 10
154.032983
 20
42.2447
 10
153.5599
 20
42.668433
 10
152.444817
 20
43.82215
 10
151.915233
 20
44.139667
 10
151.494783
 20
43.855533
 10
151.088317
 20
43.3816
 10
151.159817
 20
42.953833
 10
151.894717
 20
42.12785
 10
152.66395
 20
41.179667
 10
152.6339
 20
40.66495
 10
152.084017
 20
40.6736
 10
151.16255
 20
41.433933
 10
150.415167
 20
42.11735
 10
150.055517
 20
42.272017
 10
149.7671
 20
42.113517
 10
149.452383
 20
41.761283
 10
149.216917
 20
41.388233
 10
149.273717
 20
41.012867
 10
149.730733
 20
40.492317
 10
150.7832
 20
39.473417
 10
151.0123
 20
38.860467
 10
150.677967
 20
38.578033
 10
150.2451
 20
38.638667
 10
149.569617
 20
39.26695
 10
148.657433
 20
39.98095
 10
148.046217
 20
40.027033
 10
147.721683
 20
39.70975
 10
147.5216
 20
39.237533
 10
147.907467
 20
38.668783
 10
148.799833
 20
37.8983
 10
149.37695
 20
37.37205
 10
149.422833
 20
37.0086
 10
149.179917
 20
36.7219
 10
148.710667
 20
36.738317
 10
147.891883
 20
37.247333
 10
147.072417
 20
37.73905
 10
146.573433
 20
37.733867
 10
146.177533
 20
37.362583
 10
145.995983
 20
36.9182
 10
146.230417
 20
36.540183
 10
146.819533
 20
36.14535
 10
147.560267
 20
35.685983
 10
147.96875
 20
35.35125
 10
148.091667
 20
35.041417
 10
147.989333
 20
34.696417
 10
147.792267
 20
34.287067
 10
147.98195
 20
34.054433
 10
148.91815
 20
33.482567
 10
148.901517
 20
33.4933
 10
147.91515
 20
34.091633
 10
147.54185
 20
33.83855
 10
146.805883
 20
32.458417
 10
146.829217
 20
31.98135
 10
147.674883
 20
31.43675
 10
147.6762
 20
31.437083
 10
146.834483
 20
31.982683
 10
146.406233
 20
31.737917
 10
145.553383
 20
30.217917
 10
145.534767
 20
29.702667
 10
146.311833
 20
29.161333
 10
146.311883
 20
29.16215
 10
145.5347
 20
29.700217
 10
145.0991
 20
29.460283
 10
144.138317
 20
28.05395
 10
144.086733
 20
27.568933
 10
144.840867
 20
27.028667
 10
144.83435
 20
27.034333
 10
144.0604
 20
27.585883
 10
143.646133
 20
27.365733
 10
142.675517
 20
26.09295
 10
142.590983
 20
25.638167
 10
143.229717
 20
25.080433
 10
143.226633
 20
25.077017
 10
142.584583
 20
25.636817
 10
142.174233
 20
25.526883
 10
141.04865
 20
24.307083
 10
140.924117
 20
23.847333
 10
141.560583
 20
23.243867
 10
141.562617
 20
23.243233
 10
140.926517
 20
23.845083
 10
140.461467
 20
23.719567
 10
139.345833
 20
22.597133
 10
139.203567
 20
22.133717
 10
139.746367
 20
21.488683
 10
139.726367
 20
21.531267
 10
139.113192
 20
22.214967
 10
138.6989
 20
22.0084
 10
137.504975
 20
21.0096
 10
137.335417
 20
20.57605
 10
137.851083
 20
19.84065
 10
137.842417
 20
19.854583
 10
137.295067
 20
20.632083
 10
136.8775
 20
20.5425
 10
135.712817
 20
19.597533
 10
135.527483
 20
19.193333
 10
135.953817
 20
18.507867
 10
135.95
 20
18.516667
 10
135.5062
 20
19.223083
 10
135.05615
 20
19.138217
 10
133.73055
 20
18.291833
 10
133.5169
 20
17.89475
 10
133.9857
 20
17.13855
  0
LWPOLYLINE
  5
39
330
1F
100
AcDbEntity
  8
0
100
AcDbPolyline
 90
       12
 70
   128
 43
0.0
 10
133.9857
 20
17.13855
 10
133.5169
 20
17.89475
 10
133.0917
 20
17.8747
 10
131.8597
 20
17.0383
 10
131.630233
 20
16.670633
 10
131.944367
 20
16.036367
 10
131.94085
 20
16.045
 10
131.610483
 20
16.705417
 10
131.20875
 20
16.687483
 10
129.962517
 20
16.0727
 10
129.713633
 20
15.780533
 10
129.962167
 20
15.218267
  0
LWPOLYLINE
  5
3A
330
1F
100
AcDbEntity
  8
0
100
AcDbPolyline
 90
      190
 70
   128
 43
0.0
 10
129.962167
 20
15.218267
 10
129.713633
 20
15.780533
 10
129.558617
 20
15.896817
 10
129.131233
 20
15.831
 10
128.771617
 20
15.985633
 10
128.4084
 20
16.3067
 10
127.717017
 20
16.597433
 10
127.096933
 20
16.334283
 10
126.84325
 20
15.818583
 10
126.814617
 20
15.212033
 10
126.6308
 20
14.842233
 10
126.342567
 20
14.809983
 10
125.96335
 20
15.154833
 10
125.560117
 20
15.59825
 10
125.209
 20
15.689417
 10
124.9446
 20
15.311867
 10
124.908833
 20
14.797417
 10
124.724817
 20
14.3014
 10
124.365667
 20
14.100467
 10
123.9659
 20
14.49785
 10
123.51375
 20
15.000933
 10
123.091067
 20
14.911983
 10
123.002217
 20
14.486067
 10
122.873283
 20
14.062033
 10
122.435367
 20
13.89345
 10
122.064217
 20
14.2895
 10
121.67785
 20
14.605917
 10
121.313983
 20
14.428183
 10
121.145583
 20
14.017533
 10
120.87575
 20
13.64595
 10
120.389267
 20
13.66325
 10
120.039367
 20
14.144217
 10
119.556967
 20
14.247367
 10
119.36975
 20
13.8033
 10
119.206667
 20
13.506967
 10
118.788733
 20
13.641433
 10
118.3716
 20
13.913467
 10
117.4326
 20
13.94055
 10
115.785967
 20
13.789033
 10
113.80135
 20
13.7681
 10
112.6655
 20
13.75295
 10
112.225433
 20
13.41815
 10
112.25875
 20
13.032233
 10
113.854417
 20
12.58405
 10
119.233367
 20
11.888417
 10
123.069933
 20
11.432
 10
123.955733
 20
11.613817
 10
124.287233
 20
11.83315
 10
124.655317
 20
11.615083
 10
124.89995
 20
11.3341
 10
125.223283
 20
11.261417
 10
125.410933
 20
11.47055
 10
125.5484
 20
11.831083
 10
125.7523
 20
12.022117
 10
126.039533
 20
11.670233
 10
126.2655
 20
11.23525
 10
126.69725
 20
11.272183
 10
126.987117
 20
11.705783
 10
127.17985
 20
12.14395
 10
127.499733
 20
11.87645
 10
127.869067
 20
11.44035
 10
128.252233
 20
11.4222
 10
128.460333
 20
11.94575
 10
128.62795
 20
12.459767
 10
128.885933
 20
12.459067
 10
129.082
 20
11.996767
 10
129.279017
 20
11.557283
 10
129.626633
 20
11.512183
 10
129.889633
 20
11.7406
 10
129.970875
 20
12.247133
 10
130.0677
 20
12.7187
 10
130.260558
 20
12.916033
 10
130.5278
 20
12.748567
 10
130.6612
 20
12.174433
 10
130.894233
 20
11.767767
 10
131.337583
 20
11.8099
 10
131.52565
 20
12.391717
 10
131.5481
 20
12.866667
 10
131.649017
 20
13.303483
 10
131.947
 20
13.300867
 10
132.2048
 20
12.6923
 10
132.510117
 20
12.11585
 10
132.789717
 20
11.964883
 10
133.1093
 20
12.29965
 10
133.260467
 20
13.072467
 10
133.3643
 20
13.813033
 10
133.5693
 20
13.9066
 10
133.8255
 20
13.5045
 10
133.961667
 20
12.8673
 10
134.279683
 20
12.439383
 10
134.669967
 20
12.570033
 10
134.86505
 20
13.1801
 10
134.92555
 20
13.974467
 10
135.052967
 20
14.7312
 10
135.454617
 20
14.861283
 10
135.674267
 20
14.5356
 10
135.821883
 20
13.8978
 10
136.04215
 20
13.342517
 10
136.429017
 20
13.157967
 10
136.7116
 20
13.557517
 10
136.8891
 20
14.52405
 10
137.01515
 20
15.613417
 10
137.290467
 20
15.97885
 10
137.569467
 20
15.69615
 10
137.780933
 20
14.952117
 10
138.090317
 20
14.22065
 10
138.5095
 20
13.994433
 10
138.801817
 20
14.359133
 10
138.8761
 20
15.5656
 10
139.0306
 20
16.894467
 10
139.3511
 20
17.246417
 10
139.6759
 20
16.961533
 10
139.844767
 20
16.167883
 10
140.01615
 20
15.3053
 10
140.395917
 20
15.092433
 10
140.826733
 20
15.473533
 10
140.903683
 20
16.375917
 10
140.819883
 20
17.635833
 10
141.114817
 20
18.419117
 10
141.435917
 20
18.4211
 10
141.6224
 20
17.999317
 10
141.777767
 20
17.160417
 10
141.9932
 20
16.502283
 10
142.457383
 20
16.256717
 10
142.79855
 20
16.68215
 10
142.8412
 20
17.94755
 10
142.78175
 20
19.601917
 10
143.107317
 20
20.0626
 10
143.431783
 20
19.772017
 10
143.651667
 20
18.844033
 10
143.997617
 20
17.915917
 10
144.4216
 20
17.666467
 10
144.6734
 20
18.382783
 10
144.588917
 20
19.872033
 10
144.577367
 20
21.3293
 10
144.805767
 20
21.794533
 10
145.212533
 20
21.42555
 10
145.5259
 20
20.4128
 10
145.976367
 20
19.387967
 10
146.43435
 20
19.251633
 10
146.6343
 20
19.844283
 10
146.5702
 20
21.521867
 10
146.465517
 20
23.18995
 10
146.77525
 20
23.67995
 10
147.0747
 20
23.344617
 10
147.3902
 20
22.257367
 10
147.84415
 20
21.066067
 10
148.3141
 20
20.940667
 10
148.54325
 20
21.663817
 10
148.409683
 20
23.4478
 10
148.3117
 20
25.2589
 10
148.6487
 20
25.83945
 10
149.014633
 20
25.455167
 10
149.273817
 20
24.2673
 10
149.4657
 20
23.231667
 10
149.9472
 20
22.864867
 10
150.444717
 20
23.323117
 10
150.368667
 20
24.869383
 10
150.204617
 20
26.981783
 10
150.255483
 20
28.057533
 10
150.60505
 20
28.052433
 10
150.948267
 20
27.18745
 10
151.353867
 20
25.700267
 10
151.889483
 20
25.147333
 10
152.30735
 20
25.861717
 10
152.116167
 20
28.244917
 10
151.91185
 20
30.473933
 10
152.187525
 20
30.97135
 10
152.5569
 20
30.4147
 10
153.077675
 20
28.818817
 10
153.505967
 20
27.932683
 10
153.977533
 20
27.961967
 10
154.096467
 20
28.7821
 10
153.791033
 20
31.176433
 10
153.492033
 20
32.979767
 10
153.81685
 20
33.423233
 10
154.450233
 20
33.238483
 10
154.969267
 20
33.305783
 10
155.156083
 20
33.61815
 10
155.001783
 20
33.99255
 10
154.73665
 20
34.3261
 10
154.8188
 20
34.849783
 10
155.343033
 20
35.025783
 10
155.981533
 20
34.82935
 10
156.408617
 20
34.889483
 10
156.536433
 20
35.411033
 10
156.168983
 20
36.128
 10
155.8373
 20
37.479917
 10
156.36655
 20
38.854133
 10
156.8921
 20
39.5404
  0
ENDSEC
  0
SECTION
  2
OBJECTS
  0
DICTIONARY
  5
C
330
0
100
AcDbDictionary
281
     1
  3
ACAD_GROUP
350
D
  3
ACAD_LAYOUT
350
1A
  3
ACAD_MLINESTYLE
350
17
  3
ACAD_PLOTSETTINGS
350
19
  3
ACAD_PLOTSTYLENAME
350
E
  0
DICTIONARY
  5
D
102
{ACAD_REACTORS
330
C
102
}
330
C
100
AcDbDictionary
281
     1
  0
DICTIONARY
  5
1A
102
{ACAD_REACTORS
330
C
102
}
330
C
100
AcDbDictionary
281
     1
  3
Layout1
350
1E
  3
Layout2
350
26
  3
Model
350
22
  0
DICTIONARY
  5
17
102
{ACAD_REACTORS
330
C
102
}
330
C
100
AcDbDictionary
281
     1
  3
Standard
350
18
  0
DICTIONARY
  5
19
102
{ACAD_REACTORS
330
C
102
}
330
C
100
AcDbDictionary
281
     1
  0
ACDBDICTIONARYWDFLT
  5
E
102
{ACAD_REACTORS
330
C
102
}
330
C
100
AcDbDictionary
281
     1
  3
Normal
350
F
100
AcDbDictionaryWithDefault
340
F
  0
LAYOUT
  5
1E
102
{ACAD_REACTORS
330
1A
102
}
330
1A
100
AcDbPlotSettings
  1

  2

  4

  6

 40
0.0
 41
0.0
 42
0.0
 43
0.0
 44
0.0
 45
0.0
 46
0.0
 47
0.0
 48
0.0
 49
0.0
140
0.0
141
0.0
142
1.0
143
1.0
 70
   688
 72
     0
 73
     0
 74
     5
  7

 75
    16
147
1.0
148
0.0
149
0.0
100
AcDbLayout
  1
Layout1
 70
     1
 71
     1
 10
0.0
 20
0.0
 11
420.0
 21
297.0
 12
0.0
 22
0.0
 32
0.0
 14
1.000000E+20
 24
1.000000E+20
 34
1.000000E+20
 15
-1.000000E+20
 25
-1.000000E+20
 35
-1.000000E+20
146
0.0
 13
0.0
 23
0.0
 33
0.0
 16
1.0
 26
0.0
 36
0.0
 17
0.0
 27
1.0
 37
0.0
 76
     0
330
1B
  0
LAYOUT
  5
26
102
{ACAD_REACTORS
330
1A
102
}
330
1A
100
AcDbPlotSettings
  1

  2

  4

  6

 40
0.0
 41
0.0
 42
0.0
 43
0.0
 44
0.0
 45
0.0
 46
0.0
 47
0.0
 48
0.0
 49
0.0
140
0.0
141
0.0
142
1.0
143
1.0
 70
   688
 72
     0
 73
     0
 74
     5
  7

 75
    16
147
1.0
148
0.0
149
0.0
100
AcDbLayout
  1
Layout2
 70
     1
 71
     2
 10
0.0
 20
0.0
 11
0.0
 21
0.0
 12
0.0
 22
0.0
 32
0.0
 14
0.0
 24
0.0
 34
0.0
 15
0.0
 25
0.0
 35
0.0
146
0.0
 13
0.0
 23
0.0
 33
0.0
 16
1.0
 26
0.0
 36
0.0
 17
0.0
 27
1.0
 37
0.0
 76
     0
330
23
  0
LAYOUT
  5
22
102
{ACAD_REACTORS
330
1A
102
}
330
1A
100
AcDbPlotSettings
  1

  2

  4

  6

 40
0.0
 41
0.0
 42
0.0
 43
0.0
 44
0.0
 45
0.0
 46
0.0
 47
0.0
 48
0.0
 49
0.0
140
0.0
141
0.0
142
1.0
143
1.0
 70
  1712
 72
     0
 73
     0
 74
     0
  7

 75
     0
147
1.0
148
0.0
149
0.0
100
AcDbLayout
  1
Model
 70
     1
 71
     0
 10
0.0
 20
0.0
 11
0.0
 21
0.0
 12
0.0
 22
0.0
 32
0.0
 14
0.0
 24
0.0
 34
0.0
 15
0.0
 25
0.0
 35
0.0
146
0.0
 13
0.0
 23
0.0
 33
0.0
 16
1.0
 26
0.0
 36
0.0
 17
0.0
 27
1.0
 37
0.0
 76
     0
330
1F
  0
MLINESTYLE
  5
18
102
{ACAD_REACTORS
330
17
102
}
330
17
100
AcDbMlineStyle
  2
Standard
 70
     0
  3

 62
   256
 51
90.0
 52
90.0
 71
     2
 49
1.0
 62
   256
  6
BYLAYER
 49
-1.0
 62
   256
  6
BYLAYER
  0
ACDBPLACEHOLDER
  5
F
102
{ACAD_REACTORS
330
E
102
}
330
E
  0
ENDSEC
  0
EOF
