  0
SECTION
  2
HEADER
  9
$ACADVER
  1
AC1015
  9
$ACADMAINTVER
 70
     6
  9
$DWGCODEPAGE
  3
ANSI_1252
  9
$INSBASE
 10
0.0
 20
0.0
 30
0.0
  9
$EXTMIN
 10
1.000000E+20
 20
1.000000E+20
 30
1.000000E+20
  9
$EXTMAX
 10
-1.000000E+20
 20
-1.000000E+20
 30
-1.000000E+20
  9
$LIMMIN
 10
0.0
 20
0.0
  9
$LIMMAX
 10
420.0
 20
297.0
  9
$ORTHOMODE
 70
     0
  9
$REGENMODE
 70
     1
  9
$FILLMODE
 70
     1
  9
$QTEXTMODE
 70
     0
  9
$MIRRTEXT
 70
     1
  9
$LTSCALE
 40
1.0
  9
$ATTMODE
 70
     1
  9
$TEXTSIZE
 40
2.5
  9
$TRACEWID
 40
1.0
  9
$TEXTSTYLE
  7
Standard
  9
$CLAYER
  8
0
  9
$CELTYPE
  6
ByLayer
  9
$CECOLOR
 62
   256
  9
$CELTSCALE
 40
1.0
  9
$DISPSILH
 70
     0
  9
$DIMSCALE
 40
1.0
  9
$DIMASZ
 40
2.5
  9
$DIMEXO
 40
0.625
  9
$DIMDLI
 40
3.75
  9
$DIMRND
 40
0.0
  9
$DIMDLE
 40
0.0
  9
$DIMEXE
 40
1.25
  9
$DIMTP
 40
0.0
  9
$DIMTM
 40
0.0
  9
$DIMTXT
 40
2.5
  9
$DIMCEN
 40
2.5
  9
$DIMTSZ
 40
0.0
  9
$DIMTOL
 70
     0
  9
$DIMLIM
 70
     0
  9
$DIMTIH
 70
     0
  9
$DIMTOH
 70
     0
  9
$DIMSE1
 70
     0
  9
$DIMSE2
 70
     0
  9
$DIMTAD
 70
     1
  9
$DIMZIN
 70
     8
  9
$DIMBLK
  1

  9
$DIMASO
 70
     1
  9
$DIMSHO
 70
     1
  9
$DIMPOST
  1

  9
$DIMAPOST
  1

  9
$DIMALT
 70
     0
  9
$DIMALTD
 70
     3
  9
$DIMALTF
 40
0.03937
  9
$DIMLFAC
 40
1.0
  9
$DIMTOFL
 70
     1
  9
$DIMTVP
 40
0.0
  9
$DIMTIX
 70
     0
  9
$DIMSOXD
 70
     0
  9
$DIMSAH
 70
     0
  9
$DIMBLK1
  1

  9
$DIMBLK2
  1

  9
$DIMSTYLE
  2
ISO-25
  9
$DIMCLRD
 70
     0
  9
$DIMCLRE
 70
     0
  9
$DIMCLRT
 70
     0
  9
$DIMTFAC
 40
1.0
  9
$DIMGAP
 40
0.625
  9
$DIMJUST
 70
     0
  9
$DIMSD1
 70
     0
  9
$DIMSD2
 70
     0
  9
$DIMTOLJ
 70
     0
  9
$DIMTZIN
 70
     8
  9
$DIMALTZ
 70
     0
  9
$DIMALTTZ
 70
     0
  9
$DIMUPT
 70
     0
  9
$DIMDEC
 70
     2
  9
$DIMTDEC
 70
     2
  9
$DIMALTU
 70
     2
  9
$DIMALTTD
 70
     3
  9
$DIMTXSTY
  7
Standard
  9
$DIMAUNIT
 70
     0
  9
$DIMADEC
 70
     0
  9
$DIMALTRND
 40
0.0
  9
$DIMAZIN
 70
     0
  9
$DIMDSEP
 70
    44
  9
$DIMATFIT
 70
     3
  9
$DIMFRAC
 70
     0
  9
$DIMLDRBLK
  1

  9
$DIMLUNIT
 70
     2
  9
$DIMLWD
 70
    -2
  9
$DIMLWE
 70
    -2
  9
$DIMTMOVE
 70
     0
  9
$LUNITS
 70
     2
  9
$LUPREC
 70
     4
  9
$SKETCHINC
 40
1.0
  9
$FILLETRAD
 40
10.0
  9
$AUNITS
 70
     0
  9
$AUPREC
 70
     0
  9
$MENU
  1
.
  9
$ELEVATION
 40
0.0
  9
$PELEVATION
 40
0.0
  9
$THICKNESS
 40
0.0
  9
$LIMCHECK
 70
     0
  9
$CHAMFERA
 40
10.0
  9
$CHAMFERB
 40
10.0
  9
$CHAMFERC
 40
20.0
  9
$CHAMFERD
 40
0.0
  9
$SKPOLY
 70
     0
  9
$TDCREATE
 40
2455270.675862269
  9
$TDUCREATE
 40
2455270.134195602
  9
$TDUPDATE
 40
2455270.67586228
  9
$TDUUPDATE
 40
2455270.134195613
  9
$TDINDWG
 40
0.0000000116
  9
$TDUSRTIMER
 40
0.0000000116
  9
$USRTIMER
 70
     1
  9
$ANGBASE
 50
0.0
  9
$ANGDIR
 70
     0
  9
$PDMODE
 70
     3
  9
$PDSIZE
 40
-0.7
  9
$PLINEWID
 40
0.0
  9
$SPLFRAME
 70
     0
  9
$SPLINETYPE
 70
     6
  9
$SPLINESEGS
 70
     8
  9
$HANDSEED
  5
60
  9
$SURFTAB1
 70
     6
  9
$SURFTAB2
 70
     6
  9
$SURFTYPE
 70
     6
  9
$SURFU
 70
     6
  9
$SURFV
 70
     6
  9
$UCSBASE
  2

  9
$UCSNAME
  2

  9
$UCSORG
 10
0.0
 20
0.0
 30
0.0
  9
$UCSXDIR
 10
1.0
 20
0.0
 30
0.0
  9
$UCSYDIR
 10
0.0
 20
1.0
 30
0.0
  9
$UCSORTHOREF
  2

  9
$UCSORTHOVIEW
 70
     0
  9
$UCSORGTOP
 10
0.0
 20
0.0
 30
0.0
  9
$UCSORGBOTTOM
 10
0.0
 20
0.0
 30
0.0
  9
$UCSORGLEFT
 10
0.0
 20
0.0
 30
0.0
  9
$UCSORGRIGHT
 10
0.0
 20
0.0
 30
0.0
  9
$UCSORGFRONT
 10
0.0
 20
0.0
 30
0.0
  9
$UCSORGBACK
 10
0.0
 20
0.0
 30
0.0
  9
$PUCSBASE
  2

  9
$PUCSNAME
  2

  9
$PUCSORG
 10
0.0
 20
0.0
 30
0.0
  9
$PUCSXDIR
 10
1.0
 20
0.0
 30
0.0
  9
$PUCSYDIR
 10
0.0
 20
1.0
 30
0.0
  9
$PUCSORTHOREF
  2

  9
$PUCSORTHOVIEW
 70
     0
  9
$PUCSORGTOP
 10
0.0
 20
0.0
 30
0.0
  9
$PUCSORGBOTTOM
 10
0.0
 20
0.0
 30
0.0
  9
$PUCSORGLEFT
 10
0.0
 20
0.0
 30
0.0
  9
$PUCSORGRIGHT
 10
0.0
 20
0.0
 30
0.0
  9
$PUCSORGFRONT
 10
0.0
 20
0.0
 30
0.0
  9
$PUCSORGBACK
 10
0.0
 20
0.0
 30
0.0
  9
$USERI1
 70
     0
  9
$USERI2
 70
     0
  9
$USERI3
 70
     0
  9
$USERI4
 70
     0
  9
$USERI5
 70
     0
  9
$USERR1
 40
0.0
  9
$USERR2
 40
0.0
  9
$USERR3
 40
0.0
  9
$USERR4
 40
0.0
  9
$USERR5
 40
0.0
  9
$WORLDVIEW
 70
     1
  9
$SHADEDGE
 70
     3
  9
$SHADEDIF
 70
    70
  9
$TILEMODE
 70
     1
  9
$MAXACTVP
 70
    64
  9
$PINSBASE
 10
0.0
 20
0.0
 30
0.0
  9
$PLIMCHECK
 70
     0
  9
$PEXTMIN
 10
1.000000E+20
 20
1.000000E+20
 30
1.000000E+20
  9
$PEXTMAX
 10
-1.000000E+20
 20
-1.000000E+20
 30
-1.000000E+20
  9
$PLIMMIN
 10
0.0
 20
0.0
  9
$PLIMMAX
 10
420.0
 20
297.0
  9
$UNITMODE
 70
     0
  9
$VISRETAIN
 70
     1
  9
$PLINEGEN
 70
     0
  9
$PSLTSCALE
 70
     1
  9
$TREEDEPTH
 70
  3020
  9
$CMLSTYLE
  2
Standard
  9
$CMLJUST
 70
     1
  9
$CMLSCALE
 40
1.0
  9
$PROXYGRAPHICS
 70
     1
  9
$MEASUREMENT
 70
     1
  9
$CELWEIGHT
370
    -1
  9
$ENDCAPS
280
     0
  9
$JOINSTYLE
280
     0
  9
$LWDISPLAY
290
     0
  9
$INSUNITS
 70
     4
  9
$HYPERLINKBASE
  1

  9
$STYLESHEET
  1

  9
$XEDIT
290
     1
  9
$CEPSNTYPE
380
     0
  9
$PSTYLEMODE
290
     1
  9
$FINGERPRINTGUID
  2
{FAEB1C30-E019-11D5-929B-00C0DF256EC4}
  9
$VERSIONGUID
  2
{FAEB1C32-E019-11D5-929B-00C0DF256EC4}
  9
$EXTNAMES
290
     1
  9
$PSVPSCALE
 40
0.0
  9
$OLESTARTUP
290
     0
  0
ENDSEC
  0
SECTION
  2
CLASSES
  0
CLASS
  1
ACDBDICTIONARYWDFLT
  2
AcDbDictionaryWithDefault
  3
ObjectDBX Classes
 90
        0
280
     0
281
     0
  0
CLASS
  1
ACDBPLACEHOLDER
  2
AcDbPlaceHolder
  3
ObjectDBX Classes
 90
        0
280
     0
281
     0
  0
CLASS
  1
LAYOUT
  2
AcDbLayout
  3
ObjectDBX Classes
 90
        0
280
     0
281
     0
  0
ENDSEC
  0
SECTION
  2
TABLES
  0
TABLE
  2
VPORT
  5
8
330
0
100
AcDbSymbolTable
 70
     2
  0
VPORT
  5
29
330
8
100
AcDbSymbolTableRecord
100
AcDbViewportTableRecord
  2
*Active
 70
     0
 10
0.0
 20
0.0
 11
1.0
 21
1.0
 12
50.0
 22
50.0
 13
0.0
 23
0.0
 14
10.0
 24
10.0
 15
10.0
 25
10.0
 16
0.0
 26
0.0
 36
1.0
 17
0.0
 27
0.0
 37
0.0
 40
103.921569
 41
1.0
 42
50.0
 43
0.0
 44
0.0
 50
0.0
 51
0.0
 71
     0
 72
   100
 73
     1
 74
     3
 75
     0
 76
     0
 77
     0
 78
     0
281
     0
 65
     1
110
0.0
120
0.0
130
0.0
111
1.0
121
0.0
131
0.0
112
0.0
122
1.0
132
0.0
 79
     0
146
0.0
  0
ENDTAB
  0
TABLE
  2
LTYPE
  5
5
330
0
100
AcDbSymbolTable
 70
     1
  0
LTYPE
  5
14
330
5
100
AcDbSymbolTableRecord
100
AcDbLinetypeTableRecord
  2
ByBlock
 70
     0
  3

 72
    65
 73
     0
 40
0.0
  0
LTYPE
  5
15
330
5
100
AcDbSymbolTableRecord
100
AcDbLinetypeTableRecord
  2
ByLayer
 70
     0
  3

 72
    65
 73
     0
 40
0.0
  0
LTYPE
  5
16
330
5
100
AcDbSymbolTableRecord
100
AcDbLinetypeTableRecord
  2
Continuous
 70
     0
  3

 72
    65
 73
     0
 40
0.0
  0
ENDTAB
  0
TABLE
  2
LAYER
  5
2
330
0
100
AcDbSymbolTable
 70
     1
  0
LAYER
  5
10
330
2
100
AcDbSymbolTableRecord
100
AcDbLayerTableRecord
  2
0
 70
     0
 62
     7
  6
Continuous
370
    -3
390
F
  0
ENDTAB
  0
TABLE
  2
STYLE
  5
3
330
0
100
AcDbSymbolTable
 70
     1
  0
STYLE
  5
11
330
3
100
AcDbSymbolTableRecord
100
AcDbTextStyleTableRecord
  2
Standard
 70
     0
 40
1.0
 41
1.0
 50
0.0
 71
     0
 42
2.5
  3
RomanS
  4

  0
ENDTAB
  0
TABLE
  2
VIEW
  5
6
330
0
100
AcDbSymbolTable
 70
     0
  0
ENDTAB
  0
TABLE
  2
UCS
  5
7
330
0
100
AcDbSymbolTable
 70
     0
  0
ENDTAB
  0
TABLE
  2
APPID
  5
9
330
0
100
AcDbSymbolTable
 70
     1
  0
APPID
  5
12
330
9
100
AcDbSymbolTableRecord
100
AcDbRegAppTableRecord
  2
ACAD
 70
     0
  0
ENDTAB
  0
TABLE
  2
DIMSTYLE
  5
A
330
0
100
AcDbSymbolTable
 70
     1
100
AcDbDimStyleTable
  0
DIMSTYLE
105
27
330
A
100
AcDbSymbolTableRecord
100
AcDbDimStyleTableRecord
  2
ISO-25
 70
     0
 41
2.5
 42
0.625
 44
1.25
 73
     0
 74
     0
 77
     1
 78
     8
 79
     2
140
2.5
141
2.5
146
0.0
147
0.625
271
     2
272
     0
273
     0
274
     0
278
    44
283
     0
289
     0
340
11
  0
ENDTAB
  0
TABLE
  2
BLOCK_RECORD
  5
1
330
0
100
AcDbSymbolTable
 70
     1
  0
BLOCK_RECORD
  5
1F
330
1
100
AcDbSymbolTableRecord
100
AcDbBlockTableRecord
  2
*Model_Space
340
22
  0
BLOCK_RECORD
  5
1B
330
1
100
AcDbSymbolTableRecord
100
AcDbBlockTableRecord
  2
*Paper_Space
340
1E
  0
BLOCK_RECORD
  5
23
330
1
100
AcDbSymbolTableRecord
100
AcDbBlockTableRecord
  2
*Paper_Space0
340
26
  0
ENDTAB
  0
ENDSEC
  0
SECTION
  2
BLOCKS
  0
BLOCK
  5
20
330
1F
100
AcDbEntity
  8
0
100
AcDbBlockBegin
  2
*Model_Space
 70
     0
 71
     0
 10
0.0
 20
0.0
 30
0.0
  3
*Model_Space
  1

  0
ENDBLK
  5
21
330
1F
100
AcDbEntity
  8
0
100
AcDbBlockEnd
  0
BLOCK
  5
1C
330
1B
100
AcDbEntity
 67
     1
  8
0
100
AcDbBlockBegin
  2
*Paper_Space
 70
     0
 71
     0
 10
0.0
 20
0.0
 30
0.0
  3
*Paper_Space
  1

  0
ENDBLK
  5
1D
330
1B
100
AcDbEntity
 67
     1
  8
0
100
AcDbBlockEnd
  0
BLOCK
  5
24
330
23
100
AcDbEntity
  8
0
100
AcDbBlockBegin
  2
*Paper_Space0
 70
     0
 71
     0
 10
0.0
 20
0.0
 30
0.0
  3
*Paper_Space0
  1

  0
ENDBLK
  5
25
330
23
100
AcDbEntity
  8
0
100
AcDbBlockEnd
  0
ENDSEC
  0
SECTION
  2
ENTITIES
  0
LWPOLYLINE
  5
2A
330
1F
100
AcDbEntity
  8
0
100
AcDbPolyline
 90
      378
 70
   128
 43
0.0
 10
18.3101
 20
7.6556
 10
18.3421
 20
7.6201
 10
18.3669
 20
7.5929
 10
18.3857
 20
7.5721
 10
18.42
 20
7.4703
 10
18.455
 20
7.3749
 10
18.4902
 20
7.2872
 10
18.6001
 20
7.1018
 10
18.704
 20
6.9171
 10
18.8002
 20
6.7323
 10
18.9658
 20
6.4703
 10
19.1317
 20
6.2164
 10
19.2981
 20
5.9682
 10
19.4601
 20
5.7468
 10
19.6145
 20
5.533
 10
19.7634
 20
5.3257
 10
19.9507
 20
5.1022
 10
20.139
 20
4.8869
 10
20.3274
 20
4.678
 10
20.5296
 20
4.4679
 10
20.7244
 20
4.2641
 10
20.9135
 20
4.0686
 10
21.1419
 20
3.8632
 10
21.365
 20
3.6659
 10
21.5805
 20
3.4751
 10
21.8294
 20
3.2824
 10
22.0728
 20
3.0901
 10
22.3078
 20
2.8984
 10
22.8044
 20
2.5988
 10
23.2939
 20
2.3079
 10
23.7773
 20
2.0234
 10
24.1221
 20
1.8655
 10
24.4592
 20
1.7143
 10
24.7907
 20
1.5713
 10
25.0455
 20
1.4841
 10
25.2946
 20
1.4051
 10
25.536
 20
1.3325
 10
25.7527
 20
1.2813
 10
25.9631
 20
1.2302
 10
26.1661
 20
1.1799
 10
26.3838
 20
1.1484
 10
26.5959
 20
1.1234
 10
26.8005
 20
1.1067
 10
27.0399
 20
1.1138
 10
27.2796
 20
1.1152
 10
27.5186
 20
1.1086
 10
27.74
 20
1.1506
 10
27.9612
 20
1.1851
 10
28.1819
 20
1.2131
 10
28.4397
 20
1.2936
 10
28.6886
 20
1.3661
 10
28.9317
 20
1.4334
 10
29.1097
 20
1.5233
 10
29.2799
 20
1.6084
 10
29.4433
 20
1.6856
 10
29.4838
 20
1.6973
 10
29.5181
 20
1.7013
 10
29.5438
 20
1.6999
 10
29.8953
 20
1.9408
 10
30.247
 20
2.1815
 10
30.599
 20
2.4223
 10
30.6596
 20
2.4394
 10
30.7202
 20
2.4558
 10
30.781
 20
2.4726
 10
30.915
 20
2.4796
 10
31.0406
 20
2.4788
 10
31.1601
 20
2.4726
 10
31.2585
 20
2.4475
 10
31.3567
 20
2.4224
 10
31.4553
 20
2.3976
 10
31.8856
 20
2.2351
 10
32.3157
 20
2.0788
 10
32.7469
 20
1.9308
 10
32.8045
 20
1.8938
 10
32.8573
 20
1.8648
 10
32.9019
 20
1.8425
 10
33.0389
 20
1.7953
 10
33.1698
 20
1.7487
 10
33.2934
 20
1.7025
 10
33.3453
 20
1.6655
 10
33.3895
 20
1.6373
 10
33.4284
 20
1.6152
 10
33.6174
 20
1.5317
 10
33.7987
 20
1.4565
 10
33.9746
 20
1.3873
 10
34.0931
 20
1.3611
 10
34.2116
 20
1.3407
 10
34.3305
 20
1.3286
 10
34.4518
 20
1.3622
 10
34.5732
 20
1.3899
 10
34.694
 20
1.4094
 10
34.7754
 20
1.4448
 10
34.851
 20
1.4806
 10
34.9189
 20
1.517
 10
35.0246
 20
1.6313
 10
35.1239
 20
1.7397
 10
35.2151
 20
1.8406
 10
35.2619
 20
1.9775
 10
35.309
 20
2.1087
 10
35.3553
 20
2.232
 10
35.2923
 20
2.8137
 10
35.2337
 20
2.9504
 10
35.1805
 20
3.0785
 10
35.0274
 20
3.2006
 10
34.8799
 20
3.3139
 10
34.74
 20
3.4211
 10
34.7271
 20
3.4416
 10
34.7216
 20
3.4557
 10
34.722
 20
3.462
 10
34.4529
 20
3.6555
 10
34.184
 20
3.8492
 10
33.9151
 20
4.0428
 10
33.8374
 20
4.0869
 10
33.7602
 20
4.1309
 10
33.6826
 20
4.1746
 10
33.6503
 20
4.2103
 10
33.6262
 20
4.2373
 10
33.6071
 20
4.2584
 10
33.2665
 20
4.49
 10
32.9329
 20
4.7124
 10
32.6054
 20
4.9293
 10
32.518
 20
5.0477
 10
32.4381
 20
5.1572
 10
32.3638
 20
5.2615
 10
32.3151
 20
5.3634
 10
32.2745
 20
5.4595
 10
32.2389
 20
5.547
 10
32.244
 20
5.9055
 10
32.2568
 20
6.264
 10
32.2757
 20
6.6222
 10
32.2375
 20
6.923
 10
32.2075
 20
7.2177
 10
32.1822
 20
7.5044
 10
32.1638
 20
7.5251
 10
32.1506
 20
7.5399
 10
32.1446
 20
7.5459
 10
32.0839
 20
7.7889
 10
32.0303
 20
8.0248
 10
31.9826
 20
8.2528
 10
31.857
 20
8.5188
 10
31.7372
 20
8.7844
 10
31.6255
 20
9.0492
 10
31.4957
 20
9.2356
 10
31.3718
 20
9.4155
 10
31.2551
 20
9.5874
 10
31.0538
 20
9.8173
 10
30.8602
 20
10.0409
 10
30.6718
 20
10.2562
 10
30.134
 20
10.6434
 10
29.5957
 20
11.0247
 10
29.0568
 20
11.3981
 10
28.7467
 20
11.5741
 10
28.4369
 20
11.7438
 10
28.1262
 20
11.9056
 10
27.8784
 20
12.0127
 10
27.6387
 20
12.1108
 10
27.4037
 20
12.2029
 10
27.3852
 20
12.2238
 10
27.3717
 20
12.2384
 10
27.3664
 20
12.2449
 10
27.0928
 20
12.3527
 10
26.8188
 20
12.453
 10
26.5448
 20
12.5473
 10
26.1323
 20
12.6687
 10
25.7195
 20
12.7843
 10
25.3063
 20
12.8914
 10
24.8312
 20
12.9565
 10
24.3618
 20
13.0212
 10
23.9006
 20
13.0855
 10
23.502
 20
13.092
 10
23.1099
 20
13.1066
 10
22.7261
 20
13.1268
 10
22.3061
 20
13.1095
 10
21.8868
 20
13.0915
 10
21.4669
 20
13.0735
 10
21.2521
 20
13.0451
 10
21.0449
 20
13.016
 10
20.8439
 20
12.9867
 10
20.7618
 20
12.9372
 10
20.6856
 20
12.8953
 10
20.6183
 20
12.859
 10
20.5603
 20
12.7822
 10
20.5103
 20
12.7112
 10
20.4671
 20
12.6475
 10
20.4496
 20
12.5747
 10
20.44
 20
12.5093
 10
20.437
 20
12.4498
 10
20.473
 20
12.368
 10
20.5025
 20
12.2929
 10
20.5251
 20
12.226
 10
20.5816
 20
12.1632
 10
20.6379
 20
12.1061
 10
20.6955
 20
12.0572
 10
20.7741
 20
12.0332
 10
20.8465
 20
12.0092
 10
20.9114
 20
11.9863
 10
21.2709
 20
12.0012
 10
21.6244
 20
12.0084
 10
21.9695
 20
12.01
 10
22.601
 20
11.9967
 10
22.9053
 20
11.9806
 10
23.2759
 20
11.9414
 10
23.639
 20
11.9024
 10
23.996
 20
11.8637
 10
24.4099
 20
11.7683
 10
24.8239
 20
11.6807
 10
25.2383
 20
11.599
 10
25.5716
 20
11.4876
 10
25.8991
 20
11.3845
 10
26.2193
 20
11.2881
 10
26.473
 20
11.1811
 10
26.727
 20
11.0819
 10
26.9812
 20
10.9887
 10
27.2721
 20
10.834
 10
27.5637
 20
10.6849
 10
27.8555
 20
10.5437
 10
28.0289
 20
10.435
 10
28.2031
 20
10.332
 10
28.3776
 20
10.237
 10
28.6607
 20
10.043
 10
28.9357
 20
9.8548
 10
29.2052
 20
9.6753
 10
29.2235
 20
9.6405
 10
29.2423
 20
9.6132
 10
29.2608
 20
9.5925
 10
29.3755
 20
9.4923
 10
29.4904
 20
9.401
 10
29.6054
 20
9.315
 10
29.6997
 20
9.2163
 10
29.7889
 20
9.1257
 10
29.8702
 20
9.042
 10
29.9579
 20
8.9236
 10
30.0378
 20
8.8139
 10
30.1119
 20
8.7102
 10
30.2034
 20
8.552
 10
30.289
 20
8.4017
 10
30.3675
 20
8.2578
 10
30.4499
 20
8.0402
 10
30.5245
 20
7.8307
 10
30.5936
 20
7.6277
 10
30.637
 20
7.4263
 10
30.6722
 20
7.2249
 10
30.7015
 20
7.024
 10
30.6712
 20
6.7066
 10
30.6485
 20
6.3942
 10
30.6326
 20
6.0903
 10
30.6074
 20
5.9916
 10
30.5823
 20
5.8995
 10
30.558
 20
5.8149
 10
30.445
 20
5.5617
 10
30.3379
 20
5.3081
 10
30.2387
 20
5.0539
 10
30.2171
 20
5.0179
 10
30.1554
 20
4.9093
 10
30.0579
 20
4.7318
 10
30.1693
 20
4.671
 10
30.2633
 20
4.6204
 10
30.3464
 20
4.5745
 10
30.5949
 20
4.4377
 10
30.7791
 20
4.3348
 10
30.8958
 20
4.2727
 10
31.0159
 20
4.2066
 10
31.1236
 20
4.1491
 10
31.2608
 20
4.0721
 10
30.0579
 20
4.7318
 10
29.9703
 20
4.5831
 10
29.9086
 20
4.4744
 10
29.8469
 20
4.3656
 10
29.7852
 20
4.257
 10
29.7318
 20
4.1578
 10
29.7073
 20
4.1034
 10
29.5664
 20
3.9126
 10
29.39
 20
3.7024
 10
29.2191
 20
3.4922
 10
29.0941
 20
3.3852
 10
28.9752
 20
3.2858
 10
28.8643
 20
3.1919
 10
28.7406
 20
3.1044
 10
28.493
 20
2.9521
 10
28.2948
 20
2.8624
 10
28.1049
 20
2.7793
 10
27.9212
 20
2.7028
 10
27.6054
 20
2.6458
 10
27.2978
 20
2.596
 10
26.9959
 20
2.5519
 10
26.7244
 20
2.58
 10
26.4602
 20
2.6001
 10
26.2018
 20
2.6138
 10
26.0635
 20
2.6411
 10
25.931
 20
2.6679
 10
25.8066
 20
2.6946
 10
25.592
 20
2.7794
 10
25.383
 20
2.8561
 10
25.1809
 20
2.9267
 10
24.7531
 20
3.1286
 10
24.3249
 20
3.3308
 10
23.8967
 20
3.5327
 10
23.6068
 20
3.7076
 10
23.3224
 20
3.8763
 10
23.0454
 20
4.0362
 10
23.0136
 20
4.0716
 10
22.9892
 20
4.0992
 10
22.9701
 20
4.1198
 10
22.7779
 20
4.2497
 10
22.591
 20
4.3732
 10
22.4113
 20
4.4883
 10
22.2257
 20
4.6378
 10
22.048
 20
4.7809
 10
21.8752
 20
4.9155
 10
21.8574
 20
4.9502
 10
21.8388
 20
4.9774
 10
21.82
 20
4.998
 10
21.8005
 20
5.0132
 10
21.7811
 20
5.0202
 10
21.7614
 20
5.0213
 10
21.7426
 20
5.0421
 10
21.7297
 20
5.0627
 10
21.7246
 20
5.0829
 10
21.7056
 20
5.0981
 10
21.6858
 20
5.1048
 10
21.6662
 20
5.1058
 10
21.4953
 20
5.2743
 10
21.3308
 20
5.4427
 10
21.1742
 20
5.6104
 10
21.1165
 20
5.6531
 10
21.0591
 20
5.6963
 10
21.0014
 20
5.7392
 10
20.9887
 20
5.7596
 10
20.9835
 20
5.7799
 10
20.9846
 20
5.8001
 10
20.9459
 20
5.8217
 10
20.913
 20
5.8434
 10
20.8882
 20
5.865
 10
20.8755
 20
5.8853
 10
20.8707
 20
5.9056
 10
20.8719
 20
5.9255
 10
20.7761
 20
6.0102
 10
20.6873
 20
6.0946
 10
20.606
 20
6.1787
 10
20.5688
 20
6.2405
 10
20.5321
 20
6.2963
 10
20.4945
 20
6.3443
 10
20.4382
 20
6.407
 10
20.3812
 20
6.4637
 10
20.3243
 20
6.5127
 10
20.3112
 20
6.5333
 10
20.3063
 20
6.5536
 10
20.3073
 20
6.5734
 10
20.1632
 20
6.7545
 10
20.0269
 20
6.9273
 10
19.8958
 20
7.0936
 10
19.7297
 20
7.3417
 10
19.5687
 20
7.5835
 10
19.4155
 20
7.817
 10
19.2502
 20
8.0847
 10
19.0907
 20
8.3527
 10
18.9391
 20
8.6197
 10
18.8215
 20
8.6595
 10
18.7038
 20
8.692
 10
18.5855
 20
8.7181
 10
18.5248
 20
8.7014
 10
18.4698
 20
8.6841
 10
18.4234
 20
8.6669
 10
18.3614
 20
8.6301
 10
18.2995
 20
8.5935
 10
18.2379
 20
8.5569
 10
18.1941
 20
8.4793
 10
18.156
 20
8.4019
 10
18.126
 20
8.3234
 10
18.1357
 20
8.2432
 10
18.1374
 20
8.1637
 10
18.1332
 20
8.084
 10
18.1648
 20
8.0422
 10
18.1889
 20
8.0013
 10
18.2064
 20
7.9603
 10
18.2411
 20
7.8588
 10
18.2755
 20
7.757
 10
18.3101
 20
7.6556
  0
LWPOLYLINE
  5
2B
330
1F
100
AcDbEntity
  8
0
100
AcDbPolyline
 90
        8
 70
   128
 43
0.0
 10
19.8072
 20
13.5928
 10
19.911
 20
13.8038
 10
20.0088
 20
14.0069
 10
20.0984
 20
14.2045
 10
20.1276
 20
14.2894
 10
20.1902
 20
14.3976
 10
20.2849
 20
14.5603
 10
19.0903
 20
15.2475
  0
LWPOLYLINE
  5
2C
330
1F
100
AcDbEntity
  8
0
100
AcDbPolyline
 90
      310
 70
   128
 43
0.0
 10
19.0903
 20
15.2475
 10
19.5349
 20
14.9917
 10
19.6394
 20
14.9327
 10
19.7452
 20
14.8711
 10
20.159
 20
14.6326
 10
20.2849
 20
14.5603
 10
20.3781
 20
14.7221
 10
20.4408
 20
14.8303
 10
20.6317
 20
15.2228
 10
20.8641
 20
15.563
 10
21.0901
 20
15.8964
 10
21.2526
 20
16.0325
 10
21.4143
 20
16.1624
 10
21.5761
 20
16.2848
 10
21.7771
 20
16.3802
 10
21.9724
 20
16.4756
 10
22.1598
 20
16.5714
 10
22.4203
 20
16.6398
 10
22.6744
 20
16.7003
 10
22.9208
 20
16.7546
 10
23.2191
 20
16.7345
 10
23.5116
 20
16.7228
 10
23.7963
 20
16.7168
 10
23.9153
 20
16.6804
 10
24.0283
 20
16.652
 10
24.133
 20
16.6299
 10
24.6274
 20
16.4403
 10
25.1213
 20
16.2564
 10
25.6156
 20
16.0808
 10
26.1477
 20
15.7969
 10
26.6739
 20
15.5211
 10
27.192
 20
15.2514
 10
27.2253
 20
15.2169
 10
27.2504
 20
15.1905
 10
27.2701
 20
15.1699
 10
27.3486
 20
15.1286
 10
27.4217
 20
15.0874
 10
27.4865
 20
15.0458
 10
27.4999
 20
15.0261
 10
27.5059
 20
15.0118
 10
27.5057
 20
15.0057
 10
27.7415
 20
14.8416
 10
27.9709
 20
14.6834
 10
28.193
 20
14.5333
 10
28.212
 20
14.4989
 10
28.2317
 20
14.4728
 10
28.2509
 20
14.4521
 10
28.3685
 20
14.3564
 10
28.48
 20
14.2683
 10
28.5839
 20
14.1864
 10
28.9939
 20
13.7856
 10
29.398
 20
13.3927
 10
29.7945
 20
13.0058
 10
29.8916
 20
12.8843
 10
29.9825
 20
12.7628
 10
30.0657
 20
12.6414
 10
30.1243
 20
12.5808
 10
30.1826
 20
12.5195
 10
30.2412
 20
12.4591
 10
30.3184
 20
12.3435
 10
30.3904
 20
12.2365
 10
30.4537
 20
12.1358
 10
30.5453
 20
12.0341
 10
30.6285
 20
11.9328
 10
30.7061
 20
11.8314
 10
30.8794
 20
11.549
 10
31.0471
 20
11.2665
 10
31.2062
 20
10.9845
 10
31.2788
 20
10.923
 10
31.3434
 20
10.868
 10
31.4021
 20
10.8211
 10
31.5214
 20
10.8046
 10
31.6344
 20
10.7961
 10
31.7404
 20
10.7939
 10
31.8213
 20
10.8458
 10
31.9017
 20
10.8904
 10
31.9822
 20
10.9285
 10
32.0235
 20
11.0072
 10
32.0651
 20
11.0861
 10
32.1067
 20
11.1651
 10
32.0952
 20
11.2846
 10
32.0915
 20
11.4042
 10
32.0941
 20
11.5237
 10
31.9984
 20
11.7049
 10
31.9085
 20
11.8862
 10
31.8266
 20
12.0669
 10
31.6536
 20
12.3696
 10
31.4865
 20
12.666
 10
31.3272
 20
12.9539
 10
31.1141
 20
13.2371
 10
30.9068
 20
13.5205
 10
30.7076
 20
13.8037
 10
30.5189
 20
14.0265
 10
30.3382
 20
14.2433
 10
30.1633
 20
14.4526
 10
29.7532
 20
14.8535
 10
29.3492
 20
15.2461
 10
28.9527
 20
15.6328
 10
28.7767
 20
15.7762
 10
28.6002
 20
15.9132
 10
28.4237
 20
16.0424
 10
28.1547
 20
16.2271
 10
27.8932
 20
16.4061
 10
27.6381
 20
16.5766
 10
27.6245
 20
16.597
 10
27.6186
 20
16.6108
 10
27.6187
 20
16.6169
 10
27.4224
 20
16.7406
 10
27.2255
 20
16.858
 10
27.0287
 20
16.968
 10
26.4169
 20
17.2535
 10
25.1936
 20
17.8028
 10
24.8965
 20
17.903
 10
24.5999
 20
17.9948
 10
24.3032
 20
18.0806
 10
24.0709
 20
18.1393
 10
23.8469
 20
18.1897
 10
23.6291
 20
18.2341
 10
23.37
 20
18.2395
 10
23.1113
 20
18.2449
 10
22.8521
 20
18.2504
 10
22.5527
 20
18.2167
 10
22.2534
 20
18.1828
 10
21.9539
 20
18.1494
 10
21.813
 20
18.0983
 10
21.6729
 20
18.0558
 10
21.5327
 20
18.0188
 10
21.3315
 20
17.9295
 10
21.1366
 20
17.8477
 10
20.9499
 20
17.7721
 10
20.8085
 20
17.6758
 10
20.667
 20
17.5847
 10
20.5261
 20
17.5021
 10
20.3032
 20
17.3274
 10
20.0866
 20
17.1588
 10
19.8782
 20
16.9977
 10
19.7775
 20
16.9457
 10
19.677
 20
16.9022
 10
19.5764
 20
16.8646
 10
19.3829
 20
16.8544
 10
19.1977
 20
16.8523
 10
19.0184
 20
16.8561
 10
18.1893
 20
17.1984
 10
17.3612
 20
17.5361
 10
16.5378
 20
17.8679
 10
15.7199
 20
18.1996
 10
15.5404
 20
18.1838
 10
15.361
 20
18.1734
 10
15.1818
 20
18.1709
 10
15.1216
 20
18.1526
 10
15.067
 20
18.1339
 10
15.0208
 20
18.115
 10
15.0069
 20
18.095
 10
15.0004
 20
18.0817
 10
15.0002
 20
18.0754
 10
14.9598
 20
18.0564
 10
14.9199
 20
18.0373
 10
14.8795
 20
18.018
 10
14.8186
 20
17.9597
 10
14.7637
 20
17.907
 10
14.7171
 20
17.8622
 10
14.6617
 20
17.7895
 10
14.6146
 20
17.7246
 10
14.5733
 20
17.6658
 10
14.5299
 20
17.4878
 10
14.4862
 20
17.3154
 10
14.4434
 20
17.1507
 10
14.4798
 20
17.0107
 10
14.5109
 20
16.8706
 10
14.534
 20
16.7305
 10
14.625
 20
16.6092
 10
14.708
 20
16.4878
 10
14.7853
 20
16.3665
 10
15.3353
 20
15.9967
 10
15.8855
 20
15.6329
 10
16.4359
 20
15.2764
 10
16.5672
 20
15.1741
 10
16.6909
 20
15.0781
 10
16.8087
 20
14.9901
 10
16.9594
 20
14.8929
 10
17.1033
 20
14.8044
 10
17.241
 20
14.7222
 10
17.4312
 20
14.5784
 10
17.6136
 20
14.4351
 10
17.7898
 20
14.2921
 10
17.8421
 20
14.2314
 10
17.8869
 20
14.1706
 10
17.9251
 20
14.11
 10
17.963
 20
14.0098
 10
18.0011
 20
13.9151
 10
18.0393
 20
13.8288
 10
18.057
 20
13.7286
 10
18.0745
 20
13.629
 10
18.0924
 20
13.529
 10
18.0709
 20
13.4556
 10
18.0557
 20
13.3903
 10
18.0487
 20
13.3307
 10
18.0305
 20
13.138
 10
18.021
 20
12.9527
 10
18.0172
 20
12.7734
 10
18.0464
 20
12.5539
 10
18.0675
 20
12.3342
 10
18.0831
 20
12.1147
 10
18.1191
 20
11.9409
 10
18.1556
 20
11.7746
 10
18.1918
 20
11.6147
 10
18.2868
 20
11.3793
 10
18.3757
 20
11.1526
 10
18.4568
 20
10.9314
 10
18.5468
 20
10.7703
 10
18.7058
 20
10.4485
 10
18.8022
 20
10.3071
 10
18.8991
 20
10.1658
 10
18.9955
 20
10.0241
 10
19.2099
 20
9.8007
 10
19.4183
 20
9.5773
 10
19.6191
 20
9.3538
 10
19.6528
 20
9.3391
 10
19.6783
 20
9.3326
 10
19.6983
 20
9.3321
 10
19.8745
 20
9.1891
 10
20.0449
 20
9.0521
 10
20.2074
 20
8.9231
 10
20.6786
 20
8.5807
 10
21.1495
 20
8.246
 10
21.6207
 20
7.9178
 10
21.7335
 20
7.8754
 10
21.838
 20
7.8332
 10
21.937
 20
7.7914
 10
22.0292
 20
7.736
 10
22.1136
 20
7.6882
 10
22.1928
 20
7.647
 10
22.568
 20
7.4797
 10
22.9431
 20
7.3182
 10
23.318
 20
7.1649
 10
23.6147
 20
7.0594
 10
23.9056
 20
6.9594
 10
24.1884
 20
6.868
 10
24.6044
 20
6.7657
 10
25.0209
 20
6.6713
 10
25.4374
 20
6.583
 10
25.8543
 20
6.5207
 10
26.2717
 20
6.466
 10
26.6889
 20
6.4176
 10
27.1814
 20
6.4212
 10
27.6651
 20
6.4169
 10
28.1429
 20
6.407
 10
28.3825
 20
6.4359
 10
28.622
 20
6.457
 10
28.8616
 20
6.4716
 10
29.0814
 20
6.507
 10
29.295
 20
6.5422
 10
29.501
 20
6.5779
 10
29.5554
 20
6.6165
 10
29.6023
 20
6.6494
 10
29.6426
 20
6.6746
 10
29.6979
 20
6.7472
 10
29.7447
 20
6.8121
 10
29.7859
 20
6.8706
 10
29.802
 20
6.9642
 10
29.8094
 20
7.0497
 10
29.8111
 20
7.1295
 10
29.7736
 20
7.2294
 10
29.7359
 20
7.3243
 10
29.6976
 20
7.4105
 10
29.6054
 20
7.4663
 10
29.5205
 20
7.5137
 10
29.4415
 20
7.5553
 10
28.7841
 20
7.549
 10
28.1268
 20
7.5487
 10
27.4698
 20
7.5564
 10
26.993
 20
7.6262
 10
26.5164
 20
7.69
 10
26.0391
 20
7.7455
 10
25.8217
 20
7.804
 10
25.6035
 20
7.8544
 10
25.3853
 20
7.8988
 10
24.9361
 20
8.0476
 10
24.4949
 20
8.1903
 10
24.0594
 20
8.3251
 10
23.8424
 20
8.4229
 10
23.6314
 20
8.5129
 10
23.428
 20
8.5972
 10
23.0594
 20
8.784
 10
22.6985
 20
8.9707
 10
22.344
 20
9.1573
 10
21.8138
 20
9.5272
 10
21.2834
 20
9.8907
 10
20.7532
 20
10.2465
 10
20.6556
 20
10.3483
 10
20.5637
 20
10.4436
 10
20.4802
 20
10.5309
 10
20.3448
 20
10.7327
 10
20.2096
 20
10.9288
 10
20.0741
 20
11.1172
 10
19.9842
 20
11.2985
 10
19.9022
 20
11.4734
 10
19.826
 20
11.6403
 10
19.7759
 20
11.8147
 10
19.7335
 20
11.9807
 10
19.6971
 20
12.141
 10
19.6818
 20
12.3606
 10
19.6723
 20
12.5737
 10
19.6707
 20
12.779
 10
19.6871
 20
12.918
 10
19.6964
 20
13.0572
 10
19.6992
 20
13.1966
 10
19.7418
 20
13.3351
 10
19.7783
 20
13.4677
 10
19.8072
 20
13.5928
  0
LWPOLYLINE
  5
2D
330
1F
100
AcDbEntity
  8
0
100
AcDbPolyline
 90
      150
 70
   128
 43
0.0
 10
9.678
 20
15.5033
 10
9.877
 20
14.7662
 10
10.0764
 20
14.0354
 10
10.2756
 20
13.3126
 10
10.2952
 20
13.2924
 10
10.3092
 20
13.2788
 10
10.3152
 20
13.2725
 10
10.3548
 20
13.0934
 10
10.3948
 20
12.9198
 10
10.4348
 20
12.7547
 10
10.5342
 20
12.4619
 10
10.6282
 20
12.1772
 10
10.7136
 20
11.8985
 10
10.7036
 20
11.7944
 10
10.7064
 20
11.601
 10
11.8286
 20
11.6069
 10
11.64
 20
11.605
 10
11.5202
 20
11.605
 10
11.4258
 20
11.605
 10
11.3208
 20
11.6037
 10
10.9596
 20
11.6024
 10
10.7064
 20
11.601
 10
10.7036
 20
11.4194
 10
10.7036
 20
11.2944
 10
10.6738
 20
11.1214
 10
10.6002
 20
10.9224
 10
10.5342
 20
10.7234
 10
10.2612
 20
9.7676
 10
9.996
 20
8.8115
 10
9.7376
 20
7.8557
 10
9.7514
 20
7.716
 10
9.7576
 20
7.5768
 10
9.7576
 20
7.4372
 10
9.7914
 20
7.3637
 10
9.8172
 20
7.2982
 10
9.837
 20
7.2382
 10
9.877
 20
7.1843
 10
9.917
 20
7.1387
 10
9.9566
 20
7.0985
 10
10.0302
 20
7.0451
 10
10.096
 20
6.9992
 10
10.156
 20
6.9593
 10
10.4286
 20
6.9394
 10
10.6934
 20
6.9256
 10
10.9526
 20
6.9196
 10
11.4702
 20
6.9335
 10
11.982
 20
6.9394
 10
12.486
 20
6.9394
 10
12.5858
 20
6.9932
 10
12.6852
 20
7.039
 10
12.7848
 20
7.0792
 10
12.8382
 20
7.1327
 10
12.8842
 20
7.1786
 10
12.924
 20
7.2184
 10
12.978
 20
7.312
 10
13.0236
 20
7.3976
 10
13.0636
 20
7.4772
 10
13.0776
 20
7.5568
 10
13.0834
 20
7.6367
 10
13.0834
 20
7.716
 10
13.0636
 20
7.8096
 10
13.0436
 20
7.8956
 10
13.0236
 20
7.9752
 10
12.8704
 20
8.3934
 10
12.725
 20
8.8115
 10
12.5858
 20
9.2297
 10
12.5454
 20
9.4289
 10
12.5056
 20
9.622
 10
12.4662
 20
9.8074
 10
12.5596
 20
9.9208
 10
12.645
 20
10.0262
 10
12.725
 20
10.1261
 10
12.7848
 20
10.1458
 10
12.8382
 20
10.1657
 10
12.8842
 20
10.1854
 10
13.655
 20
10.3252
 10
14.4178
 20
10.4584
 10
15.1746
 20
10.584
 10
15.2346
 20
10.6037
 10
15.2884
 20
10.6236
 10
15.3336
 20
10.6438
 10
15.4672
 20
10.7434
 10
15.5928
 20
10.837
 10
15.7122
 20
10.9224
 10
15.7856
 20
11.042
 10
15.8516
 20
11.1616
 10
15.9114
 20
11.281
 10
15.9316
 20
11.3747
 10
15.9512
 20
11.4604
 10
15.9714
 20
11.5398
 10
15.9572
 20
11.6934
 10
15.9512
 20
11.8388
 10
15.9512
 20
11.978
 10
15.8914
 20
12.0776
 10
15.8376
 20
12.1772
 10
15.7916
 20
12.2766
 10
15.6924
 20
12.3764
 10
15.5928
 20
12.4758
 10
15.4932
 20
12.5756
 10
15.3736
 20
12.6294
 10
15.2602
 20
12.6754
 10
15.1546
 20
12.7151
 10
14.6032
 20
12.7886
 10
14.059
 20
12.8542
 10
13.5216
 20
12.9138
 10
13.2826
 20
12.9539
 10
13.0496
 20
12.9941
 10
12.8246
 20
13.0336
 10
12.725
 20
13.1132
 10
12.6252
 20
13.1872
 10
12.526
 20
13.2526
 10
12.5056
 20
13.3064
 10
12.486
 20
13.3523
 10
12.4662
 20
13.392
 10
12.4798
 20
13.4858
 10
12.486
 20
13.5714
 10
12.486
 20
13.651
 10
12.6594
 20
14.2424
 10
12.8246
 20
14.8259
 10
12.984
 20
15.4036
 10
12.9978
 20
15.5429
 10
13.0036
 20
15.6761
 10
13.0036
 20
15.8018
 10
12.97
 20
15.8753
 10
12.9442
 20
15.9412
 10
12.924
 20
16.001
 10
12.8704
 20
16.0548
 10
12.8246
 20
16.1004
 10
12.7848
 20
16.1405
 10
12.7048
 20
16.1939
 10
12.6314
 20
16.2401
 10
12.5654
 20
16.2796
 10
12.3666
 20
16.2998
 10
12.1736
 20
16.3134
 10
11.988
 20
16.3194
 10
11.3968
 20
16.2998
 10
10.8128
 20
16.2796
 10
10.2354
 20
16.2598
 10
10.1022
 20
16.1999
 10
9.9764
 20
16.1405
 10
9.8572
 20
16.0806
 10
9.8172
 20
16.0409
 10
9.7834
 20
16.001
 10
9.7576
 20
15.9611
 10
9.7376
 20
15.8876
 10
9.7176
 20
15.8216
 10
9.6978
 20
15.7618
 10
9.6838
 20
15.6686
 10
9.678
 20
15.583
 10
9.678
 20
15.5033
  0
LWPOLYLINE
  5
2E
330
1F
100
AcDbEntity
  8
0
100
AcDbPolyline
 90
      257
 70
   128
 43
0.0
 10
45.5848
 20
7.4695
 10
45.5641
 20
7.3559
 10
45.5441
 20
7.2508
 10
45.5234
 20
7.151
 10
45.5024
 20
6.912
 10
45.4818
 20
6.6792
 10
45.4608
 20
6.4541
 10
45.4795
 20
6.1615
 10
45.4979
 20
5.8765
 10
45.5167
 20
5.5974
 10
45.4963
 20
5.504
 10
45.4763
 20
5.4185
 10
45.456
 20
5.339
 10
45.402
 20
5.2595
 10
45.3557
 20
5.1802
 10
45.3155
 20
5.1006
 10
45.2611
 20
5.041
 10
45.2155
 20
4.9873
 10
45.1753
 20
4.9417
 10
44.4364
 20
4.407
 10
43.6972
 20
3.8787
 10
42.9581
 20
3.3582
 10
42.9038
 20
3.2988
 10
42.8579
 20
3.245
 10
42.8177
 20
3.1994
 10
42.7637
 20
3.1002
 10
42.7173
 20
3.0068
 10
42.6772
 20
2.921
 10
42.6568
 20
2.8078
 10
42.6362
 20
2.7022
 10
42.616
 20
2.6026
 10
42.6352
 20
2.4693
 10
42.6488
 20
2.3435
 10
42.6543
 20
2.2242
 10
42.7334
 20
2.0847
 10
42.8063
 20
1.9509
 10
42.8715
 20
1.825
 10
43.0045
 20
1.7249
 10
43.1296
 20
1.6307
 10
43.2488
 20
1.5445
 10
43.3285
 20
1.5244
 10
43.4019
 20
1.5039
 10
43.4673
 20
1.4836
 10
43.6068
 20
1.4693
 10
43.7404
 20
1.4632
 10
43.8658
 20
1.4626
 10
43.9594
 20
1.4814
 10
44.0453
 20
1.5011
 10
44.1247
 20
1.5209
 10
44.8631
 20
1.8164
 10
45.5954
 20
2.106
 10
46.3193
 20
2.3875
 10
46.4789
 20
2.4067
 10
46.638
 20
2.4203
 10
46.7975
 20
2.4253
 10
46.897
 20
2.4049
 10
46.9904
 20
2.3847
 10
47.0759
 20
2.3644
 10
47.1695
 20
2.3106
 10
47.2551
 20
2.2644
 10
47.3344
 20
2.224
 10
47.5131
 20
2.0499
 10
47.6917
 20
1.8839
 10
47.8702
 20
1.7238
 10
48.168
 20
1.5632
 10
48.4662
 20
1.4086
 10
48.7642
 20
1.2618
 10
48.9576
 20
1.2074
 10
49.142
 20
1.1603
 10
49.3211
 20
1.1201
 10
49.5203
 20
1.0992
 10
49.7192
 20
1.0786
 10
49.9183
 20
1.0576
 10
50.0978
 20
1.0706
 10
50.277
 20
1.0762
 10
50.4562
 20
1.0754
 10
50.5898
 20
1.0944
 10
50.7154
 20
1.114
 10
50.8347
 20
1.1332
 10
51.1541
 20
1.2714
 10
51.4734
 20
1.4034
 10
51.7924
 20
1.5276
 10
51.9321
 20
1.6207
 10
52.066
 20
1.7055
 10
52.192
 20
1.7846
 10
52.3118
 20
1.8841
 10
52.4257
 20
1.983
 10
52.532
 20
2.0818
 10
52.6319
 20
2.195
 10
52.7259
 20
2.2999
 10
52.8118
 20
2.3993
 10
52.9522
 20
2.6121
 10
53.0865
 20
2.8166
 10
53.2131
 20
3.0151
 10
53.3077
 20
3.2337
 10
53.3939
 20
3.4524
 10
53.4747
 20
3.6712
 10
53.5298
 20
3.9096
 10
53.5766
 20
4.1488
 10
53.6173
 20
4.3876
 10
53.618
 20
4.5266
 10
53.6187
 20
4.6604
 10
53.619
 20
4.7858
 10
53.5796
 20
4.8656
 10
53.5461
 20
4.9452
 10
53.5207
 20
5.0251
 10
53.461
 20
5.0793
 10
53.4074
 20
5.1252
 10
53.3616
 20
5.1651
 10
53.2819
 20
5.1857
 10
53.2025
 20
5.2059
 10
53.1232
 20
5.2261
 10
53.0431
 20
5.2065
 10
52.9634
 20
5.193
 10
52.8838
 20
5.1874
 10
52.8236
 20
5.1479
 10
52.7698
 20
5.1078
 10
52.7239
 20
5.0686
 10
52.6697
 20
4.9891
 10
52.6234
 20
4.9096
 10
52.5835
 20
4.8302
 10
52.5628
 20
4.6906
 10
52.5427
 20
4.5573
 10
52.5221
 20
4.4323
 10
52.4817
 20
4.2791
 10
52.4413
 20
4.1337
 10
52.4006
 20
3.9948
 10
52.3004
 20
3.8155
 10
52.2
 20
3.6427
 10
52.0996
 20
3.478
 10
51.9257
 20
3.3193
 10
51.7599
 20
3.1606
 10
51.5997
 20
3.002
 10
51.4261
 20
2.9096
 10
51.2605
 20
2.8244
 10
51.1006
 20
2.7455
 10
50.9273
 20
2.6925
 10
50.7621
 20
2.6474
 10
50.6025
 20
2.6081
 10
50.4429
 20
2.5949
 10
50.2835
 20
2.5897
 10
50.1242
 20
2.5903
 10
49.9055
 20
2.631
 10
49.6865
 20
2.6657
 10
49.4672
 20
2.6929
 10
49.3939
 20
2.7267
 10
49.3282
 20
2.7531
 10
49.2685
 20
2.7731
 10
49.1095
 20
2.8676
 10
48.9565
 20
2.9539
 10
48.8117
 20
3.0342
 10
48.6986
 20
3.1339
 10
48.5937
 20
3.2284
 10
48.4941
 20
3.3144
 10
48.2766
 20
3.6734
 10
48.0589
 20
4.033
 10
47.8244
 20
4.3587
 10
47.7685
 20
4.4705
 10
47.6812
 20
4.6485
 10
46.5731
 20
4.0767
 10
47.492
 20
4.5504
 10
47.5883
 20
4.6017
 10
47.6812
 20
4.6485
 10
47.5449
 20
4.9177
 10
47.5314
 20
4.9257
 10
47.5258
 20
4.9712
 10
47.489
 20
5.0295
 10
47.4922
 20
5.0512
 10
47.4665
 20
5.0911
 10
47.4466
 20
5.1308
 10
47.4329
 20
5.1712
 10
47.4271
 20
5.205
 10
47.4272
 20
5.2307
 10
47.3737
 20
5.3106
 10
47.3283
 20
5.3903
 10
47.2886
 20
5.4702
 10
47.2159
 20
5.6499
 10
47.1507
 20
5.8234
 10
47.0916
 20
5.9891
 10
47.0727
 20
6.1485
 10
47.0533
 20
6.3078
 10
47.0341
 20
6.4675
 10
47.0488
 20
6.6065
 10
47.0552
 20
6.7461
 10
47.0558
 20
6.8855
 10
47.0962
 20
7.0448
 10
47.1369
 20
7.198
 10
47.1773
 20
7.3427
 10
47.2312
 20
7.4562
 10
47.278
 20
7.5615
 10
47.3178
 20
7.661
 10
47.4123
 20
7.7999
 10
47.4983
 20
7.933
 10
47.5787
 20
8.0579
 10
47.6585
 20
8.1374
 10
47.733
 20
8.2111
 10
47.7987
 20
8.2762
 10
47.9325
 20
8.3751
 10
48.0587
 20
8.4683
 10
48.1783
 20
8.5534
 10
48.358
 20
8.6464
 10
48.5374
 20
8.7312
 10
48.7171
 20
8.8098
 10
48.9365
 20
8.8628
 10
49.1499
 20
8.9077
 10
49.355
 20
8.9466
 10
49.5739
 20
8.9115
 10
49.793
 20
8.8849
 10
50.0117
 20
8.8641
 10
50.2304
 20
8.764
 10
50.4493
 20
8.669
 10
50.6678
 20
8.5824
 10
50.7676
 20
8.5681
 10
50.8668
 20
8.562
 10
50.9667
 20
8.5615
 10
51.0806
 20
8.6347
 10
51.1862
 20
8.6998
 10
51.2861
 20
8.7594
 10
51.3204
 20
8.8984
 10
51.3471
 20
9.0316
 10
51.3676
 20
9.157
 10
51.3341
 20
9.2369
 10
51.3085
 20
9.3166
 10
51.289
 20
9.3961
 10
51.1359
 20
9.5164
 10
50.991
 20
9.6306
 10
50.8523
 20
9.7368
 10
50.6533
 20
9.8314
 10
50.4546
 20
9.9178
 10
50.2558
 20
9.9982
 10
50.0629
 20
10.0531
 10
49.8782
 20
10.0994
 10
49.699
 20
10.1402
 10
49.3604
 20
10.1554
 10
49.0218
 20
10.1629
 10
48.683
 20
10.1644
 10
48.4898
 20
10.1252
 10
48.3044
 20
10.0866
 10
48.1254
 20
10.0472
 10
47.9855
 20
9.9943
 10
47.8458
 20
9.9493
 10
47.7062
 20
9.9097
 10
47.5326
 20
9.8168
 10
47.367
 20
9.7318
 10
47.2075
 20
9.6532
 10
47.0275
 20
9.5146
 10
46.8477
 20
9.3818
 10
46.6677
 20
9.2572
 10
46.5677
 20
9.1577
 10
46.4737
 20
9.0649
 10
46.3878
 20
8.9794
 10
46.2473
 20
8.8008
 10
46.1133
 20
8.6224
 10
45.9872
 20
8.4435
 10
45.8462
 20
8.1114
 10
45.7115
 20
7.7873
 10
45.5848
 20
7.4695
  0
LWPOLYLINE
  5
2F
330
1F
100
AcDbEntity
  8
0
100
AcDbPolyline
 90
      189
 70
   128
 43
0.0
 10
71.7385
 20
16.1608
 10
71.814
 20
15.9003
 10
71.8854
 20
15.6485
 10
71.9508
 20
15.4048
 10
71.9391
 20
15.3048
 10
71.9195
 20
15.2072
 10
71.894
 20
15.111
 10
71.8365
 20
15.0494
 10
71.787
 20
14.9948
 10
71.747
 20
14.9435
 10
71.6753
 20
14.9071
 10
71.6057
 20
14.8777
 10
71.5381
 20
14.8544
 10
71.4279
 20
14.8278
 10
71.326
 20
14.8075
 10
71.2329
 20
14.7909
 10
70.8958
 20
14.7622
 10
70.5667
 20
14.7402
 10
70.2465
 20
14.7213
 10
70.175
 20
14.685
 10
70.1113
 20
14.6544
 10
70.057
 20
14.6277
 10
70.0237
 20
14.5807
 10
69.9929
 20
14.5413
 10
69.9635
 20
14.5076
 10
69.9297
 20
14.4347
 10
69.9035
 20
14.3588
 10
69.8831
 20
14.2822
 10
69.8838
 20
14.2059
 10
69.8861
 20
14.1372
 10
69.8901
 20
14.0745
 10
69.913
 20
14.027
 10
69.9293
 20
13.9874
 10
69.9422
 20
13.9577
 10
69.9468
 20
13.9213
 10
69.9458
 20
13.8947
 10
69.9408
 20
13.8754
 10
69.9925
 20
13.7589
 10
70.044
 20
13.6423
 10
70.0958
 20
13.5255
 10
70.1506
 20
13.3669
 10
70.1994
 20
13.2162
 10
70.2442
 20
13.0743
 10
70.2718
 20
13.0468
 10
70.2918
 20
13.0208
 10
70.3064
 20
12.9963
 10
70.3684
 20
12.8417
 10
70.4271
 20
12.6968
 10
70.479
 20
12.5595
 10
70.5424
 20
12.487
 10
70.608
 20
12.4226
 10
70.6746
 20
12.3635
 10
70.7868
 20
12.3195
 10
70.9008
 20
12.2835
 10
71.016
 20
12.2531
 10
71.1203
 20
12.281
 10
71.215
 20
12.3032
 10
71.3019
 20
12.3219
 10
71.4287
 20
12.4119
 10
71.5483
 20
12.4976
 10
71.6581
 20
12.578
 10
71.7018
 20
12.5869
 10
71.7394
 20
12.5977
 10
71.7696
 20
12.6101
 10
72.3827
 20
13.0605
 10
72.9937
 20
13.5023
 10
73.5345
 20
13.9303
 10
73.5992
 20
13.9725
 10
73.6813
 20
14.0134
 10
73.8498
 20
14.0908
 10
73.74
 20
14.3583
 10
73.6387
 20
14.5863
 10
73.5824
 20
14.7243
 10
73.5345
 20
14.8285
 10
73.5176
 20
14.8763
 10
73.481
 20
14.9439
 10
73.4626
 20
15.007
 10
73.8498
 20
14.0908
 10
74.0264
 20
14.16
 10
74.3106
 20
14.2299
 10
74.3168
 20
14.2278
 10
74.8788
 20
14.3232
 10
75.6024
 20
14.4351
 10
76.3161
 20
14.5413
 10
76.4957
 20
14.597
 10
76.6737
 20
14.6466
 10
76.8496
 20
14.6885
 10
76.9204
 20
14.7468
 10
76.9811
 20
14.7985
 10
77.0351
 20
14.8457
 10
77.0748
 20
14.9181
 10
77.1143
 20
14.9898
 10
77.1539
 20
15.0619
 10
77.1725
 20
15.1329
 10
77.1894
 20
15.1962
 10
77.2046
 20
15.254
 10
77.2006
 20
15.3169
 10
77.1965
 20
15.38
 10
77.1924
 20
15.443
 10
77.1377
 20
15.6014
 10
77.089
 20
15.7523
 10
77.0438
 20
15.894
 10
76.8893
 20
16.2439
 10
76.7387
 20
16.5864
 10
76.5935
 20
16.9192
 10
76.5359
 20
16.9901
 10
76.4838
 20
17.051
 10
76.4367
 20
17.1046
 10
76.4014
 20
17.1282
 10
76.3704
 20
17.1426
 10
76.345
 20
17.1496
 10
76.2706
 20
17.1547
 10
76.2055
 20
17.1657
 10
76.1474
 20
17.181
 10
76.0849
 20
17.177
 10
76.0217
 20
17.1729
 10
75.9591
 20
17.1688
 10
75.8876
 20
17.1321
 10
75.8182
 20
17.1031
 10
75.7502
 20
17.0798
 10
75.4959
 20
16.8174
 10
75.2484
 20
16.5594
 10
75.0106
 20
16.307
 10
74.9638
 20
16.284
 10
74.9246
 20
16.268
 10
74.8943
 20
16.2551
 10
74.8893
 20
16.2359
 10
74.8858
 20
16.2223
 10
74.8842
 20
16.2166
 10
74.8027
 20
16.1973
 10
74.7304
 20
16.181
 10
74.6659
 20
16.1715
 10
74.5735
 20
16.21
 10
74.4842
 20
16.2397
 10
74.4014
 20
16.2616
 10
74.2966
 20
16.3861
 10
74.1972
 20
16.501
 10
74.1017
 20
16.6085
 10
74.0166
 20
16.7545
 10
73.9375
 20
16.899
 10
73.8659
 20
17.0418
 10
73.8324
 20
17.071
 10
73.8047
 20
17.0989
 10
73.785
 20
17.1245
 10
73.7597
 20
17.1869
 10
73.7329
 20
17.2413
 10
73.7049
 20
17.2902
 10
73.6574
 20
17.3441
 10
73.6096
 20
17.3975
 10
73.5618
 20
17.4512
 10
73.5669
 20
17.4704
 10
73.5704
 20
17.4841
 10
73.572
 20
17.4901
 10
73.4577
 20
17.6022
 10
73.3491
 20
17.7135
 10
73.2483
 20
17.8226
 10
73.1571
 20
17.8675
 10
73.0714
 20
17.9103
 10
72.9934
 20
17.9512
 10
72.8346
 20
17.9727
 10
72.6756
 20
17.9944
 10
72.516
 20
18.0157
 10
72.3819
 20
17.9747
 10
72.2496
 20
17.9419
 10
72.1188
 20
17.9147
 10
71.9871
 20
17.8053
 10
71.8606
 20
17.694
 10
71.7427
 20
17.581
 10
71.703
 20
17.5091
 10
71.6631
 20
17.4372
 10
71.6238
 20
17.3653
 10
71.6118
 20
17.2654
 10
71.5919
 20
17.1679
 10
71.5667
 20
17.0718
 10
71.5659
 20
16.9895
 10
71.5647
 20
16.9073
 10
71.5639
 20
16.8255
 10
71.5903
 20
16.7152
 10
71.6106
 20
16.613
 10
71.6272
 20
16.5202
 10
71.6605
 20
16.4353
 10
71.6881
 20
16.36
 10
71.7113
 20
16.292
 10
71.7143
 20
16.2497
 10
71.7116
 20
16.2156
 10
71.7051
 20
16.1907
 10
71.7208
 20
16.1716
 10
71.7325
 20
16.1625
 10
71.7385
 20
16.1608
  0
LWPOLYLINE
  5
30
330
1F
100
AcDbEntity
  8
0
100
AcDbPolyline
 90
      355
 70
   128
 43
0.0
 10
55.0419
 20
2.3364
 10
55.0461
 20
2.3723
 10
55.0479
 20
2.4173
 10
55.0892
 20
2.4922
 10
55.1396
 20
2.5712
 10
55.2
 20
2.6516
 10
55.2663
 20
2.6902
 10
55.3423
 20
2.7325
 10
55.4281
 20
2.7763
 10
55.5103
 20
2.7604
 10
55.5961
 20
2.7515
 10
55.6852
 20
2.748
 10
55.8614
 20
2.6964
 10
56.0404
 20
2.6503
 10
56.2233
 20
2.6106
 10
56.4713
 20
2.565
 10
56.7268
 20
2.5221
 10
56.9935
 20
2.4817
 10
57.0382
 20
2.48
 10
57.0908
 20
2.4802
 10
57.1544
 20
2.4841
 10
57.2782
 20
2.461
 10
57.4022
 20
2.4384
 10
57.5258
 20
2.4155
 10
57.8131
 20
2.4004
 10
58.1097
 20
2.3895
 10
58.416
 20
2.38
 10
58.7197
 20
2.3944
 10
59.0231
 20
2.4091
 10
59.3269
 20
2.4235
 10
59.6276
 20
2.4621
 10
59.9359
 20
2.4973
 10
60.2489
 20
2.5289
 10
60.5304
 20
2.5855
 10
60.8203
 20
2.646
 10
61.1207
 20
2.7079
 10
61.5143
 20
2.8324
 10
61.9149
 20
2.9523
 10
62.3207
 20
3.07
 10
62.3303
 20
3.0875
 10
62.3455
 20
3.102
 10
62.3668
 20
3.1127
 10
62.3997
 20
3.1177
 10
62.4415
 20
3.1236
 10
62.4929
 20
3.1345
 10
62.5023
 20
3.1515
 10
62.517
 20
3.1662
 10
62.5391
 20
3.1767
 10
62.6623
 20
3.2226
 10
62.7918
 20
3.2648
 10
62.928
 20
3.3039
 10
63.0745
 20
3.4053
 10
63.229
 20
3.5085
 10
63.3946
 20
3.6151
 10
63.4777
 20
3.683
 10
63.5606
 20
3.7508
 10
63.6435
 20
3.8193
 10
63.6721
 20
3.8713
 10
63.7065
 20
3.9206
 10
63.7472
 20
3.9662
 10
63.7936
 20
4.0089
 10
63.8455
 20
4.0488
 10
63.9038
 20
4.0849
 10
64.0533
 20
4.3439
 10
64.2122
 20
4.6036
 10
64.3808
 20
4.8678
 10
64.4289
 20
4.955
 10
64.4748
 20
5.0502
 10
64.5174
 20
5.1568
 10
64.5498
 20
5.298
 10
64.5797
 20
5.4474
 10
64.6068
 20
5.6077
 10
64.6263
 20
5.8085
 10
64.6448
 20
6.0187
 10
64.6586
 20
6.2384
 10
64.6182
 20
6.4949
 10
64.5765
 20
6.7614
 10
64.5376
 20
6.9021
 10
64.4967
 20
7.0856
 10
64.4202
 20
7.3085
 10
64.5732
 20
7.3551
 10
65.009
 20
7.4882
 10
65.3882
 20
7.5947
 10
65.6111
 20
7.6646
 10
65.6876
 20
7.6912
 10
65.7708
 20
7.7145
 10
65.8207
 20
7.7245
 10
65.844
 20
7.7278
 10
65.8574
 20
7.7382
 10
64.4202
 20
7.3085
 10
64.3642
 20
7.5027
 10
64.3296
 20
7.6228
 10
64.2604
 20
7.8631
 10
64.2258
 20
7.9832
 10
64.1973
 20
8.0672
 10
64.1275
 20
8.2536
 10
64.0781
 20
8.3616
 10
63.979
 20
8.5238
 10
63.8749
 20
8.6947
 10
63.7749
 20
8.8018
 10
63.6785
 20
8.9162
 10
63.5855
 20
9.036
 10
63.3783
 20
9.1956
 10
63.168
 20
9.3634
 10
62.9551
 20
9.5423
 10
62.7539
 20
9.6309
 10
62.5472
 20
9.7218
 10
62.3336
 20
9.8171
 10
62.0683
 20
9.8722
 10
61.8
 20
9.9225
 10
61.5281
 20
9.9653
 10
61.2932
 20
9.9515
 10
61.049
 20
9.9335
 10
60.7951
 20
9.9144
 10
60.5311
 20
9.8484
 10
60.2587
 20
9.7783
 10
59.9758
 20
9.7066
 10
59.6754
 20
9.6154
 10
59.371
 20
9.5173
 10
59.0636
 20
9.4133
 10
58.8011
 20
9.3082
 10
58.5381
 20
9.2027
 10
58.2755
 20
9.0978
 10
58.0545
 20
8.9849
 10
57.8294
 20
8.8659
 10
57.6015
 20
8.7409
 10
57.5747
 20
8.7333
 10
57.5423
 20
8.7286
 10
57.5029
 20
8.7273
 10
57.0429
 20
8.4288
 10
56.5735
 20
8.1256
 10
56.0939
 20
7.8214
 10
56.0639
 20
7.8082
 10
56.0249
 20
7.7913
 10
55.976
 20
7.7725
 10
55.8901
 20
7.6993
 10
55.8004
 20
7.6191
 10
55.7082
 20
7.5339
 10
55.6713
 20
7.5085
 10
55.6295
 20
7.486
 10
55.5805
 20
7.4677
 10
55.5585
 20
7.4276
 10
55.5273
 20
7.3836
 10
55.4863
 20
7.338
 10
55.2957
 20
7.1695
 10
55.0985
 20
7.0055
 10
54.896
 20
6.8445
 10
54.7936
 20
6.7413
 10
54.6918
 20
6.6387
 10
54.5894
 20
6.5359
 10
54.5259
 20
6.5026
 10
54.4536
 20
6.4674
 10
54.3711
 20
6.4286
 10
54.3065
 20
6.4351
 10
54.2327
 20
6.4372
 10
54.1486
 20
6.4379
 10
54.0441
 20
6.4954
 10
53.9424
 20
6.5585
 10
53.8443
 20
6.628
 10
53.8142
 20
6.697
 10
53.7825
 20
6.776
 10
53.7472
 20
6.864
 10
53.7623
 20
6.9459
 10
53.7742
 20
7.0375
 10
53.7845
 20
7.139
 10
53.8324
 20
7.2257
 10
53.8859
 20
7.3102
 10
53.9463
 20
7.3908
 10
54.185
 20
7.6459
 10
54.4329
 20
7.9022
 10
54.6907
 20
8.1631
 10
54.7516
 20
8.2203
 10
54.8223
 20
8.2789
 10
54.9028
 20
8.3418
 10
54.9217
 20
8.3766
 10
54.9493
 20
8.4139
 10
54.9877
 20
8.454
 10
55.3488
 20
8.7394
 10
55.7147
 20
9.031
 10
56.0835
 20
9.3281
 10
56.3968
 20
9.526
 10
56.7143
 20
9.7309
 10
57.0348
 20
9.9406
 10
57.3141
 20
10.1051
 10
57.6006
 20
10.2654
 10
57.8916
 20
10.4233
 10
58.4176
 20
10.6338
 10
58.9426
 20
10.8446
 10
59.5941
 20
11.0768
 10
59.7226
 20
11.1038
 10
59.8549
 20
11.1379
 10
59.9116
 20
11.1584
 10
59.973
 20
11.1863
 10
60.0364
 20
11.2197
 10
60.4435
 20
11.2975
 10
60.8593
 20
11.3797
 10
61.2851
 20
11.4633
 10
61.5375
 20
11.4678
 10
61.7993
 20
11.4758
 10
62.0706
 20
11.4854
 10
62.2441
 20
11.458
 10
62.4276
 20
11.4322
 10
62.6202
 20
11.4103
 10
62.8191
 20
11.3457
 10
63.0248
 20
11.2777
 10
63.236
 20
11.2073
 10
63.4831
 20
11.0775
 10
63.7394
 20
10.9523
 10
64.0052
 20
10.8286
 10
64.1698
 20
10.7147
 10
64.3349
 20
10.6016
 10
64.4997
 20
10.4879
 10
64.6549
 20
10.3565
 10
64.807
 20
10.2203
 10
64.9556
 20
10.0772
 10
65.0916
 20
9.911
 10
65.2277
 20
9.7451
 10
65.3638
 20
9.5795
 10
65.5381
 20
9.4835
 10
65.7151
 20
9.3925
 10
65.8962
 20
9.3085
 10
66.0773
 20
9.3066
 10
66.2621
 20
9.3117
 10
66.4492
 20
9.3217
 10
66.4768
 20
9.3297
 10
66.5065
 20
9.3428
 10
66.5404
 20
9.3629
 10
67.3065
 20
9.5066
 10
68.0789
 20
9.6539
 10
68.8588
 20
9.8022
 10
69.6391
 20
9.9518
 10
69.8009
 20
9.9145
 10
69.9664
 20
9.8846
 10
70.1347
 20
9.8604
 10
70.2296
 20
9.7851
 10
70.33
 20
9.707
 10
70.4372
 20
9.6251
 10
70.4879
 20
9.5521
 10
70.5432
 20
9.4756
 10
70.6063
 20
9.3956
 10
70.6393
 20
9.3317
 10
70.6747
 20
9.2602
 10
70.7134
 20
9.1775
 10
70.7195
 20
9.1059
 10
70.7305
 20
9.0315
 10
70.7487
 20
8.9528
 10
70.7452
 20
8.8642
 10
70.7438
 20
8.7671
 10
70.7458
 20
8.6591
 10
70.7319
 20
8.6215
 10
70.7222
 20
8.5744
 10
70.7137
 20
8.5178
 10
70.6436
 20
8.3902
 10
70.5693
 20
8.2561
 10
70.4925
 20
8.1166
 10
70.3918
 20
8.0289
 10
70.2798
 20
7.9379
 10
70.1609
 20
7.8445
 10
69.657
 20
7.6447
 10
69.1436
 20
7.4435
 10
68.621
 20
7.2378
 10
68.5615
 20
7.2254
 10
68.4923
 20
7.2108
 10
68.4141
 20
7.1926
 10
68.2864
 20
7.1265
 10
68.154
 20
7.0633
 10
68.0141
 20
7.0039
 10
67.7952
 20
6.9361
 10
67.5718
 20
6.8612
 10
67.346
 20
6.7813
 10
67.3363
 20
6.7637
 10
67.3182
 20
6.7439
 10
67.29
 20
6.7206
 10
67.2153
 20
6.7095
 10
67.1371
 20
6.6913
 10
67.0562
 20
6.6679
 10
67.0465
 20
6.6503
 10
67.0316
 20
6.6358
 10
67.0099
 20
6.6253
 10
67.0045
 20
6.6283
 10
66.9922
 20
6.635
 10
66.9751
 20
6.6447
 10
66.9014
 20
6.5943
 10
66.8228
 20
6.5465
 10
66.7374
 20
6.5024
 10
66.6623
 20
6.4072
 10
66.5819
 20
6.3152
 10
66.4949
 20
6.2271
 10
66.4208
 20
6.0108
 10
66.3487
 20
5.7847
 10
66.2802
 20
5.5492
 10
66.2448
 20
5.4031
 10
66.2111
 20
5.2462
 10
66.1812
 20
5.0808
 10
66.127
 20
4.9289
 10
66.0765
 20
4.7679
 10
66.0281
 20
4.5968
 10
65.8358
 20
4.2478
 10
65.6378
 20
3.9021
 10
65.4335
 20
3.5598
 10
65.2371
 20
3.3275
 10
65.0324
 20
3.0919
 10
64.8168
 20
2.8538
 10
64.7807
 20
2.8285
 10
64.7383
 20
2.8062
 10
64.6896
 20
2.7877
 10
64.6065
 20
2.7195
 10
64.5209
 20
2.6462
 10
64.4311
 20
2.5661
 10
64.2792
 20
2.4678
 10
64.1174
 20
2.3684
 10
63.9468
 20
2.2649
 10
63.8189
 20
2.1988
 10
63.6836
 20
2.1301
 10
63.5371
 20
2.0582
 10
63.5319
 20
2.0609
 10
63.5168
 20
2.063
 10
63.4925
 20
2.0599
 10
63.483
 20
2.0427
 10
63.4679
 20
2.0282
 10
63.4466
 20
2.0176
 10
63.112
 20
1.906
 10
62.7696
 20
1.7923
 10
62.4165
 20
1.6756
 10
62.3868
 20
1.6626
 10
62.3527
 20
1.6421
 10
62.3162
 20
1.6176
 10
61.7685
 20
1.5026
 10
61.2104
 20
1.3852
 10
60.644
 20
1.2652
 10
60.5228
 20
1.264
 10
60.3918
 20
1.2613
 10
60.2516
 20
1.2548
 10
60.2165
 20
1.244
 10
60.1703
 20
1.2309
 10
60.1158
 20
1.2154
 10
59.5901
 20
1.2099
 10
59.0611
 20
1.1985
 10
58.528
 20
1.1807
 10
58.0823
 20
1.2382
 10
57.632
 20
1.2881
 10
57.1795
 20
1.3331
 10
56.9062
 20
1.3859
 10
56.6219
 20
1.4359
 10
56.3298
 20
1.4831
 10
56.171
 20
1.5255
 10
56.0121
 20
1.5676
 10
55.8533
 20
1.609
 10
55.5947
 20
1.7588
 10
55.3347
 20
1.9181
 10
55.0704
 20
2.0866
 10
55.0643
 20
2.1581
 10
55.0529
 20
2.2323
 10
55.0346
 20
2.3106
 10
55.0419
 20
2.3364
  0
LWPOLYLINE
  5
31
330
1F
100
AcDbEntity
  8
0
100
AcDbPolyline
 90
       16
 70
   128
 43
0.0
 10
8.9154
 20
16.5437
 10
8.9564
 20
16.6309
 10
8.9965
 20
16.7077
 10
9.0326
 20
16.7757
 10
9.035
 20
16.9159
 10
9.0338
 20
17.047
 10
9.0311
 20
17.1682
 10
8.8664
 20
17.9733
 10
8.7013
 20
18.7787
 10
8.5364
 20
19.5841
 10
8.3715
 20
20.3892
 10
8.3781
 20
20.5101
 10
8.3801
 20
20.6965
 10
8.3176
 20
20.6979
 10
7.1182
 20
20.7274
 10
7.1196
 20
20.7259
  0
LWPOLYLINE
  5
32
330
1F
100
AcDbEntity
  8
0
100
AcDbPolyline
 90
      133
 70
   128
 43
0.0
 10
7.1196
 20
20.7259
 10
7.1182
 20
20.7274
 10
8.3388
 20
20.698
 10
8.3801
 20
20.6965
 10
8.3854
 20
20.885
 10
8.5168
 20
21.6748
 10
8.6861
 20
22.3727
 10
8.8559
 20
23.0705
 10
9.0253
 20
23.7687
 10
9.1946
 20
24.4666
 10
9.1612
 20
24.5625
 10
9.1305
 20
24.6532
 10
9.1039
 20
24.7367
 10
9.0291
 20
24.8245
 10
8.963
 20
24.9079
 10
8.9073
 20
24.9905
 10
8.788
 20
25.0355
 10
8.6768
 20
25.0781
 10
8.5768
 20
25.1186
 10
7.9018
 20
25.1354
 10
7.2346
 20
25.1563
 10
6.5721
 20
25.1798
 10
6.4589
 20
25.1362
 10
6.3543
 20
25.0903
 10
6.2603
 20
25.0418
 10
6.2333
 20
25.0093
 10
6.2022
 20
24.9839
 10
6.1678
 20
24.9635
 10
6.1245
 20
24.892
 10
6.0853
 20
24.829
 10
6.0475
 20
24.7763
 10
6.0503
 20
24.732
 10
6.0504
 20
24.6927
 10
6.0467
 20
24.6602
 10
6.0367
 20
24.6379
 10
6.0227
 20
24.6226
 10
6.0055
 20
24.6123
 10
6.0222
 20
24.5067
 10
6.0355
 20
24.4058
 10
6.0452
 20
24.312
 10
6.2135
 20
23.8325
 10
6.3816
 20
23.3539
 10
6.5496
 20
22.8747
 10
6.546
 20
22.803
 10
6.5472
 20
22.7345
 10
6.5558
 20
22.6698
 10
6.5109
 20
22.5504
 10
6.4679
 20
22.4392
 10
6.4278
 20
22.3393
 10
6.3006
 20
22.2798
 10
6.1827
 20
22.2169
 10
6.0749
 20
22.1529
 10
5.4491
 20
22.0759
 10
4.8327
 20
21.9953
 10
4.2261
 20
21.9132
 10
4.0664
 20
21.8814
 10
3.918
 20
21.8465
 10
3.7777
 20
21.8097
 10
3.6827
 20
21.7367
 10
3.5878
 20
21.6738
 10
3.497
 20
21.62
 10
3.3986
 20
21.4455
 10
3.3072
 20
21.2758
 10
3.2209
 20
21.1089
 10
3.2035
 20
20.9433
 10
3.1868
 20
20.7876
 10
3.1745
 20
20.6411
 10
3.2079
 20
20.5452
 10
3.2384
 20
20.4545
 10
3.2651
 20
20.3708
 10
3.3635
 20
20.2439
 10
3.4539
 20
20.1192
 10
3.5331
 20
19.9974
 10
3.6724
 20
19.9182
 10
3.8039
 20
19.841
 10
3.9246
 20
19.7664
 10
3.9981
 20
19.7475
 10
4.0614
 20
19.7314
 10
4.1158
 20
19.7175
 10
4.1874
 20
19.7137
 10
4.2591
 20
19.7097
 10
4.3308
 20
19.7059
 10
4.3681
 20
19.682
 10
4.4024
 20
19.6634
 10
4.433
 20
19.6509
 10
4.5048
 20
19.6473
 10
4.5762
 20
19.6435
 10
4.648
 20
19.6399
 10
4.7763
 20
19.6068
 10
4.8937
 20
19.5772
 10
5.0026
 20
19.5492
 10
5.3816
 20
19.4958
 10
5.7602
 20
19.4428
 10
6.1395
 20
19.3896
 10
6.2366
 20
19.3314
 10
6.3265
 20
19.269
 10
6.4117
 20
19.2039
 10
6.4372
 20
19.1331
 10
6.4657
 20
19.074
 10
6.4962
 20
19.0223
 10
6.5062
 20
18.966
 10
6.5127
 20
18.9164
 10
6.5162
 20
18.8717
 10
6.3129
 20
18.2886
 10
6.114
 20
17.7143
 10
5.9161
 20
17.15
 10
5.9122
 20
17.0784
 10
5.9084
 20
17.0067
 10
5.9049
 20
16.9347
 10
5.9335
 20
16.8202
 10
5.9651
 20
16.7163
 10
5.9987
 20
16.62
 10
6.0638
 20
16.5499
 10
6.1191
 20
16.4834
 10
6.1652
 20
16.4181
 10
6.2028
 20
16.3934
 10
6.24
 20
16.3695
 10
6.2772
 20
16.3458
 10
6.4256
 20
16.3179
 10
6.5645
 20
16.291
 10
6.6938
 20
16.2683
 10
7.2099
 20
16.2571
 10
7.7165
 20
16.2498
 10
8.2136
 20
16.2432
 10
8.3024
 20
16.25
 10
8.3882
 20
16.2616
 10
8.4698
 20
16.2795
 10
8.5827
 20
16.3238
 10
8.6875
 20
16.3695
 10
8.7812
 20
16.4183
 10
8.8224
 20
16.466
 10
8.8665
 20
16.5084
 10
8.9154
 20
16.5437
  0
LWPOLYLINE
  5
33
330
1F
100
AcDbEntity
  8
0
100
AcDbPolyline
 90
      503
 70
   128
 43
0.0
 10
79.6276
 20
22.7376
 10
79.5852
 20
22.6533
 10
79.5426
 20
22.5607
 10
79.4995
 20
22.4626
 10
79.2884
 20
22.0903
 10
79.0719
 20
21.7126
 10
78.8323
 20
21.3206
 10
78.7687
 20
21.213
 10
78.5996
 20
20.9291
 10
78.4372
 20
21.0259
 10
77.7739
 20
21.4267
 10
77.1694
 20
21.7827
 10
76.4406
 20
22.2215
 10
75.9846
 20
22.491
 10
75.7566
 20
22.6292
 10
75.4888
 20
22.7881
 10
78.5996
 20
20.9291
 10
78.4507
 20
20.675
 10
78.4249
 20
20.5829
 10
78.3129
 20
20.3675
 10
78.1924
 20
20.1518
 10
78.0662
 20
19.9367
 10
78.0634
 20
19.9288
 10
78.0537
 20
19.9189
 10
78.0462
 20
19.8998
 10
78.0325
 20
19.879
 10
78.0182
 20
19.8587
 10
78.0026
 20
19.8192
 10
77.7086
 20
19.3302
 10
77.4145
 20
18.8414
 10
77.1204
 20
18.3524
 10
77.0606
 20
18.3543
 10
77.0014
 20
18.3616
 10
76.9419
 20
18.3776
 10
76.4659
 20
18.6516
 10
75.9826
 20
18.9315
 10
75.4935
 20
19.2199
 10
75.4682
 20
19.2405
 10
75.4353
 20
19.2671
 10
75.3963
 20
19.3022
 10
75.0825
 20
19.4576
 10
74.7686
 20
19.6206
 10
74.4552
 20
19.79
 10
74.4554
 20
19.7959
 10
74.4498
 20
19.81
 10
74.4367
 20
19.8301
 10
74.2195
 20
19.8968
 10
73.9967
 20
19.9695
 10
73.7658
 20
20.0505
 10
73.5214
 20
20.0638
 10
73.2687
 20
20.0857
 10
73.0109
 20
20.1136
 10
72.871
 20
20.0981
 10
72.7248
 20
20.0828
 10
72.571
 20
20.0677
 10
72.3698
 20
20.0139
 10
72.1629
 20
19.9549
 10
71.9477
 20
19.8877
 10
71.7447
 20
19.7683
 10
71.5416
 20
19.6411
 10
71.3385
 20
19.5081
 10
70.9219
 20
19.1226
 10
70.4972
 20
18.7374
 10
70.0669
 20
18.3524
 10
69.9239
 20
18.2372
 10
69.7745
 20
18.116
 10
69.6172
 20
17.9873
 10
69.6166
 20
17.9677
 10
69.61
 20
17.9477
 10
69.5957
 20
17.9284
 10
69.3654
 20
17.7702
 10
69.1273
 20
17.6042
 10
68.8827
 20
17.4324
 10
68.863
 20
17.433
 10
68.8367
 20
17.4279
 10
68.8025
 20
17.415
 10
68.7819
 20
17.3958
 10
68.761
 20
17.3704
 10
68.7404
 20
17.3372
 10
68.6178
 20
17.2416
 10
68.4891
 20
17.1459
 10
68.3525
 20
17.0502
 10
68.2721
 20
17.0132
 10
68.1852
 20
16.9761
 10
68.0903
 20
16.9389
 10
67.9621
 20
16.8571
 10
67.6837
 20
16.6727
 10
67.3799
 20
16.5227
 10
67.0761
 20
16.3728
 10
66.7729
 20
16.2227
 10
66.7727
 20
16.2169
 10
66.7664
 20
16.2032
 10
66.7518
 20
16.1833
 10
66.7258
 20
16.1842
 10
66.6919
 20
16.1794
 10
66.6517
 20
16.1671
 10
66.6248
 20
16.1477
 10
66.5905
 20
16.1229
 10
66.5494
 20
16.0905
 10
66.3681
 20
16.0163
 10
66.1861
 20
15.9356
 10
66.0043
 20
15.8482
 10
65.5607
 20
15.6824
 10
65.1169
 20
15.517
 10
64.6736
 20
15.3513
 10
64.4122
 20
15.2799
 10
64.151
 20
15.2024
 10
63.8893
 20
15.117
 10
63.7078
 20
15.043
 10
63.5199
 20
14.963
 10
63.3239
 20
14.8753
 10
63.1958
 20
14.7937
 10
63.0596
 20
14.7043
 10
62.9169
 20
14.609
 10
62.7124
 20
14.436
 10
62.5078
 20
14.2573
 10
62.3027
 20
14.0704
 10
62.2137
 20
13.9672
 10
62.1166
 20
13.857
 10
62.0133
 20
13.7405
 10
61.9462
 20
13.6968
 10
61.871
 20
13.6455
 10
61.7893
 20
13.5881
 10
61.7429
 20
13.5697
 10
61.6889
 20
13.5512
 10
61.6283
 20
13.5336
 10
61.5289
 20
13.5367
 10
61.4291
 20
13.5337
 10
61.3291
 20
13.5227
 10
61.2505
 20
13.5453
 10
61.1651
 20
13.5676
 10
61.0724
 20
13.5905
 10
60.9555
 20
13.6795
 10
60.8392
 20
13.777
 10
60.7227
 20
13.8805
 10
60.6208
 20
14.0031
 10
60.5113
 20
14.1317
 10
60.396
 20
14.2688
 10
60.2928
 20
14.3519
 10
60.1824
 20
14.4411
 10
60.0657
 20
14.5384
 10
59.9288
 20
14.622
 10
59.786
 20
14.7123
 10
59.6356
 20
14.8106
 10
59.4789
 20
14.8953
 10
59.3161
 20
14.9802
 10
59.1454
 20
15.0648
 10
58.9424
 20
15.1311
 10
58.7316
 20
15.2035
 10
58.5145
 20
15.2839
 10
58.4372
 20
15.3659
 10
58.3542
 20
15.4483
 10
58.2633
 20
15.5306
 10
58.2393
 20
15.5971
 10
58.2077
 20
15.6718
 10
58.1706
 20
15.7527
 10
58.1737
 20
15.8523
 10
58.1827
 20
15.9518
 10
58.1996
 20
16.0506
 10
58.2423
 20
16.1289
 10
58.2901
 20
16.2075
 10
58.3465
 20
16.2853
 10
58.3935
 20
16.3235
 10
58.4487
 20
16.3678
 10
58.5101
 20
16.4199
 10
58.5504
 20
16.438
 10
58.591
 20
16.457
 10
58.6313
 20
16.4756
 10
58.7911
 20
16.4906
 10
58.951
 20
16.5056
 10
59.111
 20
16.5207
 10
59.3299
 20
16.5139
 10
59.5492
 20
16.5127
 10
59.7686
 20
16.5199
 10
60.2739
 20
16.5641
 10
60.7873
 20
16.614
 10
61.3074
 20
16.6715
 10
61.6884
 20
16.7451
 10
62.0756
 20
16.8269
 10
62.4707
 20
16.9141
 10
62.832
 20
17.0026
 10
63.1995
 20
17.0968
 10
63.5752
 20
17.1986
 10
64.2003
 20
17.4384
 10
64.8317
 20
17.684
 10
65.7954
 20
18.106
 10
66.1254
 20
18.2752
 10
66.4633
 20
18.4443
 10
66.7475
 20
18.6145
 10
67.0377
 20
18.785
 10
67.336
 20
18.9548
 10
67.5802
 20
19.1267
 10
67.8311
 20
19.2983
 10
68.0893
 20
19.4696
 10
68.3197
 20
19.6415
 10
68.5586
 20
19.8195
 10
68.8033
 20
20.0051
 10
69.1103
 20
20.2747
 10
69.4177
 20
20.5439
 10
69.7246
 20
20.8134
 10
70.1162
 20
21.2197
 10
70.5076
 20
21.632
 10
70.8988
 20
22.0522
 10
71.0859
 20
22.2917
 10
71.2791
 20
22.5387
 10
71.4803
 20
22.7913
 10
71.5223
 20
22.8697
 10
71.5645
 20
22.948
 10
71.6067
 20
23.0264
 10
71.608
 20
23.0723
 10
71.6037
 20
23.1262
 10
71.5918
 20
23.1864
 10
71.5731
 20
23.2268
 10
71.5545
 20
23.2671
 10
71.5359
 20
23.3077
 10
71.5103
 20
23.3285
 10
71.4776
 20
23.3552
 10
71.4388
 20
23.3901
 10
71.4189
 20
23.3907
 10
71.393
 20
23.3975
 10
71.3598
 20
23.4129
 10
71.3003
 20
23.4148
 10
71.2344
 20
23.4108
 10
71.1599
 20
23.3988
 10
71.0987
 20
23.3553
 10
71.0376
 20
23.3033
 10
70.9761
 20
23.2453
 10
70.7895
 20
23.0121
 10
70.5969
 20
22.7787
 10
70.3964
 20
22.5461
 10
70.2732
 20
22.4303
 10
70.15
 20
22.3086
 10
70.0261
 20
22.179
 10
69.9999
 20
22.16
 10
69.9651
 20
22.1409
 10
69.9251
 20
22.1225
 10
69.8977
 20
22.0834
 10
69.8624
 20
22.0388
 10
69.8209
 20
21.9861
 10
69.7187
 20
21.8896
 10
69.6161
 20
21.7932
 10
69.5131
 20
21.6969
 10
69.4523
 20
21.6587
 10
69.3911
 20
21.621
 10
69.3305
 20
21.5829
 10
69.2891
 20
21.5386
 10
69.2416
 20
21.486
 10
69.1861
 20
21.4281
 10
68.9415
 20
21.2562
 10
68.6912
 20
21.085
 10
68.4327
 20
20.9134
 10
68.3256
 20
20.8569
 10
68.21
 20
20.7947
 10
68.0882
 20
20.7249
 10
68.0678
 20
20.7055
 10
68.0472
 20
20.6803
 10
68.026
 20
20.6474
 10
67.7024
 20
20.4917
 10
67.3787
 20
20.3285
 10
67.0547
 20
20.1592
 10
66.8468
 20
20.0799
 10
66.6311
 20
19.993
 10
66.4089
 20
19.9006
 10
66.0068
 20
19.7874
 10
65.6046
 20
19.6664
 10
65.2023
 20
19.5395
 10
64.862
 20
19.4902
 10
64.5154
 20
19.435
 10
64.1608
 20
19.3721
 10
64.0215
 20
19.3707
 10
63.8757
 20
19.3614
 10
63.7216
 20
19.3462
 10
63.5763
 20
19.3507
 10
63.4233
 20
19.3614
 10
63.2646
 20
19.3804
 10
63.2069
 20
19.4479
 10
63.1495
 20
19.5232
 10
63.092
 20
19.605
 10
63.0888
 20
19.6844
 10
63.0772
 20
19.7706
 10
63.0601
 20
19.8651
 10
63.0614
 20
19.9046
 10
63.0688
 20
19.9445
 10
63.0839
 20
19.9835
 10
63.1863
 20
20.0802
 10
63.2479
 20
20.1381
 10
63.3552
 20
20.1743
 10
63.4695
 20
20.211
 10
63.5905
 20
20.2468
 10
63.7907
 20
20.2804
 10
63.9909
 20
20.314
 10
64.1911
 20
20.3479
 10
64.5536
 20
20.462
 10
64.9218
 20
20.5843
 10
65.2987
 20
20.7119
 10
65.6621
 20
20.8801
 10
66.0323
 20
21.0477
 10
66.41
 20
21.2154
 10
66.6743
 20
21.3861
 10
66.9445
 20
21.5574
 10
67.2226
 20
21.728
 10
67.5899
 20
21.9955
 10
67.9627
 20
22.269
 10
68.344
 20
22.5497
 10
68.3447
 20
22.5701
 10
68.3514
 20
22.5894
 10
68.3658
 20
22.6092
 10
68.3719
 20
22.609
 10
68.3861
 20
22.6085
 10
68.4055
 20
22.608
 10
68.5762
 20
22.782
 10
68.7553
 20
22.9557
 10
68.94
 20
23.1294
 10
68.9405
 20
23.149
 10
68.9474
 20
23.169
 10
68.9618
 20
23.1885
 10
69.0506
 20
23.2852
 10
69.1474
 20
23.3877
 10
69.2503
 20
23.4982
 10
69.3148
 20
23.6416
 10
69.3849
 20
23.7929
 10
69.4634
 20
23.95
 10
69.4671
 20
24.0693
 10
69.4772
 20
24.1943
 10
69.4954
 20
24.3275
 10
69.4815
 20
24.5332
 10
69.4683
 20
24.7467
 10
69.4553
 20
24.966
 10
69.5207
 20
25.1436
 10
69.5861
 20
25.3268
 10
69.6516
 20
25.5178
 10
69.7402
 20
25.6151
 10
69.8374
 20
25.7114
 10
69.9396
 20
25.8081
 10
70.0006
 20
25.8461
 10
70.0621
 20
25.8899
 10
70.1234
 20
25.9416
 10
70.2098
 20
25.979
 10
70.3049
 20
26.0158
 10
70.4057
 20
26.0525
 10
70.6852
 20
26.0637
 10
70.9643
 20
26.0808
 10
71.244
 20
26.1061
 10
71.345
 20
26.143
 10
71.4459
 20
26.1855
 10
71.5475
 20
26.2363
 10
71.6492
 20
26.3129
 10
71.7573
 20
26.3953
 10
71.8736
 20
26.4849
 10
71.9211
 20
26.5435
 10
71.9769
 20
26.6077
 10
72.039
 20
26.6795
 10
72.1031
 20
26.8228
 10
72.1738
 20
26.9739
 10
72.2521
 20
27.131
 10
72.2577
 20
27.3101
 10
72.2694
 20
27.489
 10
72.2886
 20
27.6677
 10
72.2728
 20
27.794
 10
72.2573
 20
27.9279
 10
72.2415
 20
28.0674
 10
72.186
 20
28.2091
 10
72.1251
 20
28.3562
 10
72.0564
 20
28.512
 10
71.911
 20
28.9747
 10
71.7602
 20
29.4437
 10
71.6016
 20
29.9205
 10
71.5316
 20
30.2216
 10
71.4554
 20
30.5289
 10
71.3716
 20
30.8444
 10
71.2996
 20
31.2851
 10
71.2196
 20
31.7316
 10
71.1342
 20
32.1866
 10
71.1064
 20
32.5722
 10
71.0784
 20
32.9656
 10
71.0511
 20
33.365
 10
71.045
 20
33.8034
 10
71.0387
 20
34.2419
 10
71.0324
 20
34.6808
 10
71.0702
 20
35.2573
 10
71.114
 20
35.8338
 10
71.1657
 20
36.4099
 10
71.2087
 20
36.508
 10
71.2943
 20
36.7047
 10
71.3415
 20
36.7492
 10
71.3971
 20
36.8012
 10
71.4587
 20
36.859
 10
71.5602
 20
36.9159
 10
71.6675
 20
36.9782
 10
71.7833
 20
37.048
 10
71.9824
 20
37.0418
 10
72.1813
 20
37.0299
 10
72.38
 20
37.0101
 10
72.5992
 20
36.8236
 10
72.8266
 20
36.6313
 10
73.059
 20
36.4309
 10
73.1578
 20
36.3878
 10
73.2616
 20
36.3448
 10
73.3742
 20
36.3015
 10
73.5716
 20
36.2557
 10
73.7752
 20
36.2034
 10
73.9867
 20
36.1429
 10
74.1038
 20
36.0537
 10
74.2202
 20
35.9562
 10
74.3365
 20
35.8532
 10
74.3926
 20
35.7456
 10
74.455
 20
35.6303
 10
74.525
 20
35.5087
 10
74.5199
 20
35.3434
 10
74.5205
 20
35.1699
 10
74.5288
 20
34.9902
 10
74.435
 20
34.535
 10
74.3354
 20
34.0798
 10
74.2275
 20
33.6248
 10
74.1749
 20
33.2224
 10
74.1165
 20
32.8112
 10
74.0496
 20
32.3954
 10
74.0286
 20
31.7186
 10
74.0013
 20
31.0355
 10
73.9659
 20
30.3452
 10
74.0085
 20
29.7863
 10
74.0569
 20
29.2209
 10
74.1128
 20
28.6471
 10
74.1461
 20
28.4471
 10
74.186
 20
28.2464
 10
74.2335
 20
28.0459
 10
74.3073
 20
27.8582
 10
74.3869
 20
27.6623
 10
74.4743
 20
27.4605
 10
74.55
 20
27.3384
 10
74.6318
 20
27.2104
 10
74.7212
 20
27.0741
 10
74.7977
 20
26.9721
 10
74.8805
 20
26.87
 10
74.9709
 20
26.7674
 10
75.1453
 20
26.6227
 10
75.3203
 20
26.4777
 10
75.4951
 20
26.333
 10
75.5932
 20
26.2898
 10
75.6977
 20
26.2411
 10
75.8094
 20
26.1836
 10
75.9888
 20
26.178
 10
76.1675
 20
26.1665
 10
76.3461
 20
26.1469
 10
76.4469
 20
26.184
 10
76.5539
 20
26.2261
 10
76.6691
 20
26.2764
 10
76.7574
 20
26.3595
 10
76.8534
 20
26.4501
 10
76.9564
 20
26.5464
 10
77.0458
 20
26.6633
 10
77.143
 20
26.7858
 10
77.2468
 20
26.9159
 10
77.3681
 20
26.9721
 10
77.4897
 20
27.034
 10
77.6113
 20
27.1041
 10
77.751
 20
27.1057
 10
77.8964
 20
27.1149
 10
78.0503
 20
27.1301
 10
78.1745
 20
27.0866
 10
78.3066
 20
27.0365
 10
78.4442
 20
26.9783
 10
78.4692
 20
26.9518
 10
78.502
 20
26.9171
 10
78.5405
 20
26.8757
 10
78.5607
 20
26.8751
 10
78.5864
 20
26.8683
 10
78.6198
 20
26.8534
 10
78.6831
 20
26.7717
 10
78.754
 20
26.69
 10
78.8313
 20
26.6079
 10
78.8672
 20
26.487
 10
78.9094
 20
26.3663
 10
78.9595
 20
26.245
 10
78.9473
 20
26.0405
 10
78.9267
 20
25.8277
 10
78.8999
 20
25.6094
 10
78.8091
 20
25.4527
 10
78.7106
 20
25.2904
 10
78.6055
 20
25.1203
 10
78.5616
 20
24.9824
 10
78.5177
 20
24.8441
 10
78.4713
 20
24.6465
 10
78.4638
 20
24.5867
 10
78.4479
 20
24.5273
 10
78.4631
 20
24.3814
 10
78.4784
 20
24.2278
 10
78.4936
 20
24.0678
 10
78.5676
 20
23.9003
 10
78.648
 20
23.7245
 10
78.7361
 20
23.5425
 10
78.8328
 20
23.4538
 10
78.9296
 20
23.3567
 10
79.026
 20
23.2543
 10
79.202
 20
23.1432
 10
79.3835
 20
23.0239
 10
79.5729
 20
22.8985
 10
79.5923
 20
22.8781
 10
79.6113
 20
22.8516
 10
79.63
 20
22.817
 10
79.6295
 20
22.7974
 10
79.6286
 20
22.7716
 10
79.6276
 20
22.7376
  0
LWPOLYLINE
  5
34
330
1F
100
AcDbEntity
  8
0
100
AcDbPolyline
 90
      173
 70
   128
 43
0.0
 10
54.0616
 20
14.1857
 10
53.9284
 20
14.2043
 10
53.8026
 20
14.2232
 10
53.6826
 20
14.2423
 10
52.9114
 20
14.0706
 10
52.1444
 20
13.9012
 10
51.383
 20
13.7315
 10
50.6214
 20
13.5603
 10
50.5478
 20
13.5795
 10
50.482
 20
13.599
 10
50.422
 20
13.6183
 10
50.3618
 20
13.6576
 10
50.3018
 20
13.6967
 10
50.2414
 20
13.7364
 10
50.221
 20
13.7899
 10
50.201
 20
13.8356
 10
50.1808
 20
13.8752
 10
50.0888
 20
14.6931
 10
50.0002
 20
15.505
 10
49.918
 20
16.3127
 10
49.8356
 20
17.1187
 10
49.8154
 20
17.1783
 10
49.7948
 20
17.238
 10
49.7746
 20
17.2978
 10
49.734
 20
17.3565
 10
49.6996
 20
17.4106
 10
49.6734
 20
17.456
 10
49.5534
 20
17.5548
 10
49.439
 20
17.6534
 10
49.3326
 20
17.7522
 10
49.2128
 20
17.8048
 10
49.0988
 20
17.8495
 10
48.9926
 20
17.8886
 10
48.8
 20
17.8732
 10
48.6148
 20
17.8658
 10
48.4354
 20
17.8643
 10
48.3564
 20
17.8239
 10
48.277
 20
17.7892
 10
48.1974
 20
17.7626
 10
48.0982
 20
17.6822
 10
48.0054
 20
17.6076
 10
47.9204
 20
17.5415
 10
47.9068
 20
17.4874
 10
47.901
 20
17.4416
 10
47.9014
 20
17.4016
 10
47.8286
 20
17.3018
 10
47.7638
 20
17.2074
 10
47.7046
 20
17.1214
 10
47.6716
 20
17.0217
 10
47.6466
 20
16.9279
 10
47.627
 20
16.8419
 10
47.6148
 20
16.6488
 10
47.6104
 20
16.4632
 10
47.6118
 20
16.2843
 10
47.5444
 20
15.5469
 10
47.4844
 20
14.8151
 10
47.4304
 20
14.0918
 10
47.4114
 20
13.9983
 10
47.3926
 20
13.9124
 10
47.3728
 20
13.8323
 10
47.3196
 20
13.7582
 10
47.2746
 20
13.6924
 10
47.2354
 20
13.6322
 10
47.1362
 20
13.5778
 10
47.0366
 20
13.5312
 10
46.9376
 20
13.4904
 10
46.0256
 20
13.662
 10
45.1224
 20
13.8282
 10
44.2252
 20
13.9863
 10
44.125
 20
14.0193
 10
44.0312
 20
14.0444
 10
43.9454
 20
14.0635
 10
43.806
 20
14.0486
 10
43.6728
 20
14.0415
 10
43.5474
 20
14.0404
 10
43.474
 20
14.0
 10
43.4086
 20
13.9657
 10
43.3492
 20
13.9394
 10
43.29
 20
13.885
 10
43.2364
 20
13.8389
 10
43.191
 20
13.7983
 10
43.1378
 20
13.7185
 10
43.0926
 20
13.6381
 10
43.0534
 20
13.5584
 10
43.0854
 20
12.7819
 10
43.114
 20
12.0075
 10
43.1362
 20
11.2368
 10
43.1582
 20
10.4726
 10
43.179
 20
10.3731
 10
43.1934
 20
10.2792
 10
43.2002
 20
10.1936
 10
43.2548
 20
10.1145
 10
43.301
 20
10.0353
 10
43.3418
 20
9.9559
 10
43.4158
 20
9.897
 10
43.482
 20
9.8376
 10
43.5424
 20
9.7785
 10
43.622
 20
9.7589
 10
43.7018
 20
9.7399
 10
43.7816
 20
9.7206
 10
43.8808
 20
9.7413
 10
43.9804
 20
9.7559
 10
44.0798
 20
9.7626
 10
44.3916
 20
9.8787
 10
44.6956
 20
9.9866
 10
44.9936
 20
10.0888
 10
45.0274
 20
10.109
 10
45.053
 20
10.1292
 10
45.0726
 20
10.1491
 10
45.7632
 20
10.4277
 10
46.4544
 20
10.7022
 10
47.145
 20
10.9728
 10
47.8362
 20
11.2432
 10
48.5268
 20
11.5116
 10
48.64
 20
11.5153
 10
48.8204
 20
11.5215
 10
48.821
 20
11.6495
 10
48.8196
 20
11.908
 10
48.8164
 20
12.2774
 10
48.8164
 20
12.4098
 10
48.8164
 20
12.5267
 10
48.8164
 20
12.6452
 10
48.8134
 20
12.8915
 10
48.8164
 20
12.8917
 10
48.8148
 20
12.8916
 10
48.8134
 20
12.8915
 10
48.8204
 20
11.5215
 10
49.184
 20
11.5366
 10
49.7172
 20
11.3421
 10
50.2426
 20
11.1473
 10
50.7536
 20
10.9669
 10
50.8072
 20
10.9536
 10
50.8618
 20
10.9333
 10
51.0236
 20
10.8726
 10
51.1042
 20
10.8419
 10
51.2614
 20
10.7771
 10
51.4414
 20
10.6989
 10
51.695
 20
10.6074
 10
51.9408
 20
10.5236
 10
52.1802
 20
10.4463
 10
52.4144
 20
10.3484
 10
52.6402
 20
10.2566
 10
52.8598
 20
10.1726
 10
53.1194
 20
10.0811
 10
53.3788
 20
9.9978
 10
53.6384
 20
9.9202
 10
53.752
 20
9.9073
 10
53.8576
 20
9.9019
 10
53.9572
 20
9.9027
 10
54.0762
 20
9.9634
 10
54.1894
 20
10.0243
 10
54.2942
 20
10.0849
 10
54.3476
 20
10.145
 10
54.393
 20
10.1994
 10
54.4326
 20
10.2453
 10
54.4518
 20
10.3192
 10
54.4712
 20
10.3849
 10
54.4908
 20
10.4451
 10
54.503
 20
10.6641
 10
54.5072
 20
10.8774
 10
54.5056
 20
11.0824
 10
54.4842
 20
11.9387
 10
54.4716
 20
12.7946
 10
54.4646
 20
13.6512
 10
54.444
 20
13.7246
 10
54.4236
 20
13.7902
 10
54.4032
 20
13.8499
 10
54.3428
 20
13.9228
 10
54.2888
 20
13.9884
 10
54.2422
 20
14.0478
 10
54.1822
 20
14.1011
 10
54.122
 20
14.1462
 10
54.0616
 20
14.1857
  0
LWPOLYLINE
  5
35
330
1F
100
AcDbEntity
  8
0
100
AcDbPolyline
 90
      101
 70
   128
 43
0.0
 10
57.099
 20
41.0159
 10
57.079
 20
40.9363
 10
57.0592
 20
40.8508
 10
57.0394
 20
40.7569
 10
56.9538
 20
40.6576
 10
56.86
 20
40.5579
 10
56.7606
 20
40.4585
 10
56.7606
 20
40.4383
 10
56.7549
 20
40.4128
 10
56.7404
 20
40.3786
 10
56.6211
 20
40.1793
 10
56.4957
 20
39.9803
 10
56.3624
 20
39.7811
 10
56.2824
 20
39.5025
 10
56.197
 20
39.2236
 10
56.1036
 20
38.9447
 10
56.0836
 20
38.7597
 10
56.0634
 20
38.5663
 10
56.0438
 20
38.3671
 10
56.0175
 20
38.2474
 10
55.984
 20
38.1285
 10
55.944
 20
38.0089
 10
55.9041
 20
37.9491
 10
55.8582
 20
37.8893
 10
55.8046
 20
37.8297
 10
55.7588
 20
37.7897
 10
55.705
 20
37.7441
 10
55.6454
 20
37.6901
 10
55.5458
 20
37.6503
 10
55.446
 20
37.6107
 10
55.3467
 20
37.5706
 10
55.2411
 20
37.5706
 10
55.1274
 20
37.5647
 10
55.008
 20
37.5511
 10
54.9284
 20
37.5706
 10
54.8488
 20
37.5905
 10
54.769
 20
37.6107
 10
54.769
 20
37.6163
 10
54.763
 20
37.6306
 10
54.7488
 20
37.6503
 10
54.7095
 20
37.6703
 10
54.6636
 20
37.6901
 10
54.6098
 20
37.7101
 10
54.564
 20
37.7698
 10
54.51
 20
37.8297
 10
54.4504
 20
37.8893
 10
54.4106
 20
37.9491
 10
54.3706
 20
38.0147
 10
54.331
 20
38.0883
 10
54.2312
 20
38.1881
 10
54.1258
 20
38.2875
 10
54.0123
 20
38.3873
 10
53.847
 20
38.4529
 10
53.6739
 20
38.5265
 10
53.4944
 20
38.6061
 10
53.4548
 20
38.6463
 10
53.409
 20
38.6917
 10
53.3552
 20
38.7455
 10
53.2954
 20
38.8515
 10
53.2296
 20
38.9649
 10
53.1558
 20
39.0841
 10
53.1558
 20
39.2637
 10
53.162
 20
39.4427
 10
53.1762
 20
39.6219
 10
53.2354
 20
39.7415
 10
53.3012
 20
39.8608
 10
53.3746
 20
39.9803
 10
53.4747
 20
40.0401
 10
53.5742
 20
40.1057
 10
53.6739
 20
40.1793
 10
53.7536
 20
40.1997
 10
53.8329
 20
40.2196
 10
53.9126
 20
40.2393
 10
53.9584
 20
40.2393
 10
54.0123
 20
40.2333
 10
54.0718
 20
40.2196
 10
54.1776
 20
40.2393
 10
54.2908
 20
40.2593
 10
54.4106
 20
40.279
 10
54.5301
 20
40.3191
 10
54.6494
 20
40.3648
 10
54.769
 20
40.4188
 10
54.9147
 20
40.5043
 10
55.0677
 20
40.5976
 10
55.227
 20
40.6973
 10
55.3266
 20
40.7971
 10
55.4324
 20
40.8967
 10
55.5458
 20
40.996
 10
55.671
 20
41.1753
 10
55.8046
 20
41.3548
 10
55.944
 20
41.5336
 10
56.0038
 20
41.5738
 10
56.0697
 20
41.6193
 10
56.1432
 20
41.6734
 10
56.3025
 20
41.6793
 10
56.4618
 20
41.6929
 10
56.6211
 20
41.7133
 10
56.7009
 20
41.6734
 10
56.7806
 20
41.6277
 10
56.86
 20
41.5738
 10
57.099
 20
41.0159
  0
LWPOLYLINE
  5
36
330
1F
100
AcDbEntity
  8
0
100
AcDbPolyline
 90
       64
 70
   128
 43
0.0
 10
58.2742
 20
44.9593
 10
58.1946
 20
44.6349
 10
58.1091
 20
44.3021
 10
58.0152
 20
43.9635
 10
57.9296
 20
43.7782
 10
57.8361
 20
43.585
 10
57.7365
 20
43.3859
 10
57.6566
 20
43.2863
 10
57.577
 20
43.1866
 10
57.4976
 20
43.0876
 10
57.3382
 20
43.0276
 10
57.1788
 20
42.9617
 10
57.0196
 20
42.8881
 10
56.9397
 20
42.8881
 10
56.86
 20
42.8939
 10
56.7806
 20
42.9079
 10
56.7208
 20
42.9281
 10
56.661
 20
42.9477
 10
56.6012
 20
42.9679
 10
56.5354
 20
43.0075
 10
56.4618
 20
43.0535
 10
56.3822
 20
43.1071
 10
56.3422
 20
43.153
 10
56.2966
 20
43.207
 10
56.243
 20
43.2664
 10
56.2032
 20
43.3462
 10
56.1627
 20
43.4319
 10
56.1232
 20
43.5253
 10
56.1036
 20
43.6247
 10
56.0836
 20
43.7307
 10
56.0634
 20
43.8437
 10
56.0892
 20
43.9696
 10
56.1232
 20
44.1027
 10
56.1627
 20
44.2425
 10
56.1692
 20
44.2425
 10
56.1832
 20
44.2483
 10
56.2032
 20
44.2623
 10
56.243
 20
44.3281
 10
56.2887
 20
44.4017
 10
56.3422
 20
44.4813
 10
56.4279
 20
44.5409
 10
56.5216
 20
44.6008
 10
56.6211
 20
44.6605
 10
56.661
 20
44.6605
 10
56.7009
 20
44.6605
 10
56.7404
 20
44.6605
 10
56.9397
 20
44.7461
 10
57.1389
 20
44.8397
 10
57.3382
 20
44.9395
 10
57.4976
 20
45.0789
 10
57.6628
 20
45.2183
 10
57.8361
 20
45.3575
 10
57.8956
 20
45.3575
 10
57.9554
 20
45.3637
 10
58.0152
 20
45.3775
 10
58.0809
 20
45.3376
 10
58.1546
 20
45.298
 10
58.2342
 20
45.2579
 10
58.2402
 20
45.2381
 10
58.2543
 20
45.2122
 10
58.2742
 20
45.1785
 10
58.2742
 20
45.1126
 10
58.2742
 20
45.0389
 10
58.2742
 20
44.9593
  0
LWPOLYLINE
  5
37
330
1F
100
AcDbEntity
  8
0
100
AcDbPolyline
 90
      514
 70
   128
 43
0.0
 10
60.0601
 20
46.4214
 10
60.017
 20
46.0433
 10
59.9738
 20
45.6653
 10
59.9304
 20
45.2874
 10
59.8395
 20
44.7105
 10
59.741
 20
44.1281
 10
59.6358
 20
43.5374
 10
59.4628
 20
42.7165
 10
59.2821
 20
41.8874
 10
59.0953
 20
41.0528
 10
59.075
 20
40.987
 10
59.0485
 20
40.9137
 10
59.0138
 20
40.8345
 10
58.9724
 20
40.6496
 10
58.9305
 20
40.4569
 10
58.8891
 20
40.2579
 10
58.7044
 20
39.6761
 10
58.5197
 20
39.0864
 10
58.3352
 20
38.4903
 10
58.1514
 20
37.9742
 10
57.9674
 20
37.4523
 10
57.7833
 20
36.922
 10
57.6201
 20
36.4852
 10
57.4509
 20
36.0485
 10
57.2736
 20
35.6123
 10
57.2126
 20
35.4732
 10
57.1454
 20
35.3348
 10
57.0706
 20
35.1958
 10
56.9891
 20
34.9776
 10
56.9014
 20
34.753
 10
56.8055
 20
34.5213
 10
56.7649
 20
34.4419
 10
56.7181
 20
34.3567
 10
56.6639
 20
34.2631
 10
56.623
 20
34.1583
 10
56.582
 20
34.0451
 10
56.5415
 20
33.9261
 10
56.4808
 20
33.827
 10
56.4198
 20
33.722
 10
56.359
 20
33.609
 10
56.3587
 20
33.5832
 10
56.3526
 20
33.5492
 10
56.3385
 20
33.5098
 10
56.2778
 20
33.4106
 10
56.2172
 20
33.3116
 10
56.1564
 20
33.2126
 10
56.1562
 20
33.1867
 10
56.1496
 20
33.1529
 10
56.1354
 20
33.1132
 10
56.0749
 20
33.0139
 10
56.0141
 20
32.9151
 10
55.9535
 20
32.8159
 10
55.9533
 20
32.79
 10
55.9474
 20
32.7563
 10
55.9329
 20
32.7167
 10
55.5683
 20
32.0625
 10
55.198
 20
31.4027
 10
54.8194
 20
30.7351
 10
54.7993
 20
30.7095
 10
54.7732
 20
30.6758
 10
54.7387
 20
30.6362
 10
54.7384
 20
30.6102
 10
54.7327
 20
30.5766
 10
54.7181
 20
30.5368
 10
54.5161
 20
30.2201
 10
54.3141
 20
29.8972
 10
54.1117
 20
29.5665
 10
54.1058
 20
29.5666
 10
54.0917
 20
29.5606
 10
54.0719
 20
29.5472
 10
54.025
 20
29.448
 10
53.9702
 20
29.3486
 10
53.9095
 20
29.2498
 10
53.6474
 20
28.8876
 10
53.3851
 20
28.5177
 10
53.123
 20
28.1414
 10
53.1226
 20
28.1213
 10
53.1169
 20
28.0957
 10
53.1024
 20
28.0621
 10
52.6489
 20
27.4686
 10
52.1954
 20
26.8752
 10
51.7416
 20
26.282
 10
51.2882
 20
25.6886
 10
51.188
 20
25.5899
 10
51.0872
 20
25.4854
 10
50.987
 20
25.3728
 10
50.9461
 20
25.3132
 10
50.9058
 20
25.254
 10
50.8654
 20
25.1946
 10
50.4772
 20
24.7738
 10
50.0811
 20
24.3453
 10
49.679
 20
23.9107
 10
49.6787
 20
23.8911
 10
49.6724
 20
23.8707
 10
49.6585
 20
23.8512
 10
49.558
 20
23.7464
 10
49.4513
 20
23.634
 10
49.3369
 20
23.5154
 10
49.3167
 20
23.5157
 10
49.2971
 20
23.5099
 10
49.1759
 20
23.3774
 10
49.0696
 20
23.2532
 10
48.9547
 20
23.1206
 10
48.8746
 20
23.0555
 10
48.7882
 20
22.9825
 10
48.6936
 20
22.9041
 10
48.6934
 20
22.8842
 10
48.6877
 20
22.864
 10
48.6734
 20
22.8441
 10
48.6476
 20
22.8244
 10
48.6132
 20
22.8051
 10
48.5733
 20
22.7855
 10
48.573
 20
22.7658
 10
48.5672
 20
22.7459
 10
48.5527
 20
22.7257
 10
48.2852
 20
22.4693
 10
48.0104
 20
22.2129
 10
47.7296
 20
21.9566
 10
47.4482
 20
21.7141
 10
47.1612
 20
21.464
 10
46.8661
 20
21.2076
 10
46.8659
 20
21.1877
 10
46.8596
 20
21.1675
 10
46.8457
 20
21.1482
 10
46.5791
 20
20.9454
 10
46.3041
 20
20.7345
 10
46.0233
 20
20.5183
 10
45.7567
 20
20.3415
 10
45.4824
 20
20.1585
 10
45.2016
 20
19.968
 10
44.7553
 20
19.7129
 10
44.3009
 20
19.4521
 10
43.8404
 20
19.1841
 10
43.7405
 20
19.1449
 10
43.6404
 20
19.1056
 10
43.5405
 20
19.0669
 10
43.3746
 20
18.9829
 10
43.2001
 20
18.8908
 10
43.0203
 20
18.7926
 10
42.3209
 20
18.5403
 10
41.6214
 20
18.2818
 10
40.9224
 20
18.0154
 10
40.5626
 20
17.9389
 10
40.2038
 20
17.8563
 10
39.8442
 20
17.766
 10
39.639
 20
17.7482
 10
39.4256
 20
17.7241
 10
39.2061
 20
17.6921
 10
39.0868
 20
17.7134
 10
38.9676
 20
17.734
 10
38.8484
 20
17.7552
 10
38.6897
 20
17.8561
 10
38.5316
 20
17.9573
 10
38.3731
 20
18.0579
 10
38.2747
 20
18.2183
 10
38.1766
 20
18.3785
 10
38.0788
 20
18.5392
 10
38.0594
 20
18.625
 10
38.0405
 20
18.7186
 10
38.0216
 20
18.8183
 10
38.0229
 20
18.9777
 10
38.0304
 20
19.1429
 10
38.046
 20
19.3156
 10
38.0868
 20
19.4151
 10
38.1335
 20
19.5202
 10
38.1879
 20
19.6334
 10
38.209
 20
19.7189
 10
38.2297
 20
19.8124
 10
38.2507
 20
19.9117
 10
38.2567
 20
19.9314
 10
38.271
 20
19.9514
 10
38.2906
 20
19.9711
 10
38.2924
 20
20.1759
 10
38.2887
 20
20.3894
 10
38.2768
 20
20.6083
 10
38.2187
 20
20.7881
 10
38.1605
 20
20.974
 10
38.1025
 20
21.1678
 10
38.1045
 20
21.3729
 10
38.1122
 20
21.5857
 10
38.1283
 20
21.8051
 10
38.1893
 20
21.9436
 10
38.2566
 20
22.0825
 10
38.3312
 20
22.221
 10
38.4372
 20
22.3056
 10
38.5519
 20
22.3983
 10
38.6722
 20
22.4966
 10
38.8181
 20
22.5552
 10
38.9723
 20
22.6136
 10
39.1318
 20
22.6717
 10
39.6897
 20
22.673
 10
40.2476
 20
22.6818
 10
40.8049
 20
22.6968
 10
41.1043
 20
22.7334
 10
41.4092
 20
22.7708
 10
41.7223
 20
22.8079
 10
42.1014
 20
22.8902
 10
42.4809
 20
22.98
 10
42.8599
 20
23.0764
 10
43.3453
 20
23.2374
 10
43.599
 20
23.3283
 10
43.7994
 20
23.4064
 10
43.9991
 20
23.4902
 10
44.1993
 20
23.5823
 10
44.6592
 20
23.8368
 10
45.1259
 20
24.0975
 10
45.6001
 20
24.366
 10
45.8207
 20
24.543
 10
46.0476
 20
24.7202
 10
46.2819
 20
24.8972
 10
46.3223
 20
24.9366
 10
46.3626
 20
24.9821
 10
46.4029
 20
25.0358
 10
46.5834
 20
25.1733
 10
46.7637
 20
25.3172
 10
46.9447
 20
25.4689
 10
47.3659
 20
25.8436
 10
47.7878
 20
26.2241
 10
48.2098
 20
26.6129
 10
48.2501
 20
26.6719
 10
48.2964
 20
26.7315
 10
48.3507
 20
26.7905
 10
48.7186
 20
27.1518
 10
49.0941
 20
27.5212
 10
49.4762
 20
27.8959
 10
49.7634
 20
28.2177
 10
50.0597
 20
28.548
 10
50.3611
 20
28.8836
 10
50.3673
 20
28.8837
 10
50.3813
 20
28.8836
 10
50.4009
 20
28.8833
 10
50.401
 20
28.9028
 10
50.4075
 20
28.9231
 10
50.4217
 20
28.9426
 10
50.4817
 20
29.002
 10
50.5421
 20
29.0609
 10
50.6021
 20
29.1206
 10
50.6024
 20
29.1403
 10
50.6087
 20
29.1601
 10
50.6224
 20
29.18
 10
50.7433
 20
29.3044
 10
50.8703
 20
29.4366
 10
51.0049
 20
29.5751
 10
51.4742
 20
30.1683
 10
51.9518
 20
30.7671
 10
52.4352
 20
31.3741
 10
52.603
 20
31.6175
 10
52.7781
 20
31.8692
 10
52.9599
 20
32.1264
 10
52.98
 20
32.1319
 10
52.9998
 20
32.1459
 10
53.0202
 20
32.1655
 10
53.3695
 20
32.7
 10
53.7267
 20
33.2404
 10
54.0903
 20
33.7887
 10
54.2116
 20
33.9928
 10
54.333
 20
34.2048
 10
54.4544
 20
34.4229
 10
54.4552
 20
34.5228
 10
54.4504
 20
34.6281
 10
54.4375
 20
34.7417
 10
54.3982
 20
34.8021
 10
54.3531
 20
34.868
 10
54.3
 20
34.942
 10
54.2742
 20
34.9625
 10
54.2405
 20
34.9886
 10
54.2013
 20
35.0228
 10
54.1612
 20
35.0292
 10
54.1156
 20
35.0434
 10
54.0623
 20
35.0638
 10
53.9622
 20
35.0584
 10
53.8567
 20
35.0458
 10
53.7429
 20
35.027
 10
53.6825
 20
34.9816
 10
53.6226
 20
34.9283
 10
53.5621
 20
34.8689
 10
53.5221
 20
34.8101
 10
53.4821
 20
34.7504
 10
53.4409
 20
34.6915
 10
53.3212
 20
34.6124
 10
53.2009
 20
34.5281
 10
53.0804
 20
34.4356
 10
53.0343
 20
34.4157
 10
52.9804
 20
34.3906
 10
52.9202
 20
34.3571
 10
52.8006
 20
34.3386
 10
52.6813
 20
34.3198
 10
52.5616
 20
34.3002
 10
52.4222
 20
34.308
 10
52.2765
 20
34.3235
 10
52.1238
 20
34.3447
 10
52.0384
 20
34.3849
 10
51.9453
 20
34.4317
 10
51.8461
 20
34.4866
 10
51.7413
 20
34.5729
 10
51.6287
 20
34.6678
 10
51.51
 20
34.7683
 10
51.4316
 20
34.9085
 10
51.2549
 20
35.1889
 10
51.1703
 20
35.295
 10
51.0781
 20
35.4096
 10
50.9793
 20
35.5298
 10
50.8808
 20
35.6305
 10
50.776
 20
35.7309
 10
50.6631
 20
35.8317
 10
50.5643
 20
35.892
 10
50.4651
 20
35.9586
 10
50.3663
 20
36.0337
 10
50.1819
 20
36.101
 10
49.9894
 20
36.1763
 10
49.7909
 20
36.2579
 10
49.7849
 20
36.2638
 10
49.7712
 20
36.2777
 10
49.7511
 20
36.2979
 10
49.4732
 20
36.3604
 10
49.1891
 20
36.4287
 10
48.8967
 20
36.5051
 10
48.8574
 20
36.545
 10
48.8123
 20
36.5914
 10
48.759
 20
36.6452
 10
48.7331
 20
36.7055
 10
48.7002
 20
36.7654
 10
48.6607
 20
36.8258
 10
48.6613
 20
36.9052
 10
48.6562
 20
36.9911
 10
48.6434
 20
37.0846
 10
48.6636
 20
37.1444
 10
48.6839
 20
37.2038
 10
48.7046
 20
37.2635
 10
48.7449
 20
37.3089
 10
48.791
 20
37.3626
 10
48.8456
 20
37.4212
 10
48.9316
 20
37.4603
 10
49.0253
 20
37.5053
 10
49.1256
 20
37.5584
 10
49.3247
 20
37.5822
 10
49.5305
 20
37.6143
 10
49.7438
 20
37.6522
 10
49.8832
 20
37.651
 10
50.0284
 20
37.6497
 10
50.1819
 20
37.6482
 10
50.2217
 20
37.6679
 10
50.2622
 20
37.6934
 10
50.302
 20
37.7268
 10
50.3223
 20
37.7525
 10
50.3424
 20
37.7863
 10
50.3628
 20
37.8259
 10
50.3632
 20
37.8658
 10
50.3635
 20
37.9057
 10
50.3639
 20
37.9455
 10
50.3441
 20
37.9852
 10
50.3247
 20
38.0255
 10
50.3052
 20
38.0655
 10
50.2657
 20
38.0858
 10
50.2257
 20
38.1121
 10
50.1864
 20
38.1461
 10
49.9878
 20
38.2074
 10
49.7894
 20
38.2691
 10
49.5908
 20
38.3307
 10
49.3315
 20
38.3329
 10
49.0668
 20
38.3413
 10
48.7941
 20
38.358
 10
48.6885
 20
38.3387
 10
48.5745
 20
38.3141
 10
48.4548
 20
38.2811
 10
48.3156
 20
38.2764
 10
48.1698
 20
38.264
 10
48.0166
 20
38.2456
 10
47.9566
 20
38.2461
 10
47.8912
 20
38.2529
 10
47.8173
 20
38.2671
 10
47.7183
 20
38.3083
 10
47.6191
 20
38.3546
 10
47.52
 20
38.4092
 10
47.4354
 20
38.5095
 10
47.3424
 20
38.61
 10
47.2441
 20
38.7103
 10
47.1991
 20
38.8106
 10
47.1462
 20
38.9167
 10
47.0874
 20
39.031
 10
47.089
 20
39.21
 10
47.0848
 20
39.3892
 10
47.0727
 20
39.5685
 10
47.1195
 20
39.6938
 10
47.1742
 20
39.8267
 10
47.2353
 20
39.9652
 10
47.2816
 20
40.0247
 10
47.3359
 20
40.0838
 10
47.3962
 20
40.1432
 10
47.4963
 20
40.2023
 10
47.6024
 20
40.2669
 10
47.7169
 20
40.3395
 10
47.8224
 20
40.3581
 10
47.9361
 20
40.3831
 10
48.056
 20
40.4158
 10
48.2354
 20
40.3947
 10
48.4139
 20
40.3727
 10
48.7326
 20
40.3501
 10
48.8783
 20
40.3548
 10
49.0315
 20
40.3672
 10
49.157
 20
40.4059
 10
49.2912
 20
40.4505
 10
49.431
 20
40.5031
 10
49.5313
 20
40.582
 10
49.6374
 20
40.6605
 10
49.7518
 20
40.7393
 10
49.7962
 20
40.7615
 10
50.0243
 20
40.9734
 10
51.6031
 20
39.1875
 10
51.6031
 20
39.1873
 10
51.5863
 20
39.2078
 10
51.5529
 20
39.2477
 10
51.5188
 20
39.2859
 10
51.4676
 20
39.3416
 10
51.3704
 20
39.4604
 10
51.1938
 20
39.6571
 10
50.8588
 20
40.0303
 10
50.6883
 20
40.2249
 10
50.4416
 20
40.4998
 10
50.245
 20
40.7266
 10
50.1607
 20
40.8229
 10
50.0243
 20
40.9734
 10
50.0773
 20
41.0229
 10
50.2598
 20
41.1527
 10
50.2735
 20
41.1925
 10
50.354
 20
41.2712
 10
50.4407
 20
41.3562
 10
50.535
 20
41.4492
 10
50.6966
 20
41.6868
 10
50.864
 20
41.93
 10
51.0398
 20
42.1814
 10
51.2223
 20
42.5581
 10
51.405
 20
42.9407
 10
51.5878
 20
43.3316
 10
51.6684
 20
43.4502
 10
51.7551
 20
43.5688
 10
51.8499
 20
43.6876
 10
51.9102
 20
43.747
 10
51.9763
 20
43.812
 10
52.051
 20
43.8849
 10
52.0766
 20
43.9047
 10
52.1106
 20
43.9242
 10
52.1511
 20
43.9439
 10
52.1513
 20
43.9499
 10
52.1513
 20
43.9638
 10
52.1514
 20
43.9837
 10
52.3377
 20
44.1074
 10
52.5321
 20
44.2392
 10
52.7322
 20
44.3766
 10
52.7583
 20
44.3762
 10
52.7922
 20
44.3824
 10
52.8324
 20
44.3959
 10
52.9124
 20
44.435
 10
52.9927
 20
44.4802
 10
53.0724
 20
44.533
 10
53.2183
 20
44.5717
 10
53.3719
 20
44.6159
 10
53.5316
 20
44.6682
 10
53.9306
 20
44.6844
 10
54.3289
 20
44.707
 10
54.7275
 20
44.7369
 10
54.9526
 20
44.7807
 10
55.1863
 20
44.8324
 10
55.4256
 20
44.8902
 10
55.6258
 20
45.0079
 10
55.8264
 20
45.1313
 10
56.0269
 20
45.2629
 10
56.027
 20
45.283
 10
56.033
 20
45.3026
 10
56.0472
 20
45.3225
 10
56.1474
 20
45.421
 10
56.2481
 20
45.5261
 10
56.3487
 20
45.6385
 10
56.6126
 20
46.1599
 10
56.7541
 20
46.4313
 10
56.8005
 20
46.4967
 10
56.8552
 20
46.5697
 10
56.9154
 20
46.6493
 10
56.9957
 20
46.7084
 10
57.076
 20
46.7671
 10
57.1559
 20
46.8264
 10
57.2416
 20
46.8452
 10
57.3357
 20
46.8644
 10
57.4356
 20
46.8833
 10
57.5749
 20
46.876
 10
57.72
 20
46.861
 10
57.8732
 20
46.8394
 10
57.998
 20
46.7527
 10
58.1306
 20
46.658
 10
58.2691
 20
46.5571
 10
58.4083
 20
46.5499
 10
58.5537
 20
46.5347
 10
58.7066
 20
46.5132
 10
58.7869
 20
46.5523
 10
58.8729
 20
46.5917
 10
58.967
 20
46.6306
 10
59.0674
 20
46.729
 10
59.1674
 20
46.8277
 10
59.2682
 20
46.9266
 10
59.3081
 20
46.9462
 10
59.3545
 20
46.9718
 10
59.4083
 20
47.005
 10
59.5079
 20
47.0041
 10
59.6136
 20
47.0091
 10
59.7272
 20
47.0221
 10
59.7925
 20
46.9814
 10
59.8659
 20
46.935
 10
59.9448
 20
46.8803
 10
59.9841
 20
46.8007
 10
60.0231
 20
46.7203
 10
60.0621
 20
46.6404
 10
60.0614
 20
46.5747
 10
60.0607
 20
46.501
 10
60.0601
 20
46.4214
  0
LWPOLYLINE
  5
38
330
1F
100
AcDbEntity
  8
0
100
AcDbPolyline
 90
      644
 70
   128
 43
0.0
 10
49.9817
 20
30.4243
 10
49.9817
 20
30.4443
 10
50.0021
 20
30.4643
 10
50.0217
 20
30.4782
 10
50.0419
 20
30.4842
 10
50.1155
 20
30.6175
 10
50.1809
 20
30.7433
 10
50.2409
 20
30.8628
 10
50.2547
 20
31.0617
 10
50.261
 20
31.2549
 10
50.261
 20
31.4403
 10
50.1613
 20
31.6391
 10
50.0677
 20
31.8384
 10
49.9817
 20
32.0377
 10
49.9679
 20
32.1769
 10
49.9619
 20
32.3106
 10
49.9619
 20
32.4357
 10
49.9959
 20
32.4895
 10
50.0217
 20
32.5356
 10
50.0419
 20
32.5751
 10
50.0557
 20
32.6748
 10
50.0617
 20
32.7685
 10
50.0617
 20
32.8541
 10
50.0217
 20
32.9339
 10
49.9817
 20
33.0132
 10
49.9424
 20
33.0933
 10
49.9022
 20
33.1269
 10
49.8683
 20
33.1531
 10
49.8423
 20
33.1727
 10
49.709
 20
33.1927
 10
49.5837
 20
33.2063
 10
49.4642
 20
33.2125
 10
49.3907
 20
33.1927
 10
49.3245
 20
33.1727
 10
49.2649
 20
33.1531
 10
49.1912
 20
33.1727
 10
49.1255
 20
33.1866
 10
49.0657
 20
33.1927
 10
49.0261
 20
33.2267
 10
48.9923
 20
33.2525
 10
48.9663
 20
33.2724
 10
48.9525
 20
33.3123
 10
48.9465
 20
33.3461
 10
48.9465
 20
33.3721
 10
48.9663
 20
33.4458
 10
48.9801
 20
33.5117
 10
48.9861
 20
33.5713
 10
49.0063
 20
33.5851
 10
49.0261
 20
33.5909
 10
49.0459
 20
33.5909
 10
49.1594
 20
33.7045
 10
49.2649
 20
33.8101
 10
49.3646
 20
33.9096
 10
49.3843
 20
33.9695
 10
49.4042
 20
34.0233
 10
49.4245
 20
34.0689
 10
49.4381
 20
34.1826
 10
49.4443
 20
34.2881
 10
49.4443
 20
34.3877
 10
49.4103
 20
34.4871
 10
49.3843
 20
34.5807
 10
49.3646
 20
34.6667
 10
49.3109
 20
34.7262
 10
49.2649
 20
34.7799
 10
49.2253
 20
34.8261
 10
49.1313
 20
34.8795
 10
49.0459
 20
34.9254
 10
48.9663
 20
34.9651
 10
48.7669
 20
35.0047
 10
48.5738
 20
35.0451
 10
48.3887
 20
35.0845
 10
48.3151
 20
35.1243
 10
48.2493
 20
35.1582
 10
48.1893
 20
35.1843
 10
48.0698
 20
35.2839
 10
47.9565
 20
35.3773
 10
47.8508
 20
35.463
 10
47.7515
 20
35.5767
 10
47.6579
 20
35.6821
 10
47.5723
 20
35.7817
 10
47.5323
 20
35.8757
 10
47.4925
 20
35.9611
 10
47.4527
 20
36.0405
 10
47.2993
 20
36.2197
 10
47.1539
 20
36.3931
 10
47.0145
 20
36.5585
 10
46.7617
 20
36.6978
 10
46.5169
 20
36.8313
 10
46.2781
 20
36.9565
 10
46.1781
 20
36.9767
 10
46.0785
 20
36.9966
 10
45.9788
 20
37.0164
 10
45.8197
 20
37.0303
 10
45.6602
 20
37.0367
 10
45.5012
 20
37.0367
 10
45.3278
 20
36.9966
 10
45.1623
 20
36.9627
 10
45.0031
 20
36.9367
 10
44.9493
 20
36.9029
 10
44.9037
 20
36.8772
 10
44.4455
 20
36.7177
 10
44.0333
 20
36.5841
 10
43.6289
 20
36.459
 10
43.1709
 20
36.3654
 10
42.713
 20
36.2796
 10
42.2546
 20
36.2001
 10
41.9559
 20
36.18
 10
41.6573
 20
36.1599
 10
41.3587
 20
36.1404
 10
41.0397
 20
36.1599
 10
40.7213
 20
36.1741
 10
40.4027
 20
36.18
 10
40.3688
 20
36.2139
 10
40.343
 20
36.2399
 10
40.3227
 20
36.2597
 10
40.3091
 20
36.3393
 10
40.3029
 20
36.4128
 10
40.3029
 20
36.4788
 10
40.3628
 20
36.5387
 10
40.4227
 20
36.5985
 10
40.4823
 20
36.6579
 10
40.5819
 20
36.6978
 10
40.6813
 20
36.7374
 10
40.7811
 20
36.7776
 10
40.8409
 20
36.8371
 10
40.9003
 20
36.897
 10
40.9603
 20
36.9565
 10
41.0139
 20
37.0367
 10
41.0599
 20
37.116
 10
41.0997
 20
37.1958
 10
41.0997
 20
37.2753
 10
41.0997
 20
37.3553
 10
41.0997
 20
37.4346
 10
41.1195
 20
37.5681
 10
41.1395
 20
37.6938
 10
41.159
 20
37.8133
 10
41.2531
 20
37.9525
 10
41.3385
 20
38.0917
 10
41.4187
 20
38.2313
 10
41.7367
 20
38.4643
 10
42.0555
 20
38.6893
 10
42.374
 20
38.9087
 10
42.6529
 20
39.0875
 10
42.9321
 20
39.267
 10
43.2107
 20
39.4463
 10
43.5435
 20
39.6253
 10
43.868
 20
39.7986
 10
44.1865
 20
39.9641
 10
44.4055
 20
40.0637
 10
44.6187
 20
40.1573
 10
44.8237
 20
40.2425
 10
45.0829
 20
40.3362
 10
45.3356
 20
40.4221
 10
45.5807
 20
40.5015
 10
45.8792
 20
40.5953
 10
46.1781
 20
40.6811
 10
46.4767
 20
40.7605
 10
46.4906
 20
40.7803
 10
46.4966
 20
40.7943
 10
46.4966
 20
40.8005
 10
46.6561
 20
40.8603
 10
46.8152
 20
40.914
 10
46.9745
 20
40.9599
 10
47.2139
 20
41.1131
 10
47.4527
 20
41.2584
 10
47.6918
 20
41.3976
 10
47.9309
 20
41.5771
 10
48.1635
 20
41.7561
 10
48.3887
 20
41.9357
 10
48.5821
 20
42.1683
 10
48.7669
 20
42.3936
 10
48.9465
 20
42.6126
 10
49.1255
 20
42.9253
 10
49.2989
 20
43.23
 10
49.4642
 20
43.5288
 10
49.5637
 20
43.6625
 10
49.6573
 20
43.7879
 10
49.7429
 20
43.9069
 10
49.8567
 20
44.0067
 10
49.9619
 20
44.1063
 10
50.0617
 20
44.2062
 10
50.3343
 20
44.3851
 10
50.5994
 20
44.5585
 10
50.8581
 20
44.7237
 10
51.0175
 20
44.9029
 10
51.1769
 20
45.0763
 10
51.3361
 20
45.2417
 10
51.35
 20
45.2754
 10
51.3561
 20
45.3013
 10
51.3561
 20
45.3211
 10
51.3899
 20
45.3612
 10
51.4161
 20
45.3947
 10
51.4357
 20
45.4207
 10
51.5293
 20
45.6397
 10
51.6152
 20
45.8589
 10
51.6947
 20
46.0781
 10
51.7145
 20
46.257
 10
51.7345
 20
46.4364
 10
51.7545
 20
46.6157
 10
51.7682
 20
46.6357
 10
51.7745
 20
46.6495
 10
51.7745
 20
46.6557
 10
51.7407
 20
46.7489
 10
51.7145
 20
46.8347
 10
51.6947
 20
46.9143
 10
51.6409
 20
46.9541
 10
51.5951
 20
46.9943
 10
51.5552
 20
47.0341
 10
51.4619
 20
47.0537
 10
51.3758
 20
47.0737
 10
51.2965
 20
47.0937
 10
51.2366
 20
47.0598
 10
51.1827
 20
47.0341
 10
51.137
 20
47.0139
 10
51.0831
 20
46.9743
 10
51.0375
 20
46.9344
 10
50.9977
 20
46.8945
 10
50.9041
 20
46.6753
 10
50.8184
 20
46.4625
 10
50.7386
 20
46.257
 10
50.6389
 20
46.1177
 10
50.5395
 20
45.9783
 10
50.4399
 20
45.8389
 10
50.42
 20
45.8253
 10
50.4003
 20
45.8191
 10
50.3803
 20
45.8191
 10
50.3265
 20
45.7653
 10
50.2807
 20
45.7197
 10
50.2409
 20
45.6795
 10
50.0876
 20
45.5799
 10
49.9424
 20
45.4863
 10
49.8026
 20
45.4008
 10
49.5837
 20
45.3273
 10
49.3646
 20
45.2613
 10
49.1455
 20
45.2017
 10
49.0118
 20
45.1021
 10
48.8865
 20
45.0087
 10
48.7669
 20
44.9231
 10
48.6675
 20
44.8093
 10
48.5738
 20
44.7041
 10
48.4881
 20
44.6041
 10
48.4483
 20
44.5109
 10
48.4087
 20
44.4249
 10
48.3689
 20
44.3455
 10
48.3289
 20
44.3115
 10
48.2949
 20
44.2854
 10
48.2693
 20
44.2657
 10
48.1953
 20
44.2515
 10
48.1298
 20
44.2461
 10
48.0698
 20
44.2461
 10
48.0302
 20
44.2797
 10
47.9961
 20
44.3057
 10
47.9705
 20
44.3255
 10
47.9309
 20
44.3993
 10
47.9107
 20
44.4249
 10
47.9247
 20
44.5985
 10
47.9309
 20
44.7633
 10
47.9309
 20
44.9231
 10
47.9107
 20
45.1559
 10
47.8909
 20
45.3809
 10
47.8709
 20
45.6
 10
47.831
 20
45.7197
 10
47.7971
 20
45.8328
 10
47.7713
 20
45.9389
 10
47.7173
 20
46.0521
 10
47.6717
 20
46.1575
 10
47.6318
 20
46.257
 10
47.5383
 20
46.3967
 10
47.4527
 20
46.5361
 10
47.3732
 20
46.6753
 10
47.2934
 20
46.7292
 10
47.2139
 20
46.7753
 10
47.1338
 20
46.815
 10
47.0543
 20
46.815
 10
46.9745
 20
46.815
 10
46.895
 20
46.815
 10
46.8215
 20
46.761
 10
46.7557
 20
46.7153
 10
46.6957
 20
46.6753
 10
46.676
 20
46.6357
 10
46.6561
 20
46.6019
 10
46.6359
 20
46.5759
 10
46.622
 20
46.4823
 10
46.616
 20
46.3967
 10
46.616
 20
46.317
 10
46.6359
 20
46.2432
 10
46.6501
 20
46.1777
 10
46.6561
 20
46.1177
 10
46.67
 20
45.879
 10
46.676
 20
45.6457
 10
46.676
 20
45.4207
 10
46.622
 20
45.2277
 10
46.5765
 20
45.0425
 10
46.5365
 20
44.8632
 10
46.4767
 20
44.7497
 10
46.4229
 20
44.6442
 10
46.3772
 20
44.5445
 10
46.2781
 20
44.4109
 10
46.184
 20
44.2854
 10
46.0983
 20
44.1659
 10
46.0847
 20
44.1121
 10
46.0785
 20
44.0665
 10
46.0785
 20
44.0267
 10
46.0586
 20
44.0067
 10
46.0447
 20
43.9871
 10
46.0383
 20
43.9668
 10
46.0187
 20
43.8931
 10
46.0046
 20
43.8275
 10
45.9992
 20
43.7679
 10
46.0383
 20
43.5749
 10
46.0785
 20
43.3895
 10
46.1185
 20
43.2102
 10
46.2119
 20
43.0908
 10
46.2975
 20
42.9711
 10
46.3772
 20
42.8519
 10
46.4372
 20
42.8118
 10
46.4966
 20
42.7721
 10
46.5565
 20
42.7321
 10
46.5765
 20
42.6588
 10
46.5965
 20
42.5927
 10
46.616
 20
42.5331
 10
46.5824
 20
42.4593
 10
46.5565
 20
42.3936
 10
46.5365
 20
42.3341
 10
46.4829
 20
42.294
 10
46.4372
 20
42.2601
 10
46.3973
 20
42.2343
 10
45.9992
 20
42.1944
 10
45.6005
 20
42.1545
 10
45.2021
 20
42.1152
 10
44.9237
 20
42.0612
 10
44.6505
 20
42.0153
 10
44.3855
 20
41.9753
 10
44.0075
 20
41.8819
 10
43.6289
 20
41.7963
 10
43.2506
 20
41.7163
 10
43.1768
 20
41.6825
 10
43.1109
 20
41.6568
 10
43.0513
 20
41.637
 10
42.9716
 20
41.6172
 10
42.8981
 20
41.6031
 10
42.8323
 20
41.5968
 10
42.4401
 20
41.4575
 10
42.0555
 20
41.3239
 10
41.6774
 20
41.1989
 10
41.4779
 20
41.1049
 10
41.2849
 20
41.0195
 10
41.0997
 20
40.9397
 10
40.7413
 20
40.7605
 10
40.3883
 20
40.5815
 10
40.0443
 20
40.4022
 10
39.8907
 20
40.3083
 10
39.6059
 20
40.1431
 10
39.4725
 20
40.0435
 10
39.347
 20
39.9498
 10
39.2276
 20
39.8645
 10
39.1741
 20
39.8047
 10
39.1281
 20
39.7511
 10
39.0883
 20
39.7051
 10
39.0485
 20
39.6851
 10
39.0145
 20
39.6651
 10
38.9887
 20
39.6453
 10
38.8691
 20
39.5059
 10
38.7499
 20
39.3725
 10
38.6303
 20
39.2467
 10
38.5364
 20
39.0875
 10
38.4507
 20
38.9281
 10
38.3711
 20
38.7691
 10
38.2778
 20
38.5302
 10
38.192
 20
38.2913
 10
38.1125
 20
38.052
 10
37.9729
 20
37.8191
 10
37.8397
 20
37.5939
 10
37.7141
 20
37.3749
 10
37.6142
 20
37.2753
 10
37.5207
 20
37.182
 10
37.4353
 20
37.0959
 10
37.3357
 20
37.0164
 10
37.2359
 20
36.9367
 10
37.1366
 20
36.8571
 10
37.1167
 20
36.8173
 10
37.0965
 20
36.7776
 10
37.0766
 20
36.7374
 10
37.0631
 20
36.6243
 10
37.0568
 20
36.5185
 10
37.0568
 20
36.4191
 10
37.1167
 20
36.3393
 10
37.1705
 20
36.2597
 10
37.2161
 20
36.18
 10
37.2561
 20
36.1599
 10
37.2959
 20
36.1404
 10
37.3357
 20
36.1203
 10
37.4153
 20
36.1065
 10
37.4949
 20
36.1003
 10
37.5747
 20
36.1003
 10
37.7678
 20
36.1543
 10
37.704
 20
36.1341
 10
37.8829
 20
36.1739
 10
37.9728
 20
36.1811
 10
38.1049
 20
36.1537
 10
38.1811
 20
36.1505
 10
38.3278
 20
36.1451
 10
38.3627
 20
36.1446
 10
38.4269
 20
36.1416
 10
38.4466
 20
36.1327
 10
38.4535
 20
36.1001
 10
38.4457
 20
36.0705
 10
38.4466
 20
36.0468
 10
38.4392
 20
36.0165
 10
38.3994
 20
35.8596
 10
38.3765
 20
35.796
 10
38.3726
 20
35.7338
 10
38.3716
 20
35.6538
 10
38.3621
 20
35.5878
 10
38.3573
 20
35.5626
 10
38.2515
 20
35.463
 10
38.1979
 20
35.3837
 10
38.1523
 20
35.3099
 10
38.1125
 20
35.2441
 10
38.0923
 20
35.1504
 10
38.0725
 20
35.0647
 10
38.0527
 20
34.9851
 10
38.0665
 20
34.9056
 10
38.0725
 20
34.8317
 10
38.0725
 20
34.7659
 10
38.1321
 20
34.6326
 10
38.1861
 20
34.5069
 10
38.2317
 20
34.3877
 10
38.2916
 20
34.3139
 10
38.3515
 20
34.2485
 10
38.4111
 20
34.1885
 10
38.5045
 20
34.1485
 10
38.5903
 20
34.1088
 10
38.6701
 20
34.0689
 10
38.7896
 20
34.0489
 10
38.903
 20
34.0291
 10
39.0085
 20
34.0093
 10
39.2079
 20
34.0689
 10
39.401
 20
34.1226
 10
39.5861
 20
34.1685
 10
39.845
 20
34.2223
 10
40.1037
 20
34.2679
 10
40.3628
 20
34.308
 10
40.8608
 20
34.3617
 10
41.3525
 20
34.4076
 10
41.8369
 20
34.4477
 10
42.2687
 20
34.4335
 10
42.6927
 20
34.4271
 10
43.1109
 20
34.4271
 10
43.3899
 20
34.3735
 10
43.6628
 20
34.3279
 10
44.0469
 20
34.2485
 10
44.1607
 20
34.2084
 10
44.2661
 20
34.1685
 10
44.2802
 20
34.1485
 10
44.2862
 20
34.1346
 10
44.2862
 20
34.1289
 10
44.3397
 20
34.1088
 10
44.3855
 20
34.089
 10
44.4257
 20
34.0689
 10
44.5451
 20
33.9695
 10
44.6647
 20
33.87
 10
44.7841
 20
33.7703
 10
44.9631
 20
33.5513
 10
45.1425
 20
33.3384
 10
45.3217
 20
33.1327
 10
45.4011
 20
33.0792
 10
45.4751
 20
33.0335
 10
45.5408
 20
32.9935
 10
45.6205
 20
32.9736
 10
45.7001
 20
32.9538
 10
45.7799
 20
32.9339
 10
45.9194
 20
32.9538
 10
46.0526
 20
32.9675
 10
46.1781
 20
32.9736
 10
46.2377
 20
33.0075
 10
46.2915
 20
33.0335
 10
46.3375
 20
33.0534
 10
46.4307
 20
33.0731
 10
46.5169
 20
33.0875
 10
46.5965
 20
33.0933
 10
46.6304
 20
33.0731
 10
46.6561
 20
33.0593
 10
46.676
 20
33.0534
 10
46.7099
 20
33.0132
 10
46.7357
 20
32.9736
 10
46.7557
 20
32.9339
 10
46.7415
 20
32.8602
 10
46.7357
 20
32.7945
 10
46.7357
 20
32.7347
 10
46.7159
 20
32.7149
 10
46.7019
 20
32.6949
 10
46.6957
 20
32.6748
 10
46.616
 20
32.6351
 10
46.5427
 20
32.5955
 10
46.4767
 20
32.5553
 10
46.3833
 20
32.4817
 10
46.2975
 20
32.4159
 10
46.2181
 20
32.3563
 10
46.1979
 20
32.2965
 10
46.1781
 20
32.2368
 10
46.1583
 20
32.1769
 10
46.1243
 20
31.8444
 10
46.0983
 20
31.5197
 10
46.0785
 20
31.2011
 10
46.0249
 20
31.0817
 10
45.9788
 20
30.9681
 10
45.9393
 20
30.8628
 10
45.8396
 20
30.7033
 10
45.7459
 20
30.5439
 10
45.6602
 20
30.3846
 10
45.5605
 20
30.2853
 10
45.4671
 20
30.1913
 10
45.3815
 20
30.1056
 10
44.8699
 20
29.7474
 10
44.3657
 20
29.3949
 10
43.868
 20
29.0502
 10
43.589
 20
28.8907
 10
43.3163
 20
28.7376
 10
43.0513
 20
28.5924
 10
43.0113
 20
28.5523
 10
42.9716
 20
28.5186
 10
42.9321
 20
28.4927
 10
42.7525
 20
28.3992
 10
42.5733
 20
28.3137
 10
42.3943
 20
28.2339
 10
42.1951
 20
28.1541
 10
41.9959
 20
28.0747
 10
41.7965
 20
27.9949
 10
41.4979
 20
27.9551
 10
41.1993
 20
27.9151
 10
40.9003
 20
27.8755
 10
40.5879
 20
27.8611
 10
40.2831
 20
27.8555
 10
40.0119
 20
27.8955
 10
39.9743
 20
27.8971
 10
39.8869
 20
27.8955
 10
39.6928
 20
27.8943
 10
39.6928
 20
27.4918
 10
39.6957
 20
26.9642
 10
39.6943
 20
26.6715
 10
39.6943
 20
26.5497
 10
39.6943
 20
26.4961
 10
39.6928
 20
27.8943
 10
39.5119
 20
27.8955
 10
39.4069
 20
27.8952
 10
39.0681
 20
27.9151
 10
38.7356
 20
27.9351
 10
38.4111
 20
27.9551
 10
38.1979
 20
27.9351
 10
37.9928
 20
27.9151
 10
37.7935
 20
27.8952
 10
37.6737
 20
27.8155
 10
37.5547
 20
27.7416
 10
37.4353
 20
27.6761
 10
37.4211
 20
27.6563
 10
37.4153
 20
27.6361
 10
37.4153
 20
27.6167
 10
37.3755
 20
27.5765
 10
37.3418
 20
27.5429
 10
37.3155
 20
27.5167
 10
37.2619
 20
27.4371
 10
37.2161
 20
27.3636
 10
37.1763
 20
27.2979
 10
37.1563
 20
27.198
 10
37.1366
 20
27.0985
 10
37.1167
 20
26.9989
 10
37.1167
 20
26.8794
 10
37.1167
 20
26.7659
 10
37.1167
 20
26.6607
 10
37.25
 20
26.3421
 10
37.3755
 20
26.0292
 10
37.4949
 20
25.7245
 10
37.5087
 20
25.5054
 10
37.5147
 20
25.2865
 10
37.5147
 20
25.0671
 10
37.4809
 20
24.9675
 10
37.4551
 20
24.8682
 10
37.4353
 20
24.7686
 10
37.4211
 20
24.6689
 10
37.4153
 20
24.5753
 10
37.4153
 20
24.4897
 10
37.4551
 20
24.3301
 10
37.4889
 20
24.1709
 10
37.5147
 20
24.0117
 10
37.5947
 20
23.9123
 10
37.6683
 20
23.8125
 10
37.7339
 20
23.7127
 10
37.7935
 20
23.6592
 10
37.8471
 20
23.6135
 10
37.8935
 20
23.5737
 10
37.9729
 20
23.5197
 10
38.0527
 20
23.4739
 10
38.1321
 20
23.4341
 10
38.2853
 20
23.4144
 10
38.4309
 20
23.3941
 10
38.5703
 20
23.3743
 10
38.7499
 20
23.4144
 10
38.9287
 20
23.4541
 10
39.1083
 20
23.4939
 10
39.5798
 20
23.6731
 10
40.0443
 20
23.8464
 10
40.5023
 20
24.0117
 10
40.5417
 20
24.0455
 10
40.5758
 20
24.0715
 10
40.6017
 20
24.0913
 10
40.9003
 20
24.2309
 10
41.1932
 20
24.3639
 10
41.4779
 20
24.4897
 10
41.5577
 20
24.5095
 10
41.6315
 20
24.5295
 10
41.6972
 20
24.5496
 10
42.2749
 20
24.9279
 10
42.8462
 20
25.3063
 10
43.4097
 20
25.6845
 10
43.6687
 20
25.8777
 10
43.9214
 20
26.0629
 10
44.1667
 20
26.2423
 10
44.7641
 20
26.7803
 10
45.3555
 20
27.3117
 10
45.9393
 20
27.8353
 10
46.1383
 20
28.0487
 10
46.3313
 20
28.2534
 10
46.5169
 20
28.4529
 10
46.7557
 20
28.6523
 10
46.9887
 20
28.8453
 10
47.2139
 20
29.0305
 10
47.5065
 20
29.2098
 10
47.7913
 20
29.3889
 10
48.0698
 20
29.5681
 10
48.1099
 20
29.5819
 10
48.1439
 20
29.5881
 10
48.1697
 20
29.5881
 10
48.3629
 20
29.6879
 10
48.5479
 20
29.7811
 10
48.7275
 20
29.8669
 10
48.9861
 20
29.9604
 10
49.2451
 20
30.0461
 10
49.5039
 20
30.1259
 10
49.6633
 20
30.2195
 10
49.8167
 20
30.3049
 10
49.9619
 20
30.3846
 10
49.9759
 20
30.4045
 10
49.9817
 20
30.4243
  0
LWPOLYLINE
  5
39
330
1F
100
AcDbEntity
  8
0
100
AcDbPolyline
 90
      162
 70
   128
 43
0.0
 10
34.151
 20
5.7705
 10
34.2046
 20
5.711
 10
34.2506
 20
5.6573
 10
34.2904
 20
5.6111
 10
34.364
 20
5.5514
 10
34.4298
 20
5.4977
 10
34.4896
 20
5.4519
 10
34.6092
 20
5.4122
 10
34.7286
 20
5.3725
 10
34.8482
 20
5.3324
 10
35.7783
 20
5.2328
 10
36.7002
 20
5.1333
 10
37.6161
 20
5.0337
 10
37.6899
 20
4.9943
 10
37.7559
 20
4.9541
 10
37.8153
 20
4.9147
 10
37.8554
 20
4.8745
 10
37.8892
 20
4.8347
 10
37.9152
 20
4.7949
 10
37.9347
 20
4.7349
 10
37.955
 20
4.6811
 10
37.9748
 20
4.6355
 10
37.7559
 20
3.6995
 10
37.5426
 20
2.7695
 10
37.3374
 20
1.8471
 10
37.3714
 20
1.7679
 10
37.3972
 20
1.6883
 10
37.4172
 20
1.6083
 10
37.457
 20
1.5487
 10
37.4966
 20
1.4888
 10
37.5368
 20
1.4293
 10
37.5964
 20
1.3693
 10
37.6558
 20
1.3097
 10
37.7158
 20
1.25
 10
37.7956
 20
1.2299
 10
37.8692
 20
1.2099
 10
37.9347
 20
1.1901
 10
38.891
 20
1.1759
 10
39.8408
 20
1.1702
 10
40.7829
 20
1.1702
 10
40.8567
 20
1.2099
 10
40.9224
 20
1.2439
 10
40.9821
 20
1.2698
 10
41.0618
 20
1.3493
 10
41.1356
 20
1.4231
 10
41.2011
 20
1.4888
 10
41.2209
 20
1.5425
 10
41.2412
 20
1.5884
 10
41.2611
 20
1.6285
 10
41.2748
 20
1.7477
 10
41.2806
 20
1.8673
 10
41.2806
 20
1.9867
 10
41.2412
 20
2.1263
 10
41.2074
 20
2.2598
 10
41.1813
 20
2.3849
 10
41.1474
 20
2.4447
 10
41.1214
 20
2.4985
 10
41.1015
 20
2.5443
 10
40.9224
 20
3.0821
 10
40.7493
 20
3.6139
 10
40.5837
 20
4.1375
 10
40.5438
 20
4.2175
 10
40.51
 20
4.2908
 10
40.4842
 20
4.3567
 10
40.3246
 20
4.8685
 10
40.1654
 20
5.3725
 10
40.0062
 20
5.8701
 10
39.9524
 20
5.9635
 10
39.9064
 20
6.0495
 10
39.8422
 20
6.1035
 10
39.833
 20
6.149
 10
39.8422
 20
6.2285
 10
39.8429
 20
6.4179
 10
38.4672
 20
6.416
 10
38.5087
 20
6.4179
 10
38.5984
 20
6.4165
 10
38.6997
 20
6.4165
 10
38.8531
 20
6.4179
 10
38.9211
 20
6.4165
 10
39.4521
 20
6.4179
 10
39.8429
 20
6.4179
 10
39.8422
 20
6.6035
 10
39.867
 20
6.7007
 10
39.9064
 20
6.7267
 10
40.0062
 20
6.9655
 10
40.0998
 20
7.2047
 10
40.1853
 20
7.4437
 10
40.1994
 20
7.4973
 10
40.2056
 20
7.5429
 10
40.2056
 20
7.5831
 10
40.5381
 20
8.4992
 10
40.8626
 20
9.4153
 10
41.1813
 20
10.3311
 10
41.2209
 20
10.5105
 10
41.2611
 20
10.6898
 10
41.3008
 20
10.8691
 10
41.3008
 20
10.9291
 10
41.3008
 20
10.9825
 10
41.3008
 20
11.0283
 10
41.2806
 20
11.102
 10
41.2611
 20
11.1677
 10
41.2412
 20
11.2274
 10
41.187
 20
11.3011
 10
41.1414
 20
11.3669
 10
41.1015
 20
11.4263
 10
41.0278
 20
11.4801
 10
40.962
 20
11.5262
 10
40.902
 20
11.5658
 10
40.8087
 20
11.5859
 10
40.7232
 20
11.6059
 10
40.6434
 20
11.6258
 10
39.7334
 20
11.6397
 10
38.8314
 20
11.6459
 10
37.9347
 20
11.6459
 10
37.8213
 20
11.6059
 10
37.7158
 20
11.5658
 10
37.6161
 20
11.5262
 10
37.5566
 20
11.4662
 10
37.4966
 20
11.4067
 10
37.4373
 20
11.3468
 10
37.4172
 20
11.2931
 10
37.3972
 20
11.2475
 10
37.3773
 20
11.2075
 10
37.3575
 20
11.0882
 10
37.3374
 20
10.9743
 10
37.3176
 20
10.8691
 10
37.5168
 20
10.1323
 10
37.71
 20
9.3953
 10
37.8954
 20
8.6585
 10
37.9152
 20
8.5049
 10
37.9288
 20
8.3597
 10
37.9347
 20
8.2202
 10
37.9152
 20
8.1467
 10
37.9011
 20
8.0809
 10
37.8954
 20
8.0213
 10
37.8153
 20
7.9473
 10
37.7358
 20
7.8818
 10
37.6558
 20
7.8221
 10
36.7198
 20
7.7024
 10
35.79
 20
7.5891
 10
34.8681
 20
7.4831
 10
34.7745
 20
7.4635
 10
34.6888
 20
7.4437
 10
34.6092
 20
7.4239
 10
34.5297
 20
7.37
 10
34.45
 20
7.3239
 10
34.37
 20
7.2842
 10
34.2904
 20
7.1906
 10
34.2108
 20
7.1054
 10
34.131
 20
7.0251
 10
34.0912
 20
6.9457
 10
34.0512
 20
6.866
 10
34.0113
 20
6.7865
 10
33.9916
 20
6.6668
 10
33.9718
 20
6.5471
 10
33.952
 20
6.4279
 10
33.9856
 20
6.2887
 10
34.0113
 20
6.1551
 10
34.0317
 20
6.0295
 10
34.0714
 20
5.9359
 10
34.111
 20
5.8507
 10
34.151
 20
5.7705
  0
LWPOLYLINE
  5
3A
330
1F
100
AcDbEntity
  8
0
100
AcDbPolyline
 90
      257
 70
   128
 43
0.0
 10
21.5923
 20
34.1956
 10
21.5241
 20
33.9366
 10
21.453
 20
33.6699
 10
21.3796
 20
33.398
 10
21.3091
 20
33.0166
 10
21.2456
 20
32.632
 10
21.188
 20
32.2448
 10
21.1487
 20
31.7349
 10
21.1139
 20
31.2149
 10
21.0821
 20
30.6866
 10
21.0925
 20
30.3569
 10
21.106
 20
30.0198
 10
21.1231
 20
29.6718
 10
21.1287
 20
29.6694
 10
21.1392
 20
29.6588
 10
21.152
 20
29.6377
 10
21.155
 20
29.5434
 10
21.1547
 20
29.4416
 10
21.1517
 20
29.3345
 10
21.2483
 20
28.8529
 10
21.3421
 20
28.364
 10
21.4334
 20
27.8699
 10
21.54
 20
27.4987
 10
21.6524
 20
27.1188
 10
21.7667
 20
26.7296
 10
21.8141
 20
26.6225
 10
21.8667
 20
26.5068
 10
21.921
 20
26.3817
 10
21.9131
 20
26.3634
 10
21.9107
 20
26.3428
 10
21.9158
 20
26.3187
 10
22.1403
 20
25.8324
 10
22.3681
 20
25.338
 10
22.5994
 20
24.833
 10
22.7597
 20
24.5844
 10
22.9234
 20
24.3255
 10
23.0909
 20
24.0585
 10
23.4093
 20
23.6398
 10
23.7282
 20
23.2213
 10
24.0468
 20
22.8025
 10
24.3081
 20
22.6037
 10
24.5726
 20
22.3969
 10
24.8413
 20
22.1793
 10
25.1994
 20
22.0039
 10
25.5576
 20
21.8286
 10
25.9157
 20
21.6532
 10
26.1875
 20
21.5796
 10
26.4618
 20
21.5119
 10
26.7393
 20
21.4511
 10
27.0792
 20
21.42
 10
27.4296
 20
21.3934
 10
27.7877
 20
21.3692
 10
27.9366
 20
21.3122
 10
28.0886
 20
21.2619
 10
28.2429
 20
21.2173
 10
28.3422
 20
21.1312
 10
28.4493
 20
21.0417
 10
28.5615
 20
20.9502
 10
28.7704
 20
20.5788
 10
28.9825
 20
20.1996
 10
29.1987
 20
19.8098
 10
29.4783
 20
19.2345
 10
29.7629
 20
18.6507
 10
30.0498
 20
18.0572
 10
30.1548
 20
17.9471
 10
30.2567
 20
17.832
 10
30.3558
 20
17.7092
 10
30.4688
 20
17.6538
 10
30.586
 20
17.5885
 10
30.7061
 20
17.5152
 10
30.8372
 20
17.5025
 10
30.9754
 20
17.486
 10
31.1191
 20
17.468
 10
31.2499
 20
17.5051
 10
31.3909
 20
17.5458
 10
31.5403
 20
17.5907
 10
31.6028
 20
17.6351
 10
31.6739
 20
17.6847
 10
31.7546
 20
17.7367
 10
31.8124
 20
17.8053
 10
31.8805
 20
17.8778
 10
31.9563
 20
17.9537
 10
31.9956
 20
18.0451
 10
32.0428
 20
18.1396
 10
32.1002
 20
18.2384
 10
32.1163
 20
18.4267
 10
32.1266
 20
18.6175
 10
32.1295
 20
18.8112
 10
31.9157
 20
19.5748
 10
31.6963
 20
20.3411
 10
31.4699
 20
21.1102
 10
31.4457
 20
21.1705
 10
31.4173
 20
21.2411
 10
31.3862
 20
21.3196
 10
31.3286
 20
21.5393
 10
31.2715
 20
21.7584
 10
31.2142
 20
21.9786
 10
31.2112
 20
22.073
 10
31.2117
 20
22.1751
 10
31.2143
 20
22.2822
 10
31.251
 20
22.4832
 10
31.2592
 20
22.588
 10
31.3686
 20
22.7424
 10
31.4813
 20
22.9041
 10
31.5966
 20
23.0718
 10
31.7932
 20
23.3121
 10
31.9971
 20
23.5495
 10
32.2064
 20
23.7851
 10
32.2878
 20
23.9236
 10
32.3711
 20
24.0675
 10
32.4581
 20
24.2188
 10
32.568
 20
24.4749
 10
32.6833
 20
24.7289
 10
32.8061
 20
24.9796
 10
32.8819
 20
25.2569
 10
32.9557
 20
25.544
 10
33.0241
 20
25.8396
 10
33.0532
 20
26.1088
 10
33.0765
 20
26.3807
 10
33.0926
 20
26.6556
 10
33.0536
 20
27.0192
 10
33.017
 20
27.3881
 10
32.9833
 20
27.7644
 10
32.9077
 20
28.2087
 10
32.825
 20
28.6563
 10
32.7364
 20
29.1058
 10
32.7258
 20
29.1321
 10
32.7095
 20
29.1611
 10
32.6864
 20
29.1923
 10
32.6943
 20
29.2111
 10
32.6965
 20
29.2313
 10
32.6916
 20
29.255
 10
32.5662
 20
29.6189
 10
32.4381
 20
29.9926
 10
32.3056
 20
30.3746
 10
32.1725
 20
30.6702
 10
32.0362
 20
30.9737
 10
31.8958
 20
31.2878
 10
31.7652
 20
31.5389
 10
31.6291
 20
31.7926
 10
31.4856
 20
32.0486
 10
31.3289
 20
32.2897
 10
31.1747
 20
32.536
 10
31.0237
 20
32.7896
 10
30.7959
 20
33.067
 10
30.5718
 20
33.3517
 10
30.3496
 20
33.6423
 10
30.3334
 20
33.6708
 10
30.3126
 20
33.708
 10
30.2894
 20
33.7546
 10
30.0644
 20
33.9877
 10
29.8426
 20
34.2282
 10
29.623
 20
34.4748
 10
29.1919
 20
34.8332
 10
28.7577
 20
35.1995
 10
28.3188
 20
35.5762
 10
28.1335
 20
35.6996
 10
27.95
 20
35.8278
 10
27.7701
 20
35.9635
 10
27.4875
 20
36.1286
 10
27.2001
 20
36.3019
 10
26.9105
 20
36.4847
 10
26.8189
 20
36.524
 10
26.7195
 20
36.5603
 10
26.6096
 20
36.5924
 10
26.5391
 20
36.5792
 10
26.4605
 20
36.5629
 10
26.3714
 20
36.5428
 10
26.3009
 20
36.4797
 10
26.2276
 20
36.4093
 10
26.152
 20
36.3336
 10
26.1283
 20
36.229
 10
26.1018
 20
36.1167
 10
26.0732
 20
35.9993
 10
26.0915
 20
35.9413
 10
26.1069
 20
35.8761
 10
26.1198
 20
35.8058
 10
26.214
 20
35.7218
 10
26.3056
 20
35.6325
 10
26.3944
 20
35.5359
 10
26.5797
 20
35.4131
 10
26.7708
 20
35.2878
 10
26.9693
 20
35.1591
 10
27.2752
 20
34.9127
 10
27.5782
 20
34.6592
 10
27.879
 20
34.3999
 10
27.8818
 20
34.3923
 10
27.8894
 20
34.374
 10
27.8998
 20
34.3474
 10
27.9418
 20
34.3293
 10
27.9887
 20
34.303
 10
28.0383
 20
34.2664
 10
28.3336
 20
33.9449
 10
28.634
 20
33.6206
 10
28.9424
 20
33.2928
 10
29.1646
 20
33.0028
 10
29.3862
 20
32.7119
 10
29.6086
 20
32.4216
 10
29.8046
 20
32.1207
 10
30.188
 20
31.501
 10
30.1986
 20
31.4745
 10
30.2068
 20
31.4433
 10
30.2119
 20
31.4038
 10
30.2829
 20
31.302
 10
30.3579
 20
31.1895
 10
30.4364
 20
31.0691
 10
30.5414
 20
30.8441
 10
30.6508
 20
30.6086
 10
30.7628
 20
30.3653
 10
30.9145
 20
29.9469
 10
31.0708
 20
29.5181
 10
31.2299
 20
29.0811
 10
31.2507
 20
28.9637
 10
31.2773
 20
28.8377
 10
31.3054
 20
28.7018
 10
31.3448
 20
28.5918
 10
31.3812
 20
28.4744
 10
31.415
 20
28.3516
 10
31.4446
 20
28.2021
 10
31.4776
 20
28.0426
 10
31.5142
 20
27.8752
 10
31.5242
 20
27.6976
 10
31.5402
 20
27.5174
 10
31.5634
 20
27.3341
 10
31.5762
 20
27.2636
 10
31.5948
 20
27.1906
 10
31.6206
 20
27.1144
 10
31.6236
 20
27.0198
 10
31.6289
 20
26.9157
 10
31.6386
 20
26.8031
 10
31.6126
 20
26.5911
 10
31.589
 20
26.3694
 10
31.5701
 20
26.1389
 10
31.4422
 20
25.8257
 10
31.3211
 20
25.5089
 10
31.2061
 20
25.1899
 10
31.083
 20
25.0045
 10
30.958
 20
24.8134
 10
30.8289
 20
24.6153
 10
30.7452
 20
24.5209
 10
30.6537
 20
24.4236
 10
30.5515
 20
24.3223
 10
30.4156
 20
24.2072
 10
30.2715
 20
24.0894
 10
30.1173
 20
23.9671
 10
29.8922
 20
23.8468
 10
29.6673
 20
23.7267
 10
29.4482
 20
23.6008
 10
29.366
 20
23.5542
 10
29.2499
 20
23.5078
 10
29.0804
 20
23.4344
 10
29.1296
 20
23.3109
 10
29.2094
 20
23.0955
 10
29.3515
 20
22.7436
 10
29.5731
 20
22.16
 10
29.0804
 20
23.4344
 10
29.0719
 20
23.4336
  0
LWPOLYLINE
  5
3B
330
1F
100
AcDbEntity
  8
0
100
AcDbPolyline
 90
      102
 70
   128
 43
0.0
 10
29.0719
 20
23.4336
 10
29.0804
 20
23.4344
 10
28.9016
 20
23.3688
 10
28.7854
 20
23.3224
 10
28.6626
 20
23.2856
 10
28.5219
 20
23.2497
 10
28.3858
 20
23.2154
 10
28.0769
 20
23.1678
 10
27.7577
 20
23.1164
 10
27.4308
 20
23.0613
 10
27.3236
 20
23.0643
 10
27.2139
 20
23.0616
 10
27.1013
 20
23.0513
 10
26.9209
 20
23.0858
 10
26.733
 20
23.1162
 10
26.5341
 20
23.1433
 10
26.2938
 20
23.2397
 10
26.0452
 20
23.3318
 10
25.5589
 20
23.5621
 10
25.3238
 20
23.7064
 10
25.0831
 20
23.853
 10
24.8999
 20
24.0469
 10
24.7122
 20
24.2509
 10
24.5214
 20
24.463
 10
24.5238
 20
24.4834
 10
24.519
 20
24.5074
 10
24.5085
 20
24.5334
 10
24.3833
 20
24.6957
 10
24.2603
 20
24.8633
 10
24.1402
 20
25.0387
 10
24.1295
 20
25.0645
 10
24.1218
 20
25.0963
 10
24.1167
 20
25.135
 10
24.072
 20
25.1979
 10
24.02
 20
25.2637
 10
23.9626
 20
25.3314
 10
23.9364
 20
25.386
 10
23.9049
 20
25.4493
 10
23.871
 20
25.5224
 10
23.8425
 20
25.5563
 10
23.8138
 20
25.5903
 10
23.7849
 20
25.6245
 10
23.7927
 20
25.6425
 10
23.7949
 20
25.6635
 10
23.7903
 20
25.6874
 10
23.7141
 20
25.8132
 10
23.6359
 20
25.9481
 10
23.5526
 20
26.0927
 10
23.5314
 20
26.1449
 10
23.5132
 20
26.2026
 10
23.4977
 20
26.2679
 10
23.4796
 20
26.2758
 10
23.4581
 20
26.2914
 10
23.4322
 20
26.3174
 10
23.2365
 20
26.82
 10
23.0435
 20
27.3301
 10
22.8532
 20
27.8455
 10
22.8062
 20
28.0387
 10
22.7561
 20
28.2404
 10
22.7021
 20
28.4518
 10
22.6911
 20
28.4781
 10
22.6754
 20
28.5068
 10
22.6519
 20
28.5383
 10
22.5897
 20
28.847
 10
22.5295
 20
29.1613
 10
22.4727
 20
29.4824
 10
22.4463
 20
29.7755
 10
22.4154
 20
30.0709
 10
22.3763
 20
30.3692
 10
22.3638
 20
30.743
 10
22.3475
 20
31.125
 10
22.3277
 20
31.5169
 10
22.3538
 20
31.896
 10
22.3752
 20
32.2834
 10
22.3938
 20
32.681
 10
22.4828
 20
33.1411
 10
22.5691
 20
33.609
 10
22.6509
 20
34.0874
 10
22.6405
 20
34.1633
 10
22.6331
 20
34.2472
 10
22.628
 20
34.3358
 10
22.6171
 20
34.3618
 10
22.6039
 20
34.396
 10
22.5861
 20
34.4405
 10
22.5391
 20
34.4827
 10
22.4864
 20
34.5267
 10
22.4267
 20
34.5741
 10
22.3664
 20
34.6001
 10
22.2989
 20
34.6292
 10
22.2254
 20
34.6605
 10
22.1809
 20
34.658
 10
22.131
 20
34.6579
 10
22.0737
 20
34.6605
 10
21.9818
 20
34.6133
 10
21.8803
 20
34.5637
 10
21.7702
 20
34.5094
 10
21.7491
 20
34.4747
 10
21.7182
 20
34.4385
 10
21.6788
 20
34.397
 10
21.6528
 20
34.3365
 10
21.6237
 20
34.2688
 10
21.5923
 20
34.1956
  0
LWPOLYLINE
  5
3C
330
1F
100
AcDbEntity
  8
0
100
AcDbPolyline
 90
      359
 70
   128
 43
0.0
 10
13.1396
 20
25.1816
 10
13.2188
 20
25.1654
 10
13.2984
 20
25.1564
 10
13.3778
 20
25.1537
 10
13.5942
 20
25.067
 10
13.8047
 20
24.9863
 10
14.0075
 20
24.9142
 10
14.1412
 20
24.7302
 10
14.2746
 20
24.5467
 10
14.4082
 20
24.3627
 10
14.4204
 20
24.3087
 10
14.4248
 20
24.263
 10
14.4235
 20
24.2231
 10
14.4912
 20
24.0416
 10
14.5511
 20
23.8597
 10
14.605
 20
23.6791
 10
14.637
 20
23.624
 10
14.6616
 20
23.5775
 10
14.68
 20
23.5369
 10
14.7153
 20
23.3963
 10
14.7506
 20
23.2617
 10
14.7867
 20
23.135
 10
14.9509
 20
22.6775
 10
15.1152
 20
22.2276
 10
15.28
 20
21.7839
 10
15.3695
 20
21.6476
 10
15.4509
 20
21.519
 10
15.5267
 20
21.3973
 10
15.5983
 20
21.3408
 10
15.6627
 20
21.293
 10
15.721
 20
21.2511
 10
15.8192
 20
21.1947
 10
15.9167
 20
21.1454
 10
16.015
 20
21.1024
 10
16.1542
 20
21.0838
 10
16.2872
 20
21.0733
 10
16.4126
 20
21.0692
 10
16.5131
 20
21.1001
 10
16.6135
 20
21.1226
 10
16.7137
 20
21.1391
 10
16.7947
 20
21.1765
 10
16.8698
 20
21.2135
 10
16.9365
 20
21.2513
 10
17.0399
 20
21.3618
 10
17.1365
 20
21.4639
 10
17.2255
 20
21.5609
 10
17.2836
 20
21.6925
 10
17.3337
 20
21.8164
 10
17.3774
 20
21.9344
 10
17.2879
 20
22.854
 10
17.1983
 20
23.7676
 10
17.1084
 20
24.6729
 10
17.1143
 20
24.8522
 10
17.1202
 20
25.0313
 10
17.1261
 20
25.2104
 10
17.1702
 20
25.3486
 10
17.2144
 20
25.4867
 10
17.2591
 20
25.6248
 10
17.3352
 20
25.7019
 10
17.4035
 20
25.7792
 10
17.466
 20
25.857
 10
17.5274
 20
25.9147
 10
17.5888
 20
25.9665
 10
17.6501
 20
26.0103
 10
17.7311
 20
26.0476
 10
17.812
 20
26.0846
 10
17.8931
 20
26.1221
 10
17.955
 20
26.1795
 10
18.0099
 20
26.2318
 10
18.0572
 20
26.2762
 10
18.1324
 20
26.3133
 10
18.1995
 20
26.3511
 10
18.2606
 20
26.389
 10
18.2748
 20
26.408
 10
18.2814
 20
26.4282
 10
18.282
 20
26.4481
 10
18.3168
 20
26.4666
 10
18.3433
 20
26.4861
 10
18.3637
 20
26.5051
 10
18.3782
 20
26.5242
 10
18.3851
 20
26.5443
 10
18.3858
 20
26.564
 10
18.5861
 20
26.7767
 10
18.7781
 20
26.9898
 10
18.9643
 20
27.2027
 10
19.0069
 20
27.2812
 10
19.0495
 20
27.3593
 10
19.0919
 20
27.4375
 10
19.1327
 20
27.4761
 10
19.1681
 20
27.5147
 10
19.1951
 20
27.5539
 10
19.3026
 20
27.7894
 10
19.4038
 20
28.0195
 10
19.4964
 20
28.2416
 10
19.5433
 20
28.4391
 10
19.5892
 20
28.6307
 10
19.6351
 20
28.8149
 10
19.6779
 20
29.0925
 10
19.7129
 20
29.3643
 10
19.7415
 20
29.6282
 10
19.718
 20
29.9481
 10
19.7022
 20
30.2611
 10
19.6923
 20
30.5664
 10
19.6468
 20
30.821
 10
19.6089
 20
31.0673
 10
19.5772
 20
31.3073
 10
19.4936
 20
31.6233
 10
19.4178
 20
31.9303
 10
19.3483
 20
32.2316
 10
19.184
 20
32.6954
 10
19.0255
 20
33.1528
 10
18.875
 20
33.602
 10
18.7068
 20
33.9462
 10
18.5386
 20
34.2905
 10
18.3709
 20
34.6346
 10
18.2013
 20
34.9332
 10
18.0314
 20
35.2236
 10
17.8611
 20
35.508
 10
17.6903
 20
35.767
 10
17.5252
 20
36.0174
 10
17.3681
 20
36.2618
 10
17.0996
 20
36.5834
 10
16.8366
 20
36.8965
 10
16.5817
 20
37.2038
 10
16.5231
 20
37.2459
 10
16.471
 20
37.2872
 10
16.4265
 20
37.3288
 10
16.4132
 20
37.3492
 10
16.4078
 20
37.3686
 10
16.4085
 20
37.389
 10
16.389
 20
37.4035
 10
16.3691
 20
37.41
 10
16.3497
 20
37.4106
 10
16.3116
 20
37.4719
 10
16.2735
 20
37.5269
 10
16.2353
 20
37.574
 10
16.0658
 20
37.699
 10
15.9046
 20
37.8178
 10
15.7485
 20
37.9287
 10
15.655
 20
37.9318
 10
15.5693
 20
37.9345
 10
15.49
 20
37.9371
 10
15.3946
 20
37.8862
 10
15.3074
 20
37.8435
 10
15.2265
 20
37.8063
 10
15.1914
 20
37.7674
 10
15.1641
 20
37.7343
 10
15.1437
 20
37.7095
 10
15.1208
 20
37.6165
 10
15.098
 20
37.5314
 10
15.0755
 20
37.4523
 10
15.0928
 20
37.3725
 10
15.1104
 20
37.2979
 10
15.128
 20
37.2316
 10
15.1985
 20
37.1356
 10
15.2615
 20
37.048
 10
15.3187
 20
36.9663
 10
15.377
 20
36.9245
 10
15.4296
 20
36.883
 10
15.474
 20
36.8417
 10
15.7417
 20
36.4941
 10
16.0032
 20
36.1469
 10
16.2568
 20
35.7995
 10
16.2695
 20
35.7654
 10
16.2747
 20
35.7393
 10
16.2741
 20
35.7195
 10
16.3698
 20
35.597
 10
16.4598
 20
35.4745
 10
16.5411
 20
35.3522
 10
16.7105
 20
35.0477
 10
16.8739
 20
34.7494
 10
17.0301
 20
34.4591
 10
17.365
 20
33.737
 10
17.5329
 20
33.3869
 10
17.618
 20
33.125
 10
17.6954
 20
32.8693
 10
17.7667
 20
32.6218
 10
17.7861
 20
32.6013
 10
17.7997
 20
32.5871
 10
17.8052
 20
32.581
 10
17.8544
 20
32.4397
 10
17.8959
 20
32.2988
 10
17.931
 20
32.1586
 10
18.0135
 20
31.817
 10
18.0882
 20
31.4759
 10
18.1565
 20
31.1347
 10
18.2007
 20
30.8403
 10
18.2374
 20
30.5544
 10
18.268
 20
30.2743
 10
18.2774
 20
30.1403
 10
18.2793
 20
30.0147
 10
18.2754
 20
29.8954
 10
18.25
 20
29.7229
 10
18.2307
 20
29.558
 10
18.2196
 20
29.3991
 10
18.1519
 20
29.1684
 10
18.0848
 20
28.9452
 10
18.0179
 20
28.7282
 10
17.9128
 20
28.5582
 10
17.8138
 20
28.3963
 10
17.723
 20
28.2399
 10
17.6195
 20
28.1237
 10
17.5223
 20
28.013
 10
17.4333
 20
27.9102
 10
17.4188
 20
27.8912
 10
17.4122
 20
27.8711
 10
17.4115
 20
27.8512
 10
17.2887
 20
27.7556
 10
17.1723
 20
27.6597
 10
17.0631
 20
27.5641
 10
16.9266
 20
27.4746
 10
16.799
 20
27.3931
 10
16.6767
 20
27.3172
 10
16.4603
 20
27.225
 10
16.2524
 20
27.138
 10
16.0505
 20
27.059
 10
15.9661
 20
27.0129
 10
15.9144
 20
26.9838
 10
15.8462
 20
26.9628
 10
15.7481
 20
26.9318
 10
15.685
 20
26.9022
 10
15.6379
 20
26.8767
 10
15.6046
 20
26.8532
 10
15.583
 20
26.8375
 10
15.539
 20
26.824
 10
15.5011
 20
26.8103
 10
15.3103
 20
26.7766
 10
15.3476
 20
26.602
 10
15.3751
 20
26.4705
 10
15.4006
 20
26.343
 10
15.4339
 20
26.1919
 10
15.4496
 20
26.0918
 10
15.4771
 20
25.9878
 10
15.4967
 20
25.8818
 10
15.5163
 20
25.7837
 10
15.5636
 20
25.5522
 10
15.3103
 20
26.7766
 10
15.0251
 20
26.7737
 10
14.9572
 20
26.7649
 10
14.8807
 20
26.7668
 10
14.8022
 20
26.7649
 10
14.7179
 20
26.759
 10
14.6256
 20
26.7468
 10
14.5454
 20
26.7299
 10
14.2662
 20
26.7188
 10
13.987
 20
26.7141
 10
13.708
 20
26.7171
 10
13.5948
 20
26.7347
 10
13.4898
 20
26.7442
 10
13.3902
 20
26.7474
 10
13.1737
 20
26.8283
 10
12.9567
 20
26.9014
 10
12.7399
 20
26.9679
 10
12.5054
 20
27.1154
 10
12.2773
 20
27.2561
 10
12.0563
 20
27.389
 10
11.979
 20
27.4653
 10
11.9074
 20
27.5334
 10
11.8439
 20
27.595
 10
11.6775
 20
27.8137
 10
11.3662
 20
28.2285
 10
11.2788
 20
28.4107
 10
11.1987
 20
28.5864
 10
11.1245
 20
28.7544
 10
11.0759
 20
28.9092
 10
11.035
 20
29.0563
 10
10.9994
 20
29.1969
 10
10.9883
 20
29.277
 10
10.9848
 20
29.3505
 10
10.9869
 20
29.4164
 10
10.9341
 20
29.6375
 10
10.8816
 20
29.8521
 10
10.8283
 20
30.0592
 10
10.7683
 20
30.4798
 10
10.7163
 20
30.8936
 10
10.6699
 20
31.3
 10
10.6563
 20
31.5
 10
10.6491
 20
31.6991
 10
10.6495
 20
31.8986
 10
10.681
 20
32.4355
 10
10.7045
 20
32.9728
 10
10.7221
 20
33.5099
 10
10.7875
 20
33.8665
 10
10.8449
 20
34.2174
 10
10.8961
 20
34.5605
 10
11.0024
 20
34.9555
 10
11.1012
 20
35.3507
 10
11.194
 20
35.7461
 10
11.3038
 20
36.0612
 10
11.408
 20
36.377
 10
11.5039
 20
36.6927
 10
11.4843
 20
36.7071
 10
11.4705
 20
36.7137
 10
11.4646
 20
36.7138
 10
11.4503
 20
36.7005
 10
11.4441
 20
36.6947
 10
11.3331
 20
36.7721
 10
11.2299
 20
36.8413
 10
11.1324
 20
36.9042
 10
11.0331
 20
36.9272
 10
10.9343
 20
36.9503
 10
10.8354
 20
36.9735
 10
10.7749
 20
36.9556
 10
10.7149
 20
36.9376
 10
10.6547
 20
36.9198
 10
10.5995
 20
36.8815
 10
10.5523
 20
36.8432
 10
10.5111
 20
36.8048
 10
10.4548
 20
36.727
 10
10.4064
 20
36.6488
 10
10.3641
 20
36.5704
 10
10.2628
 20
36.3407
 10
10.1696
 20
36.1186
 10
10.0829
 20
35.9021
 10
9.9091
 20
35.2759
 10
9.7439
 20
34.6581
 10
9.5837
 20
34.0454
 10
9.5177
 20
33.6691
 10
9.4599
 20
33.2981
 10
9.4079
 20
32.9352
 10
9.4034
 20
32.3574
 10
9.3904
 20
31.7801
 10
9.3715
 20
31.2026
 10
9.4296
 20
30.7231
 10
9.4795
 20
30.2432
 10
9.5237
 20
29.7633
 10
9.6287
 20
29.3214
 10
9.7283
 20
28.8855
 10
9.8197
 20
28.4585
 10
9.9052
 20
28.2163
 10
9.9836
 20
27.9808
 10
10.0556
 20
27.7533
 10
10.0882
 20
27.7125
 10
10.1129
 20
27.6778
 10
10.1321
 20
27.6511
 10
10.1444
 20
27.6108
 10
10.1492
 20
27.5767
 10
10.1483
 20
27.551
 10
10.2425
 20
27.3744
 10
10.3368
 20
27.2061
 10
10.431
 20
27.0434
 10
10.6035
 20
26.8386
 10
10.7704
 20
26.6399
 10
10.9294
 20
26.4491
 10
11.0843
 20
26.3048
 10
11.2394
 20
26.1663
 10
11.3943
 20
26.0357
 10
11.5305
 20
25.9378
 10
11.661
 20
25.8477
 10
11.784
 20
25.764
 10
11.9797
 20
25.664
 10
12.1698
 20
25.5717
 10
12.3529
 20
25.4863
 10
12.3912
 20
25.4512
 10
12.4243
 20
25.4243
 10
12.4494
 20
25.4034
 10
12.6862
 20
25.3221
 10
12.9169
 20
25.2489
 10
13.1396
 20
25.1816
  0
LWPOLYLINE
  5
3D
330
1F
100
AcDbEntity
  8
0
100
AcDbPolyline
 90
      204
 70
   128
 43
0.0
 10
1.4406
 20
18.6043
 10
1.6538
 20
18.628
 10
1.8703
 20
18.6463
 10
2.0898
 20
18.6569
 10
2.8467
 20
18.677
 10
3.606
 20
18.6915
 10
4.3693
 20
18.6988
 10
4.4413
 20
18.692
 10
4.5153
 20
18.6796
 10
4.5933
 20
18.6603
 10
4.6714
 20
18.6111
 10
4.7592
 20
18.5611
 10
4.8559
 20
18.5067
 10
4.9149
 20
18.396
 10
4.9824
 20
18.2807
 10
5.0607
 20
18.1643
 10
5.0713
 20
18.1025
 10
5.0815
 20
18.0401
 10
5.0922
 20
17.9784
 10
4.9185
 20
17.1183
 10
4.7477
 20
16.2529
 10
4.5806
 20
15.3812
 10
4.575
 20
15.2649
 10
4.5637
 20
15.1463
 10
4.5455
 20
15.0238
 10
4.5926
 20
14.9356
 10
4.6338
 20
14.8453
 10
4.6684
 20
14.7509
 10
4.7195
 20
14.7101
 10
4.7801
 20
14.6681
 10
4.8502
 20
14.6215
 10
4.8849
 20
14.6109
 10
4.9309
 20
14.5971
 10
4.9846
 20
14.5809
 10
5.6156
 20
14.5107
 10
6.2532
 20
14.4446
 10
6.8967
 20
14.3808
 10
7.2444
 20
14.3338
 10
7.603
 20
14.2835
 10
7.9699
 20
14.2308
 10
8.0331
 20
14.1969
 10
8.0989
 20
14.158
 10
8.1686
 20
14.1114
 10
8.2601
 20
14.025
 10
8.3598
 20
13.9355
 10
8.47
 20
13.843
 10
8.5302
 20
13.7171
 10
8.5832
 20
13.5876
 10
8.6312
 20
13.4553
 10
8.6431
 20
13.3486
 10
8.6493
 20
13.2392
 10
8.6491
 20
13.1261
 10
8.642
 20
13.0549
 10
8.6325
 20
12.975
 10
8.6196
 20
12.8846
 10
8.5722
 20
12.7915
 10
8.5203
 20
12.6899
 10
8.4672
 20
12.5779
 10
8.3752
 20
12.4839
 10
8.276
 20
12.3856
 10
8.1722
 20
12.2852
 10
8.046
 20
12.2246
 10
7.9109
 20
12.1688
 10
7.7667
 20
12.1142
 10
6.8192
 20
12.0152
 10
5.8652
 20
11.913
 10
4.9057
 20
11.8077
 10
4.8301
 20
11.7673
 10
4.7502
 20
11.7183
 10
4.6691
 20
11.659
 10
4.6299
 20
11.5634
 10
4.594
 20
11.461
 10
4.5612
 20
11.3534
 10
4.7651
 20
10.4921
 10
4.9627
 20
9.6267
 10
5.1546
 20
8.7585
 10
5.1595
 20
8.6642
 10
5.1632
 20
8.5601
 10
5.1625
 20
8.4468
 10
5.1437
 20
8.3847
 10
5.1218
 20
8.312
 10
5.0969
 20
8.2311
 10
5.01
 20
8.14
 10
4.9262
 20
8.0431
 10
4.8461
 20
7.9396
 10
4.7436
 20
7.9074
 10
4.6341
 20
7.872
 10
4.5189
 20
7.8332
 10
4.4302
 20
7.831
 10
4.333
 20
7.8309
 10
4.2252
 20
7.8341
 10
4.2023
 20
7.8219
 10
4.1697
 20
7.8115
 10
4.1279
 20
7.8049
 10
4.1009
 20
7.8131
 10
4.0659
 20
7.8241
 10
4.0202
 20
7.8378
 10
3.9085
 20
7.8232
 10
3.7898
 20
7.805
 10
3.6654
 20
7.7842
 10
2.8496
 20
7.7778
 10
2.4268
 20
7.7787
 10
2.404
 20
7.7665
 10
2.3714
 20
7.7554
 10
2.33
 20
7.7493
 10
2.2853
 20
7.7482
 10
2.238
 20
7.7521
 10
2.1867
 20
7.7635
 10
2.08
 20
7.7517
 10
1.9738
 20
7.7397
 10
1.8671
 20
7.7283
 10
1.778
 20
7.7259
 10
1.686
 20
7.7291
 10
1.5903
 20
7.7389
 10
1.5339
 20
7.7608
 10
1.4684
 20
7.7865
 10
1.3925
 20
7.8138
 10
1.3321
 20
7.8719
 10
1.2621
 20
7.9317
 10
1.1828
 20
7.9954
 10
1.1615
 20
8.0357
 10
1.136
 20
8.0832
 10
1.1079
 20
8.1361
 10
1.0868
 20
8.2601
 10
1.0713
 20
8.3872
 10
1.0624
 20
8.5183
 10
1.1508
 20
8.775
 10
1.2358
 20
9.0392
 10
1.3179
 20
9.3086
 10
1.4145
 20
9.5629
 10
1.5157
 20
9.827
 10
1.618
 20
10.1004
 10
1.6347
 20
10.1545
 10
1.6481
 20
10.2137
 10
1.6577
 20
10.2797
 10
1.6756
 20
10.2891
 10
1.6903
 20
10.3039
 10
1.7013
 20
10.3253
 10
1.7898
 20
10.5827
 10
1.875
 20
10.8467
 10
1.9567
 20
11.1161
 10
1.9705
 20
11.146
 10
1.991
 20
11.1793
 10
2.0167
 20
11.216
 10
2.0301
 20
11.2749
 10
2.0403
 20
11.3411
 10
2.047
 20
11.4125
 10
2.0809
 20
11.4758
 10
2.1175
 20
11.5471
 10
2.1575
 20
11.6291
 10
2.1479
 20
11.6471
 10
2.1436
 20
11.6672
 10
2.1465
 20
11.6914
 10
2.1805
 20
11.7545
 10
2.2118
 20
11.8232
 10
2.2396
 20
11.8985
 10
2.2301
 20
11.9164
 10
2.2259
 20
11.9366
 10
2.229
 20
11.9607
 10
2.2627
 20
12.0241
 10
2.2966
 20
12.0875
 10
2.3307
 20
12.1506
 10
2.4224
 20
12.4025
 10
2.5109
 20
12.6592
 10
2.5322
 20
12.764
 10
2.6559
 20
12.8904
 10
2.6543
 20
13.0153
 10
2.6531
 20
13.2117
 10
3.3029
 20
13.218
 10
3.4499
 20
13.22
 10
3.5713
 20
13.2198
 10
3.7352
 20
13.2242
 10
3.8708
 20
13.2236
 10
3.9584
 20
13.2271
 10
4.0092
 20
13.2258
 10
4.026
 20
13.2169
 10
4.0375
 20
13.2251
 10
2.6531
 20
13.2117
 10
2.6486
 20
13.5153
 10
2.5634
 20
13.6063
 10
2.5046
 20
13.6875
 10
2.3805
 20
14.0051
 10
2.2535
 20
14.3278
 10
2.1227
 20
14.6575
 10
2.0845
 20
14.7728
 10
2.0508
 20
14.8901
 10
2.0245
 20
15.0113
 10
1.7826
 20
15.6341
 10
1.3068
 20
16.9085
 10
1.1909
 20
17.2527
 10
1.0775
 20
17.6051
 10
0.9674
 20
17.9686
 10
0.9744
 20
18.0402
 10
0.9868
 20
18.1141
 10
1.006
 20
18.1923
 10
1.0577
 20
18.265
 10
1.1091
 20
18.3376
 10
1.1607
 20
18.4101
 10
1.1983
 20
18.437
 10
1.2391
 20
18.4748
 10
1.2827
 20
18.5202
 10
1.3356
 20
18.5483
 10
1.388
 20
18.5765
 10
1.4406
 20
18.6043
  0
LWPOLYLINE
  5
3E
330
1F
100
AcDbEntity
  8
0
100
AcDbPolyline
 90
       94
 70
   128
 43
0.0
 10
80.5035
 20
25.1343
 10
80.4537
 20
25.1919
 10
80.3984
 20
25.2559
 10
80.3466
 20
25.3653
 10
80.2891
 20
25.4834
 10
80.2246
 20
25.608
 10
80.2108
 20
25.6951
 10
80.1976
 20
25.7896
 10
80.1852
 20
25.8907
 10
80.2018
 20
26.0352
 10
80.2266
 20
26.1868
 10
80.2581
 20
26.3445
 10
80.3044
 20
26.4268
 10
80.3567
 20
26.5168
 10
80.4175
 20
26.6121
 10
80.4677
 20
26.6687
 10
80.5258
 20
26.724
 10
80.5895
 20
26.7796
 10
80.6996
 20
26.8373
 10
80.8183
 20
26.9024
 10
80.9431
 20
26.9733
 10
81.023
 20
26.9733
 10
81.1035
 20
26.9817
 10
81.1845
 20
26.9954
 10
81.2075
 20
27.0047
 10
81.2312
 20
27.0129
 10
81.25
 20
27.021
 10
81.27
 20
27.0235
 10
81.2943
 20
27.0341
 10
81.3173
 20
27.038
 10
81.3206
 20
27.0397
 10
81.3449
 20
27.0379
 10
81.3724
 20
27.0341
 10
81.9008
 20
26.9574
 10
82.4726
 20
26.8616
 10
83.0444
 20
26.7599
 10
83.0913
 20
26.7765
 10
83.1466
 20
26.7923
 10
83.2076
 20
26.8079
 10
83.2561
 20
26.844
 10
83.3132
 20
26.8862
 10
83.3765
 20
26.9352
 10
83.3991
 20
26.9734
 10
83.4225
 20
27.0183
 10
83.4467
 20
27.07
 10
83.4625
 20
27.2084
 10
83.4871
 20
27.3526
 10
83.5181
 20
27.5039
 10
83.5214
 20
27.8234
 10
83.525
 20
28.1424
 10
83.528
 20
28.462
 10
83.5751
 20
28.5582
 10
83.6285
 20
28.6602
 10
83.6905
 20
28.7696
 10
83.719
 20
28.8071
 10
83.7556
 20
28.8444
 10
83.7982
 20
28.8815
 10
83.8396
 20
28.8982
 10
83.8809
 20
28.9215
 10
83.9231
 20
28.9521
 10
83.9844
 20
28.9676
 10
84.0453
 20
28.9833
 10
84.1064
 20
28.9985
 10
84.3229
 20
28.9568
 10
84.5451
 20
28.9066
 10
84.7746
 20
28.8501
 10
85.0728
 20
28.7482
 10
85.3782
 20
28.6399
 10
85.6894
 20
28.5237
 10
85.746
 20
28.4795
 10
85.8022
 20
28.4294
 10
85.8577
 20
28.3714
 10
85.8933
 20
28.3088
 10
85.9343
 20
28.2402
 10
85.9824
 20
28.1627
 10
85.9737
 20
28.0435
 10
85.9708
 20
27.9241
 10
85.9761
 20
27.8038
 10
85.9717
 20
27.7441
 10
85.9614
 20
27.6852
 10
85.9433
 20
27.6264
 10
85.8469
 20
27.4879
 10
85.7426
 20
27.3415
 10
85.6314
 20
27.1896
 10
85.2887
 20
26.596
 10
84.9395
 20
25.9964
 10
84.5754
 20
25.4333
 10
84.5126
 20
25.3366
 10
84.4787
 20
25.3
 10
84.4218
 20
25.2305
 10
84.3813
 20
25.1122
 10
84.314
 20
24.9182
 10
83.3745
 20
25.2592
 10
83.3886
 20
25.2555
  0
LWPOLYLINE
  5
3F
330
1F
100
AcDbEntity
  8
0
100
AcDbPolyline
 90
        2
 70
   128
 43
0.0
 10
83.3886
 20
25.2555
 10
83.3745
 20
25.2592
  0
LWPOLYLINE
  5
40
330
1F
100
AcDbEntity
  8
0
100
AcDbPolyline
 90
        2
 70
   128
 43
0.0
 10
83.3745
 20
25.2592
 10
83.3886
 20
25.2555
  0
LWPOLYLINE
  5
41
330
1F
100
AcDbEntity
  8
0
100
AcDbPolyline
 90
       76
 70
   128
 43
0.0
 10
83.3886
 20
25.2555
 10
83.3745
 20
25.2592
 10
83.4774
 20
25.2241
 10
83.5349
 20
25.2006
 10
83.5611
 20
25.1901
 10
83.5977
 20
25.1797
 10
83.731
 20
25.13
 10
84.1676
 20
24.9705
 10
84.314
 20
24.9182
 10
84.2191
 20
24.6392
 10
84.2146
 20
24.5835
 10
84.2197
 20
24.5374
 10
84.2168
 20
24.4119
 10
84.221
 20
24.2777
 10
84.2066
 20
24.1685
 10
84.2031
 20
24.1275
 10
84.1934
 20
24.0992
 10
84.1863
 20
24.0805
 10
84.0858
 20
23.249
 10
83.9851
 20
22.4176
 10
83.8846
 20
21.5864
 10
83.8119
 20
21.4918
 10
83.7308
 20
21.3921
 10
83.6428
 20
21.2847
 10
83.4998
 20
21.2352
 10
83.3559
 20
21.1862
 10
83.2126
 20
21.1367
 10
82.777
 20
21.2681
 10
82.3333
 20
21.4001
 10
81.8838
 20
21.5331
 10
81.7693
 20
21.6073
 10
81.6495
 20
21.69
 10
81.5225
 20
21.779
 10
81.4733
 20
21.9285
 10
81.4251
 20
22.0856
 10
81.3769
 20
22.249
 10
81.4017
 20
22.3128
 10
81.4268
 20
22.385
 10
81.4527
 20
22.4629
 10
81.4801
 20
22.487
 10
81.5164
 20
22.5182
 10
81.5589
 20
22.5553
 10
81.5838
 20
22.619
 10
81.6089
 20
22.6914
 10
81.6346
 20
22.7694
 10
81.7228
 20
22.8826
 10
81.8172
 20
23.0018
 10
81.9204
 20
23.1277
 10
82.0179
 20
23.2864
 10
82.1236
 20
23.4524
 10
82.2361
 20
23.624
 10
82.2418
 20
23.7031
 10
82.2543
 20
23.7881
 10
82.2751
 20
23.8807
 10
82.2409
 20
23.9632
 10
82.2016
 20
24.0519
 10
82.1546
 20
24.1491
 10
82.0917
 20
24.1935
 10
82.022
 20
24.2449
 10
81.9463
 20
24.304
 10
81.8118
 20
24.3738
 10
81.6769
 20
24.4435
 10
81.5424
 20
24.5134
 10
81.4827
 20
24.5177
 10
81.4178
 20
24.5285
 10
81.3451
 20
24.5477
 10
81.3268
 20
24.5689
 10
81.3089
 20
24.5963
 10
81.2911
 20
24.6313
 10
81.1949
 20
24.6784
 10
81.0923
 20
24.7257
 10
80.982
 20
24.7738
 10
80.8434
 20
24.8696
 10
80.6975
 20
24.9741
 10
80.5458
 20
25.0851
 10
80.5035
 20
25.1343
  0
LWPOLYLINE
  5
42
330
1F
100
AcDbEntity
  8
0
100
AcDbPolyline
 90
      432
 70
   128
 43
0.0
 10
15.1694
 20
40.1759
 10
15.1502
 20
40.0502
 10
15.1303
 20
39.9168
 10
15.1114
 20
39.7776
 10
15.0523
 20
39.6575
 10
14.9873
 20
39.532
 10
14.9138
 20
39.3981
 10
14.7553
 20
39.2522
 10
14.5907
 20
39.0979
 10
14.4183
 20
38.9378
 10
14.3787
 20
38.8581
 10
14.3332
 20
38.7781
 10
14.2794
 20
38.6986
 10
14.2543
 20
38.5984
 10
14.2211
 20
38.4932
 10
14.1815
 20
38.3792
 10
14.1886
 20
38.2
 10
14.2033
 20
38.0207
 10
14.224
 20
37.8417
 10
14.3048
 20
37.563
 10
14.3859
 20
37.279
 10
14.4666
 20
36.9863
 10
14.5479
 20
36.6083
 10
14.6295
 20
36.2242
 10
14.7107
 20
35.8323
 10
14.7384
 20
35.3685
 10
14.7747
 20
34.8962
 10
14.8172
 20
34.4188
 10
14.8187
 20
34.0405
 10
14.8143
 20
33.6563
 10
14.8021
 20
33.2634
 10
14.7831
 20
33.0383
 10
14.7644
 20
32.8052
 10
14.7455
 20
32.5662
 10
14.7068
 20
32.2674
 10
14.6622
 20
31.9686
 10
14.6103
 20
31.6694
 10
14.532
 20
31.3107
 10
14.4481
 20
30.9459
 10
14.3561
 20
30.5731
 10
14.179
 20
30.0885
 10
14.0019
 20
29.5957
 10
13.8249
 20
29.097
 10
13.7462
 20
28.9174
 10
13.6614
 20
28.7377
 10
13.5683
 20
28.558
 10
13.5287
 20
28.4975
 10
13.4835
 20
28.4323
 10
13.4301
 20
28.3582
 10
13.3508
 20
28.2982
 10
13.2651
 20
28.2382
 10
13.1717
 20
28.1777
 10
13.0667
 20
28.1772
 10
12.953
 20
28.183
 10
12.8336
 20
28.1964
 10
12.7735
 20
28.2359
 10
12.7134
 20
28.2817
 10
12.6533
 20
28.3348
 10
12.613
 20
28.4201
 10
12.5671
 20
28.5138
 10
12.5127
 20
28.6129
 10
12.5321
 20
28.7326
 10
12.5574
 20
28.8519
 10
12.5908
 20
28.9717
 10
12.6751
 20
29.1912
 10
12.7682
 20
29.417
 10
12.8664
 20
29.65
 10
12.9897
 20
30.1151
 10
13.1213
 20
30.5872
 10
13.2587
 20
31.0656
 10
13.3163
 20
31.4646
 10
13.3802
 20
31.8631
 10
13.4523
 20
32.2618
 10
13.4698
 20
32.8395
 10
13.4928
 20
33.4235
 10
13.5241
 20
34.0148
 10
13.4821
 20
34.4926
 10
13.4344
 20
34.9704
 10
13.3783
 20
35.4481
 10
13.2966
 20
35.8659
 10
13.2093
 20
36.2837
 10
13.114
 20
36.7018
 10
12.932
 20
37.2382
 10
12.7503
 20
37.7753
 10
12.5686
 20
38.3123
 10
12.4882
 20
38.5109
 10
12.4017
 20
38.7158
 10
12.307
 20
38.9284
 10
12.2207
 20
39.0932
 10
12.1262
 20
39.266
 10
12.0259
 20
39.4451
 10
11.9458
 20
39.5642
 10
11.8596
 20
39.6891
 10
11.7652
 20
39.8223
 10
11.6792
 20
39.9213
 10
11.5854
 20
40.0265
 10
11.4851
 20
40.1394
 10
11.3851
 20
40.2388
 10
11.2792
 20
40.3378
 10
11.1651
 20
40.4368
 10
10.9194
 20
40.6149
 10
10.7855
 20
40.7141
 10
10.5801
 20
40.8127
 10
10.3666
 20
40.9113
 10
10.1469
 20
41.0099
 10
10.1068
 20
41.0096
 10
10.0673
 20
41.0097
 10
10.0272
 20
41.0092
 10
9.9615
 20
41.0291
 10
9.8877
 20
41.0543
 10
9.8083
 20
41.0879
 10
9.5888
 20
41.113
 10
9.3696
 20
41.1458
 10
9.1504
 20
41.185
 10
8.8654
 20
41.1633
 10
8.5729
 20
41.1422
 10
8.2743
 20
41.121
 10
8.1688
 20
41.0946
 10
8.0684
 20
41.0911
 10
8.0055
 20
41.0886
 10
7.9482
 20
41.09
 10
7.9057
 20
41.0961
 10
7.8375
 20
41.0975
 10
7.7637
 20
41.096
 10
7.4616
 20
41.019
 10
7.3617
 20
41.4017
 10
7.2983
 20
41.6552
 10
7.2837
 20
41.7308
 10
7.2618
 20
41.8039
 10
7.2252
 20
41.938
 10
7.2197
 20
41.958
 10
7.1887
 20
42.0647
 10
7.1741
 20
42.1232
 10
7.1472
 20
42.2256
 10
7.4616
 20
41.019
 10
7.2797
 20
40.9703
 10
7.1588
 20
40.939
 10
6.862
 20
40.7899
 10
6.4645
 20
40.6348
 10
6.0665
 20
40.4738
 10
6.0469
 20
40.4534
 10
6.0211
 20
40.4276
 10
5.9874
 20
40.3938
 10
5.9077
 20
40.3536
 10
5.8283
 20
40.3072
 10
5.7488
 20
40.2533
 10
5.7488
 20
40.2474
 10
5.743
 20
40.2332
 10
5.7292
 20
40.2134
 10
5.7092
 20
40.2133
 10
5.6836
 20
40.2072
 10
5.6496
 20
40.1929
 10
5.4652
 20
39.9929
 10
5.2729
 20
39.7933
 10
5.0748
 20
39.5931
 10
4.95
 20
39.3733
 10
4.8174
 20
39.1536
 10
4.6797
 20
38.9338
 10
4.5809
 20
38.6488
 10
4.483
 20
38.3554
 10
4.3847
 20
38.0564
 10
4.3875
 20
37.4189
 10
4.3839
 20
36.7818
 10
4.3733
 20
36.1442
 10
4.4616
 20
35.5472
 10
4.5579
 20
34.9446
 10
4.6602
 20
34.3336
 10
4.6865
 20
34.2339
 10
4.7207
 20
34.1289
 10
4.7615
 20
34.0153
 10
4.7618
 20
33.9556
 10
4.7677
 20
33.8956
 10
4.7817
 20
33.8362
 10
4.9091
 20
33.4384
 10
5.0444
 20
33.0405
 10
5.1854
 20
32.6427
 10
5.1918
 20
32.6371
 10
5.2057
 20
32.6233
 10
5.2257
 20
32.6034
 10
5.2458
 20
32.5375
 10
5.2659
 20
32.4643
 10
5.2863
 20
32.3844
 10
5.5477
 20
31.8679
 10
5.8146
 20
31.3513
 10
6.0899
 20
30.8348
 10
6.1701
 20
30.7093
 10
6.2507
 20
30.5764
 10
6.3305
 20
30.4376
 10
6.3369
 20
30.4375
 10
6.3706
 20
30.4179
 10
6.4365
 20
30.2986
 10
6.5113
 20
30.1795
 10
6.5915
 20
30.0605
 10
6.6778
 20
29.9553
 10
6.7718
 20
29.8419
 10
6.8718
 20
29.7228
 10
6.8719
 20
29.7031
 10
6.8777
 20
29.6831
 10
6.8919
 20
29.6633
 10
6.9119
 20
29.6434
 10
6.9377
 20
29.6234
 10
6.9718
 20
29.6039
 10
7.0778
 20
29.4651
 10
7.1923
 20
29.3258
 10
7.3123
 20
29.1874
 10
7.3923
 20
29.1078
 10
7.4781
 20
29.0224
 10
7.5722
 20
28.9298
 10
7.5723
 20
28.9095
 10
7.5783
 20
28.8897
 10
7.5922
 20
28.8699
 10
7.6786
 20
28.7707
 10
7.7725
 20
28.6715
 10
7.8724
 20
28.5724
 10
7.8988
 20
28.5523
 10
7.9325
 20
28.5327
 10
7.9725
 20
28.5131
 10
7.9726
 20
28.4933
 10
7.9785
 20
28.4729
 10
7.9925
 20
28.4534
 10
8.1725
 20
28.2952
 10
8.3586
 20
28.1364
 10
8.5525
 20
27.978
 10
8.6381
 20
27.8726
 10
8.7325
 20
27.7596
 10
8.833
 20
27.6404
 10
8.8332
 20
27.5551
 10
8.8394
 20
27.4612
 10
8.8539
 20
27.3619
 10
8.8344
 20
27.3161
 10
8.8143
 20
27.2622
 10
8.7946
 20
27.2024
 10
8.7753
 20
27.1765
 10
8.7495
 20
27.1424
 10
8.7161
 20
27.1022
 10
8.6501
 20
27.0621
 10
8.5766
 20
27.0162
 10
8.4973
 20
26.962
 10
8.3976
 20
26.9614
 10
8.2981
 20
26.9669
 10
8.1983
 20
26.9805
 10
7.9983
 20
27.1051
 10
7.799
 20
27.2377
 10
7.599
 20
27.3763
 10
7.579
 20
27.3961
 10
7.5592
 20
27.4217
 10
7.5389
 20
27.4554
 10
7.4133
 20
27.5546
 10
7.279
 20
27.6595
 10
7.1391
 20
27.7727
 10
7.1193
 20
27.7921
 10
7.0993
 20
27.8179
 10
7.079
 20
27.8518
 10
7.019
 20
27.8913
 10
6.9591
 20
27.9312
 10
6.8995
 20
27.9705
 10
6.8797
 20
27.9902
 10
6.8592
 20
28.0159
 10
6.8394
 20
28.0501
 10
6.8334
 20
28.0499
 10
6.8194
 20
28.0499
 10
6.7994
 20
28.05
 10
6.7796
 20
28.0754
 10
6.7597
 20
28.1091
 10
6.7392
 20
28.1487
 10
6.6393
 20
28.2342
 10
6.5331
 20
28.3274
 10
6.4193
 20
28.4265
 10
6.1534
 20
28.7237
 10
5.8788
 20
29.0273
 10
5.5987
 20
29.3392
 10
5.3384
 20
29.7018
 10
5.0719
 20
30.0733
 10
4.7969
 20
30.4506
 10
4.536
 20
30.9335
 10
4.2689
 20
31.424
 10
3.994
 20
31.9208
 10
3.9133
 20
32.1192
 10
3.8266
 20
32.324
 10
3.7322
 20
32.5367
 10
3.6514
 20
32.7955
 10
3.5648
 20
33.0538
 10
3.4697
 20
33.3121
 10
3.3826
 20
33.6366
 10
3.2877
 20
33.9688
 10
3.1866
 20
34.3068
 10
3.1456
 20
34.5119
 10
3.1048
 20
34.7248
 10
3.0236
 20
35.1028
 10
2.9772
 20
35.2618
 10
2.9231
 20
35.421
 10
2.8367
 20
35.54
 10
2.7424
 20
35.6591
 10
2.6423
 20
35.7779
 10
2.5226
 20
35.8373
 10
2.3968
 20
35.9026
 10
2.2629
 20
35.9756
 10
2.2029
 20
35.9814
 10
2.1376
 20
35.9946
 10
2.0637
 20
36.0146
 10
1.9777
 20
36.0539
 10
1.8836
 20
36.0996
 10
1.7842
 20
36.1526
 10
1.6643
 20
36.238
 10
1.5445
 20
36.3308
 10
1.4245
 20
36.43
 10
1.3845
 20
36.4899
 10
1.3384
 20
36.549
 10
1.2842
 20
36.6085
 10
1.2236
 20
36.7677
 10
1.1571
 20
36.9267
 10
1.0831
 20
37.0854
 10
1.0823
 20
37.2848
 10
1.0873
 20
37.4843
 10
1.1002
 20
37.6832
 10
1.1973
 20
38.2415
 10
1.2943
 20
38.7992
 10
1.3916
 20
39.3572
 10
1.4766
 20
39.477
 10
1.5695
 20
39.5969
 10
1.6686
 20
39.7172
 10
1.734
 20
39.7633
 10
1.808
 20
39.8172
 10
1.887
 20
39.8774
 10
1.9667
 20
39.9036
 10
2.052
 20
39.9381
 10
2.1455
 20
39.9781
 10
2.2859
 20
40.0129
 10
2.3708
 20
40.0171
 10
2.4284
 20
40.0189
 10
2.5521
 20
40.0008
 10
2.6757
 20
39.9825
 10
2.9846
 20
39.9321
 10
2.9103
 20
39.4159
 10
2.855
 20
39.0696
 10
2.8126
 20
38.7828
 10
2.7913
 20
38.6193
 10
2.7786
 20
38.564
 10
2.7722
 20
38.5173
 10
2.7637
 20
38.4514
 10
2.9846
 20
39.9321
 10
3.4059
 20
39.9899
 10
3.5388
 20
40.0841
 10
3.7032
 20
40.3437
 10
3.8751
 20
40.6094
 10
4.0531
 20
40.8831
 10
4.2378
 20
41.063
 10
4.4298
 20
41.2491
 10
4.6282
 20
41.443
 10
4.7475
 20
41.5234
 10
4.8665
 20
41.6093
 10
4.9858
 20
41.7037
 10
5.0056
 20
41.7237
 10
5.0252
 20
41.7495
 10
5.0454
 20
41.7836
 10
5.1306
 20
41.8239
 10
5.2238
 20
41.864
 10
5.3234
 20
41.9046
 10
5.3825
 20
41.9642
 10
5.4422
 20
42.0303
 10
5.5017
 20
42.1044
 10
5.5411
 20
42.2098
 10
5.5801
 20
42.3239
 10
5.6198
 20
42.4434
 10
5.6191
 20
42.6225
 10
5.624
 20
42.8018
 10
5.6371
 20
42.9812
 10
5.5483
 20
43.6181
 10
5.4523
 20
44.2608
 10
5.3493
 20
44.9116
 10
5.3281
 20
45.3161
 10
5.3
 20
45.728
 10
5.2647
 20
46.1462
 10
5.2839
 20
46.2457
 10
5.3034
 20
46.3456
 10
5.323
 20
46.4449
 10
5.3823
 20
46.5309
 10
5.4474
 20
46.6249
 10
5.5209
 20
46.7246
 10
5.6856
 20
46.8651
 10
5.7788
 20
46.9448
 10
5.8841
 20
46.9853
 10
5.9973
 20
47.0256
 10
6.117
 20
47.0661
 10
6.256
 20
47.0667
 10
6.3957
 20
47.0613
 10
6.5351
 20
47.0478
 10
6.6606
 20
47.0087
 10
6.7944
 20
46.9636
 10
6.9337
 20
46.9103
 10
7.02
 20
46.825
 10
7.1142
 20
46.7317
 10
7.2139
 20
46.6328
 10
7.2539
 20
46.573
 10
7.294
 20
46.5137
 10
7.334
 20
46.4539
 10
7.4213
 20
46.2155
 10
7.5153
 20
45.9768
 10
7.6167
 20
45.7383
 10
7.7782
 20
45.2152
 10
7.9456
 20
44.6846
 10
8.1213
 20
44.1474
 10
8.208
 20
43.9227
 10
8.3026
 20
43.6904
 10
8.403
 20
43.4517
 10
8.4836
 20
43.3328
 10
8.5694
 20
43.2134
 10
8.6636
 20
43.0945
 10
8.7235
 20
43.0552
 10
8.7837
 20
43.0092
 10
8.8436
 20
42.9559
 10
8.9696
 20
42.9164
 10
9.1028
 20
42.8712
 10
9.2425
 20
42.8181
 10
9.482
 20
42.7793
 10
9.7267
 20
42.7407
 10
9.9799
 20
42.702
 10
10.1853
 20
42.643
 10
10.3986
 20
42.5782
 10
10.6184
 20
42.5056
 10
10.7841
 20
42.421
 10
10.9575
 20
42.3277
 10
11.1373
 20
42.2295
 10
11.2828
 20
42.1703
 10
11.4364
 20
42.1049
 10
11.5959
 20
42.0321
 10
11.6958
 20
42.0324
 10
11.8012
 20
42.0267
 10
11.9149
 20
42.0137
 10
12.0431
 20
42.0386
 10
12.7212
 20
40.9437
 10
12.7196
 20
40.9413
  0
LWPOLYLINE
  5
43
330
1F
100
AcDbEntity
  8
0
100
AcDbPolyline
 90
        2
 70
   128
 43
0.0
 10
12.7196
 20
40.9413
 10
12.7212
 20
40.9437
  0
LWPOLYLINE
  5
44
330
1F
100
AcDbEntity
  8
0
100
AcDbPolyline
 90
       49
 70
   128
 43
0.0
 10
12.7212
 20
40.9437
 10
12.7204
 20
40.9425
 10
12.6968
 20
40.9816
 10
12.6933
 20
40.9956
 10
12.6775
 20
41.0201
 10
12.6249
 20
41.106
 10
12.5619
 20
41.2042
 10
12.4918
 20
41.3181
 10
12.4252
 20
41.4268
 10
12.3603
 20
41.5268
 10
12.2937
 20
41.6372
 10
12.2149
 20
41.7616
 10
12.0431
 20
42.0386
 10
12.3316
 20
42.3139
 10
12.3774
 20
42.3742
 10
12.431
 20
42.434
 10
12.4905
 20
42.4942
 10
12.6154
 20
42.5345
 10
12.7487
 20
42.5811
 10
12.8881
 20
42.6354
 10
13.0673
 20
42.6302
 10
13.2526
 20
42.617
 10
13.4457
 20
42.5979
 10
13.5514
 20
42.5388
 10
13.6655
 20
42.4734
 10
13.7852
 20
42.4004
 10
13.8112
 20
42.3745
 10
13.8451
 20
42.3407
 10
13.8853
 20
42.3011
 10
13.8855
 20
42.2813
 10
13.8915
 20
42.2615
 10
13.9054
 20
42.2418
 10
13.9654
 20
42.1821
 10
14.0256
 20
42.1164
 10
14.0856
 20
42.0433
 10
14.1256
 20
41.9834
 10
14.1656
 20
41.9183
 10
14.206
 20
41.8442
 10
14.2259
 20
41.8248
 10
14.2858
 20
41.7855
 10
14.4461
 20
41.5668
 10
14.6125
 20
41.3426
 10
14.7871
 20
41.1104
 10
14.8671
 20
40.9712
 10
14.9533
 20
40.8324
 10
15.0477
 20
40.6931
 10
15.0882
 20
40.5281
 10
15.1284
 20
40.355
 10
15.1694
 20
40.1759
  0
LWPOLYLINE
  5
45
330
1F
100
AcDbEntity
  8
0
100
AcDbPolyline
 90
      416
 70
   128
 43
0.0
 10
28.1347
 20
43.4606
 10
28.1723
 20
43.3382
 10
28.2095
 20
43.2163
 10
28.2469
 20
43.0947
 10
28.2599
 20
43.0743
 10
28.2766
 20
43.0613
 10
28.295
 20
43.0539
 10
28.4583
 20
42.7105
 10
28.6167
 20
42.369
 10
28.7676
 20
42.0311
 10
28.7729
 20
42.0072
 10
28.771
 20
41.9864
 10
28.7639
 20
41.9681
 10
28.8083
 20
41.8645
 10
28.8549
 20
41.7667
 10
28.9052
 20
41.6762
 10
29.0109
 20
41.527
 10
29.1093
 20
41.3811
 10
29.2023
 20
41.237
 10
29.2872
 20
41.1818
 10
29.3674
 20
41.1285
 10
29.4393
 20
41.0786
 10
29.6133
 20
41.0309
 10
29.7793
 20
40.9801
 10
29.9351
 20
40.9245
 10
29.9847
 20
40.9414
 10
30.0258
 20
40.9527
 10
30.0571
 20
40.962
 10
30.3621
 20
40.9202
 10
30.6641
 20
40.8707
 10
30.9632
 20
40.8164
 10
31.265
 20
40.7119
 10
31.5634
 20
40.5998
 10
31.8595
 20
40.4823
 10
32.0669
 20
40.357
 10
32.2712
 20
40.2395
 10
32.4705
 20
40.1327
 10
32.6227
 20
40.0296
 10
32.7692
 20
39.9285
 10
32.908
 20
39.8304
 10
33.1175
 20
39.6037
 10
33.3306
 20
39.384
 10
33.5456
 20
39.17
 10
33.7225
 20
38.9138
 10
33.9022
 20
38.6643
 10
34.0838
 20
38.4209
 10
34.1531
 20
38.2864
 10
34.2141
 20
38.155
 10
34.27
 20
38.0257
 10
34.4781
 20
37.6495
 10
34.6822
 20
37.2836
 10
34.8829
 20
36.9252
 10
34.8886
 20
36.9018
 10
34.8868
 20
36.8809
 10
34.8795
 20
36.8626
 10
34.9152
 20
36.7904
 10
34.9482
 20
36.728
 10
34.9763
 20
36.6742
 10
35.0693
 20
36.4233
 10
35.1624
 20
36.1717
 10
35.2558
 20
35.9203
 10
35.3469
 20
35.627
 10
35.431
 20
35.3368
 10
35.5096
 20
35.0482
 10
35.5098
 20
35.0115
 10
35.5062
 20
34.9852
 10
35.4988
 20
34.967
 10
35.5581
 20
34.686
 10
35.6205
 20
34.4107
 10
35.6856
 20
34.1427
 10
35.6884
 20
34.0411
 10
35.6938
 20
33.9466
 10
35.7012
 20
33.8582
 10
35.7372
 20
33.6785
 10
35.7707
 20
33.5092
 10
35.7989
 20
33.3475
 10
35.7991
 20
33.2408
 10
35.7992
 20
33.1334
 10
35.7999
 20
33.0261
 10
35.813
 20
33.006
 10
35.8238
 20
32.9949
 10
35.8292
 20
32.9927
 10
35.8453
 20
32.6011
 10
35.8554
 20
32.2116
 10
35.8584
 20
31.8245
 10
35.8504
 20
31.5339
 10
35.8395
 20
31.253
 10
35.8239
 20
30.9809
 10
35.7208
 20
30.343
 10
35.6144
 20
29.7142
 10
35.5032
 20
29.0941
 10
35.3936
 20
28.7094
 10
35.28
 20
28.3317
 10
35.1623
 20
27.965
 10
35.0467
 20
27.7113
 10
34.9404
 20
27.4595
 10
34.8429
 20
27.2135
 10
34.7559
 20
27.141
 10
34.6787
 20
27.0708
 10
34.6103
 20
27.0061
 10
34.4309
 20
26.9698
 10
34.355
 20
26.9574
 10
34.2444
 20
27.0012
 10
34.1333
 20
27.0451
 10
34.0219
 20
27.0894
 10
33.9811
 20
27.1484
 10
33.9404
 20
27.2075
 10
33.8995
 20
27.2665
 10
33.8866
 20
27.3789
 10
33.8784
 20
27.4827
 10
33.8728
 20
27.577
 10
33.975
 20
27.9435
 10
34.0835
 20
28.3077
 10
34.1989
 20
28.6692
 10
34.2574
 20
28.9244
 10
34.3138
 20
29.1742
 10
34.3674
 20
29.4164
 10
34.4262
 20
29.9435
 10
34.4882
 20
30.4612
 10
34.5551
 20
30.9703
 10
34.5504
 20
31.3364
 10
34.5517
 20
31.7002
 10
34.5597
 20
32.0613
 10
34.4899
 20
32.6244
 10
34.4249
 20
33.1793
 10
34.363
 20
33.7253
 10
34.2562
 20
34.1956
 10
34.1546
 20
34.6579
 10
34.0558
 20
35.1108
 10
34.0316
 20
35.1572
 10
34.0096
 20
35.1937
 10
33.9927
 20
35.2219
 10
33.9779
 20
35.2918
 10
33.9632
 20
35.3621
 10
33.9476
 20
35.4324
 10
33.912
 20
35.5045
 10
33.8733
 20
35.5689
 10
33.8326
 20
35.6282
 10
33.8177
 20
35.6983
 10
33.8026
 20
35.7685
 10
33.7874
 20
35.8384
 10
33.7741
 20
35.8592
 10
33.7582
 20
35.872
 10
33.7392
 20
35.8796
 10
33.7337
 20
35.9028
 10
33.7357
 20
35.9236
 10
33.743
 20
35.9421
 10
33.6629
 20
36.1025
 10
33.5906
 20
36.2599
 10
33.5233
 20
36.4149
 10
33.5178
 20
36.4386
 10
33.52
 20
36.4592
 10
33.5271
 20
36.4775
 10
33.4862
 20
36.537
 10
33.451
 20
36.5936
 10
33.4227
 20
36.6478
 10
33.3951
 20
36.723
 10
33.3724
 20
36.79
 10
33.3522
 20
36.8472
 10
33.3226
 20
36.8802
 10
33.2984
 20
36.9114
 10
33.2821
 20
36.9394
 10
33.2759
 20
36.9633
 10
33.278
 20
36.9841
 10
33.2852
 20
37.0024
 10
33.2722
 20
37.023
 10
33.2557
 20
37.0355
 10
33.2371
 20
37.0428
 10
33.064
 20
37.3624
 10
32.8877
 20
37.6743
 10
32.7094
 20
37.9807
 10
32.5644
 20
38.139
 10
32.4238
 20
38.2868
 10
32.2865
 20
38.4271
 10
32.177
 20
38.5285
 10
32.0642
 20
38.6228
 10
31.9493
 20
38.711
 10
31.8272
 20
38.7807
 10
31.7103
 20
38.8486
 10
31.6013
 20
38.9137
 10
31.3897
 20
39.0123
 10
31.1829
 20
39.101
 10
30.9792
 20
39.1817
 10
30.6665
 20
39.2412
 10
30.363
 20
39.3039
 10
30.0692
 20
39.3716
 10
30.0122
 20
39.3791
 10
29.9676
 20
39.3769
 10
29.8798
 20
39.3858
 10
29.8224
 20
39.3867
 10
29.736
 20
39.3964
 10
29.696
 20
39.3969
 10
29.648
 20
39.3926
 10
29.5773
 20
39.3802
 10
29.5703
 20
39.3786
 10
29.5553
 20
39.3735
 10
29.5448
 20
39.3702
 10
29.4936
 20
39.3507
 10
29.4382
 20
39.336
 10
29.3846
 20
39.3217
 10
29.1222
 20
39.2546
 10
28.8657
 20
39.1849
 10
28.6675
 20
39.1468
 10
28.5506
 20
39.1134
 10
28.5452
 20
39.1082
 10
28.4281
 20
39.075
 10
28.2536
 20
39.0209
 10
28.2355
 20
39.0808
 10
27.8896
 20
40.2186
 10
27.9402
 20
40.046
 10
27.975
 20
39.9359
 10
28.015
 20
39.8055
 10
28.0474
 20
39.6979
 10
28.1125
 20
39.4823
 10
28.2145
 20
39.1491
 10
28.2536
 20
39.0209
 10
28.0689
 20
38.9672
 10
27.9491
 20
38.9314
 10
27.8295
 20
38.8955
 10
27.672
 20
38.8231
 10
27.5372
 20
38.7694
 10
27.4083
 20
38.7134
 10
27.284
 20
38.6553
 10
27.1678
 20
38.5946
 10
27.0569
 20
38.5317
 10
26.9129
 20
38.4387
 10
26.7769
 20
38.3491
 10
26.6509
 20
38.2642
 10
26.4319
 20
38.036
 10
26.216
 20
37.8155
 10
26.002
 20
37.6004
 10
25.8913
 20
37.43
 10
25.7884
 20
37.2629
 10
25.6965
 20
37.1001
 10
25.6085
 20
36.8414
 10
25.5165
 20
36.5931
 10
25.4209
 20
36.3528
 10
25.3844
 20
36.1527
 10
25.3504
 20
35.9585
 10
25.3189
 20
35.7716
 10
25.3307
 20
35.4235
 10
25.3372
 20
35.0785
 10
25.3363
 20
34.7364
 10
25.3881
 20
34.3794
 10
25.4365
 20
34.0322
 10
25.4799
 20
33.6937
 10
25.4909
 20
33.6675
 10
25.5045
 20
33.6477
 10
25.5205
 20
33.6344
 10
25.5285
 20
33.5457
 10
25.5358
 20
33.4571
 10
25.5436
 20
33.3682
 10
25.6705
 20
32.9323
 10
25.7973
 20
32.4963
 10
25.9247
 20
32.0602
 10
26.0062
 20
31.8347
 10
26.0883
 20
31.6099
 10
26.1701
 20
31.3841
 10
26.3787
 20
30.9374
 10
26.589
 20
30.4959
 10
26.8027
 20
30.0618
 10
26.9719
 20
29.7868
 10
27.1443
 20
29.519
 10
27.3188
 20
29.2572
 10
27.5118
 20
28.9875
 10
27.7049
 20
28.7182
 10
27.8978
 20
28.4485
 10
28.1351
 20
28.1831
 10
28.3749
 20
27.9232
 10
28.6173
 20
27.6704
 10
28.8049
 20
27.4952
 10
28.9899
 20
27.3295
 10
29.1696
 20
27.1726
 10
29.2587
 20
27.073
 10
29.3476
 20
26.9736
 10
29.4368
 20
26.874
 10
29.6505
 20
26.7097
 10
29.8611
 20
26.5557
 10
30.13
 20
26.2986
 10
30.1955
 20
26.1934
 10
30.2636
 20
26.0953
 10
30.2604
 20
26.0325
 10
30.2565
 20
25.9697
 10
30.2534
 20
25.9069
 10
30.1978
 20
25.8215
 10
30.1428
 20
25.7365
 10
30.0872
 20
25.6514
 10
30.0233
 20
25.5977
 10
29.9618
 20
25.5513
 10
29.9027
 20
25.5103
 10
29.7955
 20
25.5101
 10
29.6884
 20
25.5097
 10
29.5812
 20
25.5093
 10
29.4457
 20
25.5845
 10
29.316
 20
25.6509
 10
29.1883
 20
25.7079
 10
28.7154
 20
26.0821
 10
28.2456
 20
26.4465
 10
27.7803
 20
26.8025
 10
27.5408
 20
27.0474
 10
27.307
 20
27.2842
 10
27.0756
 20
27.5108
 10
27.0512
 20
27.5573
 10
27.0292
 20
27.5936
 10
27.0126
 20
27.6217
 10
26.9344
 20
27.6954
 10
26.862
 20
27.7665
 10
26.7974
 20
27.8358
 10
26.6917
 20
27.9847
 10
26.5913
 20
28.1254
 10
26.4929
 20
28.2562
 10
26.4611
 20
28.284
 10
26.4318
 20
28.302
 10
26.4078
 20
28.3117
 10
26.2149
 20
28.5809
 10
26.0271
 20
28.8483
 10
25.8472
 20
29.1125
 10
25.6911
 20
29.3673
 10
25.535
 20
29.6221
 10
25.379
 20
29.8767
 10
25.2157
 20
30.22
 10
25.0553
 20
30.5559
 10
24.8994
 20
30.8812
 10
24.7951
 20
31.1583
 10
24.6888
 20
31.43
 10
24.579
 20
31.6943
 10
24.4573
 20
32.1429
 10
24.3327
 20
32.5847
 10
24.206
 20
33.0209
 10
24.1421
 20
33.346
 10
24.0782
 20
33.6712
 10
24.0145
 20
33.9965
 10
23.9804
 20
34.3959
 10
23.9434
 20
34.7898
 10
23.9044
 20
35.176
 10
23.9253
 20
35.5532
 10
23.9465
 20
35.9308
 10
23.9678
 20
36.3078
 10
24.0131
 20
36.5681
 10
24.0642
 20
36.8202
 10
24.1171
 20
37.0624
 10
24.2529
 20
37.3668
 10
24.3784
 20
37.6661
 10
24.4959
 20
37.9624
 10
24.6134
 20
38.1513
 10
24.726
 20
38.3424
 10
24.8304
 20
38.5367
 10
24.9392
 20
38.6648
 10
25.0407
 20
38.7961
 10
25.1365
 20
38.9293
 10
25.3044
 20
39.0984
 10
25.4628
 20
39.265
 10
25.6125
 20
39.4261
 10
25.7711
 20
39.5559
 10
25.9219
 20
39.6824
 10
26.0627
 20
39.8047
 10
26.1396
 20
39.9454
 10
26.2114
 20
40.0884
 10
26.2756
 20
40.2341
 10
26.2939
 20
40.3342
 10
26.3125
 20
40.4339
 10
26.3304
 20
40.5337
 10
26.2856
 20
40.7446
 10
26.2382
 20
40.9497
 10
26.1883
 20
41.1477
 10
26.0792
 20
41.72
 10
25.9743
 20
42.2823
 10
25.8731
 20
42.8366
 10
25.8597
 20
42.8573
 10
25.8491
 20
42.8676
 10
25.8437
 20
42.87
 10
25.7892
 20
43.1486
 10
25.742
 20
43.4244
 10
25.7007
 20
43.6977
 10
25.7153
 20
43.8422
 10
25.7295
 20
43.986
 10
25.7439
 20
44.1304
 10
25.8084
 20
44.2551
 10
25.8652
 20
44.3824
 10
25.9166
 20
44.5123
 10
26.0365
 20
44.6145
 10
26.1493
 20
44.7197
 10
26.2559
 20
44.827
 10
26.3576
 20
44.8663
 10
26.4558
 20
44.8982
 10
26.5519
 20
44.9243
 10
26.659
 20
44.9243
 10
26.7606
 20
44.9268
 10
26.8551
 20
44.9326
 10
26.9732
 20
44.9071
 10
27.0918
 20
44.8814
 10
27.2101
 20
44.8558
 10
27.2767
 20
44.808
 10
27.3402
 20
44.7676
 10
27.3991
 20
44.738
 10
27.4771
 20
44.6644
 10
27.5544
 20
44.5905
 10
27.6328
 20
44.5169
 10
27.6734
 20
44.4576
 10
27.7112
 20
44.4066
 10
27.7437
 20
44.3652
 10
27.7909
 20
44.2673
 10
27.8349
 20
44.1792
 10
27.8738
 20
44.0993
 10
27.88
 20
44.0759
 10
27.8778
 20
44.055
 10
27.8703
 20
44.0366
 10
27.9504
 20
43.8764
 10
28.0231
 20
43.7189
 10
28.0901
 20
43.5637
 10
28.0958
 20
43.5403
 10
28.0938
 20
43.5193
 10
28.0866
 20
43.5009
 10
28.0998
 20
43.4807
 10
28.1166
 20
43.4677
 10
28.1347
 20
43.4606
  0
LWPOLYLINE
  5
46
330
1F
100
AcDbEntity
  8
0
100
AcDbPolyline
 90
      152
 70
   128
 43
0.0
 10
59.7954
 20
31.9263
 10
59.7252
 20
32.0002
 10
59.6608
 20
32.0771
 10
59.6027
 20
32.158
 10
59.5985
 20
32.2023
 10
59.5892
 20
32.2434
 10
59.5734
 20
32.2807
 10
59.592
 20
32.3626
 10
59.6139
 20
32.44
 10
59.6403
 20
32.5106
 10
59.7872
 20
32.6892
 10
59.9327
 20
32.8583
 10
60.0749
 20
33.0181
 10
60.132
 20
33.0772
 10
60.1919
 20
33.1311
 10
60.256
 20
33.1785
 10
60.4425
 20
33.4059
 10
60.6283
 20
33.6235
 10
60.8108
 20
33.8315
 10
60.8348
 20
33.8941
 10
60.8527
 20
33.9517
 10
60.8651
 20
34.0069
 10
60.858
 20
34.1198
 10
60.8471
 20
34.2236
 10
60.8354
 20
34.3172
 10
60.7812
 20
34.377
 10
60.7369
 20
34.4364
 10
60.7019
 20
34.4924
 10
60.4636
 20
34.6478
 10
60.2277
 20
34.7991
 10
59.9969
 20
34.9433
 10
59.6756
 20
35.118
 10
59.3544
 20
35.2925
 10
59.0334
 20
35.4674
 10
58.954
 20
35.4813
 10
58.879
 20
35.4885
 10
58.8072
 20
35.4907
 10
58.6987
 20
35.4391
 10
58.5992
 20
35.3838
 10
58.5096
 20
35.3276
 10
58.4526
 20
35.2049
 10
58.3984
 20
35.0931
 10
58.3456
 20
34.9894
 10
58.2826
 20
34.7151
 10
58.2166
 20
34.4457
 10
58.1461
 20
34.1828
 10
58.0693
 20
33.9305
 10
57.9935
 20
33.6876
 10
57.921
 20
33.4546
 10
57.8223
 20
33.0871
 10
57.7284
 20
32.7227
 10
57.6415
 20
32.3626
 10
57.6204
 20
32.2087
 10
57.6017
 20
32.0624
 10
57.5916
 20
32.0086
 10
57.5317
 20
31.8989
 10
57.4354
 20
31.7273
 10
58.2061
 20
31.3082
 10
58.1148
 20
31.3581
 10
58.051
 20
31.391
 10
58.0031
 20
31.4172
 10
57.9111
 20
31.4694
 10
57.8309
 20
31.5113
 10
57.7679
 20
31.5456
 10
57.7243
 20
31.5656
 10
57.7058
 20
31.5777
 10
57.5748
 20
31.6512
 10
57.4354
 20
31.7273
 10
57.3519
 20
31.5698
 10
57.2902
 20
31.4612
 10
57.2312
 20
31.4033
 10
57.0532
 20
31.2492
 10
56.8812
 20
31.0635
 10
56.7243
 20
30.8811
 10
56.6775
 20
30.8255
 10
56.6458
 20
30.775
 10
56.6172
 20
30.7338
 10
56.1557
 20
30.233
 10
55.6911
 20
29.7372
 10
55.2217
 20
29.2482
 10
55.1542
 20
29.1422
 10
55.0887
 20
29.0473
 10
55.0258
 20
28.9607
 10
55.0139
 20
28.8665
 10
55.0033
 20
28.7823
 10
54.9966
 20
28.7074
 10
55.0134
 20
28.6545
 10
55.032
 20
28.6127
 10
55.0534
 20
28.5787
 10
55.0852
 20
28.5281
 10
55.117
 20
28.4773
 10
55.1484
 20
28.4269
 10
55.2426
 20
28.3522
 10
55.3326
 20
28.2836
 10
55.4189
 20
28.2205
 10
55.8936
 20
27.977
 10
56.3582
 20
27.7346
 10
56.8135
 20
27.4957
 10
56.9094
 20
27.4925
 10
57.0013
 20
27.4959
 10
57.09
 20
27.5047
 10
57.1955
 20
27.5872
 10
57.2986
 20
27.6587
 10
57.3998
 20
27.7221
 10
57.4329
 20
27.7827
 10
57.4644
 20
27.8335
 10
57.4924
 20
27.8742
 10
57.6442
 20
28.4092
 10
57.7932
 20
28.9324
 10
57.9402
 20
29.4477
 10
58.0143
 20
29.5175
 10
58.0914
 20
29.5821
 10
58.1726
 20
29.6401
 10
58.2441
 20
29.638
 10
58.3161
 20
29.6357
 10
58.3881
 20
29.6343
 10
58.9514
 20
29.4465
 10
59.5104
 20
29.2565
 10
60.0625
 20
29.0619
 10
60.1997
 20
29.0303
 10
60.3371
 20
28.9987
 10
60.4747
 20
28.9672
 10
60.5872
 20
28.9745
 10
60.6912
 20
28.9855
 10
60.7847
 20
28.9974
 10
60.9081
 20
29.0511
 10
61.022
 20
29.106
 10
61.1263
 20
29.1645
 10
61.2265
 20
29.2668
 10
61.326
 20
29.3598
 10
61.4215
 20
29.4433
 10
61.4605
 20
29.5314
 10
61.4986
 20
29.6087
 10
61.5329
 20
29.6777
 10
61.5574
 20
29.8269
 10
61.5805
 20
29.9659
 10
61.6002
 20
30.0956
 10
61.578
 20
30.169
 10
61.5599
 20
30.235
 10
61.5452
 20
30.2963
 10
61.5511
 20
30.3236
 10
61.5558
 20
30.3434
 10
61.5578
 20
30.3512
 10
61.4849
 20
30.4937
 10
61.4087
 20
30.6271
 10
61.3316
 20
30.7501
 10
60.8664
 20
31.117
 10
60.4018
 20
31.4832
 10
59.937
 20
31.8504
 10
59.8794
 20
31.8779
 10
59.8331
 20
31.9031
 10
59.7954
 20
31.9263
  0
LWPOLYLINE
  5
47
330
1F
100
AcDbEntity
  8
0
100
AcDbPolyline
 90
      130
 70
   128
 43
0.0
 10
1.0588
 20
28.9833
 10
1.065
 20
29.0745
 10
1.0721
 20
29.154
 10
1.08
 20
29.2259
 10
1.1164
 20
29.2993
 10
1.1524
 20
29.3728
 10
1.1883
 20
29.4472
 10
1.2357
 20
29.5035
 10
1.2776
 20
29.5535
 10
1.3162
 20
29.5994
 10
1.4347
 20
29.648
 10
1.544
 20
29.6941
 10
1.6435
 20
29.7411
 10
2.097
 20
29.7239
 10
2.5511
 20
29.7066
 10
3.0047
 20
29.6893
 10
3.1067
 20
29.6561
 10
3.2085
 20
29.6226
 10
3.3101
 20
29.5888
 10
3.3645
 20
29.4988
 10
3.4245
 20
29.415
 10
3.4879
 20
29.3358
 10
3.5079
 20
29.2667
 10
3.5236
 20
29.2016
 10
3.5327
 20
29.1419
 10
3.5228
 20
29.0462
 10
3.5067
 20
28.9557
 10
3.4859
 20
28.8689
 10
3.4168
 20
28.6409
 10
3.3454
 20
28.4231
 10
3.2741
 20
28.2147
 10
3.2682
 20
28.1238
 10
3.2608
 20
28.0436
 10
3.2526
 20
27.9727
 10
3.2812
 20
27.9227
 10
3.3035
 20
27.878
 10
3.321
 20
27.8368
 10
3.3759
 20
27.8093
 10
3.4211
 20
27.7792
 10
3.4561
 20
27.7499
 10
3.943
 20
27.6266
 10
4.4238
 20
27.5089
 10
4.9005
 20
27.3948
 10
4.9942
 20
27.3604
 10
5.0761
 20
27.3253
 10
5.1499
 20
27.2892
 10
5.2261
 20
27.2251
 10
5.3025
 20
27.1611
 10
5.3785
 20
27.0972
 10
5.4552
 20
26.9805
 10
5.5255
 20
26.8696
 10
5.5913
 20
26.7624
 10
5.6131
 20
26.6737
 10
5.6343
 20
26.5962
 10
5.6542
 20
26.5271
 10
5.6492
 20
26.376
 10
5.6415
 20
26.2335
 10
5.6345
 20
26.1017
 10
5.5641
 20
25.9344
 10
5.4931
 20
25.7783
 10
5.4212
 20
25.6304
 10
5.3185
 20
25.5608
 10
5.2218
 20
25.486
 10
5.1298
 20
25.4075
 10
4.9231
 20
25.3472
 10
4.7247
 20
25.2873
 10
4.5374
 20
25.2288
 10
4.2358
 20
25.1703
 10
3.9403
 20
25.1059
 10
3.6493
 20
25.0388
 10
3.5957
 20
25.0057
 10
3.5458
 20
24.9772
 10
3.5009
 20
24.9549
 10
3.4602
 20
24.8846
 10
3.4139
 20
24.8202
 10
3.3624
 20
24.7589
 10
3.3524
 20
24.7158
 10
3.3454
 20
24.6773
 10
3.3442
 20
24.6444
 10
3.4534
 20
24.2484
 10
3.5678
 20
23.8584
 10
3.6863
 20
23.4725
 10
3.6801
 20
23.3816
 10
3.6728
 20
23.3018
 10
3.6649
 20
23.2306
 10
3.6116
 20
23.1454
 10
3.552
 20
23.0654
 10
3.4879
 20
22.9891
 10
3.3955
 20
22.9626
 10
3.3091
 20
22.9311
 10
3.2274
 20
22.8956
 10
2.9878
 20
22.8889
 10
2.7566
 20
22.8831
 10
2.5364
 20
22.8779
 10
2.2467
 20
22.895
 10
1.9682
 20
22.9134
 10
1.6981
 20
22.9323
 10
1.6393
 20
22.9557
 10
1.5852
 20
22.9751
 10
1.5374
 20
22.9891
 10
1.4504
 20
23.0622
 10
1.3695
 20
23.1301
 10
1.2934
 20
23.1941
 10
1.2604
 20
23.248
 10
1.2321
 20
23.2977
 10
1.2097
 20
23.3425
 10
1.1987
 20
23.4218
 10
1.187
 20
23.4916
 10
1.1774
 20
23.5517
 10
1.175
 20
23.6316
 10
1.1782
 20
23.7072
 10
1.1862
 20
23.7786
 10
1.2009
 20
23.818
 10
1.2219
 20
23.8522
 10
1.2477
 20
23.883
 10
1.2865
 20
24.1363
 10
1.3276
 20
24.38
 10
1.368
 20
24.6142
 10
1.3826
 20
24.6535
 10
1.3998
 20
24.6831
 10
1.4168
 20
24.7032
 10
1.478
 20
25.0859
 10
1.5392
 20
25.4589
 10
1.6022
 20
25.8217
 10
1.6381
 20
25.8957
 10
1.6748
 20
25.961
 10
1.7128
 20
26.015
 10
1.7133
 20
26.0579
 10
1.7104
 20
26.2481
 10
1.7125
 20
26.2478
  0
LWPOLYLINE
  5
48
330
1F
100
AcDbEntity
  8
0
100
AcDbPolyline
 90
        3
 70
   128
 43
0.0
 10
1.7125
 20
26.2478
 10
1.7104
 20
26.2481
 10
2.7082
 20
26.271
  0
LWPOLYLINE
  5
49
330
1F
100
AcDbEntity
  8
0
100
AcDbPolyline
 90
       13
 70
   128
 43
0.0
 10
2.7082
 20
26.271
 10
2.2094
 20
26.2596
 10
1.7104
 20
26.2481
 10
1.7038
 20
26.4328
 10
1.5155
 20
27.1429
 10
1.3677
 20
27.7098
 10
1.2192
 20
28.2761
 10
1.2256
 20
28.3149
 10
1.2272
 20
28.3477
 10
1.2246
 20
28.3757
 10
1.1644
 20
28.5826
 10
1.1087
 20
28.7854
 10
1.0588
 20
28.9833
  0
LWPOLYLINE
  5
4A
330
1F
100
AcDbEntity
  8
0
100
AcDbPolyline
 90
      149
 70
   128
 43
0.0
 10
8.8743
 20
2.0118
 10
8.8747
 20
1.9658
 10
8.8809
 20
1.9121
 10
8.8952
 20
1.8526
 10
8.8901
 20
1.7529
 10
8.8769
 20
1.6471
 10
8.8579
 20
1.5336
 10
8.8182
 20
1.4534
 10
8.7734
 20
1.3735
 10
8.7199
 20
1.2936
 10
8.6009
 20
1.233
 10
8.4758
 20
1.1663
 10
8.3429
 20
1.0915
 10
7.845
 20
1.0825
 10
7.3477
 20
1.0652
 10
6.8496
 20
1.0416
 10
6.724
 20
1.0469
 10
6.5906
 20
1.06
 10
6.4513
 20
1.0784
 10
6.385
 20
1.1179
 10
6.3112
 20
1.1634
 10
6.231
 20
1.2166
 10
6.1705
 20
1.3157
 10
6.1042
 20
1.4149
 10
6.0295
 20
1.514
 10
6.0293
 20
1.5539
 10
6.0233
 20
1.5992
 10
6.009
 20
1.653
 10
6.1097
 20
2.3169
 10
6.2187
 20
2.9889
 10
6.3336
 20
3.6668
 10
6.3131
 20
3.7125
 10
6.2931
 20
3.7662
 10
6.2729
 20
3.8258
 10
6.2126
 20
3.8652
 10
6.1525
 20
3.9106
 10
6.0922
 20
3.9642
 10
5.6539
 20
4.0205
 10
5.2094
 20
4.0832
 10
4.757
 20
4.1536
 10
4.6372
 20
4.1528
 10
4.5176
 20
4.158
 10
4.3982
 20
4.1715
 10
4.2785
 20
4.1904
 10
4.1529
 20
4.2155
 10
4.019
 20
4.2484
 10
3.9194
 20
4.2876
 10
3.8133
 20
4.3266
 10
3.6996
 20
4.3656
 10
3.6398
 20
4.4051
 10
3.5796
 20
4.4505
 10
3.5195
 20
4.5037
 10
3.4796
 20
4.5492
 10
3.4334
 20
4.6027
 10
3.3794
 20
4.6619
 10
3.3387
 20
4.7415
 10
3.2921
 20
4.8268
 10
3.2379
 20
4.92
 10
3.2174
 20
4.9796
 10
3.1973
 20
5.0452
 10
3.1766
 20
5.1188
 10
3.1758
 20
5.2442
 10
3.1748
 20
5.3775
 10
3.1739
 20
5.5171
 10
3.213
 20
5.617
 10
3.258
 20
5.7229
 10
3.3113
 20
5.8367
 10
3.3505
 20
5.8971
 10
3.3962
 20
5.9628
 10
3.4491
 20
6.0369
 10
3.4944
 20
6.0828
 10
3.548
 20
6.1372
 10
3.6072
 20
6.1971
 10
3.7265
 20
6.2579
 10
3.8455
 20
6.3246
 10
3.9648
 20
6.3989
 10
4.2233
 20
6.4402
 10
4.4817
 20
6.488
 10
4.7404
 20
6.5438
 10
5.0387
 20
6.5856
 10
5.3428
 20
6.6276
 10
5.6553
 20
6.6692
 10
5.7748
 20
6.6903
 10
5.9004
 20
6.717
 10
6.0334
 20
6.7518
 10
6.0727
 20
6.7719
 10
6.1188
 20
6.7922
 10
6.1721
 20
6.8124
 10
6.2315
 20
6.8784
 10
6.2906
 20
6.9528
 10
6.3499
 20
7.0327
 10
6.3496
 20
7.0726
 10
6.3555
 20
7.1125
 10
6.3692
 20
7.1524
 10
6.3621
 20
7.2781
 10
6.3473
 20
7.4114
 10
6.3264
 20
7.5504
 10
6.2182
 20
7.948
 10
6.1017
 20
8.3456
 10
5.9793
 20
8.7429
 10
5.9785
 20
8.8625
 10
5.9721
 20
8.9821
 10
5.9572
 20
9.1014
 10
5.9764
 20
9.1671
 10
6.0022
 20
9.2408
 10
6.0353
 20
9.3209
 10
6.0751
 20
9.3672
 10
6.1142
 20
9.4213
 10
6.1536
 20
9.4813
 10
6.2131
 20
9.5212
 10
6.2786
 20
9.5676
 10
6.352
 20
9.6219
 10
6.4713
 20
9.6429
 10
6.5968
 20
9.6634
 10
6.7298
 20
9.6843
 10
7.2077
 20
9.7075
 10
7.6854
 20
9.7307
 10
8.1634
 20
9.7541
 10
8.283
 20
9.7149
 10
8.4089
 20
9.6702
 10
8.5427
 20
9.6171
 10
8.5888
 20
9.5718
 10
8.643
 20
9.5183
 10
8.7032
 20
9.4588
 10
8.7435
 20
9.3936
 10
8.7836
 20
9.3201
 10
8.8241
 20
9.2409
 10
8.825
 20
9.1213
 10
8.8317
 20
8.9959
 10
8.8466
 20
8.8626
 10
8.8084
 20
8.6631
 10
8.7695
 20
8.4635
 10
8.7311
 20
8.2643
 10
8.6535
 20
8.0047
 10
8.5754
 20
7.7393
 10
8.498
 20
7.466
 10
8.4729
 20
7.3204
 10
8.4401
 20
7.1668
 10
8.4016
 20
7.0073
 10
8.396
 20
6.9875
 10
8.382
 20
6.9673
 10
8.3621
 20
6.947
 10
8.2651
 20
6.5423
 10
8.1627
 20
6.1294
 10
8.0523
 20
5.7104
 10
8.0545
 20
5.5578
 10
8.0554
 20
5.4328
 10
8.055
 20
5.3623
 10
6.9307
 20
5.3644
  0
LWPOLYLINE
  5
4B
330
1F
100
AcDbEntity
  8
0
100
AcDbPolyline
 90
        9
 70
   128
 43
0.0
 10
6.9307
 20
5.3644
 10
8.055
 20
5.3623
 10
8.0571
 20
5.1828
 10
8.058
 20
5.0578
 10
8.0573
 20
4.9934
 10
8.2574
 20
4.2476
 10
8.4578
 20
3.5025
 10
8.664
 20
2.7569
 10
8.8743
 20
2.0118
  0
LWPOLYLINE
  5
4C
330
1F
100
AcDbEntity
  8
0
100
AcDbPolyline
 90
       15
 70
   128
 43
0.0
 10
94.5586
 20
5.2232
 10
94.4508
 20
5.33
 10
94.3515
 20
5.4314
 10
94.2588
 20
5.5265
 10
94.1165
 20
5.5883
 10
93.9821
 20
5.6516
 10
93.8532
 20
5.7155
 10
92.9722
 20
6.0585
 10
92.1005
 20
6.3954
 10
91.2345
 20
6.7262
 10
90.8623
 20
6.8593
 10
90.6482
 20
7.15
 10
88.5381
 20
7.9397
 10
88.5376
 20
7.9389
 10
88.5384
 20
7.9398
  0
LWPOLYLINE
  5
4D
330
1F
100
AcDbEntity
  8
0
100
AcDbPolyline
 90
      127
 70
   128
 43
0.0
 10
88.5384
 20
7.9398
 10
88.5376
 20
7.9389
 10
88.7873
 20
7.8485
 10
88.8653
 20
7.8184
 10
88.9557
 20
7.7829
 10
89.0886
 20
7.7368
 10
89.1914
 20
7.6961
 10
89.3261
 20
7.6482
 10
89.4183
 20
7.6145
 10
89.6398
 20
7.5312
 10
90.0279
 20
7.3858
 10
90.65
 20
7.15
 10
90.7123
 20
7.3322
 10
90.7558
 20
7.4494
 10
90.7584
 20
7.4683
 10
90.7922
 20
7.5234
 10
90.8127
 20
7.5561
 10
90.8715
 20
7.6376
 10
90.9063
 20
7.7283
 10
90.9355
 20
7.8123
 10
90.9425
 20
7.9138
 10
90.9504
 20
8.0088
 10
90.9598
 20
8.0964
 10
90.9306
 20
8.2132
 10
90.9101
 20
8.325
 10
90.8967
 20
8.4298
 10
90.8422
 20
8.5432
 10
90.7878
 20
8.6568
 10
90.7328
 20
8.7704
 10
90.6423
 20
8.8529
 10
90.5523
 20
8.9279
 10
90.4631
 20
8.9969
 10
90.3829
 20
9.0406
 10
90.3123
 20
9.0778
 10
90.2776
 20
9.0947
 10
90.2363
 20
9.1033
 10
90.1722
 20
9.1206
 10
90.1044
 20
9.137
 10
89.9993
 20
9.1728
 10
89.8522
 20
9.2201
 10
89.7031
 20
9.2555
 10
89.6819
 20
9.2632
 10
89.6649
 20
9.2692
 10
89.643
 20
9.2825
 10
89.3627
 20
9.4388
 10
89.0498
 20
9.5793
 10
88.7443
 20
9.7216
 10
88.6132
 20
9.8047
 10
88.4822
 20
9.8883
 10
88.351
 20
9.9723
 10
88.326
 20
10.0088
 10
88.3022
 20
10.0402
 10
88.2789
 20
10.0632
 10
88.1705
 20
10.1297
 10
88.0621
 20
10.1903
 10
87.955
 20
10.2427
 10
87.9523
 20
10.2627
 10
87.9505
 20
10.2765
 10
87.9498
 20
10.2822
 10
87.7497
 20
10.4375
 10
87.5551
 20
10.5932
 10
87.3687
 20
10.7503
 10
87.333
 20
10.7599
 10
87.3062
 20
10.7622
 10
87.2868
 20
10.7597
 10
87.2703
 20
10.7776
 10
87.2628
 20
10.7908
 10
87.262
 20
10.7966
 10
87.0946
 20
10.8499
 10
86.9342
 20
10.8955
 10
86.7821
 20
10.9361
 10
86.6416
 20
10.9386
 10
86.5065
 20
10.9414
 10
86.3799
 20
10.9452
 10
85.1171
 20
10.1416
 10
85.0091
 20
9.9331
 10
84.9083
 20
9.7334
 10
84.8569
 20
9.5525
 10
84.8127
 20
9.3802
 10
84.7737
 20
9.2148
 10
84.7416
 20
9.1501
 10
84.7086
 20
9.0915
 10
84.6756
 20
9.0413
 10
84.5547
 20
8.9315
 10
84.4411
 20
8.8308
 10
84.3326
 20
8.7364
 10
84.2245
 20
8.6886
 10
84.1229
 20
8.6492
 10
84.0266
 20
8.6173
 10
83.9317
 20
8.6192
 10
83.8464
 20
8.614
 10
83.7673
 20
8.6039
 10
83.6644
 20
8.6248
 10
83.5682
 20
8.6388
 10
83.4804
 20
8.6475
 10
83.3599
 20
8.6523
 10
83.2453
 20
8.6518
 10
83.1397
 20
8.6445
 10
83.0435
 20
8.6119
 10
82.9525
 20
8.5864
 10
82.8683
 20
8.5694
 10
82.7606
 20
8.5156
 10
82.6609
 20
8.4627
 10
82.5672
 20
8.4107
 10
82.4952
 20
8.3472
 10
82.428
 20
8.2924
 10
82.3676
 20
8.2447
 10
82.2831
 20
8.1196
 10
82.2041
 20
8.0027
 10
82.1314
 20
7.8934
 10
82.0684
 20
7.6503
 10
82.0117
 20
7.416
 10
81.9603
 20
7.1886
 10
81.9449
 20
7.0546
 10
81.9136
 20
6.8738
 10
82.3092
 20
6.7946
 10
83.1331
 20
6.6177
 10
83.8174
 20
6.4733
 10
84.3806
 20
6.3523
 10
85.1672
 20
6.18
 10
86.1075
 20
5.9891
 10
86.5963
 20
5.8773
 10
87.0384
 20
5.7842
 10
87.3224
 20
5.7237
 10
87.5225
 20
5.6864
 10
87.6525
 20
5.6495
 10
87.6529
 20
5.6538
  0
LWPOLYLINE
  5
4E
330
1F
100
AcDbEntity
  8
0
100
AcDbPolyline
 90
        2
 70
   128
 43
0.0
 10
87.6529
 20
5.6538
 10
87.6525
 20
5.6495
  0
LWPOLYLINE
  5
4F
330
1F
100
AcDbEntity
  8
0
100
AcDbPolyline
 90
        3
 70
   128
 43
0.0
 10
87.6525
 20
5.6495
 10
87.6529
 20
5.6538
 10
87.6527
 20
5.6517
  0
LWPOLYLINE
  5
50
330
1F
100
AcDbEntity
  8
0
100
AcDbPolyline
 90
        3
 70
   128
 43
0.0
 10
87.6527
 20
5.6517
 10
87.6529
 20
5.6538
 10
81.9136
 20
6.8738
  0
LWPOLYLINE
  5
51
330
1F
100
AcDbEntity
  8
0
100
AcDbPolyline
 90
        2
 70
   128
 43
0.0
 10
81.9136
 20
6.8738
 10
82.2192
 20
6.8088
  0
LWPOLYLINE
  5
52
330
1F
100
AcDbEntity
  8
0
100
AcDbPolyline
 90
       96
 70
   128
 43
0.0
 10
82.2192
 20
6.8088
 10
81.9136
 20
6.8738
 10
81.867
 20
6.6878
 10
81.8409
 20
6.5656
 10
81.8237
 20
6.5289
 10
81.8065
 20
6.5068
 10
81.7813
 20
6.389
 10
81.7551
 20
6.2793
 10
81.7285
 20
6.1756
 10
81.7098
 20
6.0527
 10
81.6994
 20
5.9306
 10
81.6948
 20
5.8099
 10
81.7261
 20
5.6733
 10
81.749
 20
5.5416
 10
81.7651
 20
5.4169
 10
81.8574
 20
5.2744
 10
81.9408
 20
5.1386
 10
82.018
 20
5.0081
 10
82.1292
 20
4.9216
 10
82.2408
 20
4.8353
 10
82.352
 20
4.7492
 10
82.438
 20
4.7062
 10
82.5167
 20
4.6699
 10
82.587
 20
4.6387
 10
82.6284
 20
4.6299
 10
82.6624
 20
4.6283
 10
82.6882
 20
4.6315
 10
82.788
 20
4.5902
 10
82.8788
 20
4.5556
 10
82.9627
 20
4.526
 10
83.0433
 20
4.476
 10
83.1157
 20
4.4312
 10
83.1804
 20
4.3933
 10
83.4072
 20
4.1414
 10
83.51
 20
4.0134
 10
83.5415
 20
3.9234
 10
83.5722
 20
3.8411
 10
83.6022
 20
3.7645
 10
83.6024
 20
3.6503
 10
83.6102
 20
3.5447
 10
83.6227
 20
3.4458
 10
83.5823
 20
3.1796
 10
83.5491
 20
2.9202
 10
83.5208
 20
2.67
 10
83.5525
 20
2.5333
 10
83.5753
 20
2.4016
 10
83.591
 20
2.2777
 10
83.6225
 20
2.1868
 10
83.6532
 20
2.1047
 10
83.6834
 20
2.028
 10
83.7351
 20
1.9344
 10
83.7872
 20
1.8406
 10
83.8395
 20
1.7471
 10
83.9553
 20
1.6272
 10
84.0638
 20
1.5146
 10
84.1639
 20
1.407
 10
84.2525
 20
1.3437
 10
84.3398
 20
1.2889
 10
84.4259
 20
1.2396
 10
84.5104
 20
1.2102
 10
84.5884
 20
1.1802
 10
84.6587
 20
1.1488
 10
84.8434
 20
1.1184
 10
85.0268
 20
1.0953
 10
85.2098
 20
1.0787
 10
85.3858
 20
1.1149
 10
85.5567
 20
1.143
 10
85.7205
 20
1.1639
 10
85.971
 20
1.2499
 10
86.2217
 20
1.3282
 10
86.4736
 20
1.4004
 10
86.9283
 20
1.4583
 10
87.3824
 20
1.5162
 10
87.8368
 20
1.5744
 10
88.1185
 20
1.5704
 10
88.394
 20
1.5652
 10
88.6619
 20
1.5593
 10
88.8181
 20
1.5935
 10
88.9756
 20
1.6196
 10
89.1335
 20
1.6397
 10
89.2271
 20
1.6915
 10
89.315
 20
1.743
 10
89.3949
 20
1.7936
 10
89.5137
 20
1.9631
 10
89.6336
 20
2.1253
 10
89.7545
 20
2.281
 10
89.7639
 20
2.3628
 10
89.7744
 20
2.438
 10
89.7857
 20
2.5059
 10
89.7509
 20
2.6222
 10
89.7221
 20
2.7387
 10
89.7024
 20
3.1128
 10
89.6975
 20
3.1144
 10
87.46
 20
3.2508
 10
87.458
 20
3.2509
 10
87.4616
 20
3.2525
  0
LWPOLYLINE
  5
53
330
1F
100
AcDbEntity
  8
0
100
AcDbPolyline
 90
       30
 70
   128
 43
0.0
 10
87.4616
 20
3.2525
 10
87.458
 20
3.2509
 10
87.46
 20
3.2525
 10
87.46
 20
3.2508
 10
87.8263
 20
3.2311
 10
88.2124
 20
3.2081
 10
89.6975
 20
3.1144
 10
90.6549
 20
3.3112
 10
91.3853
 20
3.2802
 10
92.1163
 20
3.2488
 10
92.8468
 20
3.2177
 10
93.5733
 20
3.1901
 10
93.7288
 20
3.2302
 10
93.8792
 20
3.2632
 10
94.0228
 20
3.2875
 10
94.1516
 20
3.3783
 10
94.2816
 20
3.4614
 10
94.4124
 20
3.5385
 10
94.5303
 20
3.7138
 10
94.6486
 20
3.8892
 10
94.7668
 20
4.065
 10
94.7842
 20
4.2423
 10
94.797
 20
4.4103
 10
94.8026
 20
4.5719
 10
94.776
 20
4.6686
 10
94.7576
 20
4.7667
 10
94.7448
 20
4.8652
 10
94.6746
 20
4.991
 10
94.6133
 20
5.1097
 10
94.5586
 20
5.2232
  0
LWPOLYLINE
  5
54
330
1F
100
AcDbEntity
  8
0
100
AcDbPolyline
 90
      292
 70
   128
 43
0.0
 10
92.1684
 20
45.3535
 10
92.1748
 20
45.274
 10
92.1759
 20
45.188
 10
92.1692
 20
45.0935
 10
91.9512
 20
44.367
 10
91.7342
 20
43.6366
 10
91.5167
 20
42.9018
 10
91.2999
 20
42.1675
 10
91.083
 20
41.431
 10
91.0909
 20
41.3312
 10
91.0925
 20
41.2319
 10
91.0868
 20
41.1316
 10
91.1605
 20
40.9574
 10
91.2408
 20
40.7783
 10
91.3293
 20
40.5917
 10
91.351
 20
40.573
 10
91.3786
 20
40.5553
 10
91.4139
 20
40.5382
 10
91.5026
 20
40.4252
 10
91.5979
 20
40.3073
 10
91.7017
 20
40.1815
 10
91.7077
 20
40.182
 10
91.722
 20
40.177
 10
91.7432
 20
40.1651
 10
91.7449
 20
40.145
 10
91.7527
 20
40.1197
 10
91.7694
 20
40.0871
 10
91.814
 20
40.0308
 10
91.8646
 20
39.969
 10
91.9243
 20
39.8997
 10
92.053
 20
39.6106
 10
92.19
 20
39.3213
 10
92.3329
 20
39.0332
 10
92.3791
 20
38.7771
 10
92.4338
 20
38.516
 10
92.4953
 20
38.247
 10
92.4993
 20
37.9474
 10
92.4978
 20
37.6417
 10
92.4887
 20
37.3274
 10
92.4222
 20
37.0824
 10
92.3484
 20
36.8309
 10
92.2692
 20
36.5707
 10
92.2014
 20
36.4256
 10
92.1274
 20
36.2737
 10
92.0459
 20
36.1134
 10
91.9019
 20
35.9163
 10
91.7584
 20
35.7112
 10
91.6154
 20
35.4999
 10
91.5957
 20
35.4983
 10
91.5763
 20
35.4904
 10
91.5579
 20
35.4752
 10
91.521
 20
35.432
 10
91.4849
 20
35.3833
 10
91.4494
 20
35.3267
 10
91.3127
 20
35.2098
 10
91.1692
 20
35.0849
 10
91.02
 20
34.9529
 10
90.7261
 20
34.8033
 10
90.4247
 20
34.6455
 10
90.1186
 20
34.4814
 10
89.923
 20
34.4257
 10
89.7279
 20
34.3703
 10
89.5323
 20
34.315
 10
89.4527
 20
34.3086
 10
89.3734
 20
34.3022
 10
89.294
 20
34.296
 10
89.2314
 20
34.3307
 10
89.1684
 20
34.3715
 10
89.1046
 20
34.4202
 10
89.058
 20
34.5027
 10
89.0048
 20
34.5924
 10
88.9434
 20
34.6875
 10
88.9387
 20
34.7469
 10
88.9394
 20
34.8128
 10
88.9473
 20
34.8872
 10
88.9638
 20
34.9287
 10
88.9802
 20
34.9758
 10
88.9958
 20
35.0311
 10
89.0185
 20
35.0729
 10
89.049
 20
35.1152
 10
89.0855
 20
35.1583
 10
89.1679
 20
35.2046
 10
89.2581
 20
35.2516
 10
89.3541
 20
35.2994
 10
89.5494
 20
35.3552
 10
89.7444
 20
35.4105
 10
89.9398
 20
35.4659
 10
90.1854
 20
35.6453
 10
90.4369
 20
35.8252
 10
90.6962
 20
36.0059
 10
90.7721
 20
36.1317
 10
90.8559
 20
36.2581
 10
90.9456
 20
36.3851
 10
91.0124
 20
36.5505
 10
91.0847
 20
36.7223
 10
91.1639
 20
36.9022
 10
91.1789
 20
37.043
 10
91.2017
 20
37.185
 10
91.23
 20
37.3272
 10
91.2122
 20
37.5515
 10
91.1746
 20
38.0219
 10
91.1469
 20
38.1196
 10
91.1188
 20
38.2231
 10
91.0899
 20
38.335
 10
91.0173
 20
38.4949
 10
90.9378
 20
38.6622
 10
90.8502
 20
38.835
 10
90.7553
 20
38.9474
 10
90.6518
 20
39.0649
 10
90.5421
 20
39.1898
 10
90.4363
 20
39.2672
 10
90.3294
 20
39.353
 10
90.2221
 20
39.4441
 10
90.0907
 20
39.514
 10
89.9512
 20
39.5885
 10
89.8048
 20
39.6708
 10
89.6394
 20
39.7375
 10
89.4678
 20
39.8096
 10
89.4278
 20
39.8262
 10
89.2775
 20
39.8808
 10
89.2335
 20
39.9056
 10
89.1982
 20
39.9145
 10
89.1626
 20
39.93
 10
88.9871
 20
40.0043
 10
89.5318
 20
41.2677
 10
89.4814
 20
41.1524
 10
89.4367
 20
41.0408
 10
89.3891
 20
40.9365
 10
89.3489
 20
40.8442
 10
89.3028
 20
40.7355
 10
89.1836
 20
40.46
 10
89.0497
 20
40.1517
 10
89.0199
 20
40.0772
 10
88.9871
 20
40.0043
 10
88.8178
 20
40.0777
 10
88.703
 20
40.127
 10
88.6127
 20
40.1617
 10
88.492
 20
40.1912
 10
88.2125
 20
40.2795
 10
88.0279
 20
40.3284
 10
87.7004
 20
40.4207
 10
87.6042
 20
40.4542
 10
87.5036
 20
40.4663
 10
87.4027
 20
40.4781
 10
87.2591
 20
40.4819
 10
87.1198
 20
40.4769
 10
86.9843
 20
40.4649
 10
86.8594
 20
40.4432
 10
86.7283
 20
40.4128
 10
86.592
 20
40.3735
 10
86.4714
 20
40.3301
 10
86.3498
 20
40.2742
 10
86.2256
 20
40.2045
 10
86.1497
 20
40.1583
 10
86.0679
 20
40.106
 10
85.9789
 20
40.0448
 10
85.8618
 20
39.9359
 10
85.7372
 20
39.8201
 10
85.6199
 20
39.679
 10
85.5145
 20
39.5286
 10
85.4146
 20
39.3547
 10
85.3359
 20
39.2367
 10
85.3033
 20
39.1719
 10
85.282
 20
39.1181
 10
85.2569
 20
39.0785
 10
85.2089
 20
38.9249
 10
85.1417
 20
38.6936
 10
85.0668
 20
38.4539
 10
85.0676
 20
38.3679
 10
85.0614
 20
38.2737
 10
85.049
 20
38.1727
 10
85.0622
 20
38.0077
 10
85.082
 20
37.8357
 10
85.1105
 20
37.6581
 10
85.1369
 20
37.5744
 10
85.164
 20
37.4826
 10
85.1919
 20
37.3849
 10
85.2648
 20
37.2249
 10
85.3438
 20
37.0573
 10
85.4315
 20
36.8848
 10
85.4375
 20
36.8852
 10
85.452
 20
36.8802
 10
85.4731
 20
36.8682
 10
85.4811
 20
36.7686
 10
85.4944
 20
36.67
 10
85.5005
 20
36.5245
 10
85.4847
 20
36.4694
 10
85.4694
 20
36.4083
 10
85.4273
 20
36.3647
 10
85.3771
 20
36.3148
 10
85.3218
 20
36.2564
 10
85.2642
 20
36.2262
 10
85.2015
 20
36.1871
 10
85.1311
 20
36.1416
 10
85.0513
 20
36.1409
 10
84.9649
 20
36.1482
 10
84.8702
 20
36.1607
 10
84.8228
 20
36.1771
 10
84.767
 20
36.1984
 10
84.7047
 20
36.2276
 10
84.7032
 20
36.2474
 10
84.6959
 20
36.2666
 10
84.6799
 20
36.2853
 10
84.6531
 20
36.303
 10
84.6171
 20
36.3261
 10
84.5749
 20
36.3569
 10
84.4811
 20
36.5289
 10
84.3814
 20
36.7011
 10
84.2739
 20
36.8723
 10
84.2215
 20
37.0278
 10
84.1625
 20
37.1889
 10
84.095
 20
37.3577
 10
84.0671
 20
37.4612
 10
84.0387
 20
37.5726
 10
84.0087
 20
37.6901
 10
83.9897
 20
37.9287
 10
83.9646
 20
38.172
 10
83.9301
 20
38.423
 10
83.9647
 20
38.7456
 10
84.0049
 20
39.0684
 10
84.0532
 20
39.3916
 10
84.124
 20
39.5773
 10
84.2026
 20
39.7696
 10
84.2868
 20
39.9701
 10
84.3552
 20
40.1151
 10
84.4291
 20
40.2612
 10
84.5113
 20
40.4074
 10
84.583
 20
40.5131
 10
84.6544
 20
40.6187
 10
84.726
 20
40.7241
 10
84.8065
 20
40.8292
 10
84.9038
 20
40.9314
 10
85.0212
 20
41.0275
 10
85.1812
 20
41.183
 10
85.3631
 20
41.3312
 10
85.5654
 20
41.4703
 10
85.7405
 20
41.5784
 10
85.9382
 20
41.6799
 10
86.1604
 20
41.7774
 10
86.3439
 20
41.8593
 10
86.5521
 20
41.9297
 10
86.783
 20
41.9871
 10
86.9221
 20
42.0123
 10
87.0663
 20
42.0297
 10
87.2179
 20
42.042
 10
87.3967
 20
42.0562
 10
87.582
 20
42.0649
 10
87.7757
 20
42.0662
 10
87.9121
 20
42.0938
 10
88.0418
 20
42.144
 10
88.1629
 20
42.2171
 10
88.219
 20
42.2675
 10
88.2804
 20
42.3262
 10
88.349
 20
42.3915
 10
88.425
 20
42.5175
 10
88.5088
 20
42.6442
 10
88.5984
 20
42.7711
 10
88.7546
 20
43.0632
 10
88.9109
 20
43.3618
 10
89.0664
 20
43.6676
 10
89.2207
 20
43.9857
 10
89.3747
 20
44.3114
 10
89.528
 20
44.6433
 10
89.5463
 20
44.6649
 10
89.57
 20
44.6925
 10
89.6011
 20
44.7289
 10
89.742
 20
45.0401
 10
89.8909
 20
45.3515
 10
90.0464
 20
45.6634
 10
90.1219
 20
45.7897
 10
90.2056
 20
45.9159
 10
90.2954
 20
46.0431
 10
90.4158
 20
46.1127
 10
90.5437
 20
46.1887
 10
90.6768
 20
46.2734
 10
90.8013
 20
46.2891
 10
90.933
 20
46.3137
 10
91.0704
 20
46.3446
 10
91.1713
 20
46.3327
 10
91.2724
 20
46.3209
 10
91.373
 20
46.3089
 10
91.4968
 20
46.2588
 10
91.6214
 20
46.2027
 10
91.7462
 20
46.1389
 10
91.9302
 20
45.9137
 10
92.033
 20
45.8021
 10
92.0572
 20
45.744
 10
92.0879
 20
45.6866
 10
92.1265
 20
45.6296
 10
92.1334
 20
45.5443
 10
92.1467
 20
45.4516
 10
92.1684
 20
45.3535
  0
LWPOLYLINE
  5
55
330
1F
100
AcDbEntity
  8
0
100
AcDbPolyline
 90
      318
 70
   128
 43
0.0
 10
87.1375
 20
26.162
 10
87.1034
 20
26.0733
 10
87.0753
 20
25.989
 10
87.0533
 20
25.9075
 10
87.0387
 20
25.7847
 10
87.0309
 20
25.6657
 10
87.0282
 20
25.5497
 10
87.0429
 20
25.4432
 10
87.0545
 20
25.3423
 10
87.0623
 20
25.2483
 10
87.1112
 20
25.1226
 10
87.1561
 20
25.0036
 10
87.198
 20
24.8898
 10
87.3234
 20
24.7782
 10
87.4392
 20
24.6674
 10
87.5457
 20
24.5608
 10
87.6321
 20
24.5184
 10
87.7084
 20
24.4769
 10
87.7752
 20
24.4397
 10
87.9287
 20
24.4124
 10
88.0788
 20
24.3902
 10
88.225
 20
24.3749
 10
88.3039
 20
24.3972
 10
88.3775
 20
24.4163
 10
88.4449
 20
24.4313
 10
88.5725
 20
24.4885
 10
88.6917
 20
24.5493
 10
88.8009
 20
24.6115
 10
88.8922
 20
24.7324
 10
88.9866
 20
24.8483
 10
89.0851
 20
24.9572
 10
89.1892
 20
25.1766
 10
89.2879
 20
25.3935
 10
89.3797
 20
25.6062
 10
89.3803
 20
25.6456
 10
89.3848
 20
25.6778
 10
89.3921
 20
25.7049
 10
89.6
 20
26.2134
 10
89.8036
 20
26.7124
 10
90.0066
 20
27.2013
 10
90.029
 20
27.2303
 10
90.0486
 20
27.2481
 10
90.0658
 20
27.2579
 10
90.0928
 20
27.3194
 10
90.1128
 20
27.3765
 10
90.1278
 20
27.4309
 10
90.1877
 20
27.5269
 10
90.2517
 20
27.6161
 10
90.3179
 20
27.7002
 10
90.4497
 20
27.7909
 10
90.5853
 20
27.8749
 10
90.7237
 20
27.9539
 10
91.0423
 20
27.998
 10
91.3581
 20
28.0473
 10
91.6699
 20
28.1039
 10
91.9853
 20
28.2216
 10
92.2901
 20
28.3426
 10
92.5865
 20
28.4659
 10
92.7873
 20
28.5964
 10
92.987
 20
28.7171
 10
93.1824
 20
28.8284
 10
93.2591
 20
28.8948
 10
93.336
 20
28.9614
 10
93.4122
 20
29.028
 10
93.6226
 20
29.2624
 10
93.8355
 20
29.4916
 10
94.053
 20
29.7141
 10
94.1625
 20
29.8843
 10
94.2704
 20
30.0443
 10
94.3746
 20
30.1956
 10
94.5107
 20
30.4794
 10
94.6417
 20
30.7602
 10
94.7658
 20
31.0375
 10
94.8448
 20
31.4495
 10
94.9201
 20
31.8522
 10
94.9942
 20
32.2451
 10
94.9969
 20
32.4301
 10
94.9953
 20
32.6051
 10
94.9924
 20
32.7713
 10
95.0029
 20
32.7934
 10
95.0122
 20
32.8056
 10
95.0172
 20
32.8084
 10
95.0125
 20
32.8445
 10
95.0047
 20
32.87
 10
94.9949
 20
32.8874
 10
95.0056
 20
32.909
 10
95.0144
 20
32.9214
 10
95.0199
 20
32.9244
 10
95.0028
 20
33.0751
 10
94.9832
 20
33.2176
 10
94.961
 20
33.3493
 10
94.9713
 20
33.3713
 10
94.9803
 20
33.3838
 10
94.9855
 20
33.3866
 10
94.9411
 20
33.7738
 10
94.8899
 20
34.1572
 10
94.8335
 20
34.5377
 10
94.639
 20
35.2289
 10
94.4375
 20
35.9163
 10
94.2306
 20
36.601
 10
94.1912
 20
36.67
 10
94.1545
 20
36.7343
 10
94.1221
 20
36.7912
 10
94.0484
 20
36.8406
 10
93.9793
 20
36.8931
 10
93.9175
 20
36.9494
 10
93.8389
 20
36.9667
 10
93.7641
 20
36.977
 10
93.6924
 20
36.9821
 10
93.5962
 20
36.9498
 10
93.5028
 20
36.9127
 10
93.4131
 20
36.8685
 10
93.3861
 20
36.8365
 10
93.3592
 20
36.8145
 10
93.3369
 20
36.8018
 10
93.2944
 20
36.7159
 10
93.2527
 20
36.6393
 10
93.2158
 20
36.5724
 10
93.2085
 20
36.4763
 10
93.2081
 20
36.3846
 10
93.2127
 20
36.2955
 10
93.2891
 20
35.9725
 10
93.3697
 20
35.6586
 10
93.4514
 20
35.3542
 10
93.4831
 20
35.0974
 10
93.5174
 20
34.8487
 10
93.5543
 20
34.6105
 10
93.572
 20
34.5518
 10
93.5931
 20
34.5023
 10
93.616
 20
34.4625
 10
93.6379
 20
34.154
 10
93.6672
 20
33.8495
 10
93.7015
 20
33.5482
 10
93.6932
 20
33.0004
 10
93.6832
 20
32.7357
 10
93.6608
 20
32.4937
 10
93.6352
 20
32.2569
 10
93.6057
 20
32.0268
 10
93.5689
 20
31.8906
 10
93.5366
 20
31.7581
 10
93.5114
 20
31.6293
 10
93.5012
 20
31.607
 10
93.487
 20
31.592
 10
93.4694
 20
31.5821
 10
93.4148
 20
31.4366
 10
93.3628
 20
31.2992
 10
93.3132
 20
31.1725
 10
93.2338
 20
31.0424
 10
93.1578
 20
30.9229
 10
93.0831
 20
30.8118
 10
92.912
 20
30.6295
 10
92.742
 20
30.4572
 10
92.5764
 20
30.2941
 10
92.341
 20
30.1435
 10
92.1021
 20
30.0001
 10
91.8598
 20
29.8619
 10
91.7242
 20
29.8087
 10
91.5909
 20
29.7687
 10
91.4009
 20
29.7153
 10
91.1432
 20
29.6831
 10
90.9275
 20
29.6853
 10
90.7341
 20
29.7053
 10
90.4207
 20
29.732
 10
90.0307
 20
29.792
 10
89.854
 20
29.8287
 10
89.7002
 20
29.8773
 10
89.5791
 20
29.9083
 10
89.4035
 20
29.9532
 10
89.066
 20
28.6192
 10
89.0896
 20
28.7101
 10
89.0976
 20
28.7469
 10
89.1184
 20
28.8254
 10
89.1536
 20
28.9584
 10
89.2145
 20
29.2099
 10
89.3314
 20
29.6712
 10
89.4035
 20
29.9532
 10
89.2173
 20
29.9821
 10
89.0772
 20
30.0221
 10
88.8663
 20
30.0589
 10
88.6542
 20
30.1374
 10
88.451
 20
30.2117
 10
88.2937
 20
30.2988
 10
88.1477
 20
30.3825
 10
88.0092
 20
30.4639
 10
87.7845
 20
30.6572
 10
87.5649
 20
30.8529
 10
87.3528
 20
31.0529
 10
87.1925
 20
31.3054
 10
87.0423
 20
31.5566
 10
86.9014
 20
31.8038
 10
86.8468
 20
32.0481
 10
86.7889
 20
32.2831
 10
86.7293
 20
32.5083
 10
86.7274
 20
32.5918
 10
86.7242
 20
32.6658
 10
86.7171
 20
32.7305
 10
86.7544
 20
33.0272
 10
86.7866
 20
33.3204
 10
86.8117
 20
33.6101
 10
86.8225
 20
33.632
 10
86.8368
 20
33.6469
 10
86.8538
 20
33.6567
 10
86.8688
 20
33.7111
 10
86.8788
 20
33.7626
 10
86.8812
 20
33.8101
 10
86.9479
 20
33.9624
 10
87.0107
 20
34.1063
 10
87.0722
 20
34.2397
 10
87.1214
 20
34.3137
 10
87.1709
 20
34.3876
 10
87.2207
 20
34.4617
 10
87.2922
 20
34.6172
 10
87.367
 20
34.7678
 10
87.4458
 20
34.9111
 10
87.5381
 20
35.0714
 10
87.6338
 20
35.2248
 10
87.7328
 20
35.3727
 10
87.9901
 20
35.7256
 10
88.5048
 20
36.4318
 10
88.5445
 20
36.4703
 10
88.5813
 20
36.4984
 10
88.6159
 20
36.518
 10
88.7248
 20
36.6487
 10
88.8285
 20
36.7767
 10
88.9247
 20
36.9005
 10
89.0437
 20
37.0139
 10
89.1626
 20
37.1273
 10
89.2812
 20
37.2413
 10
89.3657
 20
37.3742
 10
89.4492
 20
37.4975
 10
89.5284
 20
37.6113
 10
89.5367
 20
37.6776
 10
89.5434
 20
37.7343
 10
89.546
 20
37.7816
 10
89.5042
 20
37.8956
 10
89.4601
 20
38.0009
 10
89.4132
 20
38.0956
 10
89.3693
 20
38.1325
 10
89.3343
 20
38.1656
 10
89.3092
 20
38.197
 10
89.2279
 20
38.2193
 10
89.1544
 20
38.2394
 10
89.092
 20
38.2566
 10
89.0356
 20
38.2473
 10
88.9861
 20
38.2419
 10
88.9414
 20
38.2395
 10
88.836
 20
38.1952
 10
88.741
 20
38.148
 10
88.6545
 20
38.0987
 10
88.2218
 20
37.6919
 10
87.7945
 20
37.2879
 10
87.3739
 20
36.8873
 10
87.2002
 20
36.6806
 10
87.03
 20
36.4852
 10
86.8619
 20
36.2975
 10
86.5004
 20
35.7775
 10
86.1416
 20
35.2684
 10
85.7854
 20
34.7671
 10
85.6937
 20
34.5382
 10
85.6049
 20
34.3201
 10
85.5182
 20
34.1102
 10
85.4809
 20
33.9744
 10
85.446
 20
33.8467
 10
85.4139
 20
33.7299
 10
85.3645
 20
33.4269
 10
85.3221
 20
33.1274
 10
85.2845
 20
32.8311
 10
85.2965
 20
32.7298
 10
85.3044
 20
32.6359
 10
85.3088
 20
32.5468
 10
85.2991
 20
32.4955
 10
85.2935
 20
32.4532
 10
85.2892
 20
32.421
 10
85.3162
 20
32.1843
 10
85.3474
 20
31.9567
 10
85.3796
 20
31.739
 10
85.4217
 20
31.557
 10
85.4707
 20
31.3785
 10
85.525
 20
31.2028
 10
85.5963
 20
31.0374
 10
85.6677
 20
30.8716
 10
85.7396
 20
30.7064
 10
85.847
 20
30.5455
 10
85.9438
 20
30.3875
 10
86.0326
 20
30.2316
 10
86.2078
 20
30.0334
 10
86.3757
 20
29.8314
 10
86.5388
 20
29.6259
 10
86.652
 20
29.5067
 10
86.7625
 20
29.3936
 10
86.8692
 20
29.2867
 10
86.9818
 20
29.198
 10
87.0837
 20
29.1115
 10
87.1774
 20
29.0272
 10
87.239
 20
28.9478
 10
87.2937
 20
28.8644
 10
87.3429
 20
28.7779
 10
87.3747
 20
28.6813
 10
87.409
 20
28.593
 10
87.4464
 20
28.5159
 10
87.4388
 20
28.4888
 10
87.4367
 20
28.4644
 10
87.4413
 20
28.4441
 10
87.4556
 20
28.3906
 10
87.4732
 20
28.3477
 10
87.4928
 20
28.313
 10
87.4563
 20
28.1086
 10
87.4259
 20
27.908
 10
87.4009
 20
27.7105
 10
87.3815
 20
27.6763
 10
87.3687
 20
27.6464
 10
87.3616
 20
27.6192
 10
87.3595
 20
27.5952
 10
87.3636
 20
27.5748
 10
87.3735
 20
27.5574
 10
87.2984
 20
27.086
 10
87.2194
 20
26.6213
 10
87.1375
 20
26.162
  0
LWPOLYLINE
  5
56
330
1F
100
AcDbEntity
  8
0
100
AcDbPolyline
 90
      316
 70
   128
 43
0.0
 10
92.1734
 20
12.5757
 10
92.3224
 20
12.3124
 10
92.4665
 20
12.059
 10
92.6076
 20
11.8138
 10
92.7003
 20
11.7209
 10
92.7959
 20
11.6355
 10
92.893
 20
11.5559
 10
93.0283
 20
11.519
 10
93.1552
 20
11.4777
 10
93.2725
 20
11.4329
 10
93.3539
 20
11.4229
 10
93.43
 20
11.4154
 10
93.4985
 20
11.4106
 10
93.6309
 20
11.439
 10
93.7525
 20
11.4631
 10
93.867
 20
11.4834
 10
94.0079
 20
11.5729
 10
94.1396
 20
11.6568
 10
94.2622
 20
11.7378
 10
94.309
 20
11.805
 10
94.354
 20
11.8668
 10
94.3961
 20
11.9211
 10
94.4584
 20
12.0466
 10
94.5117
 20
12.1691
 10
94.5565
 20
12.2866
 10
94.5643
 20
12.3625
 10
94.5688
 20
12.4309
 10
94.5713
 20
12.4936
 10
94.5517
 20
12.6502
 10
94.5382
 20
12.7983
 10
94.5275
 20
12.9371
 10
94.4027
 20
13.2826
 10
94.2823
 20
13.6201
 10
94.1664
 20
13.948
 10
94.1322
 20
14.0822
 10
94.1008
 20
14.207
 10
94.0751
 20
14.3235
 10
93.9076
 20
14.8348
 10
93.74
 20
15.3462
 10
93.572
 20
15.8576
 10
93.5634
 20
15.8673
 10
93.5608
 20
15.9173
 10
93.55
 20
15.9908
 10
93.5343
 20
16.0442
 10
93.5246
 20
16.0679
 10
93.5129
 20
16.0936
 10
93.4936
 20
16.2501
 10
93.4796
 20
16.3981
 10
93.4683
 20
16.5364
 10
93.5194
 20
16.7091
 10
93.5774
 20
16.8785
 10
93.672
 20
17.0699
 10
93.7586
 20
17.1868
 10
93.8733
 20
17.3198
 10
93.9858
 20
17.4475
 10
94.1589
 20
17.6947
 10
94.3213
 20
17.9379
 10
94.4768
 20
18.177
 10
94.5872
 20
18.4272
 10
94.6866
 20
18.6724
 10
94.7787
 20
18.9146
 10
94.8242
 20
19.1462
 10
94.873
 20
19.3689
 10
94.9267
 20
19.5827
 10
94.9338
 20
19.8079
 10
94.945
 20
20.0229
 10
94.9603
 20
20.2307
 10
94.9134
 20
20.6109
 10
94.8641
 20
20.9852
 10
94.8122
 20
21.3526
 10
94.7672
 20
21.4977
 10
94.7294
 20
21.6394
 10
94.6978
 20
21.7798
 10
94.6675
 20
21.8125
 10
94.6431
 20
21.843
 10
94.6263
 20
21.8711
 10
94.6199
 20
21.8946
 10
94.6213
 20
21.9152
 10
94.6285
 20
21.9339
 10
94.4815
 20
22.2025
 10
94.3401
 20
22.4633
 10
94.2012
 20
22.7145
 10
94.0102
 20
22.9789
 10
93.8263
 20
23.241
 10
93.6483
 20
23.5007
 10
93.5194
 20
23.6496
 10
93.3957
 20
23.7889
 10
93.2754
 20
23.9196
 10
93.2255
 20
23.9961
 10
93.1803
 20
24.0624
 10
93.1385
 20
24.1209
 10
93.0899
 20
24.1608
 10
93.0412
 20
24.2003
 10
92.9926
 20
24.2404
 10
92.7025
 20
24.5427
 10
92.418
 20
24.8426
 10
92.1414
 20
25.1397
 10
91.8
 20
25.419
 10
91.4624
 20
25.6903
 10
91.1294
 20
25.9516
 10
91.0126
 20
25.9811
 10
90.8989
 20
26.0179
 10
90.7873
 20
26.0603
 10
90.699
 20
26.0366
 10
90.6215
 20
26.017
 10
90.5512
 20
26.0013
 10
90.4858
 20
25.9408
 10
90.4203
 20
25.8803
 10
90.3547
 20
25.8202
 10
90.3346
 20
25.7278
 10
90.3096
 20
25.6456
 10
90.2813
 20
25.5709
 10
90.2922
 20
25.488
 10
90.3059
 20
25.4125
 10
90.322
 20
25.3426
 10
90.4727
 20
25.1784
 10
90.6255
 20
25.0204
 10
90.7813
 20
24.8693
 10
90.9656
 20
24.699
 10
91.1454
 20
24.539
 10
91.3219
 20
24.3865
 10
91.6043
 20
24.0656
 10
91.8819
 20
23.7471
 10
92.1514
 20
23.4312
 10
92.3484
 20
23.1644
 10
92.545
 20
22.8977
 10
92.7416
 20
22.631
 10
92.9094
 20
22.3605
 10
93.0725
 20
22.1001
 10
93.232
 20
21.8474
 10
93.2711
 20
21.7265
 10
93.31
 20
21.6051
 10
93.3491
 20
21.4836
 10
93.3793
 20
21.4506
 10
93.3977
 20
21.4436
 10
93.4035
 20
21.4199
 10
93.4021
 20
21.3994
 10
93.3948
 20
21.3805
 10
93.4089
 20
21.3603
 10
93.4195
 20
21.3499
 10
93.4252
 20
21.3477
 10
93.4653
 20
21.1897
 10
93.5006
 20
21.0422
 10
93.5324
 20
20.9022
 10
93.5478
 20
20.6621
 10
93.557
 20
20.4241
 10
93.559
 20
20.1888
 10
93.5424
 20
20.0884
 10
93.5255
 20
19.9882
 10
93.5088
 20
19.8884
 10
93.4367
 20
19.66
 10
93.3595
 20
19.44
 10
93.2795
 20
19.2298
 10
93.2272
 20
19.1492
 10
93.1841
 20
19.0741
 10
93.15
 20
19.0019
 10
93.0382
 20
18.859
 10
92.9493
 20
18.7273
 10
92.8557
 20
18.5927
 10
92.7859
 20
18.5118
 10
92.7395
 20
18.4646
 10
92.6671
 20
18.4064
 10
92.6476
 20
18.3909
 10
92.5856
 20
18.343
 10
92.5045
 20
18.2816
 10
92.4496
 20
18.2349
 10
92.3671
 20
18.1769
 10
92.2736
 20
18.0995
 10
92.0991
 20
17.9692
 10
91.949
 20
17.872
 10
91.7219
 20
17.7162
 10
91.6055
 20
17.6705
 10
91.4272
 20
17.602
 10
91.5485
 20
17.2996
 10
91.6532
 20
17.0262
 10
91.7123
 20
16.8801
 10
91.7548
 20
16.7795
 10
91.8024
 20
16.6511
 10
91.8412
 20
16.5573
 10
91.858
 20
16.517
 10
91.8645
 20
16.4946
 10
91.8745
 20
16.4717
 10
91.8864
 20
16.4382
 10
91.4272
 20
17.602
 10
91.2916
 20
17.5627
 10
91.209
 20
17.5481
 10
91.0958
 20
17.5254
 10
91.0362
 20
17.5117
 10
90.9113
 20
17.4888
 10
90.7664
 20
17.4441
 10
90.6245
 20
17.4067
 10
90.4422
 20
17.3755
 10
90.2628
 20
17.3521
 10
90.0856
 20
17.3345
 10
89.9547
 20
17.3268
 10
89.8269
 20
17.3267
 10
89.7009
 20
17.3317
 10
89.4319
 20
17.3917
 10
89.1704
 20
17.4487
 10
88.914
 20
17.5039
 10
88.7588
 20
17.5838
 10
88.6097
 20
17.6556
 10
88.4628
 20
17.7183
 10
88.2713
 20
17.8697
 10
88.0845
 20
18.0112
 10
87.9011
 20
18.1449
 10
87.827
 20
18.2307
 10
87.7504
 20
18.3089
 10
87.6714
 20
18.3819
 10
87.5352
 20
18.5829
 10
87.4041
 20
18.7821
 10
87.2803
 20
18.9783
 10
87.2279
 20
19.1194
 10
87.1778
 20
19.2516
 10
87.133
 20
19.3751
 10
87.0933
 20
19.5332
 10
87.0262
 20
19.8207
 10
86.9755
 20
19.9681
 10
86.9283
 20
20.1074
 10
86.8858
 20
20.2367
 10
86.8061
 20
20.7932
 10
86.7305
 20
21.3396
 10
86.6589
 20
21.8787
 10
86.6588
 20
22.3262
 10
86.6622
 20
22.766
 10
86.6703
 20
23.1956
 10
86.6816
 20
23.3766
 10
86.6974
 20
23.5474
 10
86.717
 20
23.7104
 10
86.7153
 20
23.8177
 10
86.7114
 20
23.9195
 10
86.7048
 20
24.0135
 10
86.6686
 20
24.0699
 10
86.6376
 20
24.1178
 10
86.6095
 20
24.1564
 10
86.561
 20
24.1961
 10
86.5181
 20
24.2337
 10
86.4821
 20
24.2688
 10
86.3632
 20
24.2926
 10
86.2499
 20
24.3146
 10
86.1445
 20
24.3336
 10
86.0419
 20
24.2871
 10
85.9444
 20
24.2392
 10
85.8546
 20
24.1879
 10
85.7868
 20
24.0498
 10
85.7298
 20
23.916
 10
85.6801
 20
23.7857
 10
85.6548
 20
23.4392
 10
85.6265
 20
23.1027
 10
85.5934
 20
22.7744
 10
85.5792
 20
22.7373
 10
85.565
 20
22.7002
 10
85.5507
 20
22.6628
 10
85.5612
 20
22.5952
 10
85.5663
 20
22.5354
 10
85.5688
 20
22.4854
 10
85.559
 20
22.404
 10
85.5492
 20
22.3228
 10
85.5394
 20
22.2408
 10
85.5516
 20
21.8806
 10
85.5605
 20
21.5296
 10
85.5644
 20
21.1873
 10
85.6493
 20
20.6434
 10
85.7289
 20
20.1083
 10
85.8054
 20
19.5823
 10
85.9061
 20
19.2309
 10
86.0096
 20
18.8866
 10
86.1151
 20
18.5481
 10
86.2324
 20
18.2967
 10
86.3531
 20
18.0529
 10
86.4751
 20
17.8143
 10
86.5723
 20
17.6774
 10
86.6716
 20
17.548
 10
86.7735
 20
17.4237
 10
86.921
 20
17.2673
 10
87.0636
 20
17.1212
 10
87.2027
 20
16.9835
 10
87.3736
 20
16.833
 10
87.537
 20
16.6854
 10
87.6946
 20
16.5404
 10
87.8987
 20
16.4052
 10
88.1003
 20
16.2789
 10
88.2965
 20
16.1619
 10
88.6366
 20
16.0471
 10
88.9735
 20
15.9252
 10
89.3086
 20
15.7977
 10
89.5902
 20
15.7542
 10
89.8667
 20
15.7133
 10
90.1357
 20
15.6745
 10
90.2926
 20
15.6001
 10
90.4449
 20
15.5355
 10
90.5935
 20
15.4788
 10
90.7088
 20
15.3498
 10
90.8161
 20
15.2236
 10
90.9181
 20
15.0996
 10
91.0593
 20
14.8539
 10
91.1942
 20
14.6109
 10
91.3222
 20
14.3702
 10
91.3282
 20
14.3467
 10
91.3266
 20
14.3261
 10
91.3194
 20
14.3075
 10
91.5228
 20
13.8893
 10
91.7279
 20
13.4766
 10
91.9356
 20
13.0711
 10
91.9494
 20
13.0509
 10
91.966
 20
13.0384
 10
91.9845
 20
13.0314
 10
92.0256
 20
12.9153
 10
92.0641
 20
12.8092
 10
92.097
 20
12.7116
 10
92.1108
 20
12.6912
 10
92.1274
 20
12.6788
 10
92.1457
 20
12.6718
 10
92.1523
 20
12.6328
 10
92.1619
 20
12.6017
 10
92.1734
 20
12.5757
  0
LWPOLYLINE
  5
57
330
1F
100
AcDbEntity
  8
0
100
AcDbPolyline
 90
      132
 70
   128
 43
0.0
 10
10.322
 20
1.124
 10
10.1917
 20
1.1792
 10
10.0529
 20
1.2413
 10
10.0077
 20
1.3038
 10
9.9621
 20
1.374
 10
9.9156
 20
1.4502
 10
9.8893
 20
1.5282
 10
9.8623
 20
1.6116
 10
9.8345
 20
1.703
 10
9.8218
 20
2.1021
 10
9.8082
 20
2.5065
 10
9.7942
 20
2.9188
 10
9.8025
 20
3.3054
 10
9.8096
 20
3.6992
 10
9.8164
 20
4.1
 10
9.8509
 20
4.1686
 10
9.8903
 20
4.2457
 10
9.9372
 20
4.3294
 10
9.9935
 20
4.3743
 10
10.0492
 20
4.4248
 10
10.1045
 20
4.4831
 10
10.1683
 20
4.5086
 10
10.2394
 20
4.5405
 10
10.3164
 20
4.5807
 10
10.4361
 20
4.5847
 10
10.562
 20
4.5808
 10
10.6965
 20
4.5724
 10
10.8664
 20
4.5264
 10
11.0438
 20
4.4809
 10
11.2274
 20
4.4362
 10
11.267
 20
4.4395
 10
11.3132
 20
4.4371
 10
11.3681
 20
4.4278
 10
11.3743
 20
4.4225
 10
11.3896
 20
4.4096
 10
11.4111
 20
4.3916
 10
11.6817
 20
4.3337
 10
11.9604
 20
4.2707
 10
12.2463
 20
4.2007
 10
12.2873
 20
4.1844
 10
12.3351
 20
4.1621
 10
12.3915
 20
4.133
 10
12.5537
 20
4.1064
 10
12.7156
 20
4.0798
 10
12.8778
 20
4.0531
 10
12.9934
 20
4.1029
 10
13.1151
 20
4.1528
 10
13.2452
 20
4.2036
 10
13.2797
 20
4.2663
 10
13.32
 20
4.3356
 10
13.3675
 20
4.4133
 10
13.4633
 20
5.2605
 10
13.5665
 20
6.1144
 10
13.6751
 20
6.9768
 10
13.7505
 20
7.103
 10
13.834
 20
7.2295
 10
13.9238
 20
7.3571
 10
14.0375
 20
7.4263
 10
14.1514
 20
7.5014
 10
14.2643
 20
7.5853
 10
14.4293
 20
7.599
 10
14.6011
 20
7.6188
 10
14.7786
 20
7.6476
 10
14.901
 20
7.6174
 10
15.0296
 20
7.5883
 10
15.1658
 20
7.5597
 10
15.2788
 20
7.4691
 10
15.4005
 20
7.3789
 10
15.5277
 20
7.2897
 10
15.5727
 20
7.2335
 10
15.6174
 20
7.1715
 10
15.6629
 20
7.1012
 10
15.6888
 20
7.0374
 10
15.7204
 20
6.966
 10
15.7606
 20
6.8894
 10
15.8582
 20
6.1924
 10
15.9567
 20
5.487
 10
16.0553
 20
4.7757
 10
16.0925
 20
4.6387
 10
16.1386
 20
4.4966
 10
16.1906
 20
4.347
 10
16.2369
 20
4.271
 10
16.289
 20
4.1953
 10
16.3495
 20
4.1204
 10
16.4121
 20
4.0856
 10
16.4755
 20
4.045
 10
16.5393
 20
3.9962
 10
16.6587
 20
4.0062
 10
16.7771
 20
4.0221
 10
16.8949
 20
4.0455
 10
17.4279
 20
4.1956
 10
17.9684
 20
4.3542
 10
18.5146
 20
4.5192
 10
18.6533
 20
4.5307
 10
18.7981
 20
4.5489
 10
18.9496
 20
4.5751
 10
19.0829
 20
4.4864
 10
19.2238
 20
4.3983
 10
19.3711
 20
4.3104
 10
19.4025
 20
4.247
 10
19.4423
 20
4.1763
 10
19.4881
 20
4.1002
 10
19.505
 20
3.8958
 10
19.517
 20
3.6831
 10
19.5209
 20
3.4636
 10
19.5239
 20
2.9443
 10
19.5212
 20
2.4247
 10
19.5101
 20
1.9041
 10
19.5002
 20
1.783
 10
19.4906
 20
1.6562
 10
19.4817
 20
1.5218
 10
19.4293
 20
1.4317
 10
19.3714
 20
1.3328
 10
19.3063
 20
1.2273
 10
19.2302
 20
1.1813
 10
19.1482
 20
1.1347
 10
19.0582
 20
1.087
 10
18.9588
 20
1.0788
 10
18.8602
 20
1.065
 10
18.7622
 20
1.0427
 10
18.456
 20
1.1173
 10
18.1435
 20
1.1974
 10
17.8227
 20
1.2846
 10
17.7954
 20
1.3023
 10
17.7595
 20
1.3254
 10
17.7172
 20
1.3559
 10
16.817
 20
1.6071
 10
15.9161
 20
1.8665
 10
15.0381
 20
2.1115
 10
14.9131
 20
2.1114
 10
14.7101
 20
2.1129
 10
14.7276
 20
3.3636
  0
LWPOLYLINE
  5
58
330
1F
100
AcDbEntity
  8
0
100
AcDbPolyline
 90
       15
 70
   128
 43
0.0
 10
14.7276
 20
3.3636
 10
14.7101
 20
2.1129
 10
14.5381
 20
2.1111
 10
14.4131
 20
2.111
 10
14.3982
 20
2.1003
 10
13.9486
 20
1.9776
 10
13.4999
 20
1.8461
 10
13.0515
 20
1.7094
 10
12.3216
 20
1.523
 10
11.5843
 20
1.3284
 10
10.8415
 20
1.1272
 10
10.7166
 20
1.117
 10
10.5844
 20
1.0999
 10
10.4463
 20
1.0744
 10
10.322
 20
1.124
  0
LWPOLYLINE
  5
59
330
1F
100
AcDbEntity
  8
0
100
AcDbPolyline
 90
      291
 70
   128
 43
0.0
 10
83.0745
 20
15.3477
 10
82.9843
 20
15.2799
 10
82.8851
 20
15.2081
 10
82.7754
 20
15.1363
 10
82.7066
 20
15.0386
 10
82.6304
 20
14.9453
 10
82.5497
 20
14.855
 10
82.5008
 20
14.8151
 10
82.4519
 20
14.7755
 10
82.4031
 20
14.7357
 10
82.2488
 20
14.7158
 10
82.0945
 20
14.6957
 10
81.9406
 20
14.6755
 10
81.8366
 20
14.735
 10
81.7279
 20
14.7867
 10
81.6167
 20
14.8343
 10
81.5293
 20
14.9198
 10
81.4413
 20
15.0159
 10
81.3502
 20
15.1207
 10
81.2829
 20
15.1634
 10
81.2142
 20
15.2145
 10
81.1425
 20
15.2767
 10
81.0305
 20
15.3236
 10
80.9159
 20
15.366
 10
80.7971
 20
15.4015
 10
80.7088
 20
15.4107
 10
80.6149
 20
15.4225
 10
80.5145
 20
15.4393
 10
80.3888
 20
15.401
 10
80.2535
 20
15.3622
 10
80.1083
 20
15.3194
 10
80.0106
 20
15.2401
 10
79.913
 20
15.1606
 10
79.8154
 20
15.0808
 10
79.7514
 20
14.98
 10
79.6823
 20
14.8825
 10
79.6059
 20
14.7893
 10
79.5467
 20
14.5841
 10
79.488
 20
14.3691
 10
79.4329
 20
14.1442
 10
79.4349
 20
14.1362
 10
79.4386
 20
14.1167
 10
79.4454
 20
14.0891
 10
79.4258
 20
14.0474
 10
79.4087
 20
13.9947
 10
79.3934
 20
13.9337
 10
79.3368
 20
13.8443
 10
79.2811
 20
13.7454
 10
79.2288
 20
13.637
 10
79.0946
 20
13.463
 10
78.9604
 20
13.2886
 10
78.8262
 20
13.1141
 10
78.7466
 20
13.0632
 10
78.6578
 20
13.0086
 10
78.559
 20
12.9536
 10
78.5451
 20
12.9316
 10
78.5219
 20
12.9063
 10
78.4887
 20
12.8801
 10
78.3852
 20
12.828
 10
78.2815
 20
12.776
 10
78.1774
 20
12.7237
 10
77.9662
 20
12.6623
 10
77.7437
 20
12.5984
 10
77.5131
 20
12.5325
 10
77.316
 20
12.5561
 10
77.1145
 20
12.5733
 10
76.9096
 20
12.5851
 10
76.7876
 20
12.6158
 10
76.6652
 20
12.6461
 10
76.5433
 20
12.6764
 10
76.3367
 20
12.7604
 10
76.1221
 20
12.8421
 10
75.8964
 20
12.9216
 10
75.8472
 20
12.9292
 10
75.7912
 20
12.9413
 10
75.7302
 20
12.9567
 10
75.6534
 20
12.958
 10
75.5666
 20
12.9588
 10
75.4704
 20
12.9564
 10
75.3406
 20
12.9371
 10
75.2061
 20
12.9118
 10
75.0687
 20
12.8809
 10
75.0032
 20
12.8518
 10
74.932
 20
12.826
 10
74.8552
 20
12.8045
 10
74.6991
 20
12.7078
 10
74.5393
 20
12.604
 10
74.3756
 20
12.4952
 10
74.3437
 20
12.445
 10
74.3086
 20
12.3898
 10
74.2689
 20
12.327
 10
74.2503
 20
12.3084
 10
74.2204
 20
12.2876
 10
74.1821
 20
12.2646
 10
73.9593
 20
11.9507
 10
73.7323
 20
11.6302
 10
73.5209
 20
11.3032
 10
73.4975
 20
11.2602
 10
73.4788
 20
11.2358
 10
73.4054
 20
11.1345
 10
73.2896
 20
10.984
 10
73.5645
 20
10.7848
 10
74.2467
 20
10.2919
 10
74.7446
 20
9.934
 10
75.2794
 20
9.5502
 10
75.3382
 20
9.508
 10
75.4209
 20
9.4424
 10
73.2896
 20
10.984
 10
73.1853
 20
10.8309
 10
73.112
 20
10.7296
 10
73.0508
 20
10.623
 10
73.0159
 20
10.5603
 10
72.9146
 20
10.3797
 10
72.808
 20
10.2116
 10
72.7726
 20
10.156
 10
72.7384
 20
10.0906
 10
72.7077
 20
10.0161
 10
72.6844
 20
9.9055
 10
72.6623
 20
9.7857
 10
72.6439
 20
9.6555
 10
72.6482
 20
9.551
 10
72.6534
 20
9.4369
 10
72.6624
 20
9.3133
 10
72.6702
 20
9.2806
 10
72.6728
 20
9.2534
 10
72.684
 20
9.1861
 10
72.7022
 20
9.1399
 10
72.7118
 20
9.1111
 10
72.7285
 20
9.0829
 10
72.8806
 20
8.7906
 10
73.0348
 20
8.4874
 10
73.1904
 20
8.1757
 10
73.2212
 20
8.0386
 10
73.2573
 20
7.8979
 10
73.2996
 20
7.7531
 10
73.3207
 20
7.6378
 10
73.338
 20
7.5162
 10
73.3519
 20
7.3894
 10
73.3158
 20
7.0989
 10
73.2824
 20
6.7969
 10
73.2504
 20
6.4866
 10
73.2415
 20
6.4317
 10
73.2229
 20
6.3864
 10
73.2027
 20
6.3284
 10
73.1855
 20
6.2916
 10
73.1693
 20
6.2668
 10
73.1621
 20
6.2359
 10
73.1044
 20
6.108
 10
73.0463
 20
5.9796
 10
72.9887
 20
5.8511
 10
72.9138
 20
5.7331
 10
72.8361
 20
5.6107
 10
72.7536
 20
5.4807
 10
72.5918
 20
5.3006
 10
72.4253
 20
5.1236
 10
72.2517
 20
4.9507
 10
72.0884
 20
4.8419
 10
71.9202
 20
4.7364
 10
71.7449
 20
4.6354
 10
71.6763
 20
4.6011
 10
71.5981
 20
4.5635
 10
71.5097
 20
4.5252
 10
71.3839
 20
4.4375
 10
71.2779
 20
4.3563
 10
71.1894
 20
4.2806
 10
71.104
 20
4.1458
 10
71.0201
 20
4.0028
 10
70.9396
 20
3.8492
 10
70.8925
 20
3.6905
 10
70.8525
 20
3.5272
 10
70.8176
 20
3.3603
 10
70.8209
 20
3.3143
 10
70.8191
 20
3.2758
 10
70.8209
 20
3.2313
 10
70.813
 20
3.1546
 10
70.8393
 20
3.0692
 10
70.8424
 20
2.9908
 10
70.9341
 20
2.8379
 10
71.0279
 20
2.6774
 10
71.1238
 20
2.5055
 10
71.2614
 20
2.3875
 10
71.3999
 20
2.2597
 10
71.5414
 20
2.1226
 10
71.6119
 20
2.0851
 10
71.6852
 20
2.0456
 10
71.7233
 20
2.0233
 10
71.7517
 20
2.0111
 10
71.8508
 20
1.9428
 10
71.999
 20
1.8144
 10
72.0006
 20
1.815
 10
72.0495
 20
1.8841
 10
75.5602
 20
6.7418
 10
75.4757
 20
6.6253
 10
75.5546
 20
6.7342
 10
75.5968
 20
6.7924
 10
75.4493
 20
6.5905
 10
75.1525
 20
6.1813
 10
74.639
 20
5.4727
 10
74.2186
 20
4.8801
 10
73.8519
 20
4.374
 10
73.4804
 20
3.8544
 10
72.8936
 20
3.0447
 10
72.5152
 20
2.5383
 10
71.999
 20
1.8144
 10
72.152
 20
1.7065
 10
72.2475
 20
1.6314
 10
72.2635
 20
1.6193
 10
72.2754
 20
1.6083
 10
72.2817
 20
1.6053
 10
72.3426
 20
1.5576
 10
72.3836
 20
1.5171
 10
72.4696
 20
1.4553
 10
72.5579
 20
1.3829
 10
72.6786
 20
1.3133
 10
72.8043
 20
1.2499
 10
72.9327
 20
1.1921
 10
73.06
 20
1.1586
 10
73.1969
 20
1.1257
 10
73.3433
 20
1.0965
 10
73.5036
 20
1.0889
 10
73.6724
 20
1.0832
 10
73.852
 20
1.0801
 10
74.055
 20
1.1401
 10
74.2632
 20
1.1963
 10
74.4783
 20
1.2488
 10
74.5545
 20
1.2948
 10
74.639
 20
1.3424
 10
74.7345
 20
1.3928
 10
74.8738
 20
1.5004
 10
75.0219
 20
1.6112
 10
75.1803
 20
1.723
 10
75.2123
 20
1.7735
 10
75.2494
 20
1.8209
 10
75.2932
 20
1.8641
 10
75.3088
 20
1.8772
 10
75.331
 20
1.8865
 10
75.3589
 20
1.893
 10
75.9369
 20
2.4693
 10
76.5185
 20
3.0507
 10
77.1042
 20
3.6391
 10
77.1468
 20
3.7063
 10
77.1946
 20
3.7704
 10
77.2489
 20
3.8303
 10
77.4414
 20
4.022
 10
77.6382
 20
4.2201
 10
77.8382
 20
4.4232
 10
78.1129
 20
4.7446
 10
78.3923
 20
5.0623
 10
78.6787
 20
5.376
 10
79.2154
 20
6.0731
 10
79.7607
 20
6.772
 10
80.317
 20
7.4736
 10
80.7928
 20
8.1854
 10
81.2736
 20
8.8948
 10
81.7609
 20
9.5999
 10
81.9851
 20
9.953
 10
82.2045
 20
10.3091
 10
82.4167
 20
10.6696
 10
82.762
 20
11.2993
 10
83.1011
 20
11.9332
 10
83.4348
 20
12.5706
 10
83.6761
 20
13.0618
 10
83.9213
 20
13.5598
 10
84.1698
 20
14.0624
 10
84.2106
 20
14.2014
 10
84.2468
 20
14.3436
 10
84.2762
 20
14.4904
 10
84.2683
 20
14.5261
 10
84.2576
 20
14.5729
 10
84.2453
 20
14.6275
 10
84.2561
 20
14.6445
 10
84.2649
 20
14.6696
 10
84.2711
 20
14.7056
 10
84.219
 20
14.8096
 10
84.1653
 20
14.9213
 10
84.1089
 20
15.0445
 10
84.0448
 20
15.0923
 10
83.98
 20
15.1501
 10
83.9118
 20
15.217
 10
83.8079
 20
15.2761
 10
83.6993
 20
15.3282
 10
83.5877
 20
15.3754
 10
83.499
 20
15.3842
 10
83.4022
 20
15.3914
 10
83.2942
 20
15.3966
 10
83.2514
 20
15.3769
 10
83.1979
 20
15.3563
 10
83.1358
 20
15.3319
 10
83.1184
 20
15.3428
 10
83.0989
 20
15.3486
 10
83.0745
 20
15.3477
  0
LWPOLYLINE
  5
5A
330
1F
100
AcDbEntity
  8
0
100
AcDbPolyline
 90
      188
 70
   128
 43
0.0
 10
18.8932
 20
44.4887
 10
18.8749
 20
45.8625
 10
18.5807
 20
45.8637
 10
18.4539
 20
45.861
 10
18.4006
 20
45.8773
 10
18.3447
 20
45.8996
 10
18.2713
 20
45.9305
 10
18.2387
 20
45.9326
 10
18.2111
 20
45.9386
 10
17.7914
 20
46.0652
 10
17.3764
 20
46.1956
 10
17.0635
 20
46.2909
 10
16.9927
 20
46.2946
 10
16.9406
 20
46.302
 10
16.9074
 20
46.314
 10
16.4769
 20
46.4576
 10
16.0492
 20
46.5962
 10
15.7413
 20
46.6709
 10
15.6258
 20
46.7045
 10
15.5429
 20
46.7206
 10
15.5103
 20
46.7226
 10
15.3224
 20
46.7888
 10
15.1378
 20
46.8503
 10
14.9578
 20
46.905
 10
14.8279
 20
46.931
 10
14.7089
 20
46.9547
 10
14.5986
 20
46.9768
 10
14.4861
 20
46.9663
 10
14.3778
 20
46.9491
 10
14.2729
 20
46.927
 10
14.19
 20
46.8717
 10
14.107
 20
46.8164
 10
14.0244
 20
46.7614
 10
13.985
 20
46.6872
 10
13.9491
 20
46.6227
 10
13.9138
 20
46.5682
 10
13.894
 20
46.49
 10
13.8586
 20
46.3635
 10
13.8525
 20
46.1682
 10
13.853
 20
45.9772
 10
13.8585
 20
45.7893
 10
13.8418
 20
45.7538
 10
13.8307
 20
45.7229
 10
13.8254
 20
45.6953
 10
13.8194
 20
45.2124
 10
13.8198
 20
44.7342
 10
13.8253
 20
44.2593
 10
13.8438
 20
44.0632
 10
13.8643
 20
43.8779
 10
13.8861
 20
43.7013
 10
13.9296
 20
43.6106
 10
13.98
 20
43.5242
 10
14.0351
 20
43.4416
 10
14.1078
 20
43.3942
 10
14.1698
 20
43.3474
 10
14.2233
 20
43.3037
 10
14.3011
 20
43.2838
 10
14.3689
 20
43.2643
 10
14.4276
 20
43.2483
 10
14.6434
 20
43.2726
 10
14.8496
 20
43.2975
 10
15.046
 20
43.3256
 10
15.6095
 20
43.4856
 10
16.1698
 20
43.6511
 10
16.7252
 20
43.8229
 10
16.8379
 20
43.8333
 10
16.9412
 20
43.8468
 10
17.0346
 20
43.8613
 10
17.1008
 20
43.8339
 10
17.1638
 20
43.8113
 10
17.2222
 20
43.7952
 10
17.2831
 20
43.7399
 10
17.3391
 20
43.6814
 10
17.3879
 20
43.6184
 10
17.4268
 20
43.4527
 10
17.4705
 20
43.2905
 10
17.5205
 20
43.1323
 10
17.5146
 20
43.0805
 10
17.5118
 20
43.0378
 10
17.5098
 20
43.0055
 10
17.5921
 20
42.3899
 10
17.6775
 20
41.784
 10
17.7637
 20
41.1881
 10
17.7856
 20
41.0831
 10
17.8097
 20
40.9865
 10
17.8356
 20
40.901
 10
17.8821
 20
40.7954
 10
17.9239
 20
40.6965
 10
17.9625
 20
40.6026
 10
18.0455
 20
40.5142
 10
18.1198
 20
40.4272
 10
18.1836
 20
40.3431
 10
18.2334
 20
40.3043
 10
18.2833
 20
40.2656
 10
18.3324
 20
40.2272
 10
18.4767
 20
40.1796
 10
18.6143
 20
40.1277
 10
18.747
 20
40.0723
 10
18.8301
 20
40.0804
 10
18.9038
 20
40.0885
 10
18.9677
 20
40.0997
 10
19.139
 20
40.1661
 10
19.3103
 20
40.2325
 10
19.4815
 20
40.299
 10
19.5813
 20
40.3894
 10
19.675
 20
40.4756
 10
19.763
 20
40.5583
 10
19.8112
 20
40.6549
 10
19.857
 20
40.7406
 10
19.9014
 20
40.8179
 10
19.916
 20
40.8925
 10
19.9286
 20
40.9562
 10
19.9397
 20
41.0114
 10
19.9488
 20
41.0344
 10
19.9621
 20
41.0497
 10
19.9786
 20
41.0607
 10
20.0563
 20
41.6156
 10
20.1279
 20
42.1658
 10
20.1938
 20
42.7124
 10
20.1941
 20
42.7846
 10
20.1942
 20
42.8563
 10
20.1941
 20
42.9278
 10
20.2333
 20
43.1455
 10
20.2691
 20
43.3539
 10
20.3047
 20
43.5521
 10
20.343
 20
43.6018
 10
20.3817
 20
43.6517
 10
20.4202
 20
43.7014
 10
20.5115
 20
43.7448
 10
20.592
 20
43.7919
 10
20.6634
 20
43.8395
 10
20.7193
 20
43.8527
 10
20.7687
 20
43.8615
 10
20.8125
 20
43.8669
 10
21.2733
 20
43.7504
 10
21.7297
 20
43.6405
 10
22.1934
 20
43.5189
 10
22.2011
 20
43.5074
 10
22.2044
 20
43.5024
 10
22.547
 20
43.4198
 10
22.8899
 20
43.3366
 10
23.2321
 20
43.2539
 10
23.3205
 20
43.2652
 10
23.4005
 20
43.2778
 10
23.4697
 20
43.2924
 10
23.5767
 20
43.3474
 10
23.6743
 20
43.4052
 10
23.7623
 20
43.4638
 10
23.8284
 20
43.5799
 10
23.8899
 20
43.6924
 10
23.9445
 20
43.8008
 10
23.9594
 20
43.8754
 10
23.972
 20
43.9386
 10
23.9831
 20
43.9943
 10
23.9699
 20
44.4091
 10
23.961
 20
44.817
 10
23.9556
 20
45.2203
 10
23.972
 20
45.3748
 10
23.9872
 20
45.5212
 10
23.9999
 20
45.6566
 10
23.9866
 20
45.928
 10
23.9727
 20
46.1891
 10
23.9555
 20
46.441
 10
23.9169
 20
46.5351
 10
23.8732
 20
46.6255
 10
23.8231
 20
46.7117
 10
23.7625
 20
46.7667
 10
23.71
 20
46.8204
 10
23.6682
 20
46.8718
 10
23.5944
 20
46.9112
 10
23.5248
 20
46.9435
 10
23.4583
 20
46.9711
 10
23.3789
 20
46.9829
 10
23.3036
 20
46.9877
 10
23.232
 20
46.9878
 10
23.1079
 20
46.9698
 10
22.9947
 20
46.9491
 10
22.8897
 20
46.9269
 10
22.7958
 20
46.8884
 10
22.7066
 20
46.8534
 10
22.6243
 20
46.8221
 10
21.7793
 20
46.5819
 10
20.9368
 20
46.3411
 10
20.1002
 20
46.0991
 10
19.3307
 20
45.8637
 10
18.9031
 20
45.8625
 10
18.8749
 20
45.8625
 10
18.8932
 20
44.4887
  0
LWPOLYLINE
  5
5B
330
1F
100
AcDbEntity
  8
0
100
AcDbPolyline
 90
      101
 70
   128
 43
0.0
 10
69.4574
 20
41.0086
 10
69.4374
 20
40.929
 10
69.4176
 20
40.8435
 10
69.3978
 20
40.7496
 10
69.3122
 20
40.6503
 10
69.2184
 20
40.5506
 10
69.119
 20
40.4512
 10
69.119
 20
40.431
 10
69.1133
 20
40.4055
 10
69.0988
 20
40.3713
 10
68.9795
 20
40.172
 10
68.8541
 20
39.973
 10
68.7208
 20
39.7738
 10
68.6408
 20
39.4952
 10
68.5554
 20
39.2163
 10
68.462
 20
38.9374
 10
68.442
 20
38.7524
 10
68.4218
 20
38.559
 10
68.4022
 20
38.3598
 10
68.3759
 20
38.2401
 10
68.3424
 20
38.1212
 10
68.3024
 20
38.0016
 10
68.2625
 20
37.9418
 10
68.2166
 20
37.882
 10
68.163
 20
37.8224
 10
68.1172
 20
37.7824
 10
68.0634
 20
37.7368
 10
68.0038
 20
37.6828
 10
67.9042
 20
37.643
 10
67.8044
 20
37.6034
 10
67.7051
 20
37.5633
 10
67.5995
 20
37.5633
 10
67.4858
 20
37.5574
 10
67.3664
 20
37.5438
 10
67.2868
 20
37.5633
 10
67.2072
 20
37.5832
 10
67.1274
 20
37.6034
 10
67.1274
 20
37.609
 10
67.1214
 20
37.6233
 10
67.1072
 20
37.643
 10
67.0679
 20
37.663
 10
67.022
 20
37.6828
 10
66.9682
 20
37.7028
 10
66.9224
 20
37.7625
 10
66.8684
 20
37.8224
 10
66.8088
 20
37.882
 10
66.769
 20
37.9418
 10
66.729
 20
38.0074
 10
66.6894
 20
38.081
 10
66.5896
 20
38.1808
 10
66.4842
 20
38.2802
 10
66.3707
 20
38.38
 10
66.2054
 20
38.4456
 10
66.0323
 20
38.5192
 10
65.8528
 20
38.5988
 10
65.8132
 20
38.639
 10
65.7674
 20
38.6844
 10
65.7136
 20
38.7382
 10
65.6538
 20
38.8442
 10
65.588
 20
38.9576
 10
65.5142
 20
39.0768
 10
65.5142
 20
39.2564
 10
65.5204
 20
39.4354
 10
65.5346
 20
39.6146
 10
65.5938
 20
39.7342
 10
65.6596
 20
39.8535
 10
65.733
 20
39.973
 10
65.8331
 20
40.0328
 10
65.9326
 20
40.0984
 10
66.0323
 20
40.172
 10
66.112
 20
40.1924
 10
66.1913
 20
40.2123
 10
66.271
 20
40.232
 10
66.3168
 20
40.232
 10
66.3707
 20
40.226
 10
66.4302
 20
40.2123
 10
66.536
 20
40.232
 10
66.6492
 20
40.252
 10
66.769
 20
40.2717
 10
66.8885
 20
40.3118
 10
67.0078
 20
40.3575
 10
67.1274
 20
40.4115
 10
67.2731
 20
40.497
 10
67.4261
 20
40.5903
 10
67.5854
 20
40.69
 10
67.685
 20
40.7898
 10
67.7908
 20
40.8894
 10
67.9042
 20
40.9887
 10
68.0294
 20
41.168
 10
68.163
 20
41.3475
 10
68.3024
 20
41.5263
 10
68.3622
 20
41.5665
 10
68.4281
 20
41.612
 10
68.5016
 20
41.6661
 10
68.6609
 20
41.672
 10
68.8202
 20
41.6856
 10
68.9795
 20
41.706
 10
69.0593
 20
41.6661
 10
69.139
 20
41.6204
 10
69.2184
 20
41.5665
 10
69.4574
 20
41.0086
  0
LWPOLYLINE
  5
5C
330
1F
100
AcDbEntity
  8
0
100
AcDbPolyline
 90
       64
 70
   128
 43
0.0
 10
70.6326
 20
44.952
 10
70.553
 20
44.6276
 10
70.4675
 20
44.2948
 10
70.3736
 20
43.9562
 10
70.288
 20
43.7709
 10
70.1945
 20
43.5777
 10
70.0949
 20
43.3786
 10
70.015
 20
43.279
 10
69.9354
 20
43.1793
 10
69.856
 20
43.0803
 10
69.6966
 20
43.0203
 10
69.5372
 20
42.9544
 10
69.378
 20
42.8808
 10
69.2981
 20
42.8808
 10
69.2184
 20
42.8866
 10
69.139
 20
42.9006
 10
69.0792
 20
42.9208
 10
69.0194
 20
42.9404
 10
68.9596
 20
42.9606
 10
68.8938
 20
43.0002
 10
68.8202
 20
43.0462
 10
68.7406
 20
43.0998
 10
68.7006
 20
43.1457
 10
68.655
 20
43.1997
 10
68.6014
 20
43.2591
 10
68.5616
 20
43.3389
 10
68.5211
 20
43.4246
 10
68.4816
 20
43.518
 10
68.462
 20
43.6174
 10
68.442
 20
43.7234
 10
68.4218
 20
43.8364
 10
68.4476
 20
43.9623
 10
68.4816
 20
44.0954
 10
68.5211
 20
44.2352
 10
68.5276
 20
44.2352
 10
68.5416
 20
44.241
 10
68.5616
 20
44.255
 10
68.6014
 20
44.3208
 10
68.6471
 20
44.3944
 10
68.7006
 20
44.474
 10
68.7863
 20
44.5336
 10
68.88
 20
44.5935
 10
68.9795
 20
44.6532
 10
69.0194
 20
44.6532
 10
69.0593
 20
44.6532
 10
69.0988
 20
44.6532
 10
69.2981
 20
44.7388
 10
69.4973
 20
44.8324
 10
69.6966
 20
44.9322
 10
69.856
 20
45.0716
 10
70.0212
 20
45.211
 10
70.1945
 20
45.3502
 10
70.254
 20
45.3502
 10
70.3138
 20
45.3564
 10
70.3736
 20
45.3702
 10
70.4393
 20
45.3303
 10
70.513
 20
45.2907
 10
70.5926
 20
45.2506
 10
70.5986
 20
45.2308
 10
70.6127
 20
45.2049
 10
70.6326
 20
45.1712
 10
70.6326
 20
45.1053
 10
70.6326
 20
45.0316
 10
70.6326
 20
44.952
  0
LWPOLYLINE
  5
5D
330
1F
100
AcDbEntity
  8
0
100
AcDbPolyline
 90
      514
 70
   128
 43
0.0
 10
72.4185
 20
46.4141
 10
72.3754
 20
46.036
 10
72.3322
 20
45.658
 10
72.2888
 20
45.2801
 10
72.1979
 20
44.7032
 10
72.0994
 20
44.1208
 10
71.9942
 20
43.5301
 10
71.8212
 20
42.7092
 10
71.6405
 20
41.8801
 10
71.4537
 20
41.0455
 10
71.4334
 20
40.9797
 10
71.4069
 20
40.9064
 10
71.3722
 20
40.8272
 10
71.3308
 20
40.6423
 10
71.2889
 20
40.4496
 10
71.2475
 20
40.2506
 10
71.0628
 20
39.6688
 10
70.8781
 20
39.0791
 10
70.6936
 20
38.483
 10
70.5098
 20
37.9669
 10
70.3258
 20
37.445
 10
70.1417
 20
36.9147
 10
69.9785
 20
36.4779
 10
69.8093
 20
36.0412
 10
69.632
 20
35.605
 10
69.571
 20
35.4659
 10
69.5038
 20
35.3275
 10
69.429
 20
35.1885
 10
69.3475
 20
34.9703
 10
69.2598
 20
34.7457
 10
69.1639
 20
34.514
 10
69.1233
 20
34.4346
 10
69.0765
 20
34.3494
 10
69.0223
 20
34.2558
 10
68.9814
 20
34.151
 10
68.9404
 20
34.0378
 10
68.8999
 20
33.9188
 10
68.8392
 20
33.8197
 10
68.7782
 20
33.7147
 10
68.7174
 20
33.6017
 10
68.7171
 20
33.5759
 10
68.711
 20
33.5419
 10
68.6969
 20
33.5025
 10
68.6362
 20
33.4033
 10
68.5756
 20
33.3043
 10
68.5148
 20
33.2053
 10
68.5146
 20
33.1794
 10
68.508
 20
33.1456
 10
68.4938
 20
33.1059
 10
68.4333
 20
33.0066
 10
68.3725
 20
32.9078
 10
68.3119
 20
32.8086
 10
68.3117
 20
32.7827
 10
68.3058
 20
32.749
 10
68.2913
 20
32.7094
 10
67.9267
 20
32.0552
 10
67.5564
 20
31.3954
 10
67.1778
 20
30.7278
 10
67.1577
 20
30.7022
 10
67.1316
 20
30.6685
 10
67.0971
 20
30.6289
 10
67.0968
 20
30.6029
 10
67.0911
 20
30.5693
 10
67.0765
 20
30.5295
 10
66.8745
 20
30.2128
 10
66.6725
 20
29.8899
 10
66.4701
 20
29.5592
 10
66.4642
 20
29.5593
 10
66.4501
 20
29.5533
 10
66.4303
 20
29.5399
 10
66.3834
 20
29.4407
 10
66.3286
 20
29.3413
 10
66.2679
 20
29.2425
 10
66.0058
 20
28.8803
 10
65.7435
 20
28.5104
 10
65.4814
 20
28.1341
 10
65.481
 20
28.114
 10
65.4753
 20
28.0884
 10
65.4608
 20
28.0548
 10
65.0073
 20
27.4613
 10
64.5538
 20
26.8679
 10
64.1
 20
26.2747
 10
63.6466
 20
25.6813
 10
63.5464
 20
25.5826
 10
63.4456
 20
25.4781
 10
63.3454
 20
25.3655
 10
63.3045
 20
25.3059
 10
63.2642
 20
25.2467
 10
63.2238
 20
25.1873
 10
62.8356
 20
24.7665
 10
62.4395
 20
24.338
 10
62.0374
 20
23.9034
 10
62.0371
 20
23.8838
 10
62.0308
 20
23.8634
 10
62.0169
 20
23.8439
 10
61.9164
 20
23.7391
 10
61.8097
 20
23.6267
 10
61.6953
 20
23.5081
 10
61.6751
 20
23.5084
 10
61.6555
 20
23.5026
 10
61.5343
 20
23.3701
 10
61.428
 20
23.2459
 10
61.3131
 20
23.1133
 10
61.233
 20
23.0482
 10
61.1466
 20
22.9752
 10
61.052
 20
22.8968
 10
61.0518
 20
22.8769
 10
61.0461
 20
22.8567
 10
61.0318
 20
22.8368
 10
61.006
 20
22.8171
 10
60.9716
 20
22.7978
 10
60.9317
 20
22.7782
 10
60.9314
 20
22.7585
 10
60.9256
 20
22.7386
 10
60.9111
 20
22.7184
 10
60.6436
 20
22.462
 10
60.3688
 20
22.2056
 10
60.088
 20
21.9493
 10
59.8066
 20
21.7068
 10
59.5196
 20
21.4567
 10
59.2245
 20
21.2003
 10
59.2243
 20
21.1804
 10
59.218
 20
21.1602
 10
59.2041
 20
21.1409
 10
58.9375
 20
20.9381
 10
58.6625
 20
20.7272
 10
58.3817
 20
20.511
 10
58.1151
 20
20.3342
 10
57.8408
 20
20.1512
 10
57.56
 20
19.9607
 10
57.1137
 20
19.7056
 10
56.6593
 20
19.4448
 10
56.1988
 20
19.1768
 10
56.0989
 20
19.1376
 10
55.9988
 20
19.0983
 10
55.8989
 20
19.0596
 10
55.733
 20
18.9756
 10
55.5585
 20
18.8835
 10
55.3787
 20
18.7853
 10
54.6793
 20
18.533
 10
53.9798
 20
18.2745
 10
53.2808
 20
18.0081
 10
52.921
 20
17.9316
 10
52.5622
 20
17.849
 10
52.2026
 20
17.7587
 10
51.9974
 20
17.7409
 10
51.784
 20
17.7168
 10
51.5645
 20
17.6848
 10
51.4452
 20
17.7061
 10
51.326
 20
17.7267
 10
51.2068
 20
17.7479
 10
51.0481
 20
17.8488
 10
50.89
 20
17.95
 10
50.7315
 20
18.0506
 10
50.6331
 20
18.211
 10
50.535
 20
18.3712
 10
50.4372
 20
18.5319
 10
50.4178
 20
18.6177
 10
50.3989
 20
18.7113
 10
50.38
 20
18.811
 10
50.3813
 20
18.9704
 10
50.3888
 20
19.1356
 10
50.4044
 20
19.3083
 10
50.4452
 20
19.4078
 10
50.4919
 20
19.5129
 10
50.5463
 20
19.6261
 10
50.5674
 20
19.7116
 10
50.5881
 20
19.8051
 10
50.6091
 20
19.9044
 10
50.6151
 20
19.9241
 10
50.6294
 20
19.9441
 10
50.649
 20
19.9638
 10
50.6508
 20
20.1686
 10
50.6471
 20
20.3821
 10
50.6352
 20
20.601
 10
50.5771
 20
20.7808
 10
50.5189
 20
20.9667
 10
50.4609
 20
21.1605
 10
50.4629
 20
21.3656
 10
50.4706
 20
21.5784
 10
50.4867
 20
21.7978
 10
50.5477
 20
21.9363
 10
50.615
 20
22.0752
 10
50.6896
 20
22.2137
 10
50.7956
 20
22.2983
 10
50.9103
 20
22.391
 10
51.0306
 20
22.4893
 10
51.1765
 20
22.5479
 10
51.3307
 20
22.6063
 10
51.4902
 20
22.6644
 10
52.0481
 20
22.6657
 10
52.606
 20
22.6745
 10
53.1633
 20
22.6895
 10
53.4627
 20
22.7261
 10
53.7676
 20
22.7635
 10
54.0807
 20
22.8006
 10
54.4598
 20
22.8829
 10
54.8393
 20
22.9727
 10
55.2183
 20
23.0691
 10
55.7037
 20
23.2301
 10
55.9574
 20
23.321
 10
56.1578
 20
23.3991
 10
56.3575
 20
23.4829
 10
56.5577
 20
23.575
 10
57.0176
 20
23.8295
 10
57.4843
 20
24.0902
 10
57.9585
 20
24.3587
 10
58.1791
 20
24.5357
 10
58.406
 20
24.7129
 10
58.6403
 20
24.8899
 10
58.6807
 20
24.9293
 10
58.721
 20
24.9748
 10
58.7613
 20
25.0285
 10
58.9418
 20
25.166
 10
59.1221
 20
25.3099
 10
59.3031
 20
25.4616
 10
59.7243
 20
25.8363
 10
60.1462
 20
26.2168
 10
60.5682
 20
26.6056
 10
60.6085
 20
26.6646
 10
60.6548
 20
26.7242
 10
60.7091
 20
26.7832
 10
61.077
 20
27.1445
 10
61.4525
 20
27.5139
 10
61.8346
 20
27.8886
 10
62.1218
 20
28.2104
 10
62.4181
 20
28.5407
 10
62.7195
 20
28.8763
 10
62.7257
 20
28.8764
 10
62.7397
 20
28.8763
 10
62.7593
 20
28.876
 10
62.7594
 20
28.8955
 10
62.7659
 20
28.9158
 10
62.7801
 20
28.9353
 10
62.8401
 20
28.9947
 10
62.9005
 20
29.0536
 10
62.9605
 20
29.1133
 10
62.9608
 20
29.133
 10
62.9671
 20
29.1528
 10
62.9808
 20
29.1727
 10
63.1017
 20
29.2971
 10
63.2287
 20
29.4293
 10
63.3633
 20
29.5678
 10
63.8326
 20
30.161
 10
64.3102
 20
30.7598
 10
64.7936
 20
31.3668
 10
64.9614
 20
31.6102
 10
65.1365
 20
31.8619
 10
65.3183
 20
32.1191
 10
65.3384
 20
32.1246
 10
65.3582
 20
32.1386
 10
65.3786
 20
32.1582
 10
65.7279
 20
32.6927
 10
66.0851
 20
33.2331
 10
66.4487
 20
33.7814
 10
66.57
 20
33.9855
 10
66.6914
 20
34.1975
 10
66.8128
 20
34.4156
 10
66.8136
 20
34.5155
 10
66.8088
 20
34.6208
 10
66.7959
 20
34.7344
 10
66.7566
 20
34.7948
 10
66.7115
 20
34.8607
 10
66.6584
 20
34.9347
 10
66.6326
 20
34.9552
 10
66.5989
 20
34.9813
 10
66.5597
 20
35.0155
 10
66.5196
 20
35.0219
 10
66.474
 20
35.0361
 10
66.4207
 20
35.0565
 10
66.3206
 20
35.0511
 10
66.2151
 20
35.0385
 10
66.1013
 20
35.0197
 10
66.0409
 20
34.9743
 10
65.981
 20
34.921
 10
65.9205
 20
34.8616
 10
65.8805
 20
34.8028
 10
65.8405
 20
34.7431
 10
65.7993
 20
34.6842
 10
65.6796
 20
34.6051
 10
65.5593
 20
34.5208
 10
65.4388
 20
34.4283
 10
65.3927
 20
34.4084
 10
65.3388
 20
34.3833
 10
65.2786
 20
34.3498
 10
65.159
 20
34.3313
 10
65.0397
 20
34.3125
 10
64.92
 20
34.2929
 10
64.7806
 20
34.3007
 10
64.6349
 20
34.3162
 10
64.4822
 20
34.3374
 10
64.3968
 20
34.3776
 10
64.3037
 20
34.4244
 10
64.2045
 20
34.4793
 10
64.0997
 20
34.5656
 10
63.9871
 20
34.6605
 10
63.8684
 20
34.761
 10
63.79
 20
34.9012
 10
63.6133
 20
35.1816
 10
63.5287
 20
35.2877
 10
63.4365
 20
35.4023
 10
63.3377
 20
35.5225
 10
63.2392
 20
35.6232
 10
63.1344
 20
35.7236
 10
63.0215
 20
35.8244
 10
62.9227
 20
35.8847
 10
62.8235
 20
35.9513
 10
62.7247
 20
36.0264
 10
62.5403
 20
36.0937
 10
62.3478
 20
36.169
 10
62.1493
 20
36.2506
 10
62.1433
 20
36.2565
 10
62.1296
 20
36.2704
 10
62.1095
 20
36.2906
 10
61.8316
 20
36.3531
 10
61.5475
 20
36.4214
 10
61.2551
 20
36.4978
 10
61.2158
 20
36.5377
 10
61.1707
 20
36.5841
 10
61.1174
 20
36.6379
 10
61.0915
 20
36.6982
 10
61.0586
 20
36.7581
 10
61.0191
 20
36.8185
 10
61.0197
 20
36.8979
 10
61.0146
 20
36.9838
 10
61.0018
 20
37.0773
 10
61.022
 20
37.1371
 10
61.0423
 20
37.1965
 10
61.063
 20
37.2562
 10
61.1033
 20
37.3016
 10
61.1494
 20
37.3553
 10
61.204
 20
37.4139
 10
61.29
 20
37.453
 10
61.3837
 20
37.498
 10
61.484
 20
37.5511
 10
61.6831
 20
37.5749
 10
61.8889
 20
37.607
 10
62.1022
 20
37.6449
 10
62.2416
 20
37.6437
 10
62.3868
 20
37.6424
 10
62.5403
 20
37.6409
 10
62.5801
 20
37.6606
 10
62.6206
 20
37.6861
 10
62.6604
 20
37.7195
 10
62.6807
 20
37.7452
 10
62.7008
 20
37.779
 10
62.7212
 20
37.8186
 10
62.7216
 20
37.8585
 10
62.7219
 20
37.8984
 10
62.7223
 20
37.9382
 10
62.7025
 20
37.9779
 10
62.6831
 20
38.0182
 10
62.6636
 20
38.0582
 10
62.6241
 20
38.0785
 10
62.5841
 20
38.1048
 10
62.5448
 20
38.1388
 10
62.3462
 20
38.2001
 10
62.1478
 20
38.2618
 10
61.9492
 20
38.3234
 10
61.6899
 20
38.3256
 10
61.4252
 20
38.334
 10
61.1525
 20
38.3507
 10
61.0469
 20
38.3314
 10
60.9329
 20
38.3068
 10
60.8132
 20
38.2738
 10
60.674
 20
38.2691
 10
60.5282
 20
38.2567
 10
60.375
 20
38.2383
 10
60.315
 20
38.2388
 10
60.2496
 20
38.2456
 10
60.1757
 20
38.2598
 10
60.0767
 20
38.301
 10
59.9775
 20
38.3473
 10
59.8784
 20
38.4019
 10
59.7938
 20
38.5022
 10
59.7008
 20
38.6027
 10
59.6025
 20
38.703
 10
59.5575
 20
38.8033
 10
59.5046
 20
38.9094
 10
59.4458
 20
39.0237
 10
59.4474
 20
39.2027
 10
59.4432
 20
39.3819
 10
59.4311
 20
39.5612
 10
59.4779
 20
39.6865
 10
59.5326
 20
39.8194
 10
59.5937
 20
39.9579
 10
59.64
 20
40.0174
 10
59.6943
 20
40.0765
 10
59.7546
 20
40.1359
 10
59.8547
 20
40.195
 10
59.9608
 20
40.2596
 10
60.0753
 20
40.3322
 10
60.1808
 20
40.3508
 10
60.2945
 20
40.3758
 10
60.4144
 20
40.4085
 10
60.5938
 20
40.3874
 10
60.7723
 20
40.3654
 10
61.091
 20
40.3428
 10
61.2367
 20
40.3475
 10
61.3899
 20
40.3599
 10
61.5154
 20
40.3986
 10
61.6496
 20
40.4432
 10
61.7894
 20
40.4958
 10
61.8897
 20
40.5747
 10
61.9958
 20
40.6532
 10
62.1102
 20
40.732
 10
62.1546
 20
40.7542
 10
62.3827
 20
40.9661
 10
63.9615
 20
39.1802
 10
63.9615
 20
39.18
 10
63.9447
 20
39.2005
 10
63.9113
 20
39.2404
 10
63.8772
 20
39.2786
 10
63.826
 20
39.3343
 10
63.7288
 20
39.4531
 10
63.5522
 20
39.6498
 10
63.2172
 20
40.023
 10
63.0467
 20
40.2176
 10
62.8
 20
40.4925
 10
62.6034
 20
40.7193
 10
62.5191
 20
40.8156
 10
62.3827
 20
40.9661
 10
62.4357
 20
41.0156
 10
62.6182
 20
41.1454
 10
62.6319
 20
41.1852
 10
62.7124
 20
41.2639
 10
62.7991
 20
41.3489
 10
62.8934
 20
41.4419
 10
63.055
 20
41.6795
 10
63.2224
 20
41.9227
 10
63.3982
 20
42.1741
 10
63.5807
 20
42.5508
 10
63.7634
 20
42.9334
 10
63.9462
 20
43.3243
 10
64.0268
 20
43.4429
 10
64.1135
 20
43.5615
 10
64.2083
 20
43.6803
 10
64.2686
 20
43.7397
 10
64.3347
 20
43.8047
 10
64.4094
 20
43.8776
 10
64.435
 20
43.8974
 10
64.469
 20
43.9169
 10
64.5095
 20
43.9366
 10
64.5097
 20
43.9426
 10
64.5097
 20
43.9565
 10
64.5098
 20
43.9764
 10
64.6961
 20
44.1001
 10
64.8905
 20
44.2319
 10
65.0906
 20
44.3693
 10
65.1167
 20
44.3689
 10
65.1506
 20
44.3751
 10
65.1908
 20
44.3886
 10
65.2708
 20
44.4277
 10
65.3511
 20
44.4729
 10
65.4308
 20
44.5257
 10
65.5767
 20
44.5644
 10
65.7303
 20
44.6086
 10
65.89
 20
44.6609
 10
66.289
 20
44.6771
 10
66.6873
 20
44.6997
 10
67.0859
 20
44.7296
 10
67.311
 20
44.7734
 10
67.5447
 20
44.8251
 10
67.784
 20
44.8829
 10
67.9842
 20
45.0006
 10
68.1848
 20
45.124
 10
68.3853
 20
45.2556
 10
68.3854
 20
45.2757
 10
68.3914
 20
45.2953
 10
68.4056
 20
45.3152
 10
68.5058
 20
45.4137
 10
68.6065
 20
45.5188
 10
68.7071
 20
45.6312
 10
68.971
 20
46.1526
 10
69.1125
 20
46.424
 10
69.1589
 20
46.4894
 10
69.2136
 20
46.5624
 10
69.2738
 20
46.642
 10
69.3541
 20
46.7011
 10
69.4344
 20
46.7598
 10
69.5143
 20
46.8191
 10
69.6
 20
46.8379
 10
69.6941
 20
46.8571
 10
69.794
 20
46.876
 10
69.9333
 20
46.8687
 10
70.0784
 20
46.8537
 10
70.2316
 20
46.8321
 10
70.3564
 20
46.7454
 10
70.489
 20
46.6507
 10
70.6275
 20
46.5498
 10
70.7667
 20
46.5426
 10
70.9121
 20
46.5274
 10
71.065
 20
46.5059
 10
71.1453
 20
46.545
 10
71.2313
 20
46.5844
 10
71.3254
 20
46.6233
 10
71.4258
 20
46.7217
 10
71.5258
 20
46.8204
 10
71.6266
 20
46.9193
 10
71.6665
 20
46.9389
 10
71.7129
 20
46.9645
 10
71.7667
 20
46.9977
 10
71.8663
 20
46.9968
 10
71.972
 20
47.0018
 10
72.0856
 20
47.0148
 10
72.1509
 20
46.9741
 10
72.2243
 20
46.9277
 10
72.3032
 20
46.873
 10
72.3425
 20
46.7934
 10
72.3815
 20
46.713
 10
72.4205
 20
46.6331
 10
72.4198
 20
46.5674
 10
72.4191
 20
46.4937
 10
72.4185
 20
46.4141
  0
LWPOLYLINE
  5
5E
330
1F
100
AcDbEntity
  8
0
100
AcDbPolyline
 90
      291
 70
   128
 43
0.0
 10
80.1847
 20
29.291
 10
80.1575
 20
29.4005
 10
80.1256
 20
29.5187
 10
80.0858
 20
29.6436
 10
80.0939
 20
29.7629
 10
80.0936
 20
29.8833
 10
80.0878
 20
30.0043
 10
80.075
 20
30.0661
 10
80.062
 20
30.1276
 10
80.0493
 20
30.1893
 10
79.942
 20
30.302
 10
79.8348
 20
30.4149
 10
79.7281
 20
30.5276
 10
79.6098
 20
30.547
 10
79.4929
 20
30.5752
 10
79.3766
 20
30.6084
 10
79.2548
 20
30.5971
 10
79.1259
 20
30.578
 10
78.9891
 20
30.554
 10
78.9099
 20
30.5633
 10
78.8244
 20
30.5669
 10
78.7296
 20
30.5639
 10
78.6131
 20
30.598
 10
78.4974
 20
30.6374
 10
78.3828
 20
30.6847
 10
78.3084
 20
30.7332
 10
78.228
 20
30.7832
 10
78.1395
 20
30.8334
 10
78.0661
 20
30.9424
 10
77.9855
 20
31.0578
 10
77.8997
 20
31.1825
 10
77.8739
 20
31.3057
 10
77.8482
 20
31.429
 10
77.8227
 20
31.5524
 10
77.8365
 20
31.671
 10
77.8444
 20
31.7903
 10
77.8439
 20
31.9108
 10
77.9272
 20
32.1074
 10
78.0172
 20
32.3113
 10
78.1161
 20
32.5206
 10
78.1227
 20
32.5256
 10
78.1379
 20
32.5384
 10
78.1605
 20
32.5555
 10
78.1715
 20
32.6002
 10
78.1915
 20
32.6519
 10
78.2181
 20
32.7089
 10
78.2305
 20
32.814
 10
78.2496
 20
32.9259
 10
78.2774
 20
33.043
 10
78.2829
 20
33.2627
 10
78.2886
 20
33.4827
 10
78.2944
 20
33.7027
 10
78.2646
 20
33.7924
 10
78.2301
 20
33.8908
 10
78.1881
 20
33.9958
 10
78.1911
 20
34.0216
 10
78.1891
 20
34.0559
 10
78.1798
 20
34.0971
 10
78.1323
 20
34.2028
 10
78.0846
 20
34.3086
 10
78.0367
 20
34.4148
 10
77.9115
 20
34.5956
 10
77.779
 20
34.7853
 10
77.6415
 20
34.9819
 10
77.4736
 20
35.0878
 10
77.3064
 20
35.2015
 10
77.1398
 20
35.3215
 10
77.0257
 20
35.3745
 10
76.9116
 20
35.4281
 10
76.7979
 20
35.4815
 10
76.5845
 20
35.5465
 10
76.3664
 20
35.6183
 10
76.1411
 20
35.6988
 10
76.0981
 20
35.7239
 10
76.047
 20
35.7498
 10
75.9899
 20
35.7763
 10
75.9295
 20
35.8237
 10
75.8616
 20
35.8778
 10
75.7885
 20
35.9403
 10
75.6999
 20
36.0371
 10
75.6114
 20
36.1415
 10
75.5241
 20
36.2521
 10
75.4916
 20
36.316
 10
75.4527
 20
36.3809
 10
75.4065
 20
36.446
 10
75.3463
 20
36.6195
 10
75.2877
 20
36.8008
 10
75.2292
 20
36.9884
 10
75.2361
 20
37.0475
 10
75.2436
 20
37.1125
 10
75.2523
 20
37.1862
 10
75.2496
 20
37.2124
 10
75.2396
 20
37.2475
 10
75.2243
 20
37.2894
 10
75.2492
 20
37.6735
 10
75.275
 20
38.0655
 10
75.317
 20
38.4525
 10
75.3259
 20
38.5007
 10
75.3267
 20
38.5315
 10
75.3336
 20
38.6563
 10
75.3386
 20
38.8461
 10
75.6775
 20
38.8276
 10
76.5178
 20
38.7802
 10
77.13
 20
38.7442
 10
77.7871
 20
38.7052
 10
77.8594
 20
38.7009
 10
77.9649
 20
38.6996
 10
75.3386
 20
38.8461
 10
75.3541
 20
39.0307
 10
75.361
 20
39.1556
 10
75.3807
 20
39.2769
 10
75.3931
 20
39.3476
 10
75.4283
 20
39.5516
 10
75.4515
 20
39.7494
 10
75.4591
 20
39.8148
 10
75.4737
 20
39.8872
 10
75.4969
 20
39.9644
 10
75.5485
 20
40.0649
 10
75.6068
 20
40.1718
 10
75.6746
 20
40.2845
 10
75.7438
 20
40.3629
 10
75.8198
 20
40.4482
 10
75.9047
 20
40.5385
 10
75.9313
 20
40.559
 10
75.9505
 20
40.5784
 10
76.0016
 20
40.6237
 10
76.0448
 20
40.6481
 10
76.0704
 20
40.6644
 10
76.1012
 20
40.6757
 10
76.4035
 20
40.8068
 10
76.7143
 20
40.9449
 10
77.0316
 20
41.0889
 10
77.142
 20
41.1759
 10
77.2586
 20
41.2624
 10
77.3827
 20
41.3482
 10
77.4717
 20
41.4244
 10
77.5619
 20
41.5079
 10
77.6526
 20
41.5976
 10
77.8076
 20
41.8459
 10
77.9721
 20
42.1014
 10
78.1428
 20
42.3624
 10
78.1705
 20
42.4107
 10
78.1846
 20
42.4576
 10
78.2055
 20
42.5154
 10
78.2153
 20
42.5548
 10
78.2183
 20
42.5842
 10
78.2323
 20
42.6127
 10
78.2681
 20
42.7484
 10
78.3039
 20
42.8847
 10
78.3402
 20
43.0207
 10
78.3564
 20
43.1596
 10
78.3732
 20
43.3036
 10
78.3911
 20
43.4565
 10
78.379
 20
43.6983
 10
78.3613
 20
43.9407
 10
78.3355
 20
44.1843
 10
78.2774
 20
44.3717
 10
78.2132
 20
44.5596
 10
78.1408
 20
44.7485
 10
78.1092
 20
44.8184
 10
78.0722
 20
44.8969
 10
78.0276
 20
44.9823
 10
77.9852
 20
45.1297
 10
77.9542
 20
45.2595
 10
77.9332
 20
45.3741
 10
77.9518
 20
45.5326
 10
77.9768
 20
45.6965
 10
78.0111
 20
45.8665
 10
78.0746
 20
46.0194
 10
78.1465
 20
46.1714
 10
78.2246
 20
46.3229
 10
78.2561
 20
46.3566
 10
78.279
 20
46.3876
 10
78.3084
 20
46.421
 10
78.3506
 20
46.4855
 10
78.4248
 20
46.5352
 10
78.4767
 20
46.5942
 10
78.6442
 20
46.6551
 10
78.8183
 20
46.7206
 10
79.0011
 20
46.7935
 10
79.1823
 20
46.7985
 10
79.3704
 20
46.8104
 10
79.5666
 20
46.8276
 10
79.645
 20
46.8123
 10
79.7268
 20
46.7968
 10
79.7704
 20
46.7901
 10
79.8001
 20
46.7816
 10
79.9201
 20
46.7722
 10
80.1161
 20
46.7785
 10
80.117
 20
46.777
 10
80.1114
 20
46.6926
 10
79.7752
 20
40.7085
 10
79.783
 20
40.8521
 10
79.7756
 20
40.7179
 10
79.7717
 20
40.6461
 10
79.7844
 20
40.8958
 10
79.8119
 20
41.4006
 10
79.8599
 20
42.2744
 10
79.907
 20
42.9994
 10
79.9413
 20
43.6235
 10
79.9804
 20
44.261
 10
80.0352
 20
45.2595
 10
80.0606
 20
45.8911
 10
80.1161
 20
46.7785
 10
80.3029
 20
46.7658
 10
80.4243
 20
46.7639
 10
80.4444
 20
46.7632
 10
80.4606
 20
46.7642
 10
80.4674
 20
46.7626
 10
80.5448
 20
46.7613
 10
80.6021
 20
46.7669
 10
80.7078
 20
46.7606
 10
80.822
 20
46.7613
 10
80.9595
 20
46.7392
 10
81.0971
 20
46.7092
 10
81.2332
 20
46.6731
 10
81.3532
 20
46.6189
 10
81.4802
 20
46.5581
 10
81.6123
 20
46.4885
 10
81.7415
 20
46.3934
 10
81.8761
 20
46.2914
 10
82.0176
 20
46.1807
 10
82.1373
 20
46.0061
 10
82.2636
 20
45.8313
 10
82.3974
 20
45.6549
 10
82.4276
 20
45.5711
 10
82.4632
 20
45.4809
 10
82.5056
 20
45.3816
 10
82.5459
 20
45.2104
 10
82.5911
 20
45.0309
 10
82.6435
 20
44.8444
 10
82.6366
 20
44.7849
 10
82.6355
 20
44.7247
 10
82.6423
 20
44.6636
 10
82.6461
 20
44.6435
 10
82.6575
 20
44.6223
 10
82.6751
 20
44.5997
 10
82.7606
 20
43.788
 10
82.8456
 20
42.97
 10
82.9295
 20
42.1441
 10
82.9202
 20
42.0651
 10
82.9169
 20
41.9851
 10
82.9213
 20
41.9045
 10
82.9499
 20
41.6343
 10
82.9778
 20
41.3564
 10
83.0051
 20
41.0727
 10
83.0158
 20
40.65
 10
83.0324
 20
40.2273
 10
83.0571
 20
39.8032
 10
83.0344
 20
38.9238
 10
83.0172
 20
38.0374
 10
83.0069
 20
37.1422
 10
82.9277
 20
36.2896
 10
82.8537
 20
35.4358
 10
82.7877
 20
34.5813
 10
82.7392
 20
34.1658
 10
82.6851
 20
33.7511
 10
82.6226
 20
33.3374
 10
82.4938
 20
32.6309
 10
82.3575
 20
31.9251
 10
82.2148
 20
31.2199
 10
82.0926
 20
30.6865
 10
81.969
 20
30.1453
 10
81.8451
 20
29.5985
 10
81.7892
 20
29.4648
 10
81.7277
 20
29.3316
 10
81.658
 20
29.1992
 10
81.6293
 20
29.1764
 10
81.5916
 20
29.1468
 10
81.5476
 20
29.1122
 10
81.5452
 20
29.0922
 10
81.5363
 20
29.0672
 10
81.5185
 20
29.0353
 10
81.4124
 20
28.9874
 10
81.3003
 20
28.9345
 10
81.1788
 20
28.8744
 10
81.099
 20
28.8777
 10
81.0122
 20
28.8737
 10
80.9171
 20
28.8648
 10
80.7992
 20
28.8843
 10
80.6821
 20
28.9124
 10
80.5657
 20
28.946
 10
80.4913
 20
28.995
 10
80.4116
 20
29.0505
 10
80.3245
 20
29.1146
 10
80.3037
 20
29.1569
 10
80.2751
 20
29.2065
 10
80.2423
 20
29.2646
 10
80.2218
 20
29.2671
 10
80.2031
 20
29.2749
 10
80.1847
 20
29.291
  0
LWPOLYLINE
  5
5F
330
1F
100
AcDbEntity
  8
0
100
AcDbPolyline
 90
        5
 70
   128
 43
0.0
 10
0.9829
 20
1.0166
 10
94.9829
 20
1.0166
 10
94.9829
 20
47.0166
 10
0.9829
 20
47.0166
 10
0.9829
 20
1.0166
  0
ENDSEC
  0
SECTION
  2
OBJECTS
  0
DICTIONARY
  5
C
330
0
100
AcDbDictionary
281
     1
  3
ACAD_GROUP
350
D
  3
ACAD_LAYOUT
350
1A
  3
ACAD_MLINESTYLE
350
17
  3
ACAD_PLOTSETTINGS
350
19
  3
ACAD_PLOTSTYLENAME
350
E
  0
DICTIONARY
  5
D
102
{ACAD_REACTORS
330
C
102
}
330
C
100
AcDbDictionary
281
     1
  0
DICTIONARY
  5
1A
102
{ACAD_REACTORS
330
C
102
}
330
C
100
AcDbDictionary
281
     1
  3
Layout1
350
1E
  3
Layout2
350
26
  3
Model
350
22
  0
DICTIONARY
  5
17
102
{ACAD_REACTORS
330
C
102
}
330
C
100
AcDbDictionary
281
     1
  3
Standard
350
18
  0
DICTIONARY
  5
19
102
{ACAD_REACTORS
330
C
102
}
330
C
100
AcDbDictionary
281
     1
  0
ACDBDICTIONARYWDFLT
  5
E
102
{ACAD_REACTORS
330
C
102
}
330
C
100
AcDbDictionary
281
     1
  3
Normal
350
F
100
AcDbDictionaryWithDefault
340
F
  0
LAYOUT
  5
1E
102
{ACAD_REACTORS
330
1A
102
}
330
1A
100
AcDbPlotSettings
  1

  2

  4

  6

 40
0.0
 41
0.0
 42
0.0
 43
0.0
 44
0.0
 45
0.0
 46
0.0
 47
0.0
 48
0.0
 49
0.0
140
0.0
141
0.0
142
1.0
143
1.0
 70
   688
 72
     0
 73
     0
 74
     5
  7

 75
    16
147
1.0
148
0.0
149
0.0
100
AcDbLayout
  1
Layout1
 70
     1
 71
     1
 10
0.0
 20
0.0
 11
420.0
 21
297.0
 12
0.0
 22
0.0
 32
0.0
 14
1.000000E+20
 24
1.000000E+20
 34
1.000000E+20
 15
-1.000000E+20
 25
-1.000000E+20
 35
-1.000000E+20
146
0.0
 13
0.0
 23
0.0
 33
0.0
 16
1.0
 26
0.0
 36
0.0
 17
0.0
 27
1.0
 37
0.0
 76
     0
330
1B
  0
LAYOUT
  5
26
102
{ACAD_REACTORS
330
1A
102
}
330
1A
100
AcDbPlotSettings
  1

  2

  4

  6

 40
0.0
 41
0.0
 42
0.0
 43
0.0
 44
0.0
 45
0.0
 46
0.0
 47
0.0
 48
0.0
 49
0.0
140
0.0
141
0.0
142
1.0
143
1.0
 70
   688
 72
     0
 73
     0
 74
     5
  7

 75
    16
147
1.0
148
0.0
149
0.0
100
AcDbLayout
  1
Layout2
 70
     1
 71
     2
 10
0.0
 20
0.0
 11
0.0
 21
0.0
 12
0.0
 22
0.0
 32
0.0
 14
0.0
 24
0.0
 34
0.0
 15
0.0
 25
0.0
 35
0.0
146
0.0
 13
0.0
 23
0.0
 33
0.0
 16
1.0
 26
0.0
 36
0.0
 17
0.0
 27
1.0
 37
0.0
 76
     0
330
23
  0
LAYOUT
  5
22
102
{ACAD_REACTORS
330
1A
102
}
330
1A
100
AcDbPlotSettings
  1

  2

  4

  6

 40
0.0
 41
0.0
 42
0.0
 43
0.0
 44
0.0
 45
0.0
 46
0.0
 47
0.0
 48
0.0
 49
0.0
140
0.0
141
0.0
142
1.0
143
1.0
 70
  1712
 72
     0
 73
     0
 74
     0
  7

 75
     0
147
1.0
148
0.0
149
0.0
100
AcDbLayout
  1
Model
 70
     1
 71
     0
 10
0.0
 20
0.0
 11
0.0
 21
0.0
 12
0.0
 22
0.0
 32
0.0
 14
0.0
 24
0.0
 34
0.0
 15
0.0
 25
0.0
 35
0.0
146
0.0
 13
0.0
 23
0.0
 33
0.0
 16
1.0
 26
0.0
 36
0.0
 17
0.0
 27
1.0
 37
0.0
 76
     0
330
1F
  0
MLINESTYLE
  5
18
102
{ACAD_REACTORS
330
17
102
}
330
17
100
AcDbMlineStyle
  2
Standard
 70
     0
  3

 62
   256
 51
90.0
 52
90.0
 71
     2
 49
1.0
 62
   256
  6
BYLAYER
 49
-1.0
 62
   256
  6
BYLAYER
  0
ACDBPLACEHOLDER
  5
F
102
{ACAD_REACTORS
330
E
102
}
330
E
  0
ENDSEC
  0
EOF
