  0
SECTION
  2
HEADER
  9
$ACADVER
  1
AC1009
  9
$DWGCODEPAGE
  3
ansi_1252
  9
$INSBASE
 10
0.0
 20
0.0
 30
0.0
  9
$EXTMIN
 10
0.8081017755516574
 20
-6.811840711085751
 30
0.0
  9
$EXTMAX
 10
126.0240149904816
 20
90.39078611113327
 30
0.0
  9
$LIMMIN
 10
0.0
 20
0.0
  9
$LIMMAX
 10
12.0
 20
9.0
  9
$ORTHOMODE
 70
     0
  9
$REGENMODE
 70
     1
  9
$FILLMODE
 70
     1
  9
$QTEXTMODE
 70
     0
  9
$MIRRTEXT
 70
     1
  9
$DRAGMODE
 70
     2
  9
$LTSCALE
 40
1.0
  9
$OSMODE
 70
    37
  9
$ATTMODE
 70
     1
  9
$TEXTSIZE
 40
0.2
  9
$TRACEWID
 40
0.05
  9
$TEXTSTYLE
  7
STANDARD
  9
$CLAYER
  8
0
  9
$CELTYPE
  6
BYBLOCK
  9
$CECOLOR
 62
   256
  9
$DIMSCALE
 40
1.0
  9
$DIMASZ
 40
0.18
  9
$DIMEXO
 40
0.0625
  9
$DIMDLI
 40
0.38
  9
$DIMRND
 40
0.0
  9
$DIMDLE
 40
0.0
  9
$DIMEXE
 40
0.18
  9
$DIMTP
 40
0.0
  9
$DIMTM
 40
0.0
  9
$DIMTXT
 40
0.18
  9
$DIMCEN
 40
0.09
  9
$DIMTSZ
 40
0.0
  9
$DIMTOL
 70
     0
  9
$DIMLIM
 70
     0
  9
$DIMTIH
 70
     1
  9
$DIMTOH
 70
     1
  9
$DIMSE1
 70
     0
  9
$DIMSE2
 70
     0
  9
$DIMTAD
 70
     0
  9
$DIMZIN
 70
     0
  9
$DIMBLK
  1

  9
$DIMASO
 70
     1
  9
$DIMSHO
 70
     1
  9
$DIMPOST
  1

  9
$DIMAPOST
  1

  9
$DIMALT
 70
     0
  9
$DIMALTD
 70
     2
  9
$DIMALTF
 40
25.4
  9
$DIMLFAC
 40
1.0
  9
$DIMTOFL
 70
     0
  9
$DIMTVP
 40
0.0
  9
$DIMTIX
 70
     0
  9
$DIMSOXD
 70
     0
  9
$DIMSAH
 70
     0
  9
$DIMBLK1
  1

  9
$DIMBLK2
  1

  9
$DIMSTYLE
  2
STANDARD
  9
$DIMCLRD
 70
     0
  9
$DIMCLRE
 70
     0
  9
$DIMCLRT
 70
     0
  9
$DIMTFAC
 40
1.0
  9
$DIMGAP
 40
0.09
  9
$LUNITS
 70
     2
  9
$LUPREC
 70
     4
  9
$SKETCHINC
 40
0.1
  9
$FILLETRAD
 40
0.5
  9
$AUNITS
 70
     0
  9
$AUPREC
 70
     0
  9
$MENU
  1
.
  9
$ELEVATION
 40
0.0
  9
$PELEVATION
 40
0.0
  9
$THICKNESS
 40
0.0
  9
$LIMCHECK
 70
     0
  9
$CHAMFERA
 40
0.5
  9
$CHAMFERB
 40
0.5
  9
$SKPOLY
 70
     0
  9
$TDCREATE
 40
2453353.508792488
  9
$TDUPDATE
 40
9820979.874225184
  9
$TDINDWG
 40
9791572.06217926
  9
$TDUSRTIMER
 40
9791572.06217926
  9
$USRTIMER
 70
     1
  9
$ANGBASE
 50
0.0
  9
$ANGDIR
 70
     0
  9
$PDMODE
 70
     0
  9
$PDSIZE
 40
0.0
  9
$PLINEWID
 40
0.0
  9
$COORDS
 70
     1
  9
$SPLFRAME
 70
     0
  9
$SPLINETYPE
 70
     6
  9
$SPLINESEGS
 70
     8
  9
$ATTDIA
 70
     0
  9
$ATTREQ
 70
     1
  9
$HANDLING
 70
     1
  9
$HANDSEED
  5
B67
  9
$SURFTAB1
 70
     6
  9
$SURFTAB2
 70
     6
  9
$SURFTYPE
 70
     6
  9
$SURFU
 70
     6
  9
$SURFV
 70
     6
  9
$UCSNAME
  2

  9
$UCSORG
 10
0.0
 20
0.0
 30
0.0
  9
$UCSXDIR
 10
1.0
 20
0.0
 30
0.0
  9
$UCSYDIR
 10
0.0
 20
1.0
 30
0.0
  9
$PUCSNAME
  2

  9
$PUCSORG
 10
0.0
 20
0.0
 30
0.0
  9
$PUCSXDIR
 10
1.0
 20
0.0
 30
0.0
  9
$PUCSYDIR
 10
0.0
 20
1.0
 30
0.0
  9
$USERI1
 70
     0
  9
$USERI2
 70
     0
  9
$USERI3
 70
     0
  9
$USERI4
 70
     0
  9
$USERI5
 70
     0
  9
$USERR1
 40
0.0
  9
$USERR2
 40
0.0
  9
$USERR3
 40
0.0
  9
$USERR4
 40
0.0
  9
$USERR5
 40
0.0
  9
$WORLDVIEW
 70
     1
  9
$SHADEDGE
 70
     3
  9
$SHADEDIF
 70
    70
  9
$TILEMODE
 70
     1
  9
$MAXACTVP
 70
    64
  9
$PLIMCHECK
 70
     0
  9
$PEXTMIN
 10
0.0
 20
0.0
 30
0.0
  9
$PEXTMAX
 10
0.0
 20
0.0
 30
0.0
  9
$PLIMMIN
 10
0.0
 20
0.0
  9
$PLIMMAX
 10
0.0
 20
0.0
  9
$UNITMODE
 70
     0
  9
$VISRETAIN
 70
     1
  9
$PLINEGEN
 70
     0
  9
$PSLTSCALE
 70
     1
  0
ENDSEC
  0
SECTION
  2
TABLES
  0
TABLE
  2
VPORT
 70
     1
  0
VPORT
  2
*ACTIVE
 70
     0
 10
0.0
 20
0.0
 11
1.0
 21
1.0
 12
25.02367750073848
 22
31.45302670975802
 13
0.0
 23
0.0
 14
0.5
 24
0.5
 15
0.5
 25
0.5
 16
0.0
 26
0.0
 36
1.0
 17
0.0
 27
0.0
 37
0.0
 40
77.56003453773342
 41
1.972972972850329
 42
50.0
 43
0.0
 44
0.0
 50
0.0
 51
0.0
 71
    16
 72
   100
 73
     1
 74
     3
 75
     0
 76
     0
 77
     0
 78
     0
  0
ENDTAB
  0
TABLE
  2
LTYPE
 70
     1
  0
LTYPE
  2
CONTINUOUS
 70
     0
  3
Solid line
 72
    65
 73
     0
 40
0.0
  0
ENDTAB
  0
TABLE
  2
LAYER
 70
     2
  0
LAYER
  2
0
 70
     0
 62
     7
  6
CONTINUOUS
  0
LAYER
  2
LAYER_1
 70
     0
 62
     7
  6
CONTINUOUS
  0
ENDTAB
  0
TABLE
  2
STYLE
 70
     1
  0
STYLE
  2
STANDARD
 70
     0
 40
0.0
 41
1.0
 50
0.0
 71
     0
 42
0.2
  3
txt
  4

  0
ENDTAB
  0
TABLE
  2
VIEW
 70
     0
  0
ENDTAB
  0
TABLE
  2
UCS
 70
     0
  0
ENDTAB
  0
TABLE
  2
APPID
 70
     1
  0
APPID
  2
ACAD
 70
     0
  0
ENDTAB
  0
TABLE
  2
DIMSTYLE
 70
     1
  0
DIMSTYLE
  2
STANDARD
 70
     0
  3

  4

  5

  6

  7

 40
1.0
 41
0.18
 42
0.0625
 43
0.38
 44
0.18
 45
0.0
 46
0.0
 47
0.0
 48
0.0
140
0.18
141
0.09
142
0.0
143
25.4
144
1.0
145
0.0
146
1.0
147
0.09
 71
     0
 72
     0
 73
     1
 74
     1
 75
     0
 76
     0
 77
     0
 78
     0
170
     0
171
     2
172
     0
173
     0
174
     0
175
     0
176
     0
177
     0
178
     0
  0
ENDTAB
  0
ENDSEC
  0
SECTION
  2
BLOCKS
  0
BLOCK
  8
0
  2
$MODEL_SPACE
 70
     0
 10
0.0
 20
0.0
 30
0.0
  3
$MODEL_SPACE
  1

  0
ENDBLK
  5
21
  8
0
  0
BLOCK
 67
     1
  8
0
  2
$PAPER_SPACE
 70
     0
 10
0.0
 20
0.0
 30
0.0
  3
$PAPER_SPACE
  1

  0
ENDBLK
  5
76
 67
     1
  8
0
  0
ENDSEC
  0
SECTION
  2
ENTITIES
  0
LINE
  5
588
  8
LAYER_1
 10
0.8081017755516574
 20
0.8872969382702254
 30
0.0
 11
3.082502013822844
 21
0.7317394205861916
 31
0.0
  0
LINE
  5
589
  8
LAYER_1
 10
3.082502013822844
 20
0.7317394205861916
 30
0.0
 11
10.72007658551945
 21
7.515701802637293
 31
0.0
  0
LINE
  5
58E
  8
LAYER_1
 10
10.72007658551945
 20
7.515701802637293
 30
0.0
 11
13.43406513907459
 21
7.557269624564354
 31
0.0
  0
LINE
  5
58F
  8
LAYER_1
 10
13.43406513907459
 20
7.557269624564354
 30
0.0
 11
16.46850684420314
 21
7.1256440506302
 31
0.0
  0
LINE
  5
590
  8
LAYER_1
 10
16.46850684420314
 20
7.1256440506302
 30
0.0
 11
17.97044674542494
 21
6.895233530056917
 31
0.0
  0
LINE
  5
591
  8
LAYER_1
 10
17.97044674542494
 20
6.895233530056917
 30
0.0
 11
19.8577391857472
 21
6.180751742348082
 31
0.0
  0
LINE
  5
592
  8
LAYER_1
 10
19.8577391857472
 20
6.180751742348082
 30
0.0
 11
23.68465549428758
 21
3.596899450319179
 31
0.0
  0
LINE
  5
595
  8
LAYER_1
 10
25.71770502726868
 20
4.501150271363031
 30
0.0
 11
25.63480638121944
 21
6.520876847137808
 31
0.0
  0
LINE
  5
596
  8
LAYER_1
 10
25.63480638121944
 20
6.520876847137808
 30
0.0
 11
25.72055449682538
 21
7.160910399981747
 31
0.0
  0
LINE
  5
597
  8
LAYER_1
 10
25.72055449682538
 20
7.160910399981747
 30
0.0
 11
26.0140471357656
 21
7.563513064197843
 31
0.0
  0
LINE
  5
598
  8
LAYER_1
 10
26.0140471357656
 20
7.563513064197843
 30
0.0
 11
26.52043675425514
 21
7.732365182834294
 31
0.0
  0
LINE
  5
599
  8
LAYER_1
 10
26.52043675425514
 20
7.732365182834294
 30
0.0
 11
27.24487487766684
 21
7.671146733517768
 31
0.0
  0
LINE
  5
59A
  8
LAYER_1
 10
27.24487487766684
 20
7.671146733517768
 30
0.0
 11
29.36850180990607
 21
6.873217676110897
 31
0.0
  0
LINE
  5
59B
  8
LAYER_1
 10
29.36850180990607
 20
6.873217676110897
 30
0.0
 11
31.1275317699677
 21
5.899727613583492
 31
0.0
  0
LINE
  5
59C
  8
LAYER_1
 10
31.1275317699677
 20
5.899727613583492
 30
0.0
 11
32.84998206030564
 21
4.699567541368216
 31
0.0
  0
LINE
  5
59D
  8
LAYER_1
 10
32.84998206030564
 20
4.699567541368216
 30
0.0
 11
34.46798903643467
 21
3.325045107225069
 31
0.0
  0
LINE
  5
59E
  8
LAYER_1
 10
34.46798903643467
 20
3.325045107225069
 30
0.0
 11
35.913688488449
 21
1.828466662650429
 31
0.0
  0
LINE
  5
59F
  8
LAYER_1
 10
35.913688488449
 20
1.828466662650429
 30
0.0
 11
37.46700827070361
 21
0.6737911460752779
 31
0.0
  0
LINE
  5
5B0
  8
LAYER_1
 10
42.19660872715438
 20
5.720955952098933
 30
0.0
 11
40.37652040359734
 21
7.282551301605582
 31
0.0
  0
LINE
  5
5B1
  8
LAYER_1
 10
40.37652040359734
 20
7.282551301605582
 30
0.0
 11
38.59940471573927
 21
8.871005014518145
 31
0.0
  0
LINE
  5
5B2
  8
LAYER_1
 10
38.59940471573927
 20
8.871005014518145
 30
0.0
 11
37.29073921777883
 21
10.30769377426016
 31
0.0
  0
LINE
  5
5B3
  8
LAYER_1
 10
37.29073921777883
 20
10.30769377426016
 30
0.0
 11
36.36544228264216
 21
11.70037413423069
 31
0.0
  0
LINE
  5
5B4
  8
LAYER_1
 10
36.36544228264216
 20
11.70037413423069
 30
0.0
 11
35.73843248325449
 21
13.15680487493475
 31
0.0
  0
LINE
  5
5B5
  8
LAYER_1
 10
35.73843248325449
 20
13.15680487493475
 30
0.0
 11
35.39324831385452
 21
14.55996788673085
 31
0.0
  0
LINE
  5
5B6
  8
LAYER_1
 10
35.39324831385452
 20
14.55996788673085
 30
0.0
 11
35.49106851688929
 21
14.89175411777765
 31
0.0
  0
LINE
  5
5B7
  8
LAYER_1
 10
35.49106851688929
 20
14.89175411777765
 30
0.0
 11
35.77161559682936
 21
15.12211534858071
 31
0.0
  0
LINE
  5
5B8
  8
LAYER_1
 10
35.77161559682936
 20
15.12211534858071
 30
0.0
 11
36.50453561830986
 21
15.32357351797082
 31
0.0
  0
LINE
  5
5B9
  8
LAYER_1
 10
36.50453561830986
 20
15.32357351797082
 30
0.0
 11
37.52982706768709
 21
15.27118608532766
 31
0.0
  0
LINE
  5
5BA
  8
LAYER_1
 10
37.52982706768709
 20
15.27118608532766
 30
0.0
 11
38.81130098355327
 21
14.97910988098956
 31
0.0
  0
LINE
  5
5BB
  8
LAYER_1
 10
38.81130098355327
 20
14.97910988098956
 30
0.0
 11
40.31276970076437
 21
14.46150116987422
 31
0.0
  0
LINE
  5
5BC
  8
LAYER_1
 10
40.31276970076437
 20
14.46150116987422
 30
0.0
 11
43.83094031322435
 21
12.80630999071905
 31
0.0
  0
LINE
  5
5BD
  8
LAYER_1
 10
43.83094031322435
 20
12.80630999071905
 30
0.0
 11
48.78327946711288
 21
11.22211271793549
 31
0.0
  0
LINE
  5
5BE
  8
LAYER_1
 10
48.78327946711288
 20
11.22211271793549
 30
0.0
 11
55.25485711979907
 21
9.778986432366152
 31
0.0
  0
LINE
  5
5DE
  8
LAYER_1
 10
57.36883873962471
 20
20.35679793692066
 30
0.0
 11
51.87661448036997
 21
22.57814356427068
 31
0.0
  0
LINE
  5
5DF
  8
LAYER_1
 10
51.87661448036997
 20
22.57814356427068
 30
0.0
 11
49.03969739206947
 21
23.53416002714078
 31
0.0
  0
LINE
  5
5E0
  8
LAYER_1
 10
49.03969739206947
 20
23.53416002714078
 30
0.0
 11
46.76429221718015
 21
24.62832938996717
 31
0.0
  0
LINE
  5
5E1
  8
LAYER_1
 10
46.76429221718015
 20
24.62832938996717
 30
0.0
 11
45.96313342746119
 21
25.17669984181613
 31
0.0
  0
LINE
  5
5E2
  8
LAYER_1
 10
45.96313342746119
 20
25.17669984181613
 30
0.0
 11
45.45352475307718
 21
25.69898497838673
 31
0.0
  0
LINE
  5
5E3
  8
LAYER_1
 10
45.45352475307718
 20
25.69898497838673
 30
0.0
 11
45.09628064203037
 21
26.60798690930183
 31
0.0
  0
LINE
  5
5E4
  8
LAYER_1
 10
45.09628064203037
 20
26.60798690930183
 30
0.0
 11
45.27940331114566
 21
27.45440857913378
 31
0.0
  0
LINE
  5
5E5
  8
LAYER_1
 10
45.27940331114566
 20
27.45440857913378
 30
0.0
 11
45.95265290088908
 21
28.21565246547397
 31
0.0
  0
LINE
  5
5E6
  8
LAYER_1
 10
45.95265290088908
 20
28.21565246547397
 30
0.0
 11
47.06578602835719
 21
28.86912181133348
 31
0.0
  0
LINE
  5
5E7
  8
LAYER_1
 10
47.06578602835719
 20
28.86912181133348
 30
0.0
 11
48.56855911064744
 21
29.39221763261758
 31
0.0
  0
LINE
  5
5E8
  8
LAYER_1
 10
48.56855911064744
 20
29.39221763261758
 30
0.0
 11
50.41072969569849
 21
29.76234353775891
 31
0.0
  0
LINE
  5
5E9
  8
LAYER_1
 10
50.41072969569849
 20
29.76234353775891
 30
0.0
 11
52.54205735855574
 21
29.95690070808519
 31
0.0
  0
LINE
  5
5EA
  8
LAYER_1
 10
52.54205735855574
 20
29.95690070808519
 30
0.0
 11
54.91229778547363
 21
29.95329202118596
 31
0.0
  0
LINE
  5
5EB
  8
LAYER_1
 10
54.91229778547363
 20
29.95329202118596
 30
0.0
 11
58.93938825332844
 21
30.06021200392442
 31
0.0
  0
LINE
  5
5ED
  8
LAYER_1
 10
54.40891058722271
 20
44.97525784553129
 30
0.0
 11
56.2572303698885
 21
46.95301991761443
 31
0.0
  0
LINE
  5
5EE
  8
LAYER_1
 10
56.2572303698885
 20
46.95301991761443
 30
0.0
 11
57.35005081626895
 21
48.0627743485209
 31
0.0
  0
LINE
  5
5EF
  8
LAYER_1
 10
57.35005081626895
 20
48.0627743485209
 30
0.0
 11
59.7905490927327
 21
50.95743392506272
 31
0.0
  0
LINE
  5
5F0
  8
LAYER_1
 10
54.92281111728109
 20
61.41976459825153
 30
0.0
 11
53.29644551085656
 21
60.16213444429013
 31
0.0
  0
LINE
  5
5F1
  8
LAYER_1
 10
53.29644551085656
 20
60.16213444429013
 30
0.0
 11
51.40662032776844
 21
58.8246049709091
 31
0.0
  0
LINE
  5
5F2
  8
LAYER_1
 10
51.40662032776844
 20
58.8246049709091
 30
0.0
 11
50.49801386891067
 21
58.4397595248429
 31
0.0
  0
LINE
  5
5F3
  8
LAYER_1
 10
50.49801386891067
 20
58.4397595248429
 30
0.0
 11
49.62037288234595
 21
58.24497686278152
 31
0.0
  0
LINE
  5
5F4
  8
LAYER_1
 10
49.62037288234595
 20
58.24497686278152
 30
0.0
 11
48.77876904543867
 21
58.24084279844269
 31
0.0
  0
LINE
  5
5F5
  8
LAYER_1
 10
48.77876904543867
 20
58.24084279844269
 30
0.0
 11
47.97827330471014
 21
58.42794500722837
 31
0.0
  0
LINE
  5
5F6
  8
LAYER_1
 10
47.97827330471014
 20
58.42794500722837
 30
0.0
 11
47.22395511041889
 21
58.80686950285538
 31
0.0
  0
LINE
  5
5F7
  8
LAYER_1
 10
47.22395511041889
 20
58.80686950285538
 30
0.0
 11
46.52088763619203
 21
59.37820376072661
 31
0.0
  0
LINE
  5
5F8
  8
LAYER_1
 10
46.52088763619203
 20
59.37820376072661
 30
0.0
 11
45.80460473103761
 21
60.32514391215571
 31
0.0
  0
LINE
  5
5F9
  8
LAYER_1
 10
45.80460473103761
 20
60.32514391215571
 30
0.0
 11
45.06835298130159
 21
61.76682183824855
 31
0.0
  0
LINE
  5
606
  8
LAYER_1
 10
40.4999927179012
 20
61.20318577991576
 30
0.0
 11
40.05119591776123
 21
58.87587085290853
 31
0.0
  0
LINE
  5
607
  8
LAYER_1
 10
40.05119591776123
 20
58.87587085290853
 30
0.0
 11
39.51391396249235
 21
56.57844652924162
 31
0.0
  0
LINE
  5
608
  8
LAYER_1
 10
39.51391396249235
 20
56.57844652924162
 30
0.0
 11
38.66768886874076
 21
54.08232098167692
 31
0.0
  0
LINE
  5
609
  8
LAYER_1
 10
38.66768886874076
 20
54.08232098167692
 30
0.0
 11
37.69960738785971
 21
51.87274138931096
 31
0.0
  0
LINE
  5
60A
  8
LAYER_1
 10
37.69960738785971
 20
51.87274138931096
 30
0.0
 11
36.79675979457189
 21
50.43495416582049
 31
0.0
  0
LINE
  5
60B
  8
LAYER_1
 10
36.79675979457189
 20
50.43495416582049
 30
0.0
 11
35.71640424098597
 21
49.37829361364393
 31
0.0
  0
LINE
  5
60C
  8
LAYER_1
 10
35.71640424098597
 20
49.37829361364393
 30
0.0
 11
34.7901266205064
 21
48.80909959338489
 31
0.0
  0
LINE
  5
60D
  8
LAYER_1
 10
34.7901266205064
 20
48.80909959338489
 30
0.0
 11
33.91301112618881
 21
48.68716389713472
 31
0.0
  0
LINE
  5
60E
  8
LAYER_1
 10
33.91301112618881
 20
48.68716389713472
 30
0.0
 11
32.98014231651043
 21
48.97227738614264
 31
0.0
  0
LINE
  5
60F
  8
LAYER_1
 10
32.98014231651043
 20
48.97227738614264
 30
0.0
 11
31.75126434098005
 21
49.77489954033558
 31
0.0
  0
LINE
  5
610
  8
LAYER_1
 10
31.75126434098005
 20
49.77489954033558
 30
0.0
 11
30.76836420866129
 21
50.99045701362459
 31
0.0
  0
LINE
  5
611
  8
LAYER_1
 10
30.76836420866129
 20
50.99045701362459
 30
0.0
 11
29.9063032410554
 21
52.82589534771469
 31
0.0
  0
LINE
  5
612
  8
LAYER_1
 10
29.9063032410554
 20
52.82589534771469
 30
0.0
 11
29.03994069798028
 21
55.48815712636201
 31
0.0
  0
LINE
  5
613
  8
LAYER_1
 10
29.03994069798028
 20
55.48815712636201
 30
0.0
 11
27.74885216000809
 21
59.97904511886187
 31
0.0
  0
LINE
  5
635
  8
LAYER_1
 10
19.93536668604051
 20
57.95509565123668
 30
0.0
 11
20.50773438108311
 21
47.02848010136992
 31
0.0
  0
LINE
  5
636
  8
LAYER_1
 10
20.50773438108311
 20
47.02848010136992
 30
0.0
 11
21.22207106958438
 21
38.90585163123735
 31
0.0
  0
LINE
  5
637
  8
LAYER_1
 10
21.22207106958438
 20
38.90585163123735
 30
0.0
 11
21.15833592499872
 21
37.15775911488339
 31
0.0
  0
LINE
  5
638
  8
LAYER_1
 10
21.15833592499872
 20
37.15775911488339
 30
0.0
 11
20.92785429311316
 21
36.49202115777987
 31
0.0
  0
LINE
  5
639
  8
LAYER_1
 10
20.92785429311316
 20
36.49202115777987
 30
0.0
 11
20.56939950285949
 21
35.92046979596085
 31
0.0
  0
LINE
  5
63A
  8
LAYER_1
 10
20.56939950285949
 20
35.92046979596085
 30
0.0
 11
20.04576974148883
 21
35.41734304244546
 31
0.0
  0
LINE
  5
63B
  8
LAYER_1
 10
20.04576974148883
 20
35.41734304244546
 30
0.0
 11
19.46152300771207
 21
35.16720037818929
 31
0.0
  0
LINE
  5
63C
  8
LAYER_1
 10
19.46152300771207
 20
35.16720037818929
 30
0.0
 11
18.81251642861339
 21
35.17219373093366
 31
0.0
  0
LINE
  5
63D
  8
LAYER_1
 10
18.81251642861339
 20
35.17219373093366
 30
0.0
 11
18.09460546959182
 21
35.43447652468257
 31
0.0
  0
LINE
  5
63E
  8
LAYER_1
 10
18.09460546959182
 20
35.43447652468257
 30
0.0
 11
17.30364523062486
 21
35.95620311428225
 31
0.0
  0
LINE
  5
63F
  8
LAYER_1
 10
17.30364523062486
 20
35.95620311428225
 30
0.0
 11
16.43549190795457
 21
36.73952506205247
 31
0.0
  0
LINE
  5
640
  8
LAYER_1
 10
16.43549190795457
 20
36.73952506205247
 30
0.0
 11
14.45103106562473
 21
39.09957427859703
 31
0.0
  0
LINE
  5
641
  8
LAYER_1
 10
14.45103106562473
 20
39.09957427859703
 30
0.0
 11
12.92264242975882
 21
40.66395419383106
 31
0.0
  0
LINE
  5
655
  8
LAYER_1
 10
8.174238346050805
 20
35.81191724275643
 30
0.0
 11
10.30176839300697
 21
33.21598712049816
 31
0.0
  0
LINE
  5
656
  8
LAYER_1
 10
10.30176839300697
 20
33.21598712049816
 30
0.0
 11
12.62168206287646
 21
30.27680500215934
 31
0.0
  0
LINE
  5
657
  8
LAYER_1
 10
12.62168206287646
 20
30.27680500215934
 30
0.0
 11
13.25557263635951
 21
29.12460670666098
 31
0.0
  0
LINE
  5
658
  8
LAYER_1
 10
13.25557263635951
 20
29.12460670666098
 30
0.0
 11
13.7822452432206
 21
27.80548886032915
 31
0.0
  0
LINE
  5
659
  8
LAYER_1
 10
13.7822452432206
 20
27.80548886032915
 30
0.0
 11
13.9595744801067
 21
26.88962457524572
 31
0.0
  0
LINE
  5
65A
  8
LAYER_1
 10
13.9595744801067
 20
26.88962457524572
 30
0.0
 11
13.88163113073401
 21
26.03667525503345
 31
0.0
  0
LINE
  5
65B
  8
LAYER_1
 10
13.88163113073401
 20
26.03667525503345
 30
0.0
 11
13.58907761143825
 21
25.40912916108602
 31
0.0
  0
LINE
  5
65C
  8
LAYER_1
 10
13.58907761143825
 20
25.40912916108602
 30
0.0
 11
13.1225763385552
 21
25.16947455479711
 31
0.0
  0
LINE
  5
65D
  8
LAYER_1
 10
13.1225763385552
 20
25.16947455479711
 30
0.0
 11
12.39348986700495
 21
25.49698240008085
 31
0.0
  0
LINE
  5
65E
  8
LAYER_1
 10
12.39348986700495
 20
25.49698240008085
 30
0.0
 11
11.46208683774171
 21
26.62488007808202
 31
0.0
  0
LINE
  5
65F
  8
LAYER_1
 10
11.46208683774171
 20
26.62488007808202
 30
0.0
 11
10.53418397002055
 21
27.97370475573343
 31
0.0
  0
LINE
  5
665
  8
LAYER_1
 10
8.138787677637357
 20
27.07318126105259
 30
0.0
 11
8.369889477580532
 21
24.45482885560721
 31
0.0
  0
LINE
  5
666
  8
LAYER_1
 10
8.369889477580532
 20
24.45482885560721
 30
0.0
 11
8.808363857360975
 21
19.71896596885644
 31
0.0
  0
LINE
  5
667
  8
LAYER_1
 10
8.808363857360975
 20
19.71896596885644
 30
0.0
 11
9.570616236447515
 21
14.94317280559372
 31
0.0
  0
LINE
  5
668
  8
LAYER_1
 10
9.570616236447515
 20
14.94317280559372
 30
0.0
 11
10.26346060008555
 21
11.95734781168416
 31
0.0
  0
LINE
  5
669
  8
LAYER_1
 10
10.26346060008555
 20
11.95734781168416
 30
0.0
 11
10.52937921818614
 21
11.15562368165598
 31
0.0
  0
LINE
  5
66A
  8
LAYER_1
 10
10.52937921818614
 20
11.15562368165598
 30
0.0
 11
10.63193877395535
 21
10.44033534710169
 31
0.0
  0
LINE
  5
66B
  8
LAYER_1
 10
10.63193877395535
 20
10.44033534710169
 30
0.0
 11
10.54207016830523
 21
9.764032792234053
 31
0.0
  0
LINE
  5
66C
  8
LAYER_1
 10
10.54207016830523
 20
9.764032792234053
 30
0.0
 11
10.23070413672538
 21
9.079269159213709
 31
0.0
  0
LINE
  5
66D
  8
LAYER_1
 10
10.23070413672538
 20
9.079269159213709
 30
0.0
 11
8.827204164844408
 21
7.494562118935247
 31
0.0
  0
LINE
  5
66E
  8
LAYER_1
 10
8.827204164844408
 20
7.494562118935247
 30
0.0
 11
6.188882445970196
 21
5.306628793443214
 31
0.0
  0
LINE
  5
66F
  8
LAYER_1
 10
6.188882445970196
 20
5.306628793443214
 30
0.0
 11
0.8081017755516574
 21
0.8872969382702254
 31
0.0
  0
LINE
  5
671
  8
LAYER_1
 10
13.4062589115209
 20
14.02663439122048
 30
0.0
 11
13.45651270822153
 21
15.79130504088919
 31
0.0
  0
LINE
  5
672
  8
LAYER_1
 10
13.45651270822153
 20
15.79130504088919
 30
0.0
 11
13.35444534618013
 21
17.43581844266792
 31
0.0
  0
LINE
  5
673
  8
LAYER_1
 10
13.35444534618013
 20
17.43581844266792
 30
0.0
 11
12.56682115339481
 21
21.48919974703461
 31
0.0
  0
LINE
  5
674
  8
LAYER_1
 10
12.56682115339481
 20
21.48919974703461
 30
0.0
 11
12.32151682533479
 21
22.67361164630572
 31
0.0
  0
LINE
  5
675
  8
LAYER_1
 10
12.32151682533479
 20
22.67361164630572
 30
0.0
 11
12.68894080588063
 21
22.08578441069832
 31
0.0
  0
LINE
  5
676
  8
LAYER_1
 10
12.68894080588063
 20
22.08578441069832
 30
0.0
 11
13.2671005367402
 21
20.58469210539113
 31
0.0
  0
LINE
  5
677
  8
LAYER_1
 10
13.2671005367402
 20
20.58469210539113
 30
0.0
 11
13.84443300377302
 21
18.4944200978228
 31
0.0
  0
LINE
  5
678
  8
LAYER_1
 10
13.84443300377302
 20
18.4944200978228
 30
0.0
 11
14.31441476925765
 21
16.25531054808814
 31
0.0
  0
LINE
  5
679
  8
LAYER_1
 10
14.31441476925765
 20
16.25531054808814
 30
0.0
 11
14.57052389173539
 21
14.30770727796722
 31
0.0
  0
LINE
  5
67A
  8
LAYER_1
 10
14.57052389173539
 20
14.30770727796722
 30
0.0
 11
14.74082147685922
 21
12.86727444210088
 31
0.0
  0
LINE
  5
67B
  8
LAYER_1
 10
14.74082147685922
 20
12.86727444210088
 30
0.0
 11
14.8623354370084
 21
12.66486076423827
 31
0.0
  0
LINE
  5
67C
  8
LAYER_1
 10
14.8623354370084
 20
12.66486076423827
 30
0.0
 11
15.02948189700222
 21
12.73432035537969
 31
0.0
  0
LINE
  5
67D
  8
LAYER_1
 10
15.02948189700222
 20
12.73432035537969
 30
0.0
 11
16.70593370747256
 21
14.1296896847401
 31
0.0
  0
LINE
  5
67E
  8
LAYER_1
 10
16.70593370747256
 20
14.1296896847401
 30
0.0
 11
17.87462574554377
 21
15.25103902798419
 31
0.0
  0
LINE
  5
67F
  8
LAYER_1
 10
17.87462574554377
 20
15.25103902798419
 30
0.0
 11
18.63450944556574
 21
16.51728687203286
 31
0.0
  0
LINE
  5
680
  8
LAYER_1
 10
18.63450944556574
 20
16.51728687203286
 30
0.0
 11
19.08237067510641
 21
18.16168612670531
 31
0.0
  0
LINE
  5
681
  8
LAYER_1
 10
19.08237067510641
 20
18.16168612670531
 30
0.0
 11
19.31499736341711
 21
20.41749265976964
 31
0.0
  0
LINE
  5
682
  8
LAYER_1
 10
19.31499736341711
 20
20.41749265976964
 30
0.0
 11
19.38834612439473
 21
22.13174272749954
 31
0.0
  0
LINE
  5
683
  8
LAYER_1
 10
19.38834612439473
 20
22.13174272749954
 30
0.0
 11
19.32615601118737
 21
23.34599843703163
 31
0.0
  0
LINE
  5
684
  8
LAYER_1
 10
19.32615601118737
 20
23.34599843703163
 30
0.0
 11
19.07834880558274
 21
24.43181402169619
 31
0.0
  0
LINE
  5
685
  8
LAYER_1
 10
19.07834880558274
 20
24.43181402169619
 30
0.0
 11
18.5948479856304
 21
25.76074760361457
 31
0.0
  0
LINE
  5
686
  8
LAYER_1
 10
18.5948479856304
 20
25.76074760361457
 30
0.0
 11
18.18673003964566
 21
27.13345177622585
 31
0.0
  0
LINE
  5
687
  8
LAYER_1
 10
18.18673003964566
 20
27.13345177622585
 30
0.0
 11
16.21602749662378
 21
32.62266171843107
 31
0.0
  0
LINE
  5
69F
  8
LAYER_1
 10
16.21602749662378
 20
32.62266171843107
 30
0.0
 11
19.01899284919669
 21
27.16608648586624
 31
0.0
  0
LINE
  5
6A0
  8
LAYER_1
 10
19.01899284919669
 20
27.16608648586624
 30
0.0
 11
19.92442463832095
 21
24.59880186717408
 31
0.0
  0
LINE
  5
6A1
  8
LAYER_1
 10
19.92442463832095
 20
24.59880186717408
 30
0.0
 11
20.21221262272958
 21
22.68163462556815
 31
0.0
  0
LINE
  5
6A2
  8
LAYER_1
 10
20.21221262272958
 20
22.68163462556815
 30
0.0
 11
20.14009101168778
 21
20.44594214820887
 31
0.0
  0
LINE
  5
6A3
  8
LAYER_1
 10
20.14009101168778
 20
20.44594214820887
 30
0.0
 11
20.05365126514728
 21
17.05788441053985
 31
0.0
  0
LINE
  5
6A4
  8
LAYER_1
 10
20.05365126514728
 20
17.05788441053985
 30
0.0
 11
22.41587835950028
 21
19.75213030544284
 31
0.0
  0
LINE
  5
6A5
  8
LAYER_1
 10
22.41587835950028
 20
19.75213030544284
 30
0.0
 11
24.58558526241402
 21
22.039422714487
 31
0.0
  0
LINE
  5
6A6
  8
LAYER_1
 10
24.58558526241402
 20
22.039422714487
 30
0.0
 11
25.23149896769307
 21
22.68947616962392
 31
0.0
  0
LINE
  5
6A7
  8
LAYER_1
 10
25.23149896769307
 20
22.68947616962392
 30
0.0
 11
25.98413992898545
 21
23.4655308434981
 31
0.0
  0
LINE
  5
6AF
  8
LAYER_1
 10
25.98413992898545
 20
23.4655308434981
 30
0.0
 11
26.63753730028046
 21
24.31075806519366
 31
0.0
  0
LINE
  5
6B0
  8
LAYER_1
 10
26.63753730028046
 20
24.31075806519366
 30
0.0
 11
27.30175851236508
 21
25.45778706585619
 31
0.0
  0
LINE
  5
6B1
  8
LAYER_1
 10
27.30175851236508
 20
25.45778706585619
 30
0.0
 11
27.64134820481385
 21
27.16060573072558
 31
0.0
  0
LINE
  5
6B2
  8
LAYER_1
 10
27.64134820481385
 20
27.16060573072558
 30
0.0
 11
27.79388733494378
 21
29.57438564542311
 31
0.0
  0
LINE
  5
6B3
  8
LAYER_1
 10
27.79388733494378
 20
29.57438564542311
 30
0.0
 11
27.77469374509192
 21
32.82725967280268
 31
0.0
  0
LINE
  5
6B4
  8
LAYER_1
 10
27.77469374509192
 20
32.82725967280268
 30
0.0
 11
27.47882229631567
 21
36.12517676061388
 31
0.0
  0
LINE
  5
6B5
  8
LAYER_1
 10
27.47882229631567
 20
36.12517676061388
 30
0.0
 11
27.3157302286967
 21
38.43421680954078
 31
0.0
  0
LINE
  5
6B6
  8
LAYER_1
 10
27.3157302286967
 20
38.43421680954078
 30
0.0
 11
26.88841394195264
 21
41.92613176181455
 31
0.0
  0
LINE
  5
6C7
  8
LAYER_1
 10
26.88841394195264
 20
41.92613176181455
 30
0.0
 11
25.80909089296556
 21
46.28315809454603
 31
0.0
  0
LINE
  5
6C8
  8
LAYER_1
 10
25.80909089296556
 20
46.28315809454603
 30
0.0
 11
24.22672120664754
 21
53.80442737302362
 31
0.0
  0
LINE
  5
6D3
  8
LAYER_1
 10
24.22672120664754
 20
53.80442737302362
 30
0.0
 11
23.92847731129014
 21
55.55943798880227
 31
0.0
  0
LINE
  5
6D4
  8
LAYER_1
 10
23.92847731129014
 20
55.55943798880227
 30
0.0
 11
23.65941232377682
 21
57.70486174679333
 31
0.0
  0
LINE
  5
6D5
  8
LAYER_1
 10
23.65941232377682
 20
57.70486174679333
 30
0.0
 11
24.34150720214802
 21
55.54842432170519
 31
0.0
  0
LINE
  5
6D6
  8
LAYER_1
 10
24.34150720214802
 20
55.54842432170519
 30
0.0
 11
25.15748518798329
 21
52.66533283281999
 31
0.0
  0
LINE
  5
6D7
  8
LAYER_1
 10
25.15748518798329
 20
52.66533283281999
 30
0.0
 11
25.55027841992866
 21
50.57857707508535
 31
0.0
  0
LINE
  5
6E2
  8
LAYER_1
 10
25.55027841992866
 20
50.57857707508535
 30
0.0
 11
25.91175535932404
 21
49.14796928303677
 31
0.0
  0
LINE
  5
6E3
  8
LAYER_1
 10
25.91175535932404
 20
49.14796928303677
 30
0.0
 11
26.4959933377359
 21
47.00425885856937
 31
0.0
  0
LINE
  5
6EE
  8
LAYER_1
 10
26.4959933377359
 20
47.00425885856937
 30
0.0
 11
27.43198298351612
 21
43.45471393092355
 31
0.0
  0
LINE
  5
6EF
  8
LAYER_1
 10
27.43198298351612
 20
43.45471393092355
 30
0.0
 11
27.99454385450192
 21
40.60356736738996
 31
0.0
  0
LINE
  5
6F0
  8
LAYER_1
 10
27.99454385450192
 20
40.60356736738996
 30
0.0
 11
28.36331844049156
 21
36.81844028464359
 31
0.0
  0
LINE
  5
6F1
  8
LAYER_1
 10
28.36331844049156
 20
36.81844028464359
 30
0.0
 11
28.60255045884284
 21
32.88732750131779
 31
0.0
  0
LINE
  5
6F2
  8
LAYER_1
 10
28.60255045884284
 20
32.88732750131779
 30
0.0
 11
28.63870236023845
 21
29.74349874255442
 31
0.0
  0
LINE
  5
6F3
  8
LAYER_1
 10
28.63870236023845
 20
29.74349874255442
 30
0.0
 11
28.54387793479235
 21
26.3779432710746
 31
0.0
  0
LINE
  5
6F4
  8
LAYER_1
 10
28.54387793479235
 20
26.3779432710746
 30
0.0
 11
32.24121147113254
 21
29.97889997542753
 31
0.0
  0
LINE
  5
6F5
  8
LAYER_1
 10
32.24121147113254
 20
29.97889997542753
 30
0.0
 11
36.02958023701995
 21
34.3582049532213
 31
0.0
  0
LINE
  5
700
  8
LAYER_1
 10
36.02958023701995
 20
34.3582049532213
 30
0.0
 11
38.22284170550438
 21
36.91290428367551
 31
0.0
  0
LINE
  5
701
  8
LAYER_1
 10
38.22284170550438
 20
36.91290428367551
 30
0.0
 11
39.20935093286651
 21
38.11694799428918
 31
0.0
  0
LINE
  5
702
  8
LAYER_1
 10
39.20935093286651
 20
38.11694799428918
 30
0.0
 11
40.00325214714285
 21
39.14774861825374
 31
0.0
  0
LINE
  5
703
  8
LAYER_1
 10
40.00325214714285
 20
39.14774861825374
 30
0.0
 11
40.54771667040536
 21
40.05066357047856
 31
0.0
  0
LINE
  5
704
  8
LAYER_1
 10
40.54771667040536
 20
40.05066357047856
 30
0.0
 11
40.90365964536193
 21
40.95452895362681
 31
0.0
  0
LINE
  5
705
  8
LAYER_1
 10
40.90365964536193
 20
40.95452895362681
 30
0.0
 11
41.00977276334428
 21
42.42366635765479
 31
0.0
  0
LINE
  5
706
  8
LAYER_1
 10
41.00977276334428
 20
42.42366635765479
 30
0.0
 11
41.30224524119265
 21
44.4912683031549
 31
0.0
  0
LINE
  5
707
  8
LAYER_1
 10
41.30224524119265
 20
44.4912683031549
 30
0.0
 11
41.57740205373193
 21
46.00359379764197
 31
0.0
  0
LINE
  5
708
  8
LAYER_1
 10
41.57740205373193
 20
46.00359379764197
 30
0.0
 11
42.07140522777518
 21
47.60183200274674
 31
0.0
  0
LINE
  5
711
  8
LAYER_1
 10
42.07140522777518
 20
47.60183200274674
 30
0.0
 11
42.34416090849724
 21
48.57408741999883
 31
0.0
  0
LINE
  5
712
  8
LAYER_1
 10
42.34416090849724
 20
48.57408741999883
 30
0.0
 11
42.5680150220248
 21
49.84229719565773
 31
0.0
  0
LINE
  5
713
  8
LAYER_1
 10
42.5680150220248
 20
49.84229719565773
 30
0.0
 11
43.52076267476276
 21
56.32448594597371
 31
0.0
  0
LINE
  5
714
  8
LAYER_1
 10
43.52076267476276
 20
56.32448594597371
 30
0.0
 11
43.6291882328345
 21
54.93946060246596
 31
0.0
  0
LINE
  5
715
  8
LAYER_1
 10
43.6291882328345
 20
54.93946060246596
 30
0.0
 11
43.44858455612697
 21
52.28511101668872
 31
0.0
  0
LINE
  5
716
  8
LAYER_1
 10
43.44858455612697
 20
52.28511101668872
 30
0.0
 11
42.50796363427683
 21
47.73087360709063
 31
0.0
  0
LINE
  5
717
  8
LAYER_1
 10
42.50796363427683
 20
47.73087360709063
 30
0.0
 11
42.11446951328349
 21
45.74395431452521
 31
0.0
  0
LINE
  5
718
  8
LAYER_1
 10
42.11446951328349
 20
45.74395431452521
 30
0.0
 11
41.87945377696092
 21
43.81663096290493
 31
0.0
  0
LINE
  5
719
  8
LAYER_1
 10
41.87945377696092
 20
43.81663096290493
 30
0.0
 11
41.83515442997881
 21
42.3416075799669
 31
0.0
  0
LINE
  5
71A
  8
LAYER_1
 10
41.83515442997881
 20
42.3416075799669
 30
0.0
 11
42.95871943230622
 21
42.76151901145288
 31
0.0
  0
LINE
  5
71B
  8
LAYER_1
 10
42.95871943230622
 20
42.76151901145288
 30
0.0
 11
50.63511210501108
 21
50.06324056596606
 31
0.0
  0
LINE
  5
71C
  8
LAYER_1
 10
50.63511210501108
 20
50.06324056596606
 30
0.0
 11
54.81949157928533
 21
54.41875389647242
 31
0.0
  0
LINE
  5
71D
  8
LAYER_1
 10
54.81949157928533
 20
54.41875389647242
 30
0.0
 11
57.44222426145058
 21
56.5854607910712
 31
0.0
  0
LINE
  5
725
  8
LAYER_1
 10
57.44222426145058
 20
56.5854607910712
 30
0.0
 11
55.20641890844013
 21
54.01243836265463
 31
0.0
  0
LINE
  5
726
  8
LAYER_1
 10
55.20641890844013
 20
54.01243836265463
 30
0.0
 11
54.1486964014621
 21
52.91494826123335
 31
0.0
  0
LINE
  5
727
  8
LAYER_1
 10
54.1486964014621
 20
52.91494826123335
 30
0.0
 11
53.58959996082967
 21
52.26320572635303
 31
0.0
  0
LINE
  5
728
  8
LAYER_1
 10
53.58959996082967
 20
52.26320572635303
 30
0.0
 11
52.47088015552676
 21
50.97446643783776
 31
0.0
  0
LINE
  5
72F
  8
LAYER_1
 10
52.47088015552676
 20
50.97446643783776
 30
0.0
 11
51.3770385541065
 21
49.83942375574695
 31
0.0
  0
LINE
  5
730
  8
LAYER_1
 10
51.3770385541065
 20
49.83942375574695
 30
0.0
 11
46.96273429146766
 21
45.05709543756501
 31
0.0
  0
LINE
  5
731
  8
LAYER_1
 10
46.96273429146766
 20
45.05709543756501
 30
0.0
 11
42.57077434049906
 21
40.69760204227302
 31
0.0
  0
LINE
  5
732
  8
LAYER_1
 10
42.57077434049906
 20
40.69760204227302
 30
0.0
 11
40.3320901498941
 21
37.92845687254653
 31
0.0
  0
LINE
  5
733
  8
LAYER_1
 10
40.3320901498941
 20
37.92845687254653
 30
0.0
 11
38.49371392134577
 21
35.75595944751955
 31
0.0
  0
LINE
  5
734
  8
LAYER_1
 10
38.49371392134577
 20
35.75595944751955
 30
0.0
 11
37.95534770797276
 21
35.06356904254146
 31
0.0
  0
LINE
  5
735
  8
LAYER_1
 10
37.95534770797276
 20
35.06356904254146
 30
0.0
 11
37.84321667680342
 21
34.63977847806844
 31
0.0
  0
LINE
  5
736
  8
LAYER_1
 10
37.84321667680342
 20
34.63977847806844
 30
0.0
 11
41.15254458664098
 21
35.31019377658298
 31
0.0
  0
LINE
  5
737
  8
LAYER_1
 10
41.15254458664098
 20
35.31019377658298
 30
0.0
 11
43.99128707645522
 21
35.66783510493335
 31
0.0
  0
LINE
  5
738
  8
LAYER_1
 10
43.99128707645522
 20
35.66783510493335
 30
0.0
 11
46.41581990014035
 21
35.80549162702155
 31
0.0
  0
LINE
  5
739
  8
LAYER_1
 10
46.41581990014035
 20
35.80549162702155
 30
0.0
 11
48.10747335114458
 21
35.86390818192243
 31
0.0
  0
LINE
  5
73A
  8
LAYER_1
 10
48.10747335114458
 20
35.86390818192243
 30
0.0
 11
50.77763391229203
 21
35.94066003194646
 31
0.0
  0
LINE
  5
744
  8
LAYER_1
 10
50.77763391229203
 20
35.94066003194646
 30
0.0
 11
52.77367435538724
 21
36.07701495519959
 31
0.0
  0
LINE
  5
745
  8
LAYER_1
 10
52.77367435538724
 20
36.07701495519959
 30
0.0
 11
57.75621096192791
 21
35.85622488175273
 31
0.0
  0
LINE
  5
746
  8
LAYER_1
 10
57.75621096192791
 20
35.85622488175273
 30
0.0
 11
59.33590070142162
 21
35.54676062287022
 31
0.0
  0
LINE
  5
747
  8
LAYER_1
 10
59.33590070142162
 20
35.54676062287022
 30
0.0
 11
60.54473505171799
 21
35.13727818054429
 31
0.0
  0
LINE
  5
748
  8
LAYER_1
 10
60.54473505171799
 20
35.13727818054429
 30
0.0
 11
59.58529843910981
 21
35.26994804036272
 31
0.0
  0
LINE
  5
749
  8
LAYER_1
 10
59.58529843910981
 20
35.26994804036272
 30
0.0
 11
58.74669960534222
 21
35.34525609322008
 31
0.0
  0
LINE
  5
74B
  8
LAYER_1
 10
58.74669960534222
 20
35.34525609322008
 30
0.0
 11
57.71494959490914
 21
35.45665294888439
 31
0.0
  0
LINE
  5
74C
  8
LAYER_1
 10
57.71494959490914
 20
35.45665294888439
 30
0.0
 11
55.68215639902255
 21
35.47598017980983
 31
0.0
  0
LINE
  5
74D
  8
LAYER_1
 10
55.68215639902255
 20
35.47598017980983
 30
0.0
 11
53.64904595661322
 21
35.38582920451758
 31
0.0
  0
LINE
  5
74E
  8
LAYER_1
 10
53.64904595661322
 20
35.38582920451758
 30
0.0
 11
51.61189853798537
 21
35.18944729191876
 31
0.0
  0
LINE
  5
759
  8
LAYER_1
 10
51.61189853798537
 20
35.18944729191876
 30
0.0
 11
49.14021488517388
 21
35.02817680296593
 31
0.0
  0
LINE
  5
75A
  8
LAYER_1
 10
49.14021488517388
 20
35.02817680296593
 30
0.0
 11
46.5072661304292
 21
34.94938989184871
 31
0.0
  0
LINE
  5
75B
  8
LAYER_1
 10
46.5072661304292
 20
34.94938989184871
 30
0.0
 11
43.27679444638788
 21
34.76083149928701
 31
0.0
  0
LINE
  5
768
  8
LAYER_1
 10
43.27679444638788
 20
34.76083149928701
 30
0.0
 11
41.41583853078511
 21
34.4684423310487
 31
0.0
  0
LINE
  5
769
  8
LAYER_1
 10
41.41583853078511
 20
34.4684423310487
 30
0.0
 11
39.48417688846176
 21
34.13706632676253
 31
0.0
  0
LINE
  5
76A
  8
LAYER_1
 10
39.48417688846176
 20
34.13706632676253
 30
0.0
 11
38.01999302367313
 21
33.54454408883521
 31
0.0
  0
LINE
  5
76B
  8
LAYER_1
 10
38.01999302367313
 20
33.54454408883521
 30
0.0
 11
37.08058840109174
 21
33.09980694414431
 31
0.0
  0
LINE
  5
76C
  8
LAYER_1
 10
37.08058840109174
 20
33.09980694414431
 30
0.0
 11
36.0956794679811
 21
32.3840253412177
 31
0.0
  0
LINE
  5
76D
  8
LAYER_1
 10
36.0956794679811
 20
32.3840253412177
 30
0.0
 11
32.87364094099593
 21
29.22577285225295
 31
0.0
  0
LINE
  5
778
  8
LAYER_1
 10
32.87364094099593
 20
29.22577285225295
 30
0.0
 11
30.22541812333666
 21
26.39313810047292
 31
0.0
  0
LINE
  5
779
  8
LAYER_1
 10
30.22541812333666
 20
26.39313810047292
 30
0.0
 11
26.96447393351103
 21
22.98390355086116
 31
0.0
  0
LINE
  5
77A
  8
LAYER_1
 10
26.96447393351103
 20
22.98390355086116
 30
0.0
 11
26.84571439933221
 21
22.77049195184834
 31
0.0
  0
LINE
  5
77B
  8
LAYER_1
 10
26.84571439933221
 20
22.77049195184834
 30
0.0
 11
26.90534170962109
 21
22.62113829772378
 31
0.0
  0
LINE
  5
77C
  8
LAYER_1
 10
26.90534170962109
 20
22.62113829772378
 30
0.0
 11
28.73571736831189
 21
22.77408546819213
 31
0.0
  0
LINE
  5
77D
  8
LAYER_1
 10
28.73571736831189
 20
22.77408546819213
 30
0.0
 11
30.80473033265014
 21
22.91548525569639
 31
0.0
  0
LINE
  5
77E
  8
LAYER_1
 10
30.80473033265014
 20
22.91548525569639
 30
0.0
 11
32.96563205536819
 21
22.82493393347403
 31
0.0
  0
LINE
  5
77F
  8
LAYER_1
 10
32.96563205536819
 20
22.82493393347403
 30
0.0
 11
35.21825902689848
 21
22.50244573603706
 31
0.0
  0
LINE
  5
780
  8
LAYER_1
 10
35.21825902689848
 20
22.50244573603706
 30
0.0
 11
37.56244793767267
 21
21.94803712500328
 31
0.0
  0
LINE
  5
781
  8
LAYER_1
 10
37.56244793767267
 20
21.94803712500328
 30
0.0
 11
40.04112129719267
 21
21.32149868278622
 31
0.0
  0
LINE
  5
782
  8
LAYER_1
 10
40.04112129719267
 20
21.32149868278622
 30
0.0
 11
42.68513098290896
 21
20.74326905829227
 31
0.0
  0
LINE
  5
78A
  8
LAYER_1
 10
42.68513098290896
 20
20.74326905829227
 30
0.0
 11
44.40743163346581
 21
20.49629088611479
 31
0.0
  0
LINE
  5
78B
  8
LAYER_1
 10
44.40743163346581
 20
20.49629088611479
 30
0.0
 11
45.45678164032046
 21
20.09003830340503
 31
0.0
  0
LINE
  5
78C
  8
LAYER_1
 10
45.45678164032046
 20
20.09003830340503
 30
0.0
 11
48.42586657096999
 21
18.93388112443375
 31
0.0
  0
LINE
  5
794
  8
LAYER_1
 10
48.42586657096999
 20
18.93388112443375
 30
0.0
 11
50.07661083031657
 21
18.36554630221814
 31
0.0
  0
LINE
  5
795
  8
LAYER_1
 10
50.07661083031657
 20
18.36554630221814
 30
0.0
 11
54.19078919851725
 21
17.3403997192797
 31
0.0
  0
LINE
  5
796
  8
LAYER_1
 10
54.19078919851725
 20
17.3403997192797
 30
0.0
 11
55.52387538192021
 21
17.00409822248676
 31
0.0
  0
LINE
  5
797
  8
LAYER_1
 10
55.52387538192021
 20
17.00409822248676
 30
0.0
 11
56.1121093237746
 21
16.74639324684514
 31
0.0
  0
LINE
  5
798
  8
LAYER_1
 10
56.1121093237746
 20
16.74639324684514
 30
0.0
 11
55.88885507043471
 21
16.63472349609923
 31
0.0
  0
LINE
  5
799
  8
LAYER_1
 10
55.88885507043471
 20
16.63472349609923
 30
0.0
 11
54.78747557199026
 21
16.73653046651991
 31
0.0
  0
LINE
  5
79A
  8
LAYER_1
 10
54.78747557199026
 20
16.73653046651991
 30
0.0
 11
53.88252539247279
 21
16.82611678508103
 31
0.0
  0
LINE
  5
79B
  8
LAYER_1
 10
53.88252539247279
 20
16.82611678508103
 30
0.0
 11
52.20892540149893
 21
16.93639965832616
 31
0.0
  0
LINE
  5
7A9
  8
LAYER_1
 10
52.20892540149893
 20
16.93639965832616
 30
0.0
 11
48.83563118338442
 21
17.64365935201738
 31
0.0
  0
LINE
  5
7AA
  8
LAYER_1
 10
48.83563118338442
 20
17.64365935201738
 30
0.0
 11
46.85584099480597
 21
18.34050484964225
 31
0.0
  0
LINE
  5
7AB
  8
LAYER_1
 10
46.85584099480597
 20
18.34050484964225
 30
0.0
 11
44.84925232003887
 21
19.28148748412038
 31
0.0
  0
LINE
  5
7AC
  8
LAYER_1
 10
44.84925232003887
 20
19.28148748412038
 30
0.0
 11
43.06198988311703
 21
19.53686835655657
 31
0.0
  0
LINE
  5
7AD
  8
LAYER_1
 10
43.06198988311703
 20
19.53686835655657
 30
0.0
 11
41.12543635218257
 21
20.03423945569117
 31
0.0
  0
LINE
  5
7B3
  8
LAYER_1
 10
41.12543635218257
 20
20.03423945569117
 30
0.0
 11
39.28718399831674
 21
20.39098869014904
 31
0.0
  0
LINE
  5
7B4
  8
LAYER_1
 10
39.28718399831674
 20
20.39098869014904
 30
0.0
 11
37.70278356575852
 21
20.8672307554034
 31
0.0
  0
LINE
  5
7BB
  8
LAYER_1
 10
37.70278356575852
 20
20.8672307554034
 30
0.0
 11
34.84042056923531
 21
21.61657555033729
 31
0.0
  0
LINE
  5
7BC
  8
LAYER_1
 10
34.84042056923531
 20
21.61657555033729
 30
0.0
 11
33.96327680931191
 21
21.86774679991103
 31
0.0
  0
LINE
  5
7BD
  8
LAYER_1
 10
33.96327680931191
 20
21.86774679991103
 30
0.0
 11
32.51711063256572
 21
21.87876172763072
 31
0.0
  0
LINE
  5
7C4
  8
LAYER_1
 10
32.51711063256572
 20
21.87876172763072
 30
0.0
 11
29.65894442795497
 21
21.73625756456849
 31
0.0
  0
LINE
  5
7C5
  8
LAYER_1
 10
29.65894442795497
 20
21.73625756456849
 30
0.0
 11
27.51678252198749
 21
21.47590506495337
 31
0.0
  0
LINE
  5
7C6
  8
LAYER_1
 10
27.51678252198749
 20
21.47590506495337
 30
0.0
 11
25.83532617791555
 21
20.95035156507896
 31
0.0
  0
LINE
  5
7C7
  8
LAYER_1
 10
25.83532617791555
 20
20.95035156507896
 30
0.0
 11
24.37307897625171
 21
20.05006615132382
 31
0.0
  0
LINE
  5
7C8
  8
LAYER_1
 10
24.37307897625171
 20
20.05006615132382
 30
0.0
 11
22.88854559377311
 21
18.66551511754009
 31
0.0
  0
LINE
  5
7C9
  8
LAYER_1
 10
22.88854559377311
 20
18.66551511754009
 30
0.0
 11
20.19848140001966
 21
16.00992482687125
 31
0.0
  0
LINE
  5
7CA
  8
LAYER_1
 10
20.19848140001966
 20
16.00992482687125
 30
0.0
 11
19.26123730665476
 21
15.20392225039546
 31
0.0
  0
LINE
  5
7CB
  8
LAYER_1
 10
19.26123730665476
 20
15.20392225039546
 30
0.0
 11
21.28081743349836
 21
14.9011642140722
 31
0.0
  0
LINE
  5
7CC
  8
LAYER_1
 10
21.28081743349836
 20
14.9011642140722
 30
0.0
 11
24.92895949382249
 21
14.18866817019251
 31
0.0
  0
LINE
  5
7CD
  8
LAYER_1
 10
24.92895949382249
 20
14.18866817019251
 30
0.0
 11
28.19254720709628
 21
13.23693990203335
 31
0.0
  0
LINE
  5
7CE
  8
LAYER_1
 10
28.19254720709628
 20
13.23693990203335
 30
0.0
 11
30.81291236543037
 21
12.13620745519179
 31
0.0
  0
LINE
  5
7CF
  8
LAYER_1
 10
30.81291236543037
 20
12.13620745519179
 30
0.0
 11
32.53139048430389
 21
10.97670033695108
 31
0.0
  0
LINE
  5
7D0
  8
LAYER_1
 10
32.53139048430389
 20
10.97670033695108
 30
0.0
 11
32.76907811888497
 21
10.68768160117041
 31
0.0
  0
LINE
  5
7D1
  8
LAYER_1
 10
32.76907811888497
 20
10.68768160117041
 30
0.0
 11
32.60706277586834
 21
10.66265491486952
 31
0.0
  0
LINE
  5
7D2
  8
LAYER_1
 10
32.60706277586834
 20
10.66265491486952
 30
0.0
 11
30.94051805805674
 21
11.44697122589855
 31
0.0
  0
LINE
  5
7D3
  8
LAYER_1
 10
30.94051805805674
 20
11.44697122589855
 30
0.0
 11
28.06421018679427
 21
12.60102637889675
 31
0.0
  0
LINE
  5
7D4
  8
LAYER_1
 10
28.06421018679427
 20
12.60102637889675
 30
0.0
 11
24.16386847163632
 21
13.63507728233026
 31
0.0
  0
LINE
  5
7D5
  8
LAYER_1
 10
24.16386847163632
 20
13.63507728233026
 30
0.0
 11
20.21642872927613
 21
14.36391034239501
 31
0.0
  0
LINE
  5
7D6
  8
LAYER_1
 10
20.21642872927613
 20
14.36391034239501
 30
0.0
 11
19.22232227054651
 21
14.31816370026642
 31
0.0
  0
LINE
  5
7D7
  8
LAYER_1
 10
19.22232227054651
 20
14.31816370026642
 30
0.0
 11
18.34465059071767
 21
14.0359438544734
 31
0.0
  0
LINE
  5
7D8
  8
LAYER_1
 10
18.34465059071767
 20
14.0359438544734
 30
0.0
 11
17.09451876872193
 21
13.34180136918844
 31
0.0
  0
LINE
  5
7D9
  8
LAYER_1
 10
17.09451876872193
 20
13.34180136918844
 30
0.0
 11
16.04540690349557
 21
12.47555668573792
 31
0.0
  0
LINE
  5
7DA
  8
LAYER_1
 10
16.04540690349557
 20
12.47555668573792
 30
0.0
 11
15.13944557351373
 21
11.48675340025061
 31
0.0
  0
LINE
  5
7DB
  8
LAYER_1
 10
15.13944557351373
 20
11.48675340025061
 30
0.0
 11
16.04580507337151
 21
11.56442637072654
 31
0.0
  0
LINE
  5
7DC
  8
LAYER_1
 10
16.04580507337151
 20
11.56442637072654
 30
0.0
 11
16.90288262836273
 21
11.49460313696937
 31
0.0
  0
LINE
  5
7DD
  8
LAYER_1
 10
16.90288262836273
 20
11.49460313696937
 30
0.0
 11
17.93852967893573
 21
11.17988460907277
 31
0.0
  0
LINE
  5
7DE
  8
LAYER_1
 10
17.93852967893573
 20
11.17988460907277
 30
0.0
 11
19.06941572970694
 21
10.65265677532051
 31
0.0
  0
LINE
  5
7DF
  8
LAYER_1
 10
19.06941572970694
 20
10.65265677532051
 30
0.0
 11
20.21221304324251
 21
9.945301335207194
 31
0.0
  0
LINE
  5
7E0
  8
LAYER_1
 10
20.21221304324251
 20
9.945301335207194
 30
0.0
 11
20.57329288897173
 21
9.663475194366525
 31
0.0
  0
LINE
  5
7E1
  8
LAYER_1
 10
20.57329288897173
 20
9.663475194366525
 30
0.0
 11
20.53277736656689
 21
9.594548100489991
 31
0.0
  0
LINE
  5
7E2
  8
LAYER_1
 10
20.53277736656689
 20
9.594548100489991
 30
0.0
 11
19.11491400737485
 21
10.11592672878012
 31
0.0
  0
LINE
  5
7E3
  8
LAYER_1
 10
19.11491400737485
 20
10.11592672878012
 30
0.0
 11
17.45723357836146
 21
10.65420046604579
 31
0.0
  0
LINE
  5
7E4
  8
LAYER_1
 10
17.45723357836146
 20
10.65420046604579
 30
0.0
 11
15.98529140638972
 21
10.80783622518774
 31
0.0
  0
LINE
  5
7E5
  8
LAYER_1
 10
15.98529140638972
 20
10.80783622518774
 30
0.0
 11
14.59729580819701
 21
10.5739797386011
 31
0.0
  0
LINE
  5
7E6
  8
LAYER_1
 10
14.59729580819701
 20
10.5739797386011
 30
0.0
 11
13.62866998984174
 21
10.30192026524693
 31
0.0
  0
LINE
  5
7E7
  8
LAYER_1
 10
13.62866998984174
 20
10.30192026524693
 30
0.0
 11
12.44003336861192
 21
9.773243701674069
 31
0.0
  0
LINE
  5
7E8
  8
LAYER_1
 10
12.44003336861192
 20
9.773243701674069
 30
0.0
 11
12.97891131627953
 21
11.00865657285524
 31
0.0
  0
LINE
  5
7E9
  8
LAYER_1
 10
12.97891131627953
 20
11.00865657285524
 30
0.0
 11
13.1129091250457
 21
11.74936393171419
 31
0.0
  0
LINE
  5
7EA
  8
LAYER_1
 10
13.1129091250457
 20
11.74936393171419
 30
0.0
 11
13.4062589115209
 21
14.02663439122048
 31
0.0
  0
LINE
  5
7EB
  8
LAYER_1
 10
13.4062589115209
 20
14.02663439122048
 30
0.0
 11
13.4062589115209
 21
14.02663439122048
 31
0.0
  0
LINE
  5
7FE
  8
LAYER_1
 10
60.85630085201977
 20
39.35639572231096
 30
0.0
 11
59.79463307152579
 21
39.54136748403842
 31
0.0
  0
LINE
  5
7FF
  8
LAYER_1
 10
59.79463307152579
 20
39.54136748403842
 30
0.0
 11
55.50459895514574
 21
40.58937192315221
 31
0.0
  0
LINE
  5
800
  8
LAYER_1
 10
55.50459895514574
 20
40.58937192315221
 30
0.0
 11
54.13409006486297
 21
41.03074175871438
 31
0.0
  0
LINE
  5
801
  8
LAYER_1
 10
54.13409006486297
 20
41.03074175871438
 30
0.0
 11
53.51302427935499
 21
41.41383450853007
 31
0.0
  0
LINE
  5
802
  8
LAYER_1
 10
53.51302427935499
 20
41.41383450853007
 30
0.0
 11
52.9459812328281
 21
42.20905149066169
 31
0.0
  0
LINE
  5
803
  8
LAYER_1
 10
52.9459812328281
 20
42.20905149066169
 30
0.0
 11
52.9183489081399
 21
43.07461489662184
 31
0.0
  0
LINE
  5
804
  8
LAYER_1
 10
52.9183489081399
 20
43.07461489662184
 30
0.0
 11
53.3868681865768
 21
43.97641695379011
 31
0.0
  0
LINE
  5
805
  8
LAYER_1
 10
53.3868681865768
 20
43.97641695379011
 30
0.0
 11
54.40891058722271
 21
44.97525784553129
 31
0.0
  0
LINE
  5
806
  8
LAYER_1
 10
54.92281111728109
 20
61.41976459825153
 30
0.0
 11
56.57419321150791
 21
62.46492280378726
 31
0.0
  0
LINE
  5
81B
  8
LAYER_1
 10
62.7446626093413
 20
54.66076777326765
 30
0.0
 11
59.7905490927327
 21
50.95743392506272
 31
0.0
  0
ARC
  5
B3A
  8
0
  6
BYBLOCK
 10
58.27122035032797
 20
57.46523866309283
 30
0.0
 40
5.279843048481949
 50
327.9157578209275
 51
108.7485928633522
  0
ARC
  5
B3D
  8
0
  6
BYBLOCK
 10
42.8568397717615
 20
60.89602680033325
 30
0.0
 40
2.376778213049805
 50
21.49230272970333
 51
172.5747079529178
  0
ARC
  5
B40
  8
0
  6
BYBLOCK
 10
59.23822249066813
 20
34.84432073620651
 30
0.0
 40
4.793432826660253
 50
266.4257241947367
 51
70.27162324399657
  0
ARC
  5
B43
  8
0
  6
BYBLOCK
 10
55.27270240181689
 20
15.27556600690315
 30
0.0
 40
5.496608542847825
 50
269.8139832713082
 51
67.58261748067963
  0
ARC
  5
B49
  8
0
  6
BYBLOCK
 10
39.27815828752031
 20
3.716188446803049
 30
0.0
 40
3.540684357421693
 50
239.2345099617743
 51
34.48629167360877
  0
ARC
  5
B4D
  8
0
  6
BYBLOCK
 10
24.4403980274054
 20
4.635348019670107
 30
0.0
 40
1.284337263942125
 50
233.954327160348
 51
354.0023348954816
  0
ARC
  5
B53
  8
0
  6
BYBLOCK
 10
24.07493276724997
 20
58.06825257995732
 30
0.0
 40
4.141112390556125
 50
27.47878269633261
 51
181.5658163618215
  0
ARC
  5
B56
  8
0
  6
BYBLOCK
 10
10.98868312284788
 20
37.80709596552486
 30
0.0
 40
3.449903989595696
 50
55.90383865668213
 51
215.3330827067869
  0
ARC
  5
B5A
  8
0
  6
BYBLOCK
 10
9.379433347981077
 20
27.40920241308516
 30
0.0
 40
1.285345048598208
 50
26.051797100404
 51
195.1546252232831
  0
ENDSEC
  0
EOF
