  0
SECTION
  2
HEADER
  9
$ACADVER
  1
AC1006
  0
ENDSEC
  0
SECTION
  2
TABLES
  0
TABLE
  2
LTYPE
 70
    25
  0
LTYPE
  2
CONTINUOUS
 70
    64
  3
Solid line
 72
    64
 73
     0
 40
0.000000
  0
LTYPE
  2
DASHDOT
 70
    64
  3
__ . __ . __ . __ . __ . __ . __ . __ . __ . __
 72
    65
 73
     4
 40
1.000000
 49
0.500000
 49
-0.250000
 49
0.000000
 49
-0.250000
  0
LTYPE
  2
DASHED
 70
    64
  3
__ __ __ __ __ __ __ __ __ __ __ __ __ __ __ __
 72
    65
 73
     2
 40
0.750000
 49
0.500000
 49
-0.250000
  0
LTYPE
  2
DIVIDE
 70
    64
  3
____ . . ____ . . ____ . . ____ . . ____ . . __
 72
    65
 73
     6
 40
1.250000
 49
0.500000
 49
-0.250000
 49
0.000000
 49
-0.250000
 49
0.000000
 49
-0.250000
  0
LTYPE
  2
DOT
 70
    64
  3
. . . . . . . . . . . . . . . . . . . . . . . . 
 72
    65
 73
     2
 40
0.250000
 49
0.000000
 49
-0.250000
  0
ENDTAB
  0
ENDSEC
  0
SECTION
  2
ENTITIES
  0
LINE
  8
0
 62
     1
  6
CONTINUOUS
 10
3.557391
 20
-2.963422
 30
0.000000
 11
-2.963422
 21
3.557391
 31
0.000000
  0
ARC
  8
0
 62
     7
  6
CONTINUOUS
 10
0.000000
 20
0.000000
 30
0.000000
 40
4.630000
 50
139.054042
 51
139.087182
  0
ARC
  8
0
 62
     1
  6
CONTINUOUS
 10
0.000000
 20
0.000000
 30
0.000000
 40
4.630000
 50
320.237806
 51
489.600000
  0
LINE
  8
0
 62
     1
  6
CONTINUOUS
 10
3.032233
 20
-3.498923
 30
0.000000
 11
-3.498923
 21
3.032233
 31
0.000000
  0
CIRCLE
  8
0
 62
     7
  6
CONTINUOUS
 10
0.000000
 20
0.000000
 30
0.000000
 40
5.860000
  0
ARC
  8
0
 62
     7
  6
CONTINUOUS
 10
0.000000
 20
0.000000
 30
0.000000
 40
4.630000
 50
310.912818
 51
310.945958
  0
ARC
  8
0
 62
     7
  6
CONTINUOUS
 10
0.000000
 20
0.000000
 30
0.000000
 40
4.630000
 50
310.945958
 51
310.950000
  0
ARC
  8
0
 62
     7
  6
CONTINUOUS
 10
-0.511291
 20
-0.704632
 30
0.000000
 40
2.806448
 50
126.810166
 51
146.126039
  0
ARC
  8
0
 62
     1
  6
CONTINUOUS
 10
0.000000
 20
0.000000
 30
0.000000
 40
4.630000
 50
139.087182
 51
310.912818
  0
CIRCLE
  8
0
 62
     1
  6
CONTINUOUS
 10
0.000000
 20
0.000000
 30
0.000000
 40
5.520000
  0
ARC
  8
0
 62
     7
  6
CONTINUOUS
 10
1.716963
 20
-0.183973
 30
0.000000
 40
0.450000
 50
195.509971
 51
343.010193
  0
LINE
  8
0
 62
     7
  6
CONTINUOUS
 10
0.929202
 20
0.971850
 30
0.000000
 11
1.283350
 21
-0.304306
 31
0.000000
  0
ARC
  8
0
 62
     7
  6
CONTINUOUS
 10
1.025560
 20
0.998590
 30
0.000000
 40
0.100000
 50
136.952509
 51
195.509971
  0
LINE
  8
0
 62
     7
  6
CONTINUOUS
 10
1.014168
 20
1.132891
 30
0.000000
 11
0.952481
 21
1.066851
 31
0.000000
  0
ARC
  8
0
 62
     7
  6
CONTINUOUS
 10
0.941089
 20
1.201152
 30
0.000000
 40
0.100000
 50
316.952509
 51
450.000000
  0
LINE
  8
0
 62
     7
  6
CONTINUOUS
 10
0.941089
 20
1.301152
 30
0.000000
 11
0.563654
 21
1.301152
 31
0.000000
  0
ARC
  8
0
 62
     7
  6
CONTINUOUS
 10
0.563654
 20
1.751152
 30
0.000000
 40
0.450000
 50
166.656229
 51
270.000000
  0
LINE
  8
0
 62
     7
  6
CONTINUOUS
 10
0.125802
 20
1.855009
 30
0.000000
 11
0.414268
 21
3.071152
 31
0.000000
  0
LINE
  8
0
 62
     7
  6
CONTINUOUS
 10
0.416304
 20
2.121152
 30
0.000000
 11
0.416304
 21
3.067005
 31
0.000000
  0
ARC
  8
0
 62
     7
  6
CONTINUOUS
 10
0.866304
 20
2.121152
 30
0.000000
 40
0.450000
 50
180.000000
 51
270.000000
  0
LINE
  8
0
 62
     7
  6
CONTINUOUS
 10
2.739687
 20
1.671152
 30
0.000000
 11
0.866304
 21
1.671152
 31
0.000000
  0
ARC
  8
0
 62
     7
  6
CONTINUOUS
 10
2.739687
 20
2.121152
 30
0.000000
 40
0.450000
 50
270.000000
 51
360.153608
  0
LINE
  8
0
 62
     7
  6
CONTINUOUS
 10
3.189685
 20
2.122358
 30
0.000000
 11
3.187163
 21
3.063080
 31
0.000000
  0
LINE
  8
0
 62
     7
  6
CONTINUOUS
 10
3.542301
 20
1.865459
 30
0.000000
 11
3.193199
 21
3.071152
 31
0.000000
  0
ARC
  8
0
 62
     7
  6
CONTINUOUS
 10
3.110055
 20
1.740304
 30
0.000000
 40
0.450000
 50
282.605849
 51
376.148068
  0
LINE
  8
0
 62
     7
  6
CONTINUOUS
 10
2.624819
 20
1.301152
 30
0.000000
 11
3.208265
 21
1.301152
 31
0.000000
  0
ARC
  8
0
 62
     7
  6
CONTINUOUS
 10
2.624819
 20
1.201152
 30
0.000000
 40
0.100000
 50
90.000000
 51
218.435884
  0
ARC
  8
0
 62
     7
  6
CONTINUOUS
 10
2.624819
 20
1.201152
 30
0.000000
 40
0.100000
 50
218.435884
 51
218.904138
  0
ARC
  8
0
 62
     7
  6
CONTINUOUS
 10
2.468153
 20
1.076820
 30
0.000000
 40
0.100000
 50
38.435884
 51
38.904138
  0
ARC
  8
0
 62
     7
  6
CONTINUOUS
 10
2.468153
 20
1.076820
 30
0.000000
 40
0.100000
 50
343.010193
 51
398.435884
  0
LINE
  8
0
 62
     7
  6
CONTINUOUS
 10
2.563789
 20
1.047600
 30
0.000000
 11
2.147323
 21
-0.315464
 31
0.000000
  0
LINE
  8
0
 62
     7
  6
CONTINUOUS
 10
0.748501
 20
0.026023
 30
0.000000
 11
0.748501
 21
1.201152
 31
0.000000
  0
LINE
  8
0
 62
     7
  6
CONTINUOUS
 10
0.748501
 20
1.201152
 30
0.000000
 11
0.563654
 21
1.201152
 31
0.000000
  0
ARC
  8
0
 62
     7
  6
CONTINUOUS
 10
0.563654
 20
1.751152
 30
0.000000
 40
0.550000
 50
166.656229
 51
270.000000
  0
ARC
  8
0
 62
     7
  6
CONTINUOUS
 10
-0.715294
 20
0.265736
 30
0.000000
 40
1.789934
 50
65.321727
 51
86.902018
  0
ARC
  8
0
 62
     7
  6
CONTINUOUS
 10
-0.735036
 20
-0.099038
 30
0.000000
 40
2.155242
 50
86.902018
 51
103.145754
  0
LINE
  8
0
 62
     7
  6
CONTINUOUS
 10
-1.225201
 20
1.999725
 30
0.000000
 11
0.748501
 21
0.026023
 31
0.000000
  0
LINE
  8
0
 62
     7
  6
CONTINUOUS
 10
-0.370401
 20
-1.381792
 30
0.000000
 11
-0.981844
 21
-1.381792
 31
0.000000
  0
LINE
  8
0
 62
     7
  6
CONTINUOUS
 10
0.241043
 20
-1.381792
 30
0.000000
 11
-0.370401
 21
-1.381792
 31
0.000000
  0
LINE
  8
0
 62
     7
  6
CONTINUOUS
 10
0.241043
 20
-1.381792
 30
0.000000
 11
0.241043
 21
-2.740274
 31
0.000000
  0
LINE
  8
0
 62
     7
  6
CONTINUOUS
 10
0.241043
 20
-2.740274
 30
0.000000
 11
0.748501
 21
-3.247733
 31
0.000000
  0
LINE
  8
0
 62
     7
  6
CONTINUOUS
 10
0.748501
 20
-1.399039
 30
0.000000
 11
0.748501
 21
-3.247733
 31
0.000000
  0
LINE
  8
0
 62
     7
  6
CONTINUOUS
 10
0.748501
 20
-1.388190
 30
0.000000
 11
0.748501
 21
-1.399039
 31
0.000000
  0
ARC
  8
0
 62
     7
  6
CONTINUOUS
 10
-0.511291
 20
-0.704632
 30
0.000000
 40
2.806448
 50
126.651906
 51
126.810166
  0
LINE
  8
0
 62
     7
  6
CONTINUOUS
 10
0.748501
 20
-1.399039
 30
0.000000
 11
-2.192819
 21
1.542281
 31
0.000000
  0
ARC
  8
0
 62
     7
  6
CONTINUOUS
 10
-0.520527
 20
-0.698432
 30
0.000000
 40
2.795324
 50
146.126039
 51
150.773651
  0
ARC
  8
0
 62
     7
  6
CONTINUOUS
 10
-0.740915
 20
-0.575128
 30
0.000000
 40
2.542788
 50
150.773651
 51
165.894072
  0
ARC
  8
0
 62
     7
  6
CONTINUOUS
 10
-1.116255
 20
-0.480808
 30
0.000000
 40
2.155779
 50
165.894072
 51
183.076555
  0
ARC
  8
0
 62
     7
  6
CONTINUOUS
 10
-1.480500
 20
-0.500386
 30
0.000000
 40
1.791008
 50
183.076555
 51
202.325388
  0
ARC
  8
0
 62
     7
  6
CONTINUOUS
 10
-1.688211
 20
-0.585682
 30
0.000000
 40
1.566466
 50
202.325388
 51
202.853223
  0
ARC
  8
0
 62
     7
  6
CONTINUOUS
 10
-3.121010
 20
-0.814203
 30
0.000000
 40
0.380000
 50
180.719156
 51
268.385917
  0
LINE
  8
0
 62
     7
  6
CONTINUOUS
 10
-3.500980
 20
-0.818973
 30
0.000000
 11
-3.514066
 21
0.223567
 31
0.000000
  0
ARC
  8
0
 62
     7
  6
CONTINUOUS
 10
-3.614058
 20
0.222312
 30
0.000000
 40
0.100000
 50
0.719156
 51
90.000000
  0
LINE
  8
0
 62
     7
  6
CONTINUOUS
 10
-3.666023
 20
0.322312
 30
0.000000
 11
-3.614058
 21
0.322312
 31
0.000000
  0
ARC
  8
0
 62
     7
  6
CONTINUOUS
 10
-3.666023
 20
0.222312
 30
0.000000
 40
0.100000
 50
90.000000
 51
182.015442
  0
LINE
  8
0
 62
     7
  6
CONTINUOUS
 10
-3.727961
 20
-0.861036
 30
0.000000
 11
-3.765961
 21
0.218795
 31
0.000000
  0
ARC
  8
0
 62
     7
  6
CONTINUOUS
 10
-3.128333
 20
-0.839935
 30
0.000000
 40
0.600000
 50
182.015442
 51
270.000000
  0
LINE
  8
0
 62
     7
  6
CONTINUOUS
 10
-3.128333
 20
-1.439935
 30
0.000000
 11
-3.001248
 21
-1.439935
 31
0.000000
  0
ARC
  8
0
 62
     7
  6
CONTINUOUS
 10
-1.688211
 20
-0.585682
 30
0.000000
 40
1.566466
 50
213.047776
 51
238.785022
  0
ARC
  8
0
 62
     7
  6
CONTINUOUS
 10
-1.686796
 20
-0.583347
 30
0.000000
 40
1.569196
 50
238.785022
 51
247.676997
  0
ARC
  8
0
 62
     7
  6
CONTINUOUS
 10
-1.602954
 20
-0.379151
 30
0.000000
 40
1.789934
 50
247.676997
 51
254.622049
  0
LINE
  8
0
 62
     7
  6
CONTINUOUS
 10
-1.611180
 20
-2.105001
 30
0.000000
 11
-2.077617
 21
-2.105001
 31
0.000000
  0
LINE
  8
0
 62
     7
  6
CONTINUOUS
 10
-1.611180
 20
-2.105001
 30
0.000000
 11
-1.611180
 21
-2.788349
 31
0.000000
  0
LINE
  8
0
 62
     7
  6
CONTINUOUS
 10
-1.611180
 20
-2.788349
 30
0.000000
 11
-1.078349
 21
-3.265093
 31
0.000000
  0
LINE
  8
0
 62
     7
  6
CONTINUOUS
 10
-1.078349
 20
-3.265093
 30
0.000000
 11
-1.078349
 21
-1.840747
 31
0.000000
  0
ARC
  8
0
 62
     7
  6
CONTINUOUS
 10
-1.328349
 20
-1.840747
 30
0.000000
 40
0.250000
 50
360.000000
 51
396.964289
  0
LINE
  8
0
 62
     7
  6
CONTINUOUS
 10
-1.128596
 20
-1.690417
 30
0.000000
 11
-1.206824
 21
-1.586471
 31
0.000000
  0
ARC
  8
0
 62
     7
  6
CONTINUOUS
 10
-1.106947
 20
-1.511307
 30
0.000000
 40
0.125000
 50
90.000000
 51
216.964289
  0
ARC
  8
0
 62
     7
  6
CONTINUOUS
 10
-1.106947
 20
-1.511307
 30
0.000000
 40
0.125000
 50
88.806511
 51
90.000000
  0
LINE
  8
0
 62
     7
  6
CONTINUOUS
 10
-0.370401
 20
-1.381792
 30
0.000000
 11
-1.106947
 21
-1.386307
 31
0.000000
  0
CIRCLE
  8
0
 62
     7
  6
CONTINUOUS
 10
-2.702215
 20
-2.803707
 30
0.000000
 40
0.500000
  0
ENDSEC
  0
EOF
