0
SECTION
2
HEADER
9
$ACADVER
1
AC1009
9
$ANGDIR
70
0
9
$EXTMIN
10
0
20
0
9
$EXTMAX
10
24.0000
20
18.0000
0
ENDSEC
0
SECTION
2
ENTITIES
0
POLYLINE
8
Layer 1
66
1
0
VERTEX
8
0
10
8.7268
20
7.4685
42
0.1036
0
VERTEX
8
0
10
8.7653
20
7.4669
42
0.1091
0
VERTEX
8
0
10
8.8143
20
7.4860
42
0.0622
0
VERTEX
8
0
10
8.8555
20
7.5190
42
0.0375
0
VERTEX
8
0
10
8.8903
20
7.5588
42
0.0258
0
VERTEX
8
0
10
8.9204
20
7.6023
42
0.0265
0
VERTEX
8
0
10
8.9563
20
7.6668
42
0.0143
0
VERTEX
8
0
10
8.9792
20
7.7163
42
0.0136
0
VERTEX
8
0
10
9.0006
20
7.7694
42
0.0107
0
VERTEX
8
0
10
9.0209
20
7.8272
42
0.0046
0
VERTEX
8
0
10
9.0266
20
7.8454
42
0.0273
0
VERTEX
8
0
10
9.0708
20
8.0218
42
0.0197
0
VERTEX
8
0
10
9.0927
20
8.1603
42
0.0096
0
VERTEX
8
0
10
9.0995
20
8.2285
42
0.0088
0
VERTEX
8
0
10
9.1036
20
8.2946
42
0.0234
0
VERTEX
8
0
10
9.1032
20
8.4429
42
0.0308
0
VERTEX
8
0
10
9.0864
20
8.5903
42
0.0287
0
VERTEX
8
0
10
9.0651
20
8.6766
42
0.0468
0
VERTEX
8
0
10
9.0302
20
8.7584
0
VERTEX
8
0
10
9.0302
20
8.7589
42
0.0179
0
VERTEX
8
0
10
9.0209
20
8.7740
42
0.0146
0
VERTEX
8
0
10
9.0110
20
8.7881
42
0.0293
0
VERTEX
8
0
10
9.0000
20
8.8006
42
0.0435
0
VERTEX
8
0
10
8.9782
20
8.8203
0
VERTEX
8
0
10
8.9777
20
8.8203
42
0.0227
0
VERTEX
8
0
10
8.9657
20
8.8282
42
0.0386
0
VERTEX
8
0
10
8.9532
20
8.8339
42
0.0274
0
VERTEX
8
0
10
8.9412
20
8.8380
42
0.0221
0
VERTEX
8
0
10
8.9287
20
8.8406
0
VERTEX
8
0
10
8.9282
20
8.8406
42
0.0355
0
VERTEX
8
0
10
8.9157
20
8.8412
42
0.0421
0
VERTEX
8
0
10
8.9017
20
8.8396
42
0.0331
0
VERTEX
8
0
10
8.8907
20
8.8370
0
VERTEX
8
0
10
8.8897
20
8.8370
0
VERTEX
8
0
10
8.8886
20
8.8365
42
0.0107
0
VERTEX
8
0
10
8.8803
20
8.8339
42
0.0254
0
VERTEX
8
0
10
8.8657
20
8.8276
42
0.0339
0
VERTEX
8
0
10
8.8491
20
8.8177
42
0.0167
0
VERTEX
8
0
10
8.8335
20
8.8068
0
VERTEX
8
0
10
8.8303
20
8.8042
42
0.0170
0
VERTEX
8
0
10
8.8215
20
8.7964
42
0.0152
0
VERTEX
8
0
10
8.8111
20
8.7865
42
0.0130
0
VERTEX
8
0
10
8.7991
20
8.7740
42
0.0074
0
VERTEX
8
0
10
8.7840
20
8.7568
0
VERTEX
8
0
10
8.7825
20
8.7548
42
0.0313
0
VERTEX
8
0
10
8.7460
20
8.7027
42
0.0220
0
VERTEX
8
0
10
8.7149
20
8.6472
42
0.0315
0
VERTEX
8
0
10
8.6644
20
8.5304
42
0.0227
0
VERTEX
8
0
10
8.6260
20
8.4092
42
0.0186
0
VERTEX
8
0
10
8.5971
20
8.2852
42
0.0508
0
VERTEX
8
0
10
8.5629
20
7.9144
42
0.0353
0
VERTEX
8
0
10
8.5790
20
7.7288
42
0.0286
0
VERTEX
8
0
10
8.6000
20
7.6380
42
0.0476
0
VERTEX
8
0
10
8.6351
20
7.5518
0
VERTEX
8
0
10
8.6362
20
7.5497
42
0.0212
0
VERTEX
8
0
10
8.6482
20
7.5304
42
0.0117
0
VERTEX
8
0
10
8.6534
20
7.5232
42
0.0225
0
VERTEX
8
0
10
8.6622
20
7.5122
0
VERTEX
8
0
10
8.6659
20
7.5075
0
VERTEX
8
0
10
8.6669
20
7.5065
42
0.0208
0
VERTEX
8
0
10
8.6747
20
7.4987
0
VERTEX
8
0
10
8.6783
20
7.4956
42
0.0237
0
VERTEX
8
0
10
8.6898
20
7.4862
0
VERTEX
8
0
10
8.6924
20
7.4841
42
0.0241
0
VERTEX
8
0
10
8.7018
20
7.4784
42
0.0649
0
VERTEX
8
0
10
8.7268
20
7.4685
0
SEQEND
8
0
0
POLYLINE
8
Layer 1
66
1
0
VERTEX
8
0
10
8.0665
20
5.6126
42
0.1194
0
VERTEX
8
0
10
8.1113
20
5.6026
42
0.1333
0
VERTEX
8
0
10
8.1550
20
5.6167
42
0.0860
0
VERTEX
8
0
10
8.1898
20
5.6471
42
0.0513
0
VERTEX
8
0
10
8.2163
20
5.6851
42
0.0350
0
VERTEX
8
0
10
8.2365
20
5.7269
42
0.0268
0
VERTEX
8
0
10
8.2517
20
5.7706
42
0.0255
0
VERTEX
8
0
10
8.2683
20
5.8408
42
0.0171
0
VERTEX
8
0
10
8.2795
20
5.9121
42
0.0229
0
VERTEX
8
0
10
8.2908
20
6.0560
42
0.0149
0
VERTEX
8
0
10
8.2922
20
6.2004
42
0.0116
0
VERTEX
8
0
10
8.2864
20
6.3447
42
0.0190
0
VERTEX
8
0
10
8.2726
20
6.4102
42
0.0336
0
VERTEX
8
0
10
8.2517
20
6.4737
42
0.0296
0
VERTEX
8
0
10
8.2368
20
6.5036
42
0.0468
0
VERTEX
8
0
10
8.2174
20
6.5308
42
0.0786
0
VERTEX
8
0
10
8.1916
20
6.5518
42
0.1136
0
VERTEX
8
0
10
8.1597
20
6.5607
42
0.1588
0
VERTEX
8
0
10
8.0787
20
6.5379
42
0.0668
0
VERTEX
8
0
10
8.0468
20
6.5096
42
0.0470
0
VERTEX
8
0
10
8.0215
20
6.4751
42
0.0325
0
VERTEX
8
0
10
8.0017
20
6.4372
42
0.0235
0
VERTEX
8
0
10
7.9859
20
6.3975
42
0.0327
0
VERTEX
8
0
10
7.9630
20
6.3150
42
0.0212
0
VERTEX
8
0
10
7.9483
20
6.2307
42
0.0157
0
VERTEX
8
0
10
7.9395
20
6.1456
42
0.0247
0
VERTEX
8
0
10
7.9353
20
5.9745
42
0.0056
0
VERTEX
8
0
10
7.9381
20
5.8968
42
0.0213
0
VERTEX
8
0
10
7.9461
20
5.8195
42
0.0382
0
VERTEX
8
0
10
7.9640
20
5.7439
42
0.0312
0
VERTEX
8
0
10
7.9787
20
5.7080
42
0.0419
0
VERTEX
8
0
10
7.9987
20
5.6747
42
0.0394
0
VERTEX
8
0
10
8.0290
20
5.6396
42
0.0698
0
VERTEX
8
0
10
8.0665
20
5.6126
0
SEQEND
8
0
0
POLYLINE
8
Layer 1
66
1
0
VERTEX
8
0
10
6.8523
20
3.9123
42
0.0478
0
VERTEX
8
0
10
6.8939
20
3.8367
0
VERTEX
8
0
10
6.8971
20
3.8325
42
-0.0048
0
VERTEX
8
0
10
6.9012
20
3.8268
0
VERTEX
8
0
10
6.9044
20
3.8232
42
0.0079
0
VERTEX
8
0
10
6.9127
20
3.8133
0
VERTEX
8
0
10
6.9153
20
3.8107
42
0.0156
0
VERTEX
8
0
10
6.9241
20
3.8018
0
VERTEX
8
0
10
6.9262
20
3.7997
42
0.0183
0
VERTEX
8
0
10
6.9361
20
3.7914
42
0.0297
0
VERTEX
8
0
10
6.9460
20
3.7846
0
VERTEX
8
0
10
6.9486
20
3.7826
0
VERTEX
8
0
10
6.9496
20
3.7820
42
0.0259
0
VERTEX
8
0
10
6.9611
20
3.7758
0
VERTEX
8
0
10
6.9621
20
3.7753
42
0.0590
0
VERTEX
8
0
10
6.9871
20
3.7669
42
0.0694
0
VERTEX
8
0
10
7.0137
20
3.7654
42
0.0932
0
VERTEX
8
0
10
7.0537
20
3.7758
42
0.0736
0
VERTEX
8
0
10
7.0923
20
3.8008
42
0.0106
0
VERTEX
8
0
10
7.1053
20
3.8122
42
0.0351
0
VERTEX
8
0
10
7.1297
20
3.8398
42
0.0467
0
VERTEX
8
0
10
7.1748
20
3.9087
42
0.0290
0
VERTEX
8
0
10
7.2100
20
3.9833
42
0.0215
0
VERTEX
8
0
10
7.2380
20
4.0608
42
0.0170
0
VERTEX
8
0
10
7.2604
20
4.1402
42
0.0089
0
VERTEX
8
0
10
7.2745
20
4.2016
42
0.0315
0
VERTEX
8
0
10
7.3026
20
4.4041
42
0.0110
0
VERTEX
8
0
10
7.3067
20
4.4749
42
0.0266
0
VERTEX
8
0
10
7.3045
20
4.6653
42
0.0336
0
VERTEX
8
0
10
7.2786
20
4.8538
0
VERTEX
8
0
10
7.2786
20
4.8544
42
0.0271
0
VERTEX
8
0
10
7.2510
20
4.9543
0
VERTEX
8
0
10
7.2510
20
4.9548
42
0.0067
0
VERTEX
8
0
10
7.2432
20
4.9767
0
VERTEX
8
0
10
7.2432
20
4.9772
42
0.0179
0
VERTEX
8
0
10
7.2344
20
4.9980
0
VERTEX
8
0
10
7.2344
20
4.9985
42
0.0075
0
VERTEX
8
0
10
7.2255
20
5.0183
42
0.0276
0
VERTEX
8
0
10
7.2057
20
5.0542
0
VERTEX
8
0
10
7.2057
20
5.0548
42
0.0290
0
VERTEX
8
0
10
7.1849
20
5.0850
0
VERTEX
8
0
10
7.1849
20
5.0855
42
0.0437
0
VERTEX
8
0
10
7.1620
20
5.1099
42
0.0197
0
VERTEX
8
0
10
7.1500
20
5.1204
42
0.0513
0
VERTEX
8
0
10
7.1251
20
5.1360
42
0.0601
0
VERTEX
8
0
10
7.0990
20
5.1448
42
0.0604
0
VERTEX
8
0
10
7.0725
20
5.1469
42
0.0498
0
VERTEX
8
0
10
7.0537
20
5.1438
42
0.0233
0
VERTEX
8
0
10
7.0433
20
5.1407
42
0.0342
0
VERTEX
8
0
10
7.0288
20
5.1344
42
0.0305
0
VERTEX
8
0
10
7.0142
20
5.1261
42
0.0251
0
VERTEX
8
0
10
7.0033
20
5.1183
42
0.0107
0
VERTEX
8
0
10
6.9960
20
5.1125
42
0.0033
0
VERTEX
8
0
10
6.9897
20
5.1073
0
VERTEX
8
0
10
6.9850
20
5.1032
42
0.0156
0
VERTEX
8
0
10
6.9746
20
5.0928
42
0.0121
0
VERTEX
8
0
10
6.9694
20
5.0870
0
VERTEX
8
0
10
6.9689
20
5.0865
42
0.0116
0
VERTEX
8
0
10
6.9590
20
5.0751
42
0.0450
0
VERTEX
8
0
10
6.9169
20
5.0129
42
0.0284
0
VERTEX
8
0
10
6.8835
20
4.9457
42
0.0383
0
VERTEX
8
0
10
6.8342
20
4.8040
42
0.0265
0
VERTEX
8
0
10
6.8020
20
4.6573
42
0.0219
0
VERTEX
8
0
10
6.7836
20
4.5082
42
0.0236
0
VERTEX
8
0
10
6.7778
20
4.3355
42
0.0268
0
VERTEX
8
0
10
6.7896
20
4.1631
42
0.0361
0
VERTEX
8
0
10
6.8235
20
3.9937
42
0.0291
0
VERTEX
8
0
10
6.8523
20
3.9123
0
SEQEND
8
0
0
POLYLINE
8
Layer 1
66
1
0
VERTEX
8
0
10
5.9695
20
3.5785
0
VERTEX
8
0
10
5.9715
20
3.5868
0
VERTEX
8
0
10
9.6413
20
10.7385
42
-0.0140
0
VERTEX
8
0
10
9.7109
20
10.6685
42
-0.0230
0
VERTEX
8
0
10
9.7746
20
10.5933
42
-0.0105
0
VERTEX
8
0
10
9.7986
20
10.4063
42
-0.0055
0
VERTEX
8
0
10
9.8178
20
10.2184
42
-0.0100
0
VERTEX
8
0
10
9.8447
20
9.8419
42
-0.0102
0
VERTEX
8
0
10
9.8565
20
9.4646
42
-0.0113
0
VERTEX
8
0
10
9.8517
20
9.0872
42
-0.0134
0
VERTEX
8
0
10
9.8278
20
8.7105
42
-0.0165
0
VERTEX
8
0
10
9.7808
20
8.3360
42
-0.0212
0
VERTEX
8
0
10
9.7049
20
7.9664
42
-0.0133
0
VERTEX
8
0
10
9.6535
20
7.7848
42
-0.0157
0
VERTEX
8
0
10
9.5914
20
7.6064
0
VERTEX
8
0
10
5.9695
20
0.5297
0
VERTEX
8
0
10
5.9695
20
3.5785
0
SEQEND
8
0
0
POLYLINE
8
Layer 1
66
1
0
VERTEX
8
0
10
5.8055
20
3.5868
0
VERTEX
8
0
10
5.8221
20
3.5551
0
VERTEX
8
0
10
5.8221
20
0.4990
0
VERTEX
8
0
10
2.3944
20
7.6798
42
-0.0160
0
VERTEX
8
0
10
2.3041
20
8.0357
42
-0.0146
0
VERTEX
8
0
10
2.2353
20
8.3964
42
-0.0262
0
VERTEX
8
0
10
2.1562
20
9.1263
42
-0.0234
0
VERTEX
8
0
10
2.1479
20
9.8604
42
-0.0119
0
VERTEX
8
0
10
2.1694
20
10.2270
42
-0.0068
0
VERTEX
8
0
10
2.1872
20
10.4099
42
-0.0097
0
VERTEX
8
0
10
2.2112
20
10.5917
0
VERTEX
8
0
10
5.8055
20
3.5868
0
SEQEND
8
0
0
POLYLINE
8
Layer 1
66
1
0
VERTEX
8
0
10
5.8883
20
3.7482
0
VERTEX
8
0
10
4.4963
20
6.4613
42
-0.0071
0
VERTEX
8
0
10
4.5104
20
6.4597
42
0.2544
0
VERTEX
8
0
10
4.5343
20
6.4701
42
-0.0638
0
VERTEX
8
0
10
4.6479
20
6.5826
42
-0.0626
0
VERTEX
8
0
10
4.7863
20
6.6627
42
-0.0532
0
VERTEX
8
0
10
4.9830
20
6.7233
42
-0.0417
0
VERTEX
8
0
10
5.1876
20
6.7476
42
-0.0117
0
VERTEX
8
0
10
5.2308
20
6.7481
42
-0.0083
0
VERTEX
8
0
10
5.2756
20
6.7470
0
VERTEX
8
0
10
5.2943
20
6.7293
42
0.0209
0
VERTEX
8
0
10
5.2000
20
6.7127
42
0.0294
0
VERTEX
8
0
10
5.1080
20
6.6861
42
0.0602
0
VERTEX
8
0
10
4.9706
20
6.6170
42
0.0262
0
VERTEX
8
0
10
4.9087
20
6.5710
42
0.0163
0
VERTEX
8
0
10
4.8508
20
6.5201
42
0.0629
0
VERTEX
8
0
10
4.7743
20
6.4289
42
0.0686
0
VERTEX
8
0
10
4.7249
20
6.3207
42
0.1929
0
VERTEX
8
0
10
4.7264
20
6.3067
42
0.0480
0
VERTEX
8
0
10
4.7382
20
6.2891
42
0.1077
0
VERTEX
8
0
10
4.7550
20
6.2765
42
0.0910
0
VERTEX
8
0
10
4.7712
20
6.2731
42
0.0302
0
VERTEX
8
0
10
4.7878
20
6.2733
42
0.2906
0
VERTEX
8
0
10
4.8050
20
6.2843
42
-0.0585
0
VERTEX
8
0
10
4.8791
20
6.4046
42
-0.0682
0
VERTEX
8
0
10
4.9820
20
6.5013
42
-0.0624
0
VERTEX
8
0
10
5.1287
20
6.5800
42
-0.0530
0
VERTEX
8
0
10
5.2891
20
6.6247
42
-0.0371
0
VERTEX
8
0
10
5.4031
20
6.6356
42
0.0227
0
VERTEX
8
0
10
5.5080
20
6.5607
42
0.0306
0
VERTEX
8
0
10
5.6204
20
6.4979
42
0.0430
0
VERTEX
8
0
10
5.7411
20
6.4532
42
0.0613
0
VERTEX
8
0
10
5.8685
20
6.4358
42
0.0702
0
VERTEX
8
0
10
5.9941
20
6.4535
42
0.0489
0
VERTEX
8
0
10
6.1129
20
6.4987
42
0.0339
0
VERTEX
8
0
10
6.2235
20
6.5616
42
0.0243
0
VERTEX
8
0
10
6.3266
20
6.6362
42
-0.0133
0
VERTEX
8
0
10
6.3976
20
6.6331
42
-0.0222
0
VERTEX
8
0
10
6.4681
20
6.6247
42
-0.0519
0
VERTEX
8
0
10
6.6286
20
6.5800
42
-0.0583
0
VERTEX
8
0
10
6.7753
20
6.5013
42
-0.0694
0
VERTEX
8
0
10
6.8782
20
6.4046
42
-0.0636
0
VERTEX
8
0
10
6.9522
20
6.2843
42
0.2919
0
VERTEX
8
0
10
6.9694
20
6.2733
42
-0.0057
0
VERTEX
8
0
10
6.9860
20
6.2731
42
0.0824
0
VERTEX
8
0
10
7.0022
20
6.2765
42
0.1291
0
VERTEX
8
0
10
7.0191
20
6.2891
42
0.0634
0
VERTEX
8
0
10
7.0308
20
6.3067
42
0.1936
0
VERTEX
8
0
10
7.0324
20
6.3207
42
0.0695
0
VERTEX
8
0
10
6.9829
20
6.4289
42
0.0660
0
VERTEX
8
0
10
6.9064
20
6.5201
42
0.0141
0
VERTEX
8
0
10
6.8485
20
6.5710
42
0.0234
0
VERTEX
8
0
10
6.7867
20
6.6170
42
0.0602
0
VERTEX
8
0
10
6.6493
20
6.6861
42
0.0363
0
VERTEX
8
0
10
6.5447
20
6.7155
42
0.0256
0
VERTEX
8
0
10
6.4374
20
6.7325
42
-0.0027
0
VERTEX
8
0
10
6.4510
20
6.7450
42
-0.0078
0
VERTEX
8
0
10
6.5103
20
6.7477
42
-0.0148
0
VERTEX
8
0
10
6.5696
20
6.7476
42
-0.0403
0
VERTEX
8
0
10
6.7742
20
6.7233
42
-0.0230
0
VERTEX
8
0
10
6.8741
20
6.6980
42
-0.0261
0
VERTEX
8
0
10
6.9710
20
6.6627
42
-0.0589
0
VERTEX
8
0
10
7.1093
20
6.5826
42
-0.0652
0
VERTEX
8
0
10
7.2229
20
6.4701
42
0.2546
0
VERTEX
8
0
10
7.2469
20
6.4597
42
0.0023
0
VERTEX
8
0
10
7.2651
20
6.4615
42
0.0506
0
VERTEX
8
0
10
7.2828
20
6.4659
0
VERTEX
8
0
10
5.8883
20
3.7482
0
SEQEND
8
0
0
POLYLINE
8
Layer 1
66
1
0
VERTEX
8
0
10
5.8785
20
3.8568
0
VERTEX
8
0
10
5.8785
20
3.8568
0
VERTEX
8
0
10
5.8785
20
3.8568
0
SEQEND
8
0
0
POLYLINE
8
Layer 1
66
1
0
VERTEX
8
0
10
5.1557
20
3.7919
42
-0.0276
0
VERTEX
8
0
10
5.1590
20
3.6436
42
-0.0394
0
VERTEX
8
0
10
5.1441
20
3.4960
42
-0.0296
0
VERTEX
8
0
10
5.1271
20
3.4238
42
-0.0476
0
VERTEX
8
0
10
5.1002
20
3.3547
42
-0.0178
0
VERTEX
8
0
10
5.0934
20
3.3417
0
VERTEX
8
0
10
5.0913
20
3.3380
42
-0.0040
0
VERTEX
8
0
10
5.0845
20
3.3276
0
VERTEX
8
0
10
5.0814
20
3.3235
42
-0.0221
0
VERTEX
8
0
10
5.0757
20
3.3151
42
-0.0059
0
VERTEX
8
0
10
5.0715
20
3.3099
42
-0.0166
0
VERTEX
8
0
10
5.0663
20
3.3037
0
VERTEX
8
0
10
5.0606
20
3.2980
42
-0.0251
0
VERTEX
8
0
10
5.0517
20
3.2896
0
VERTEX
8
0
10
5.0497
20
3.2875
0
VERTEX
8
0
10
5.0460
20
3.2849
42
-0.0194
0
VERTEX
8
0
10
5.0377
20
3.2792
0
VERTEX
8
0
10
5.0356
20
3.2776
42
-0.0271
0
VERTEX
8
0
10
5.0257
20
3.2724
42
-0.0288
0
VERTEX
8
0
10
5.0127
20
3.2678
42
-0.1001
0
VERTEX
8
0
10
4.9768
20
3.2641
42
-0.0251
0
VERTEX
8
0
10
4.9648
20
3.2662
42
-0.0527
0
VERTEX
8
0
10
4.9404
20
3.2745
42
-0.0377
0
VERTEX
8
0
10
4.9164
20
3.2886
42
-0.0323
0
VERTEX
8
0
10
4.8919
20
3.3084
42
-0.0184
0
VERTEX
8
0
10
4.8800
20
3.3198
42
-0.0336
0
VERTEX
8
0
10
4.8446
20
3.3625
42
-0.0159
0
VERTEX
8
0
10
4.8222
20
3.3963
42
-0.0326
0
VERTEX
8
0
10
4.7726
20
3.4923
42
-0.0237
0
VERTEX
8
0
10
4.7343
20
3.5934
42
-0.0360
0
VERTEX
8
0
10
4.6832
20
3.8034
42
-0.0242
0
VERTEX
8
0
10
4.6652
20
3.9507
42
-0.0271
0
VERTEX
8
0
10
4.6619
20
4.0991
0
VERTEX
8
0
10
4.6619
20
4.0991
42
-0.0400
0
VERTEX
8
0
10
4.6775
20
4.2500
42
-0.0199
0
VERTEX
8
0
10
4.6890
20
4.3016
42
-0.0273
0
VERTEX
8
0
10
4.7051
20
4.3520
0
VERTEX
8
0
10
4.7051
20
4.3520
42
-0.0243
0
VERTEX
8
0
10
4.7196
20
4.3859
42
-0.0311
0
VERTEX
8
0
10
4.7363
20
4.4150
42
-0.0725
0
VERTEX
8
0
10
4.7671
20
4.4513
42
-0.1148
0
VERTEX
8
0
10
4.8081
20
4.4749
42
-0.0464
0
VERTEX
8
0
10
4.8201
20
4.4780
42
-0.0296
0
VERTEX
8
0
10
4.8321
20
4.4790
42
-0.0280
0
VERTEX
8
0
10
4.8441
20
4.4785
0
VERTEX
8
0
10
4.8441
20
4.4785
42
-0.0285
0
VERTEX
8
0
10
4.8555
20
4.4764
0
VERTEX
8
0
10
4.8555
20
4.4764
0
VERTEX
8
0
10
4.8560
20
4.4764
42
-0.0466
0
VERTEX
8
0
10
4.8800
20
4.4681
0
VERTEX
8
0
10
4.8800
20
4.4681
0
VERTEX
8
0
10
4.8841
20
4.4666
42
-0.0076
0
VERTEX
8
0
10
4.8925
20
4.4619
42
-0.0190
0
VERTEX
8
0
10
4.9018
20
4.4561
0
VERTEX
8
0
10
4.9065
20
4.4525
42
-0.0234
0
VERTEX
8
0
10
4.9190
20
4.4431
42
-0.0208
0
VERTEX
8
0
10
4.9367
20
4.4270
0
VERTEX
8
0
10
4.9409
20
4.4228
42
-0.0034
0
VERTEX
8
0
10
4.9502
20
4.4124
0
VERTEX
8
0
10
4.9529
20
4.4098
0
VERTEX
8
0
10
4.9529
20
4.4098
42
-0.0023
0
VERTEX
8
0
10
4.9643
20
4.3958
42
-0.0109
0
VERTEX
8
0
10
4.9706
20
4.3880
42
-0.0268
0
VERTEX
8
0
10
5.0040
20
4.3378
42
-0.0195
0
VERTEX
8
0
10
5.0326
20
4.2846
42
-0.0288
0
VERTEX
8
0
10
5.0786
20
4.1731
42
-0.0407
0
VERTEX
8
0
10
5.1376
20
3.9393
42
-0.0237
0
VERTEX
8
0
10
5.1557
20
3.7919
0
SEQEND
8
0
0
POLYLINE
8
Layer 1
66
1
0
VERTEX
8
0
10
4.2637
20
5.5451
42
-0.0283
0
VERTEX
8
0
10
4.2543
20
5.5410
42
-0.0253
0
VERTEX
8
0
10
4.2460
20
5.5384
42
-0.0600
0
VERTEX
8
0
10
4.2283
20
5.5357
0
VERTEX
8
0
10
4.2283
20
5.5357
0
VERTEX
8
0
10
4.2277
20
5.5357
42
-0.0284
0
VERTEX
8
0
10
4.2179
20
5.5363
42
-0.0193
0
VERTEX
8
0
10
4.2090
20
5.5378
0
VERTEX
8
0
10
4.2090
20
5.5378
42
-0.0161
0
VERTEX
8
0
10
4.1996
20
5.5404
0
VERTEX
8
0
10
4.1996
20
5.5404
42
-0.0125
0
VERTEX
8
0
10
4.1903
20
5.5441
0
VERTEX
8
0
10
4.1903
20
5.5441
42
-0.0193
0
VERTEX
8
0
10
4.1804
20
5.5488
42
-0.0451
0
VERTEX
8
0
10
4.1528
20
5.5685
0
VERTEX
8
0
10
4.1528
20
5.5685
42
-0.0474
0
VERTEX
8
0
10
4.1142
20
5.6100
42
-0.0305
0
VERTEX
8
0
10
4.0833
20
5.6571
42
-0.0384
0
VERTEX
8
0
10
4.0367
20
5.7596
42
-0.0081
0
VERTEX
8
0
10
4.0242
20
5.7971
42
-0.0140
0
VERTEX
8
0
10
4.0122
20
5.8377
42
-0.0207
0
VERTEX
8
0
10
3.9935
20
5.9235
42
-0.0328
0
VERTEX
8
0
10
3.9789
20
6.0537
42
-0.0215
0
VERTEX
8
0
10
3.9789
20
6.1344
0
VERTEX
8
0
10
3.9789
20
6.1344
42
-0.0134
0
VERTEX
8
0
10
3.9815
20
6.1724
42
-0.0429
0
VERTEX
8
0
10
3.9971
20
6.2635
42
-0.0321
0
VERTEX
8
0
10
4.0113
20
6.3075
42
-0.0499
0
VERTEX
8
0
10
4.0320
20
6.3488
42
-0.0597
0
VERTEX
8
0
10
4.0534
20
6.3759
42
-0.0500
0
VERTEX
8
0
10
4.0690
20
6.3889
42
-0.0516
0
VERTEX
8
0
10
4.0862
20
6.3978
42
-0.0415
0
VERTEX
8
0
10
4.0950
20
6.4009
42
-0.0189
0
VERTEX
8
0
10
4.1039
20
6.4024
42
-0.0209
0
VERTEX
8
0
10
4.1132
20
6.4030
42
-0.0423
0
VERTEX
8
0
10
4.1247
20
6.4024
42
-0.0589
0
VERTEX
8
0
10
4.1476
20
6.3962
42
-0.0221
0
VERTEX
8
0
10
4.1585
20
6.3910
42
-0.0289
0
VERTEX
8
0
10
4.1694
20
6.3847
42
0.0047
0
VERTEX
8
0
10
4.1757
20
6.3801
42
-0.0333
0
VERTEX
8
0
10
4.1882
20
6.3707
42
-0.0212
0
VERTEX
8
0
10
4.2038
20
6.3556
42
-0.0343
0
VERTEX
8
0
10
4.2333
20
6.3195
42
-0.0247
0
VERTEX
8
0
10
4.2582
20
6.2800
42
-0.0338
0
VERTEX
8
0
10
4.2978
20
6.1955
42
-0.0247
0
VERTEX
8
0
10
4.3268
20
6.1068
42
-0.0216
0
VERTEX
8
0
10
4.3469
20
6.0157
42
-0.0268
0
VERTEX
8
0
10
4.3603
20
5.9056
42
-0.0318
0
VERTEX
8
0
10
4.3610
20
5.7948
42
-0.0476
0
VERTEX
8
0
10
4.3457
20
5.6851
42
-0.0370
0
VERTEX
8
0
10
4.3294
20
5.6321
42
-0.0656
0
VERTEX
8
0
10
4.3037
20
5.5831
0
VERTEX
8
0
10
4.3017
20
5.5805
42
-0.0345
0
VERTEX
8
0
10
4.2907
20
5.5670
42
-0.0442
0
VERTEX
8
0
10
4.2798
20
5.5560
0
VERTEX
8
0
10
4.2772
20
5.5540
42
-0.0444
0
VERTEX
8
0
10
4.2637
20
5.5451
0
SEQEND
8
0
0
POLYLINE
8
Layer 1
66
1
0
VERTEX
8
0
10
4.7607
20
6.2949
42
0.0835
0
VERTEX
8
0
10
4.7741
20
6.2921
42
0.0029
0
VERTEX
8
0
10
4.7878
20
6.2921
42
-0.0628
0
VERTEX
8
0
10
4.8646
20
6.4167
42
-0.0702
0
VERTEX
8
0
10
4.9711
20
6.5170
42
-0.0589
0
VERTEX
8
0
10
5.1214
20
6.5977
42
-0.0509
0
VERTEX
8
0
10
5.2860
20
6.6434
42
-0.0229
0
VERTEX
8
0
10
5.3671
20
6.6528
42
-0.0148
0
VERTEX
8
0
10
5.4487
20
6.6554
42
-0.0124
0
VERTEX
8
0
10
5.6119
20
6.6497
42
0.0280
0
VERTEX
8
0
10
5.6190
20
6.6645
42
0.0509
0
VERTEX
8
0
10
5.6240
20
6.6801
42
0.1104
0
VERTEX
8
0
10
5.6247
20
6.6964
42
0.1659
0
VERTEX
8
0
10
5.6171
20
6.7106
42
0.0956
0
VERTEX
8
0
10
5.6017
20
6.7189
42
0.0400
0
VERTEX
8
0
10
5.5845
20
6.7224
42
0.0187
0
VERTEX
8
0
10
5.5494
20
6.7241
42
0.0101
0
VERTEX
8
0
10
5.4776
20
6.7241
42
0.0136
0
VERTEX
8
0
10
5.3853
20
6.7201
42
0.0173
0
VERTEX
8
0
10
5.2935
20
6.7108
42
0.0230
0
VERTEX
8
0
10
5.2027
20
6.6943
42
0.0328
0
VERTEX
8
0
10
5.1142
20
6.6684
42
0.0612
0
VERTEX
8
0
10
4.9804
20
6.6008
42
0.0233
0
VERTEX
8
0
10
4.9202
20
6.5557
42
0.0116
0
VERTEX
8
0
10
4.8638
20
6.5060
42
0.0655
0
VERTEX
8
0
10
4.7905
20
6.4189
42
0.0696
0
VERTEX
8
0
10
4.7431
20
6.3155
42
0.0463
0
VERTEX
8
0
10
4.7504
20
6.3038
42
0.1314
0
VERTEX
8
0
10
4.7607
20
6.2949
0
SEQEND
8
0
0
POLYLINE
8
Layer 1
66
1
0
VERTEX
8
0
10
4.5130
20
6.4868
42
-0.0647
0
VERTEX
8
0
10
4.6313
20
6.6040
42
-0.0597
0
VERTEX
8
0
10
4.7753
20
6.6877
42
-0.0487
0
VERTEX
8
0
10
4.9769
20
6.7498
42
-0.0401
0
VERTEX
8
0
10
5.1866
20
6.7746
42
-0.0187
0
VERTEX
8
0
10
5.2885
20
6.7740
42
-0.0114
0
VERTEX
8
0
10
5.3902
20
6.7665
42
-0.0078
0
VERTEX
8
0
10
5.4916
20
6.7549
42
-0.0031
0
VERTEX
8
0
10
5.5926
20
6.7408
42
0.0272
0
VERTEX
8
0
10
5.6034
20
6.7542
42
0.0557
0
VERTEX
8
0
10
5.6122
20
6.7689
42
0.1396
0
VERTEX
8
0
10
5.6160
20
6.7855
42
0.1854
0
VERTEX
8
0
10
5.6087
20
6.8006
42
0.0853
0
VERTEX
8
0
10
5.5900
20
6.8111
42
0.0312
0
VERTEX
8
0
10
5.5692
20
6.8166
42
0.0143
0
VERTEX
8
0
10
5.5265
20
6.8225
42
0.0111
0
VERTEX
8
0
10
5.3680
20
6.8358
42
0.0182
0
VERTEX
8
0
10
5.2090
20
6.8402
42
0.0190
0
VERTEX
8
0
10
5.0927
20
6.8353
42
0.0266
0
VERTEX
8
0
10
4.9773
20
6.8204
42
0.0502
0
VERTEX
8
0
10
4.8029
20
6.7707
42
0.0213
0
VERTEX
8
0
10
4.7203
20
6.7332
42
0.0117
0
VERTEX
8
0
10
4.6405
20
6.6898
42
0.0609
0
VERTEX
8
0
10
4.5415
20
6.6174
42
0.0778
0
VERTEX
8
0
10
4.4651
20
6.5216
0
VERTEX
8
0
10
4.4797
20
6.4935
42
0.0736
0
VERTEX
8
0
10
4.4960
20
6.4886
42
0.0076
0
VERTEX
8
0
10
4.5130
20
6.4868
0
SEQEND
8
0
0
POLYLINE
8
Layer 1
66
1
0
VERTEX
8
0
10
4.4505
20
6.5503
42
-0.0651
0
VERTEX
8
0
10
4.5288
20
6.6425
42
-0.0513
0
VERTEX
8
0
10
4.6270
20
6.7132
42
-0.0147
0
VERTEX
8
0
10
4.7088
20
6.7578
42
-0.0235
0
VERTEX
8
0
10
4.7937
20
6.7963
42
-0.0496
0
VERTEX
8
0
10
4.9726
20
6.8475
42
-0.0203
0
VERTEX
8
0
10
5.0655
20
6.8602
42
-0.0149
0
VERTEX
8
0
10
5.1590
20
6.8662
42
-0.0148
0
VERTEX
8
0
10
5.0554
20
6.9849
42
0.0350
0
VERTEX
8
0
10
4.8877
20
7.0004
42
0.0449
0
VERTEX
8
0
10
4.7196
20
6.9901
42
0.0625
0
VERTEX
8
0
10
4.5638
20
6.9469
42
0.0652
0
VERTEX
8
0
10
4.4240
20
6.8657
42
-0.2542
0
VERTEX
8
0
10
4.4042
20
6.8626
42
-0.0279
0
VERTEX
8
0
10
4.3859
20
6.8696
42
-0.0724
0
VERTEX
8
0
10
4.3693
20
6.8798
42
-0.1021
0
VERTEX
8
0
10
4.3558
20
6.8978
42
-0.0532
0
VERTEX
8
0
10
4.3490
20
6.9193
42
-0.2466
0
VERTEX
8
0
10
4.3542
20
6.9381
42
-0.0742
0
VERTEX
8
0
10
4.4584
20
7.0182
42
-0.0572
0
VERTEX
8
0
10
4.5807
20
7.0672
42
-0.0263
0
VERTEX
8
0
10
4.7113
20
7.0974
42
-0.0362
0
VERTEX
8
0
10
4.8446
20
7.1114
42
-0.0256
0
VERTEX
8
0
10
4.9466
20
7.1088
0
VERTEX
8
0
10
4.9591
20
7.1078
42
-0.0227
0
VERTEX
8
0
10
4.7370
20
7.4363
42
-0.0204
0
VERTEX
8
0
10
4.5442
20
7.7829
42
-0.3573
0
VERTEX
8
0
10
3.9076
20
8.5596
42
-0.2037
0
VERTEX
8
0
10
4.1486
20
9.1275
0
VERTEX
8
0
10
4.1486
20
9.1306
42
-0.3739
0
VERTEX
8
0
10
5.6311
20
10.8343
42
0.0483
0
VERTEX
8
0
10
5.4326
20
11.0455
42
0.0540
0
VERTEX
8
0
10
5.1962
20
11.2132
42
0.0614
0
VERTEX
8
0
10
4.9283
20
11.3235
42
0.0628
0
VERTEX
8
0
10
4.6416
20
11.3642
42
0.0137
0
VERTEX
8
0
10
4.6103
20
11.3642
42
0.0113
0
VERTEX
8
0
10
4.5767
20
11.3626
42
0.0107
0
VERTEX
8
0
10
4.5437
20
11.3595
42
0.0206
0
VERTEX
8
0
10
4.4781
20
11.3491
42
0.0357
0
VERTEX
8
0
10
4.3504
20
11.3131
42
0.0277
0
VERTEX
8
0
10
4.2285
20
11.2606
42
0.0202
0
VERTEX
8
0
10
4.1124
20
11.1961
42
0.0141
0
VERTEX
8
0
10
4.0013
20
11.1233
42
0.0090
0
VERTEX
8
0
10
3.8940
20
11.0451
42
0.0047
0
VERTEX
8
0
10
3.7891
20
10.9637
0
VERTEX
8
0
10
3.6852
20
10.8809
42
-0.0028
0
VERTEX
8
0
10
3.5813
20
10.7982
42
-0.0065
0
VERTEX
8
0
10
3.4760
20
10.7172
42
-0.0104
0
VERTEX
8
0
10
3.3683
20
10.6395
42
-0.0148
0
VERTEX
8
0
10
3.2571
20
10.5670
42
-0.0195
0
VERTEX
8
0
10
3.1414
20
10.5018
42
-0.0248
0
VERTEX
8
0
10
3.0206
20
10.4468
42
-0.0298
0
VERTEX
8
0
10
2.8947
20
10.4048
42
-0.0337
0
VERTEX
8
0
10
2.7645
20
10.3788
42
-0.0784
0
VERTEX
8
0
10
2.6062
20
10.3828
42
-0.0832
0
VERTEX
8
0
10
2.4569
20
10.4356
0
VERTEX
8
0
10
4.4505
20
6.5503
0
SEQEND
8
0
0
POLYLINE
8
Layer 1
66
1
0
VERTEX
8
0
10
4.4115
20
6.8824
42
-0.0647
0
VERTEX
8
0
10
4.5558
20
6.9662
42
-0.0609
0
VERTEX
8
0
10
4.7165
20
7.0109
42
-0.0269
0
VERTEX
8
0
10
4.8216
20
7.0209
42
-0.0228
0
VERTEX
8
0
10
4.9271
20
7.0201
42
-0.0411
0
VERTEX
8
0
10
5.1361
20
6.9912
42
-0.0196
0
VERTEX
8
0
10
5.2345
20
6.9648
42
-0.0120
0
VERTEX
8
0
10
5.3310
20
6.9319
42
-0.0094
0
VERTEX
8
0
10
5.5202
20
6.8558
42
0.0270
0
VERTEX
8
0
10
5.5340
20
6.8660
42
0.0552
0
VERTEX
8
0
10
5.5463
20
6.8780
42
0.1405
0
VERTEX
8
0
10
5.5541
20
6.8930
42
0.1843
0
VERTEX
8
0
10
5.5509
20
6.9094
42
0.0840
0
VERTEX
8
0
10
5.5356
20
6.9243
42
0.0320
0
VERTEX
8
0
10
5.5168
20
6.9350
42
0.0162
0
VERTEX
8
0
10
5.4770
20
6.9516
42
0.0103
0
VERTEX
8
0
10
5.3473
20
6.9979
42
0.0144
0
VERTEX
8
0
10
5.2155
20
7.0381
42
0.0208
0
VERTEX
8
0
10
5.0815
20
7.0695
42
0.0301
0
VERTEX
8
0
10
4.9450
20
7.0880
42
0.0297
0
VERTEX
8
0
10
4.8451
20
7.0906
42
0.0358
0
VERTEX
8
0
10
4.7144
20
7.0767
42
0.0200
0
VERTEX
8
0
10
4.5864
20
7.0469
42
0.0628
0
VERTEX
8
0
10
4.4692
20
7.0001
42
0.0796
0
VERTEX
8
0
10
4.3693
20
6.9235
42
0.0579
0
VERTEX
8
0
10
4.3737
20
6.9083
42
0.1306
0
VERTEX
8
0
10
4.3828
20
6.8955
42
0.0582
0
VERTEX
8
0
10
4.3966
20
6.8879
42
0.0040
0
VERTEX
8
0
10
4.4115
20
6.8824
0
SEQEND
8
0
0
POLYLINE
8
Layer 1
66
1
0
VERTEX
8
0
10
3.5966
20
6.8646
42
-0.0335
0
VERTEX
8
0
10
3.5696
20
6.7099
42
-0.0203
0
VERTEX
8
0
10
3.5481
20
6.6344
42
-0.0255
0
VERTEX
8
0
10
3.5200
20
6.5611
42
-0.0347
0
VERTEX
8
0
10
3.4838
20
6.4914
42
-0.0527
0
VERTEX
8
0
10
3.4370
20
6.4285
42
-0.0248
0
VERTEX
8
0
10
3.4219
20
6.4129
42
0.0060
0
VERTEX
8
0
10
3.4131
20
6.4056
42
-0.0175
0
VERTEX
8
0
10
3.4058
20
6.3993
42
-0.0198
0
VERTEX
8
0
10
3.3897
20
6.3879
42
-0.0279
0
VERTEX
8
0
10
3.3782
20
6.3806
42
-0.0153
0
VERTEX
8
0
10
3.3642
20
6.3738
42
-0.0307
0
VERTEX
8
0
10
3.3564
20
6.3702
0
VERTEX
8
0
10
3.3538
20
6.3696
42
-0.0294
0
VERTEX
8
0
10
3.3392
20
6.3650
42
-0.0373
0
VERTEX
8
0
10
3.3215
20
6.3613
42
-0.0298
0
VERTEX
8
0
10
3.3038
20
6.3603
42
-0.1012
0
VERTEX
8
0
10
3.2429
20
6.3738
42
-0.0444
0
VERTEX
8
0
10
3.2132
20
6.3908
42
-0.0324
0
VERTEX
8
0
10
3.1867
20
6.4123
0
VERTEX
8
0
10
3.1867
20
6.4123
42
-0.0291
0
VERTEX
8
0
10
3.1601
20
6.4399
42
-0.0253
0
VERTEX
8
0
10
3.1351
20
6.4732
42
-0.0465
0
VERTEX
8
0
10
3.0805
20
6.5768
42
-0.0206
0
VERTEX
8
0
10
3.0572
20
6.6408
42
-0.0147
0
VERTEX
8
0
10
3.0388
20
6.7064
42
-0.0252
0
VERTEX
8
0
10
3.0159
20
6.8246
42
-0.0234
0
VERTEX
8
0
10
3.0039
20
6.9537
42
-0.0115
0
VERTEX
8
0
10
3.0024
20
7.0214
42
-0.0115
0
VERTEX
8
0
10
3.0039
20
7.0890
42
-0.0235
0
VERTEX
8
0
10
3.0149
20
7.2114
42
0.0104
0
VERTEX
8
0
10
3.0159
20
7.2176
0
VERTEX
8
0
10
3.0159
20
7.2176
42
0.0160
0
VERTEX
8
0
10
3.0175
20
7.2264
42
-0.0261
0
VERTEX
8
0
10
3.0388
20
7.3363
42
-0.0311
0
VERTEX
8
0
10
3.0711
20
7.4420
42
-0.0091
0
VERTEX
8
0
10
3.0805
20
7.4659
42
-0.0417
0
VERTEX
8
0
10
3.1232
20
7.5507
0
VERTEX
8
0
10
3.1232
20
7.5507
42
-0.0147
0
VERTEX
8
0
10
3.1351
20
7.5695
42
-0.0179
0
VERTEX
8
0
10
3.1544
20
7.5955
0
VERTEX
8
0
10
3.1601
20
7.6023
0
VERTEX
8
0
10
3.1601
20
7.6023
42
-0.0051
0
VERTEX
8
0
10
3.1731
20
7.6169
0
VERTEX
8
0
10
3.1731
20
7.6169
42
0.0145
0
VERTEX
8
0
10
3.1799
20
7.6236
42
-0.0332
0
VERTEX
8
0
10
3.2002
20
7.6424
42
-0.0431
0
VERTEX
8
0
10
3.2283
20
7.6616
42
-0.1349
0
VERTEX
8
0
10
3.3038
20
7.6824
42
-0.0208
0
VERTEX
8
0
10
3.3189
20
7.6814
42
-0.0281
0
VERTEX
8
0
10
3.3324
20
7.6793
42
-0.0139
0
VERTEX
8
0
10
3.3392
20
7.6778
0
VERTEX
8
0
10
3.3433
20
7.6762
42
-0.0314
0
VERTEX
8
0
10
3.3564
20
7.6720
0
VERTEX
8
0
10
3.3564
20
7.6720
42
-0.0283
0
VERTEX
8
0
10
3.3735
20
7.6642
42
-0.0187
0
VERTEX
8
0
10
3.3855
20
7.6575
0
VERTEX
8
0
10
3.3897
20
7.6549
0
VERTEX
8
0
10
3.3923
20
7.6528
0
VERTEX
8
0
10
3.3923
20
7.6528
42
-0.0382
0
VERTEX
8
0
10
3.4209
20
7.6304
42
-0.0128
0
VERTEX
8
0
10
3.4370
20
7.6137
42
-0.0453
0
VERTEX
8
0
10
3.4838
20
7.5509
42
-0.0311
0
VERTEX
8
0
10
3.5200
20
7.4813
42
-0.0413
0
VERTEX
8
0
10
3.5696
20
7.3326
42
-0.0312
0
VERTEX
8
0
10
3.5966
20
7.1780
42
-0.0271
0
VERTEX
8
0
10
3.6052
20
7.0214
42
-0.0282
0
VERTEX
8
0
10
3.5966
20
6.8646
0
SEQEND
8
0
0
POLYLINE
8
Layer 1
66
1
0
VERTEX
8
0
10
2.2060
20
7.5242
42
-0.0408
0
VERTEX
8
0
10
2.1940
20
7.5560
42
-0.0150
0
VERTEX
8
0
10
2.1021
20
7.9163
42
-0.0139
0
VERTEX
8
0
10
2.0315
20
8.2814
42
-0.0247
0
VERTEX
8
0
10
1.9487
20
9.0203
42
-0.0230
0
VERTEX
8
0
10
1.9372
20
9.7638
42
-0.0122
0
VERTEX
8
0
10
1.9574
20
10.1352
42
-0.0071
0
VERTEX
8
0
10
1.9745
20
10.3203
42
-0.0098
0
VERTEX
8
0
10
1.9972
20
10.5048
42
-0.0696
0
VERTEX
8
0
10
2.0261
20
10.6000
42
-0.0453
0
VERTEX
8
0
10
2.0774
20
10.6854
42
-0.0215
0
VERTEX
8
0
10
2.1419
20
10.7633
42
-0.0026
0
VERTEX
8
0
10
2.2112
20
10.8369
42
-0.0255
0
VERTEX
8
0
10
2.4013
20
10.9987
42
-0.0206
0
VERTEX
8
0
10
2.6060
20
11.1419
42
-0.0176
0
VERTEX
8
0
10
2.8211
20
11.2687
42
-0.0155
0
VERTEX
8
0
10
3.0444
20
11.3807
42
-0.0259
0
VERTEX
8
0
10
3.5086
20
11.5654
42
-0.0213
0
VERTEX
8
0
10
3.9884
20
11.7042
42
-0.0180
0
VERTEX
8
0
10
4.4779
20
11.8039
42
-0.0154
0
VERTEX
8
0
10
4.9731
20
11.8700
42
-0.0134
0
VERTEX
8
0
10
5.4714
20
11.9070
42
-0.0116
0
VERTEX
8
0
10
5.9710
20
11.9186
42
-0.0115
0
VERTEX
8
0
10
6.4489
20
11.9080
42
-0.0131
0
VERTEX
8
0
10
6.9258
20
11.8745
42
-0.0151
0
VERTEX
8
0
10
7.4000
20
11.8151
42
-0.0173
0
VERTEX
8
0
10
7.8696
20
11.7259
42
-0.0203
0
VERTEX
8
0
10
8.3313
20
11.6026
42
-0.0243
0
VERTEX
8
0
10
8.7805
20
11.4400
42
-0.0139
0
VERTEX
8
0
10
8.9985
20
11.3420
42
-0.0156
0
VERTEX
8
0
10
9.2105
20
11.2315
42
-0.0179
0
VERTEX
8
0
10
9.4147
20
11.1076
42
-0.0212
0
VERTEX
8
0
10
9.6091
20
10.9686
0
VERTEX
8
0
10
9.6679
20
10.9225
42
-0.0060
0
VERTEX
8
0
10
9.7263
20
10.8758
42
-0.0118
0
VERTEX
8
0
10
9.7831
20
10.8272
42
-0.0192
0
VERTEX
8
0
10
9.8371
20
10.7755
42
-0.0255
0
VERTEX
8
0
10
9.8859
20
10.7202
42
-0.0342
0
VERTEX
8
0
10
9.9281
20
10.6597
42
-0.0425
0
VERTEX
8
0
10
9.9611
20
10.5938
42
-0.0486
0
VERTEX
8
0
10
9.9818
20
10.5230
42
-0.0121
0
VERTEX
8
0
10
10.0272
20
10.1391
42
-0.0106
0
VERTEX
8
0
10
10.0551
20
9.7534
42
-0.0112
0
VERTEX
8
0
10
10.0664
20
9.3669
42
-0.0126
0
VERTEX
8
0
10
10.0597
20
8.9802
42
-0.0148
0
VERTEX
8
0
10
10.0325
20
8.5946
42
-0.0180
0
VERTEX
8
0
10
9.9809
20
8.2114
42
-0.0227
0
VERTEX
8
0
10
9.8998
20
7.8334
42
-0.0133
0
VERTEX
8
0
10
9.8460
20
7.6477
42
-0.0153
0
VERTEX
8
0
10
9.7819
20
7.4654
42
-0.0262
0
VERTEX
8
0
10
9.7730
20
7.4456
0
VERTEX
8
0
10
6.1511
20
0.3689
42
-0.0540
0
VERTEX
8
0
10
6.0998
20
0.3036
42
-0.0576
0
VERTEX
8
0
10
6.0355
20
0.2511
42
-0.0659
0
VERTEX
8
0
10
5.9607
20
0.2153
42
-0.0754
0
VERTEX
8
0
10
5.8790
20
0.2013
0
VERTEX
8
0
10
5.8790
20
0.2013
0
VERTEX
8
0
10
5.8785
20
0.2013
42
-0.0895
0
VERTEX
8
0
10
5.7899
20
0.2153
42
-0.0821
0
VERTEX
8
0
10
5.7119
20
0.2587
42
-0.0650
0
VERTEX
8
0
10
5.6506
20
0.3236
42
-0.0483
0
VERTEX
8
0
10
5.6061
20
0.4011
0
VERTEX
8
0
10
2.2060
20
7.5242
0
SEQEND
8
0
0
POLYLINE
8
Layer 1
66
1
0
VERTEX
8
0
10
2.5016
20
8.4180
42
-0.0312
0
VERTEX
8
0
10
2.4923
20
8.4221
0
VERTEX
8
0
10
2.4923
20
8.4221
42
-0.0667
0
VERTEX
8
0
10
2.4657
20
8.4430
42
-0.0410
0
VERTEX
8
0
10
2.4501
20
8.4622
42
-0.0281
0
VERTEX
8
0
10
2.4428
20
8.4731
42
-0.0388
0
VERTEX
8
0
10
2.4241
20
8.5132
42
-0.0155
0
VERTEX
8
0
10
2.4142
20
8.5445
42
-0.0310
0
VERTEX
8
0
10
2.3991
20
8.6173
42
-0.0237
0
VERTEX
8
0
10
2.3918
20
8.7011
42
-0.0306
0
VERTEX
8
0
10
2.3960
20
8.8427
42
-0.0088
0
VERTEX
8
0
10
2.4017
20
8.8932
42
-0.0195
0
VERTEX
8
0
10
2.4194
20
8.9968
42
-0.0264
0
VERTEX
8
0
10
2.4532
20
9.1249
42
0.0063
0
VERTEX
8
0
10
2.4569
20
9.1353
42
-0.0095
0
VERTEX
8
0
10
2.4699
20
9.1722
42
-0.0081
0
VERTEX
8
0
10
2.4824
20
9.2040
42
-0.0062
0
VERTEX
8
0
10
2.4912
20
9.2248
42
-0.0072
0
VERTEX
8
0
10
2.4949
20
9.2331
42
-0.0066
0
VERTEX
8
0
10
2.5058
20
9.2560
42
-0.0086
0
VERTEX
8
0
10
2.5167
20
9.2774
42
-0.0114
0
VERTEX
8
0
10
2.5287
20
9.2992
0
VERTEX
8
0
10
2.5308
20
9.3034
42
-0.0097
0
VERTEX
8
0
10
2.5500
20
9.3331
0
VERTEX
8
0
10
2.5500
20
9.3331
42
-0.0062
0
VERTEX
8
0
10
2.5620
20
9.3497
42
-0.0127
0
VERTEX
8
0
10
2.5724
20
9.3633
42
-0.0285
0
VERTEX
8
0
10
2.5917
20
9.3856
0
VERTEX
8
0
10
2.5932
20
9.3872
42
-0.0251
0
VERTEX
8
0
10
2.6120
20
9.4044
0
VERTEX
8
0
10
2.6120
20
9.4044
42
-0.0344
0
VERTEX
8
0
10
2.6281
20
9.4169
0
VERTEX
8
0
10
2.6302
20
9.4179
42
-0.0285
0
VERTEX
8
0
10
2.6463
20
9.4268
42
-0.0164
0
VERTEX
8
0
10
2.6521
20
9.4294
42
-0.0085
0
VERTEX
8
0
10
2.6578
20
9.4315
42
-0.0367
0
VERTEX
8
0
10
2.6703
20
9.4351
42
-0.0144
0
VERTEX
8
0
10
2.6765
20
9.4361
42
-0.0385
0
VERTEX
8
0
10
2.6859
20
9.4372
42
-0.0260
0
VERTEX
8
0
10
2.6958
20
9.4367
42
-0.0357
0
VERTEX
8
0
10
2.7010
20
9.4361
0
VERTEX
8
0
10
2.7036
20
9.4356
0
VERTEX
8
0
10
2.7057
20
9.4351
42
-0.0264
0
VERTEX
8
0
10
2.7156
20
9.4320
42
-0.0355
0
VERTEX
8
0
10
2.7291
20
9.4252
42
-0.0380
0
VERTEX
8
0
10
2.7416
20
9.4164
0
VERTEX
8
0
10
2.7416
20
9.4164
42
-0.0518
0
VERTEX
8
0
10
2.7645
20
9.3914
42
-0.0387
0
VERTEX
8
0
10
2.7820
20
9.3618
42
-0.0270
0
VERTEX
8
0
10
2.7953
20
9.3301
42
-0.0347
0
VERTEX
8
0
10
2.8131
20
9.2637
42
-0.0401
0
VERTEX
8
0
10
2.8263
20
9.1269
42
-0.0288
0
VERTEX
8
0
10
2.8199
20
8.9895
42
-0.0254
0
VERTEX
8
0
10
2.7983
20
8.8537
42
-0.0225
0
VERTEX
8
0
10
2.7712
20
8.7473
42
-0.0265
0
VERTEX
8
0
10
2.7344
20
8.6439
42
-0.0374
0
VERTEX
8
0
10
2.6856
20
8.5457
42
-0.0279
0
VERTEX
8
0
10
2.6552
20
8.5000
42
-0.0430
0
VERTEX
8
0
10
2.6193
20
8.4586
42
-0.0224
0
VERTEX
8
0
10
2.6042
20
8.4450
42
-0.0342
0
VERTEX
8
0
10
2.5843
20
8.4306
42
-0.0509
0
VERTEX
8
0
10
2.5625
20
8.4195
0
VERTEX
8
0
10
2.5594
20
8.4185
42
-0.0487
0
VERTEX
8
0
10
2.5454
20
8.4143
0
VERTEX
8
0
10
2.5454
20
8.4143
0
VERTEX
8
0
10
2.5422
20
8.4138
42
-0.0318
0
VERTEX
8
0
10
2.5318
20
8.4128
0
VERTEX
8
0
10
2.5287
20
8.4128
42
-0.0311
0
VERTEX
8
0
10
2.5157
20
8.4143
42
-0.0545
0
VERTEX
8
0
10
2.5016
20
8.4180
0
SEQEND
8
0
0
POLYLINE
8
Layer 1
66
1
0
VERTEX
8
0
10
4.0367
20
8.4980
42
0.0709
0
VERTEX
8
0
10
4.0705
20
8.3446
42
-0.0497
0
VERTEX
8
0
10
4.1206
20
8.4612
42
-0.0458
0
VERTEX
8
0
10
4.1922
20
8.5661
42
-0.0420
0
VERTEX
8
0
10
4.2812
20
8.6567
42
-0.0388
0
VERTEX
8
0
10
4.3838
20
8.7316
42
-0.0709
0
VERTEX
8
0
10
4.6166
20
8.8319
42
-0.0658
0
VERTEX
8
0
10
4.8680
20
8.8651
42
-0.0706
0
VERTEX
8
0
10
5.1312
20
8.8285
42
-0.0772
0
VERTEX
8
0
10
5.3729
20
8.7183
42
0.0822
0
VERTEX
8
0
10
5.2839
20
8.9201
42
0.0761
0
VERTEX
8
0
10
5.1361
20
9.0841
42
0.0802
0
VERTEX
8
0
10
4.9457
20
9.1958
42
0.0915
0
VERTEX
8
0
10
4.7295
20
9.2389
42
0.0144
0
VERTEX
8
0
10
4.6952
20
9.2383
42
0.0690
0
VERTEX
8
0
10
4.5395
20
9.2176
42
0.0626
0
VERTEX
8
0
10
4.3947
20
9.1565
42
0.0558
0
VERTEX
8
0
10
4.2685
20
9.0625
42
0.0523
0
VERTEX
8
0
10
4.1656
20
8.9435
42
0.0528
0
VERTEX
8
0
10
4.0895
20
8.8058
42
0.0572
0
VERTEX
8
0
10
4.0447
20
8.6550
42
0.0647
0
VERTEX
8
0
10
4.0367
20
8.4980
0
SEQEND
8
0
0
POLYLINE
8
Layer 1
66
1
0
VERTEX
8
0
10
5.2715
20
7.5932
42
0.0764
0
VERTEX
8
0
10
5.2470
20
7.5387
42
0.0668
0
VERTEX
8
0
10
5.2391
20
7.4794
42
0.0691
0
VERTEX
8
0
10
5.2470
20
7.4201
42
0.0820
0
VERTEX
8
0
10
5.2715
20
7.3655
42
0.1109
0
VERTEX
8
0
10
5.3136
20
7.3232
42
0.1470
0
VERTEX
8
0
10
5.3703
20
7.3061
42
0.1382
0
VERTEX
8
0
10
5.4271
20
7.3231
42
0.0997
0
VERTEX
8
0
10
5.4691
20
7.3655
42
0.0763
0
VERTEX
8
0
10
5.4936
20
7.4201
42
0.0663
0
VERTEX
8
0
10
5.5015
20
7.4794
42
0.0687
0
VERTEX
8
0
10
5.4936
20
7.5387
42
0.0818
0
VERTEX
8
0
10
5.4691
20
7.5932
42
0.1124
0
VERTEX
8
0
10
5.4270
20
7.6353
42
0.1460
0
VERTEX
8
0
10
5.3703
20
7.6523
42
0.1381
0
VERTEX
8
0
10
5.3136
20
7.6353
42
0.0996
0
VERTEX
8
0
10
5.2715
20
7.5932
0
SEQEND
8
0
0
POLYLINE
8
Layer 1
66
1
0
VERTEX
8
0
10
5.3571
20
7.5566
42
-0.1083
0
VERTEX
8
0
10
5.3685
20
7.5718
42
-0.1944
0
VERTEX
8
0
10
5.3859
20
7.5789
42
-0.1674
0
VERTEX
8
0
10
5.4032
20
7.5718
42
-0.0901
0
VERTEX
8
0
10
5.4145
20
7.5565
42
-0.1055
0
VERTEX
8
0
10
5.4224
20
7.5195
42
-0.1229
0
VERTEX
8
0
10
5.4145
20
7.4825
42
-0.1093
0
VERTEX
8
0
10
5.4032
20
7.4672
42
-0.1955
0
VERTEX
8
0
10
5.3859
20
7.4602
42
-0.1657
0
VERTEX
8
0
10
5.3685
20
7.4672
42
-0.0900
0
VERTEX
8
0
10
5.3571
20
7.4824
42
-0.1089
0
VERTEX
8
0
10
5.3490
20
7.5195
42
-0.1251
0
VERTEX
8
0
10
5.3571
20
7.5566
0
SEQEND
8
0
0
POLYLINE
8
Layer 1
66
1
0
VERTEX
8
0
10
5.7202
20
6.8700
42
0.1593
0
VERTEX
8
0
10
5.6947
20
6.8377
42
0.0752
0
VERTEX
8
0
10
5.6884
20
6.7965
42
0.0579
0
VERTEX
8
0
10
5.6934
20
6.7579
42
0.0416
0
VERTEX
8
0
10
5.7061
20
6.7212
42
0.0619
0
VERTEX
8
0
10
5.7470
20
6.6551
42
0.0691
0
VERTEX
8
0
10
5.8027
20
6.6012
42
0.0575
0
VERTEX
8
0
10
5.8362
20
6.5813
42
0.0440
0
VERTEX
8
0
10
5.8545
20
6.5748
42
0.0687
0
VERTEX
8
0
10
5.8737
20
6.5721
42
0.0649
0
VERTEX
8
0
10
5.8928
20
6.5753
42
0.0376
0
VERTEX
8
0
10
5.9108
20
6.5824
42
0.0428
0
VERTEX
8
0
10
5.9435
20
6.6030
42
0.0572
0
VERTEX
8
0
10
5.9988
20
6.6568
42
0.0669
0
VERTEX
8
0
10
6.0401
20
6.7220
42
0.0472
0
VERTEX
8
0
10
6.0533
20
6.7583
42
0.0674
0
VERTEX
8
0
10
6.0585
20
6.7965
42
0.0473
0
VERTEX
8
0
10
6.0565
20
6.8216
42
0.0792
0
VERTEX
8
0
10
6.0488
20
6.8456
42
0.1026
0
VERTEX
8
0
10
6.0333
20
6.8654
42
0.0786
0
VERTEX
8
0
10
6.0114
20
6.8779
42
0.0434
0
VERTEX
8
0
10
5.9869
20
6.8841
42
0.0226
0
VERTEX
8
0
10
5.9618
20
6.8868
42
0.0128
0
VERTEX
8
0
10
5.9112
20
6.8876
42
-0.0065
0
VERTEX
8
0
10
5.8737
20
6.8871
42
0.0113
0
VERTEX
8
0
10
5.8013
20
6.8871
42
0.0411
0
VERTEX
8
0
10
5.7595
20
6.8837
42
0.0417
0
VERTEX
8
0
10
5.7392
20
6.8789
42
0.0669
0
VERTEX
8
0
10
5.7202
20
6.8700
0
SEQEND
8
0
0
POLYLINE
8
Layer 1
66
1
0
VERTEX
8
0
10
6.1413
20
6.7855
42
0.1019
0
VERTEX
8
0
10
6.1451
20
6.7689
42
0.0592
0
VERTEX
8
0
10
6.1647
20
6.7408
42
-0.0042
0
VERTEX
8
0
10
6.2657
20
6.7549
42
-0.0095
0
VERTEX
8
0
10
6.3670
20
6.7665
42
-0.0146
0
VERTEX
8
0
10
6.4687
20
6.7740
42
-0.0214
0
VERTEX
8
0
10
6.5707
20
6.7746
42
-0.0419
0
VERTEX
8
0
10
6.7803
20
6.7498
42
-0.0242
0
VERTEX
8
0
10
6.8827
20
6.7239
42
-0.0294
0
VERTEX
8
0
10
6.9819
20
6.6877
42
-0.0629
0
VERTEX
8
0
10
7.1260
20
6.6040
42
-0.0634
0
VERTEX
8
0
10
7.2443
20
6.4868
42
0.0134
0
VERTEX
8
0
10
7.2601
20
6.4884
42
0.0930
0
VERTEX
8
0
10
7.2755
20
6.4922
42
0.1124
0
VERTEX
8
0
10
7.2877
20
6.5023
42
0.0416
0
VERTEX
8
0
10
7.2958
20
6.5159
42
0.0749
0
VERTEX
8
0
10
7.2183
20
6.6151
42
0.0565
0
VERTEX
8
0
10
7.1167
20
6.6898
42
0.0155
0
VERTEX
8
0
10
7.0370
20
6.7332
42
0.0227
0
VERTEX
8
0
10
6.9543
20
6.7707
42
0.0490
0
VERTEX
8
0
10
6.7799
20
6.8204
42
0.0237
0
VERTEX
8
0
10
6.6646
20
6.8353
42
0.0163
0
VERTEX
8
0
10
6.5483
20
6.8402
42
0.0157
0
VERTEX
8
0
10
6.3893
20
6.8358
42
0.0116
0
VERTEX
8
0
10
6.2308
20
6.8225
42
0.0281
0
VERTEX
8
0
10
6.1880
20
6.8166
42
0.0423
0
VERTEX
8
0
10
6.1672
20
6.8111
42
0.1237
0
VERTEX
8
0
10
6.1485
20
6.8006
42
0.1977
0
VERTEX
8
0
10
6.1413
20
6.7855
0
SEQEND
8
0
0
POLYLINE
8
Layer 1
66
1
0
VERTEX
8
0
10
6.1555
20
6.7189
42
0.1265
0
VERTEX
8
0
10
6.1402
20
6.7106
42
0.1607
0
VERTEX
8
0
10
6.1326
20
6.6964
42
0.0842
0
VERTEX
8
0
10
6.1333
20
6.6801
42
0.0577
0
VERTEX
8
0
10
6.1454
20
6.6497
42
-0.0063
0
VERTEX
8
0
10
6.2270
20
6.6537
42
-0.0112
0
VERTEX
8
0
10
6.3086
20
6.6554
42
-0.0175
0
VERTEX
8
0
10
6.3902
20
6.6528
42
-0.0257
0
VERTEX
8
0
10
6.4713
20
6.6434
42
-0.0515
0
VERTEX
8
0
10
6.6358
20
6.5977
42
-0.0630
0
VERTEX
8
0
10
6.7862
20
6.5170
42
-0.0685
0
VERTEX
8
0
10
6.8927
20
6.4167
42
-0.0588
0
VERTEX
8
0
10
6.9694
20
6.2921
42
0.0193
0
VERTEX
8
0
10
6.9832
20
6.2921
42
0.1256
0
VERTEX
8
0
10
6.9966
20
6.2949
42
0.0981
0
VERTEX
8
0
10
7.0069
20
6.3039
42
0.0332
0
VERTEX
8
0
10
7.0142
20
6.3155
42
0.0696
0
VERTEX
8
0
10
6.9667
20
6.4189
42
0.0620
0
VERTEX
8
0
10
6.8934
20
6.5060
42
0.0166
0
VERTEX
8
0
10
6.8370
20
6.5557
42
0.0269
0
VERTEX
8
0
10
6.7769
20
6.6008
42
0.0605
0
VERTEX
8
0
10
6.6430
20
6.6684
42
0.0288
0
VERTEX
8
0
10
6.5545
20
6.6943
42
0.0209
0
VERTEX
8
0
10
6.4637
20
6.7108
42
0.0151
0
VERTEX
8
0
10
6.3719
20
6.7201
42
0.0112
0
VERTEX
8
0
10
6.2797
20
6.7241
42
0.0053
0
VERTEX
8
0
10
6.2079
20
6.7241
42
0.0368
0
VERTEX
8
0
10
6.1727
20
6.7224
42
0.0524
0
VERTEX
8
0
10
6.1555
20
6.7189
0
SEQEND
8
0
0
POLYLINE
8
Layer 1
66
1
0
VERTEX
8
0
10
6.2370
20
6.8558
42
-0.0134
0
VERTEX
8
0
10
6.4262
20
6.9319
42
-0.0138
0
VERTEX
8
0
10
6.5227
20
6.9648
42
-0.0215
0
VERTEX
8
0
10
6.6212
20
6.9912
42
-0.0411
0
VERTEX
8
0
10
6.8301
20
7.0201
42
-0.0242
0
VERTEX
8
0
10
6.9357
20
7.0209
42
-0.0281
0
VERTEX
8
0
10
7.0407
20
7.0109
42
-0.0627
0
VERTEX
8
0
10
7.2015
20
6.9662
42
-0.0637
0
VERTEX
8
0
10
7.3458
20
6.8824
42
0.0139
0
VERTEX
8
0
10
7.3606
20
6.8879
42
0.0950
0
VERTEX
8
0
10
7.3745
20
6.8955
42
0.1113
0
VERTEX
8
0
10
7.3836
20
6.9083
42
0.0409
0
VERTEX
8
0
10
7.3879
20
6.9235
42
0.0749
0
VERTEX
8
0
10
7.2880
20
7.0001
42
0.0556
0
VERTEX
8
0
10
7.1709
20
7.0469
42
0.0256
0
VERTEX
8
0
10
7.0428
20
7.0767
42
0.0369
0
VERTEX
8
0
10
6.9122
20
7.0906
42
0.0126
0
VERTEX
8
0
10
6.8637
20
7.0906
42
0.0130
0
VERTEX
8
0
10
6.8122
20
7.0880
42
0.0268
0
VERTEX
8
0
10
6.6758
20
7.0695
42
0.0185
0
VERTEX
8
0
10
6.5417
20
7.0381
42
0.0129
0
VERTEX
8
0
10
6.4100
20
6.9979
42
0.0091
0
VERTEX
8
0
10
6.2802
20
6.9516
42
0.0295
0
VERTEX
8
0
10
6.2404
20
6.9350
42
0.0420
0
VERTEX
8
0
10
6.2217
20
6.9243
42
0.1219
0
VERTEX
8
0
10
6.2063
20
6.9094
42
0.1990
0
VERTEX
8
0
10
6.2031
20
6.8930
42
0.1021
0
VERTEX
8
0
10
6.2110
20
6.8780
42
0.0585
0
VERTEX
8
0
10
6.2370
20
6.8558
0
SEQEND
8
0
0
POLYLINE
8
Layer 1
66
1
0
VERTEX
8
0
10
6.5696
20
6.8668
42
-0.0169
0
VERTEX
8
0
10
6.6775
20
6.8614
42
-0.0246
0
VERTEX
8
0
10
6.7846
20
6.8475
42
-0.0502
0
VERTEX
8
0
10
6.9636
20
6.7963
42
-0.0210
0
VERTEX
8
0
10
7.0484
20
6.7578
42
-0.0112
0
VERTEX
8
0
10
7.1303
20
6.7132
42
-0.0609
0
VERTEX
8
0
10
7.2359
20
6.6357
42
-0.0777
0
VERTEX
8
0
10
7.3171
20
6.5331
0
VERTEX
8
0
10
9.5268
20
10.8385
42
0.0215
0
VERTEX
8
0
10
9.3393
20
10.9780
42
0.0181
0
VERTEX
8
0
10
9.1410
20
11.1019
42
0.0158
0
VERTEX
8
0
10
8.9346
20
11.2118
42
0.0139
0
VERTEX
8
0
10
8.7219
20
11.3091
42
0.0235
0
VERTEX
8
0
10
8.2828
20
11.4696
42
0.0197
0
VERTEX
8
0
10
7.8310
20
11.5907
42
0.0166
0
VERTEX
8
0
10
7.3716
20
11.6779
42
0.0143
0
VERTEX
8
0
10
6.9074
20
11.7358
42
0.0125
0
VERTEX
8
0
10
6.4408
20
11.7683
42
0.0109
0
VERTEX
8
0
10
5.9731
20
11.7786
42
0.0120
0
VERTEX
8
0
10
5.4856
20
11.7674
42
0.0138
0
VERTEX
8
0
10
4.9996
20
11.7318
42
0.0161
0
VERTEX
8
0
10
4.5165
20
11.6680
42
0.0192
0
VERTEX
8
0
10
4.0388
20
11.5713
42
0.0231
0
VERTEX
8
0
10
3.5708
20
11.4361
42
0.0133
0
VERTEX
8
0
10
3.3422
20
11.3517
42
0.0150
0
VERTEX
8
0
10
3.1186
20
11.2549
42
0.0170
0
VERTEX
8
0
10
2.9014
20
11.1443
42
0.0197
0
VERTEX
8
0
10
2.6928
20
11.0186
42
0.0239
0
VERTEX
8
0
10
2.4953
20
10.8757
42
0.0143
0
VERTEX
8
0
10
2.4023
20
10.7971
42
0.0175
0
VERTEX
8
0
10
2.3142
20
10.7130
0
VERTEX
8
0
10
2.3788
20
10.5881
42
-0.0224
0
VERTEX
8
0
10
2.3923
20
10.5831
42
-0.0326
0
VERTEX
8
0
10
2.4041
20
10.5774
42
-0.0138
0
VERTEX
8
0
10
2.4239
20
10.5639
42
0.0210
0
VERTEX
8
0
10
2.4633
20
10.5364
42
0.0870
0
VERTEX
8
0
10
2.5510
20
10.4984
42
0.0713
0
VERTEX
8
0
10
2.6464
20
10.4912
42
0.0455
0
VERTEX
8
0
10
2.7408
20
10.5077
42
0.0294
0
VERTEX
8
0
10
2.8316
20
10.5390
42
0.0201
0
VERTEX
8
0
10
2.9186
20
10.5795
42
0.0246
0
VERTEX
8
0
10
3.0837
20
10.6773
42
0.0155
0
VERTEX
8
0
10
3.2400
20
10.7890
42
0.0108
0
VERTEX
8
0
10
3.3899
20
10.9090
42
0.0081
0
VERTEX
8
0
10
3.5350
20
11.0347
42
0.0062
0
VERTEX
8
0
10
3.6765
20
11.1649
42
-0.0389
0
VERTEX
8
0
10
3.9028
20
11.3492
42
-0.0464
0
VERTEX
8
0
10
4.1563
20
11.4936
42
-0.0516
0
VERTEX
8
0
10
4.4326
20
11.5866
42
-0.0527
0
VERTEX
8
0
10
4.7223
20
11.6203
42
-0.0354
0
VERTEX
8
0
10
4.9278
20
11.6077
42
-0.0330
0
VERTEX
8
0
10
5.1295
20
11.5670
42
-0.0597
0
VERTEX
8
0
10
5.5096
20
11.4111
42
-0.0296
0
VERTEX
8
0
10
5.6832
20
11.3006
42
-0.0330
0
VERTEX
8
0
10
5.8422
20
11.1699
42
-0.0196
0
VERTEX
8
0
10
5.9145
20
11.0967
42
-0.0244
0
VERTEX
8
0
10
5.9805
20
11.0177
42
-0.0351
0
VERTEX
8
0
10
6.0374
20
10.9320
42
-0.0248
0
VERTEX
8
0
10
6.0607
20
10.8861
42
-0.0340
0
VERTEX
8
0
10
6.0788
20
10.8380
42
-0.3784
0
VERTEX
8
0
10
7.5878
20
9.1306
42
-0.0116
0
VERTEX
8
0
10
7.5868
20
9.0733
42
-0.1794
0
VERTEX
8
0
10
7.7768
20
8.5596
42
-0.3383
0
VERTEX
8
0
10
7.1927
20
7.7959
42
-0.0207
0
VERTEX
8
0
10
6.9944
20
7.4407
42
-0.0245
0
VERTEX
8
0
10
6.7659
20
7.1041
42
-0.0145
0
VERTEX
8
0
10
6.8107
20
7.1088
42
-0.0295
0
VERTEX
8
0
10
6.9127
20
7.1114
42
-0.0349
0
VERTEX
8
0
10
7.0460
20
7.0974
42
-0.0195
0
VERTEX
8
0
10
7.1766
20
7.0672
42
-0.0635
0
VERTEX
8
0
10
7.2988
20
7.0182
42
-0.0786
0
VERTEX
8
0
10
7.4030
20
6.9381
42
-0.2469
0
VERTEX
8
0
10
7.4082
20
6.9193
42
-0.0665
0
VERTEX
8
0
10
7.4014
20
6.8978
42
-0.1164
0
VERTEX
8
0
10
7.3879
20
6.8798
42
-0.0661
0
VERTEX
8
0
10
7.3713
20
6.8696
42
-0.0075
0
VERTEX
8
0
10
7.3531
20
6.8626
42
-0.2542
0
VERTEX
8
0
10
7.3333
20
6.8657
42
0.0651
0
VERTEX
8
0
10
7.1934
20
6.9469
42
0.0606
0
VERTEX
8
0
10
7.0376
20
6.9901
42
0.0444
0
VERTEX
8
0
10
6.8521
20
7.0000
42
0.0371
0
VERTEX
8
0
10
6.6675
20
6.9792
42
-0.0125
0
VERTEX
8
0
10
6.5696
20
6.8668
0
SEQEND
8
0
0
POLYLINE
8
Layer 1
66
1
0
VERTEX
8
0
10
6.3708
20
7.3231
42
0.0997
0
VERTEX
8
0
10
6.4129
20
7.3655
42
0.0757
0
VERTEX
8
0
10
6.4373
20
7.4201
42
0.0663
0
VERTEX
8
0
10
6.4452
20
7.4794
42
0.0686
0
VERTEX
8
0
10
6.4373
20
7.5387
42
0.0812
0
VERTEX
8
0
10
6.4128
20
7.5932
42
0.1121
0
VERTEX
8
0
10
6.3708
20
7.6353
42
0.1460
0
VERTEX
8
0
10
6.3141
20
7.6523
42
0.1370
0
VERTEX
8
0
10
6.2574
20
7.6353
42
0.0995
0
VERTEX
8
0
10
6.2153
20
7.5932
42
0.0763
0
VERTEX
8
0
10
6.1908
20
7.5387
42
0.0668
0
VERTEX
8
0
10
6.1829
20
7.4794
42
0.0689
0
VERTEX
8
0
10
6.1908
20
7.4201
42
0.0822
0
VERTEX
8
0
10
6.2153
20
7.3655
42
0.1119
0
VERTEX
8
0
10
6.2573
20
7.3232
42
0.1470
0
VERTEX
8
0
10
6.3141
20
7.3061
42
0.1384
0
VERTEX
8
0
10
6.3708
20
7.3231
0
SEQEND
8
0
0
POLYLINE
8
Layer 1
66
1
0
VERTEX
8
0
10
6.3210
20
7.4512
42
-0.1985
0
VERTEX
8
0
10
6.3036
20
7.4440
42
-0.1657
0
VERTEX
8
0
10
6.2862
20
7.4512
42
-0.0883
0
VERTEX
8
0
10
6.2748
20
7.4666
42
-0.1084
0
VERTEX
8
0
10
6.2667
20
7.5039
42
-0.1251
0
VERTEX
8
0
10
6.2748
20
7.5410
42
-0.1083
0
VERTEX
8
0
10
6.2863
20
7.5562
42
-0.1944
0
VERTEX
8
0
10
6.3036
20
7.5632
42
-0.1673
0
VERTEX
8
0
10
6.3209
20
7.5562
42
-0.0894
0
VERTEX
8
0
10
6.3322
20
7.5409
42
-0.1055
0
VERTEX
8
0
10
6.3401
20
7.5039
42
-0.1216
0
VERTEX
8
0
10
6.3322
20
7.4667
42
-0.1090
0
VERTEX
8
0
10
6.3210
20
7.4512
0
SEQEND
8
0
0
POLYLINE
8
Layer 1
66
1
0
VERTEX
8
0
10
6.3437
20
8.7183
42
-0.0745
0
VERTEX
8
0
10
6.5854
20
8.8285
42
-0.0691
0
VERTEX
8
0
10
6.8487
20
8.8651
42
-0.0672
0
VERTEX
8
0
10
7.1001
20
8.8319
42
-0.0732
0
VERTEX
8
0
10
7.3328
20
8.7316
42
-0.0397
0
VERTEX
8
0
10
7.4354
20
8.6567
42
-0.0431
0
VERTEX
8
0
10
7.5245
20
8.5661
42
-0.0471
0
VERTEX
8
0
10
7.5961
20
8.4612
42
-0.0507
0
VERTEX
8
0
10
7.6461
20
8.3446
42
0.0693
0
VERTEX
8
0
10
7.6799
20
8.4980
42
0.0620
0
VERTEX
8
0
10
7.6720
20
8.6550
42
0.0553
0
VERTEX
8
0
10
7.6272
20
8.8058
42
0.0521
0
VERTEX
8
0
10
7.5511
20
8.9435
42
0.0530
0
VERTEX
8
0
10
7.4482
20
9.0625
42
0.0578
0
VERTEX
8
0
10
7.3220
20
9.1564
42
0.0650
0
VERTEX
8
0
10
7.1772
20
9.2176
42
0.0701
0
VERTEX
8
0
10
7.0215
20
9.2383
42
0.0158
0
VERTEX
8
0
10
6.9871
20
9.2389
42
0.0874
0
VERTEX
8
0
10
6.7709
20
9.1958
42
0.0775
0
VERTEX
8
0
10
6.5806
20
9.0841
42
0.0770
0
VERTEX
8
0
10
6.4328
20
8.9201
42
0.0861
0
VERTEX
8
0
10
6.3437
20
8.7183
0
SEQEND
8
0
0
ENDSEC
0
EOF
