999
Inkscape export via "Better DXF Output" (bob@bobcookdev.com)
  0
SECTION
  2
HEADER
  9
$ACADVER
  1
AC1014
  9
$HANDSEED
  5
FFFF
  0
ENDSEC
  0
SECTION
  2
TABLES
  0
TABLE
  2
VPORT
  5
8
330
0
100
AcDbSymbolTable
 70
     4
  0
VPORT
  5
2E
330
8
100
AcDbSymbolTableRecord
100
AcDbViewportTableRecord
  2
*ACTIVE
 70
     0
 10
0.0
 20
0.0
 11
1.0
 21
1.0
 12
4.25
 22
5.5
 13
0.0
 23
0.0
 14
10.0
 24
10.0
 15
10.0
 25
10.0
 16
0.0
 26
0.0
 36
1.0
 17
0.0
 27
0.0
 37
0.0
 40
11
 41
1.24
 42
50.0
 43
0.0
 44
0.0
 50
0.0
 51
0.0
 71
     0
 72
   100
 73
     1
 74
     3
 75
     0
 76
     0
 77
     0
 78
     0
  0
ENDTAB
  0
TABLE
  2
LTYPE
  5
5
330
0
100
AcDbSymbolTable
 70
     1
  0
LTYPE
  5
14
330
5
100
AcDbSymbolTableRecord
100
AcDbLinetypeTableRecord
  2
BYBLOCK
 70
     0
  3

 72
    65
 73
     0
 40
0.0
  0
LTYPE
  5
15
330
5
100
AcDbSymbolTableRecord
100
AcDbLinetypeTableRecord
  2
BYLAYER
 70
     0
  3

 72
    65
 73
     0
 40
0.0
  0
LTYPE
  5
16
330
5
100
AcDbSymbolTableRecord
100
AcDbLinetypeTableRecord
  2
CONTINUOUS
 70
     0
  3
Solid line
 72
    65
 73
     0
 40
0.0
  0
ENDTAB
  0
TABLE
  2
LAYER
  5
2
330
0
100
AcDbSymbolTable
 70
1
  0
LAYER
  5
10
330
2
100
AcDbSymbolTableRecord
100
AcDbLayerTableRecord
  2
0
 70
     0
 62
     7
  6
CONTINUOUS
  0
ENDTAB
  0
TABLE
  2
STYLE
  5
3
330
0
100
AcDbSymbolTable
 70
     1
  0
STYLE
  5
11
330
3
100
AcDbSymbolTableRecord
100
AcDbTextStyleTableRecord
  2
STANDARD
 70
     0
 40
0.0
 41
1.0
 50
0.0
 71
     0
 42
2.5
  3
txt
  4

  0
ENDTAB
  0
TABLE
  2
VIEW
  5
6
330
0
100
AcDbSymbolTable
 70
     0
  0
ENDTAB
  0
TABLE
  2
UCS
  5
7
330
0
100
AcDbSymbolTable
 70
     0
  0
ENDTAB
  0
TABLE
  2
APPID
  5
9
330
0
100
AcDbSymbolTable
 70
     2
  0
APPID
  5
12
330
9
100
AcDbSymbolTableRecord
100
AcDbRegAppTableRecord
  2
ACAD
 70
     0
  0
ENDTAB
  0
TABLE
  2
DIMSTYLE
  5
A
330
0
100
AcDbSymbolTable
 70
     1
  0
DIMSTYLE
105
27
330
A
100
AcDbSymbolTableRecord
100
AcDbDimStyleTableRecord
  2
ISO-25
 70
     0
  3

  4

  5

  6

  7

 40
1.0
 41
2.5
 42
0.625
 43
3.75
 44
1.25
 45
0.0
 46
0.0
 47
0.0
 48
0.0
140
2.5
141
2.5
142
0.0
143
0.03937007874016
144
1.0
145
0.0
146
1.0
147
0.625
 71
     0
 72
     0
 73
     0
 74
     0
 75
     0
 76
     0
 77
     1
 78
     8
170
     0
171
     3
172
     1
173
     0
174
     0
175
     0
176
     0
177
     0
178
     0
270
     2
271
     2
272
     2
273
     2
274
     3
340
11
275
     0
280
     0
281
     0
282
     0
283
     0
284
     8
285
     0
286
     0
287
     3
288
     0
  0
ENDTAB
  0
TABLE
  2
BLOCK_RECORD
  5
1
330
0
100
AcDbSymbolTable
 70
     1
  0
BLOCK_RECORD
  5
1F
330
1
100
AcDbSymbolTableRecord
100
AcDbBlockTableRecord
  2
*MODEL_SPACE
  0
BLOCK_RECORD
  5
1B
330
1
100
AcDbSymbolTableRecord
100
AcDbBlockTableRecord
  2
*PAPER_SPACE
  0
ENDTAB
  0
ENDSEC
  0
SECTION
  2
BLOCKS
  0
BLOCK
  5
20
330
1F
100
AcDbEntity
  8
0
100
AcDbBlockBegin
  2
*MODEL_SPACE
 70
     0
 10
0.0
 20
0.0
 30
0.0
  3
*MODEL_SPACE
  1

  0
ENDBLK
  5
21
330
1F
100
AcDbEntity
  8
0
100
AcDbBlockEnd
  0
BLOCK
  5
1C
330
1B
100
AcDbEntity
 67
     1
  8
0
100
AcDbBlockBegin
  2
*PAPER_SPACE
  1

  0
ENDBLK
  5
1D
330
1B
100
AcDbEntity
 67
     1
  8
0
100
AcDbBlockEnd
  0
ENDSEC
  0
SECTION
  2
ENTITIES
0
LINE
8
Layer 1
62
4
5
100
100
AcDbEntity
100
AcDbLine
10
73.224074
20
150.108919
30
0.0
11
73.224074
21
201.392726
31
0.0
0
LINE
8
Layer 1
62
4
5
101
100
AcDbEntity
100
AcDbLine
10
73.224074
20
201.392726
30
0.0
11
124.507882
21
201.392726
31
0.0
0
LINE
8
Layer 1
62
4
5
102
100
AcDbEntity
100
AcDbLine
10
124.507882
20
201.392726
30
0.0
11
175.791690
21
201.392726
31
0.0
0
LINE
8
Layer 1
62
4
5
103
100
AcDbEntity
100
AcDbLine
10
175.791690
20
201.392726
30
0.0
11
175.791690
21
150.108919
31
0.0
0
LINE
8
Layer 1
62
4
5
104
100
AcDbEntity
100
AcDbLine
10
175.791690
20
150.108919
30
0.0
11
175.791690
21
98.825111
31
0.0
0
LINE
8
Layer 1
62
4
5
105
100
AcDbEntity
100
AcDbLine
10
175.791690
20
98.825111
30
0.0
11
124.507882
21
98.825111
31
0.0
0
LINE
8
Layer 1
62
4
5
106
100
AcDbEntity
100
AcDbLine
10
124.507882
20
98.825111
30
0.0
11
73.224074
21
98.825111
31
0.0
0
LINE
8
Layer 1
62
4
5
107
100
AcDbEntity
100
AcDbLine
10
73.224074
20
98.825111
30
0.0
11
73.224074
21
150.108919
31
0.0
0
LINE
8
Layer 1
62
4
5
108
100
AcDbEntity
100
AcDbLine
10
73.224074
20
150.108919
30
0.0
11
73.224074
21
150.108919
31
0.0
0
LINE
8
Layer 1
62
4
5
109
100
AcDbEntity
100
AcDbLine
10
90.473056
20
101.018169
30
0.0
11
90.086634
21
102.536440
31
0.0
0
LINE
8
Layer 1
62
4
5
10a
100
AcDbEntity
100
AcDbLine
10
90.086634
20
102.536440
30
0.0
11
90.868096
21
101.018169
31
0.0
0
LINE
8
Layer 1
62
4
5
10b
100
AcDbEntity
100
AcDbLine
10
90.868096
20
101.018169
30
0.0
11
91.427065
21
100.211505
31
0.0
0
LINE
8
Layer 1
62
4
5
10c
100
AcDbEntity
100
AcDbLine
10
91.427065
20
100.211505
30
0.0
11
92.286379
21
99.752870
31
0.0
0
LINE
8
Layer 1
62
4
5
10d
100
AcDbEntity
100
AcDbLine
10
92.286379
20
99.752870
30
0.0
11
93.782796
21
99.547317
31
0.0
0
LINE
8
Layer 1
62
4
5
10e
100
AcDbEntity
100
AcDbLine
10
93.782796
20
99.547317
30
0.0
11
96.253077
21
99.499898
31
0.0
0
LINE
8
Layer 1
62
4
5
10f
100
AcDbEntity
100
AcDbLine
10
96.253077
20
99.499898
30
0.0
11
100.856598
21
99.499898
31
0.0
0
LINE
8
Layer 1
62
4
5
110
100
AcDbEntity
100
AcDbLine
10
100.856598
20
99.499898
30
0.0
11
100.453805
21
101.513867
31
0.0
0
LINE
8
Layer 1
62
4
5
111
100
AcDbEntity
100
AcDbLine
10
100.453805
20
101.513867
30
0.0
11
100.318592
21
102.501488
31
0.0
0
LINE
8
Layer 1
62
4
5
112
100
AcDbEntity
100
AcDbLine
10
100.318592
20
102.501488
30
0.0
11
100.390377
21
103.196616
31
0.0
0
LINE
8
Layer 1
62
4
5
113
100
AcDbEntity
100
AcDbLine
10
100.390377
20
103.196616
30
0.0
11
100.691186
21
103.668219
31
0.0
0
LINE
8
Layer 1
62
4
5
114
100
AcDbEntity
100
AcDbLine
10
100.691186
20
103.668219
30
0.0
11
101.243043
21
103.985262
31
0.0
0
LINE
8
Layer 1
62
4
5
115
100
AcDbEntity
100
AcDbLine
10
101.243043
20
103.985262
30
0.0
11
101.805285
21
104.079240
31
0.0
0
LINE
8
Layer 1
62
4
5
116
100
AcDbEntity
100
AcDbLine
10
101.805285
20
104.079240
30
0.0
11
102.359230
21
103.957832
31
0.0
0
LINE
8
Layer 1
62
4
5
117
100
AcDbEntity
100
AcDbLine
10
102.359230
20
103.957832
30
0.0
11
102.875876
21
103.656929
31
0.0
0
LINE
8
Layer 1
62
4
5
118
100
AcDbEntity
100
AcDbLine
10
102.875876
20
103.656929
30
0.0
11
103.326221
21
103.212422
31
0.0
0
LINE
8
Layer 1
62
4
5
119
100
AcDbEntity
100
AcDbLine
10
103.326221
20
103.212422
30
0.0
11
103.912005
21
102.036159
31
0.0
0
LINE
8
Layer 1
62
4
5
11a
100
AcDbEntity
100
AcDbLine
10
103.912005
20
102.036159
30
0.0
11
103.989441
21
101.376187
31
0.0
0
LINE
8
Layer 1
62
4
5
11b
100
AcDbEntity
100
AcDbLine
10
103.989441
20
101.376187
30
0.0
11
103.884572
21
100.716174
31
0.0
0
LINE
8
Layer 1
62
4
5
11c
100
AcDbEntity
100
AcDbLine
10
103.884572
20
100.716174
30
0.0
11
103.863862
21
100.331637
31
0.0
0
LINE
8
Layer 1
62
4
5
11d
100
AcDbEntity
100
AcDbLine
10
103.863862
20
100.331637
30
0.0
11
104.246299
21
100.037889
31
0.0
0
LINE
8
Layer 1
62
4
5
11e
100
AcDbEntity
100
AcDbLine
10
104.246299
20
100.037889
30
0.0
11
105.285502
21
99.822752
31
0.0
0
LINE
8
Layer 1
62
4
5
11f
100
AcDbEntity
100
AcDbLine
10
105.285502
20
99.822752
30
0.0
11
107.235089
21
99.674044
31
0.0
0
LINE
8
Layer 1
62
4
5
120
100
AcDbEntity
100
AcDbLine
10
107.235089
20
99.674044
30
0.0
11
114.879893
21
99.527194
31
0.0
0
LINE
8
Layer 1
62
4
5
121
100
AcDbEntity
100
AcDbLine
10
114.879893
20
99.527194
30
0.0
11
129.209659
21
99.499898
31
0.0
0
LINE
8
Layer 1
62
4
5
122
100
AcDbEntity
100
AcDbLine
10
129.209659
20
99.499898
30
0.0
11
145.594421
21
99.562460
31
0.0
0
LINE
8
Layer 1
62
4
5
123
100
AcDbEntity
100
AcDbLine
10
145.594421
20
99.562460
30
0.0
11
150.662348
21
99.715497
31
0.0
0
LINE
8
Layer 1
62
4
5
124
100
AcDbEntity
100
AcDbLine
10
150.662348
20
99.715497
30
0.0
11
154.117777
21
100.016225
31
0.0
0
LINE
8
Layer 1
62
4
5
125
100
AcDbEntity
100
AcDbLine
10
154.117777
20
100.016225
30
0.0
11
156.313557
21
100.514533
31
0.0
0
LINE
8
Layer 1
62
4
5
126
100
AcDbEntity
100
AcDbLine
10
156.313557
20
100.514533
30
0.0
11
157.049345
21
100.853370
31
0.0
0
LINE
8
Layer 1
62
4
5
127
100
AcDbEntity
100
AcDbLine
10
157.049345
20
100.853370
30
0.0
11
157.602541
21
101.260311
31
0.0
0
LINE
8
Layer 1
62
4
5
128
100
AcDbEntity
100
AcDbLine
10
157.602541
20
101.260311
30
0.0
11
158.337581
21
102.303450
31
0.0
0
LINE
8
Layer 1
62
4
5
129
100
AcDbEntity
100
AcDbLine
10
158.337581
20
102.303450
30
0.0
11
158.871528
21
103.693839
31
0.0
0
LINE
8
Layer 1
62
4
5
12a
100
AcDbEntity
100
AcDbLine
10
158.871528
20
103.693839
30
0.0
11
159.437148
21
105.611807
31
0.0
0
LINE
8
Layer 1
62
4
5
12b
100
AcDbEntity
100
AcDbLine
10
159.437148
20
105.611807
30
0.0
11
159.489303
21
106.876212
31
0.0
0
LINE
8
Layer 1
62
4
5
12c
100
AcDbEntity
100
AcDbLine
10
159.489303
20
106.876212
30
0.0
11
159.308457
21
107.329206
31
0.0
0
LINE
8
Layer 1
62
4
5
12d
100
AcDbEntity
100
AcDbLine
10
159.308457
20
107.329206
30
0.0
11
158.981996
21
107.697862
31
0.0
0
LINE
8
Layer 1
62
4
5
12e
100
AcDbEntity
100
AcDbLine
10
158.981996
20
107.697862
30
0.0
11
157.869232
21
108.287567
31
0.0
0
LINE
8
Layer 1
62
4
5
12f
100
AcDbEntity
100
AcDbLine
10
157.869232
20
108.287567
30
0.0
11
156.762307
21
108.968985
31
0.0
0
LINE
8
Layer 1
62
4
5
130
100
AcDbEntity
100
AcDbLine
10
156.762307
20
108.968985
30
0.0
11
156.547451
21
109.341488
31
0.0
0
LINE
8
Layer 1
62
4
5
131
100
AcDbEntity
100
AcDbLine
10
156.547451
20
109.341488
30
0.0
11
156.601168
21
109.687883
31
0.0
0
LINE
8
Layer 1
62
4
5
132
100
AcDbEntity
100
AcDbLine
10
156.601168
20
109.687883
30
0.0
11
157.295620
21
111.905783
31
0.0
0
LINE
8
Layer 1
62
4
5
133
100
AcDbEntity
100
AcDbLine
10
157.295620
20
111.905783
30
0.0
11
158.319992
21
116.194113
31
0.0
0
LINE
8
Layer 1
62
4
5
134
100
AcDbEntity
100
AcDbLine
10
158.319992
20
116.194113
30
0.0
11
159.373411
21
120.185947
31
0.0
0
LINE
8
Layer 1
62
4
5
135
100
AcDbEntity
100
AcDbLine
10
159.373411
20
120.185947
30
0.0
11
160.777937
21
123.751698
31
0.0
0
LINE
8
Layer 1
62
4
5
136
100
AcDbEntity
100
AcDbLine
10
160.777937
20
123.751698
30
0.0
11
162.763006
21
127.378198
31
0.0
0
LINE
8
Layer 1
62
4
5
137
100
AcDbEntity
100
AcDbLine
10
162.763006
20
127.378198
30
0.0
11
165.558052
21
131.552277
31
0.0
0
LINE
8
Layer 1
62
4
5
138
100
AcDbEntity
100
AcDbLine
10
165.558052
20
131.552277
30
0.0
11
167.808474
21
135.079435
31
0.0
0
LINE
8
Layer 1
62
4
5
139
100
AcDbEntity
100
AcDbLine
10
167.808474
20
135.079435
30
0.0
11
169.851776
21
138.821757
31
0.0
0
LINE
8
Layer 1
62
4
5
13a
100
AcDbEntity
100
AcDbLine
10
169.851776
20
138.821757
30
0.0
11
170.753041
21
140.482798
31
0.0
0
LINE
8
Layer 1
62
4
5
13b
100
AcDbEntity
100
AcDbLine
10
170.753041
20
140.482798
30
0.0
11
171.690096
21
141.865615
31
0.0
0
LINE
8
Layer 1
62
4
5
13c
100
AcDbEntity
100
AcDbLine
10
171.690096
20
141.865615
30
0.0
11
172.603108
21
142.892285
31
0.0
0
LINE
8
Layer 1
62
4
5
13d
100
AcDbEntity
100
AcDbLine
10
172.603108
20
142.892285
30
0.0
11
173.432244
21
143.484881
31
0.0
0
LINE
8
Layer 1
62
4
5
13e
100
AcDbEntity
100
AcDbLine
10
173.432244
20
143.484881
30
0.0
11
175.116902
21
144.252463
31
0.0
0
LINE
8
Layer 1
62
4
5
13f
100
AcDbEntity
100
AcDbLine
10
175.116902
20
144.252463
30
0.0
11
175.116902
21
172.485201
31
0.0
0
LINE
8
Layer 1
62
4
5
140
100
AcDbEntity
100
AcDbLine
10
175.116902
20
172.485201
30
0.0
11
175.116902
21
200.717939
31
0.0
0
LINE
8
Layer 1
62
4
5
141
100
AcDbEntity
100
AcDbLine
10
175.116902
20
200.717939
30
0.0
11
157.403746
21
200.672270
31
0.0
0
LINE
8
Layer 1
62
4
5
142
100
AcDbEntity
100
AcDbLine
10
157.403746
20
200.672270
30
0.0
11
144.102291
21
200.478262
31
0.0
0
LINE
8
Layer 1
62
4
5
143
100
AcDbEntity
100
AcDbLine
10
144.102291
20
200.478262
30
0.0
11
141.553620
21
200.254198
31
0.0
0
LINE
8
Layer 1
62
4
5
144
100
AcDbEntity
100
AcDbLine
10
141.553620
20
200.254198
30
0.0
11
141.185985
21
200.104888
31
0.0
0
LINE
8
Layer 1
62
4
5
145
100
AcDbEntity
100
AcDbLine
10
141.185985
20
200.104888
30
0.0
11
141.377554
21
199.928625
31
0.0
0
LINE
8
Layer 1
62
4
5
146
100
AcDbEntity
100
AcDbLine
10
141.377554
20
199.928625
30
0.0
11
143.341624
21
199.053219
31
0.0
0
LINE
8
Layer 1
62
4
5
147
100
AcDbEntity
100
AcDbLine
10
143.341624
20
199.053219
30
0.0
11
144.681420
21
198.196824
31
0.0
0
LINE
8
Layer 1
62
4
5
148
100
AcDbEntity
100
AcDbLine
10
144.681420
20
198.196824
30
0.0
11
145.812619
21
197.016885
31
0.0
0
LINE
8
Layer 1
62
4
5
149
100
AcDbEntity
100
AcDbLine
10
145.812619
20
197.016885
30
0.0
11
147.150898
21
195.170844
31
0.0
0
LINE
8
Layer 1
62
4
5
14a
100
AcDbEntity
100
AcDbLine
10
147.150898
20
195.170844
30
0.0
11
148.105084
21
193.604676
31
0.0
0
LINE
8
Layer 1
62
4
5
14b
100
AcDbEntity
100
AcDbLine
10
148.105084
20
193.604676
30
0.0
11
148.844872
21
191.985589
31
0.0
0
LINE
8
Layer 1
62
4
5
14c
100
AcDbEntity
100
AcDbLine
10
148.844872
20
191.985589
30
0.0
11
149.371474
21
190.310433
31
0.0
0
LINE
8
Layer 1
62
4
5
14d
100
AcDbEntity
100
AcDbLine
10
149.371474
20
190.310433
30
0.0
11
149.686100
21
188.576056
31
0.0
0
LINE
8
Layer 1
62
4
5
14e
100
AcDbEntity
100
AcDbLine
10
149.686100
20
188.576056
30
0.0
11
150.209967
21
185.812935
31
0.0
0
LINE
8
Layer 1
62
4
5
14f
100
AcDbEntity
100
AcDbLine
10
150.209967
20
185.812935
30
0.0
11
150.547813
21
184.757323
31
0.0
0
LINE
8
Layer 1
62
4
5
150
100
AcDbEntity
100
AcDbLine
10
150.547813
20
184.757323
30
0.0
11
150.883866
21
184.114216
31
0.0
0
LINE
8
Layer 1
62
4
5
151
100
AcDbEntity
100
AcDbLine
10
150.883866
20
184.114216
30
0.0
11
151.307315
21
183.449821
31
0.0
0
LINE
8
Layer 1
62
4
5
152
100
AcDbEntity
100
AcDbLine
10
151.307315
20
183.449821
30
0.0
11
151.336555
21
183.247709
31
0.0
0
LINE
8
Layer 1
62
4
5
153
100
AcDbEntity
100
AcDbLine
10
151.336555
20
183.247709
30
0.0
11
151.229035
21
183.173479
31
0.0
0
LINE
8
Layer 1
62
4
5
154
100
AcDbEntity
100
AcDbLine
10
151.229035
20
183.173479
30
0.0
11
151.140819
21
183.050004
31
0.0
0
LINE
8
Layer 1
62
4
5
155
100
AcDbEntity
100
AcDbLine
10
151.140819
20
183.050004
30
0.0
11
151.222610
21
182.713810
31
0.0
0
LINE
8
Layer 1
62
4
5
156
100
AcDbEntity
100
AcDbLine
10
151.222610
20
182.713810
30
0.0
11
151.818777
21
181.608647
31
0.0
0
LINE
8
Layer 1
62
4
5
157
100
AcDbEntity
100
AcDbLine
10
151.818777
20
181.608647
30
0.0
11
152.251460
21
180.670294
31
0.0
0
LINE
8
Layer 1
62
4
5
158
100
AcDbEntity
100
AcDbLine
10
152.251460
20
180.670294
30
0.0
11
152.671609
21
179.272145
31
0.0
0
LINE
8
Layer 1
62
4
5
159
100
AcDbEntity
100
AcDbLine
10
152.671609
20
179.272145
30
0.0
11
153.282221
21
175.852019
31
0.0
0
LINE
8
Layer 1
62
4
5
15a
100
AcDbEntity
100
AcDbLine
10
153.282221
20
175.852019
30
0.0
11
153.760989
21
172.786907
31
0.0
0
LINE
8
Layer 1
62
4
5
15b
100
AcDbEntity
100
AcDbLine
10
153.760989
20
172.786907
30
0.0
11
154.038418
21
171.773040
31
0.0
0
LINE
8
Layer 1
62
4
5
15c
100
AcDbEntity
100
AcDbLine
10
154.038418
20
171.773040
30
0.0
11
154.296824
21
171.303946
31
0.0
0
LINE
8
Layer 1
62
4
5
15d
100
AcDbEntity
100
AcDbLine
10
154.296824
20
171.303946
30
0.0
11
154.703954
21
170.826158
31
0.0
0
LINE
8
Layer 1
62
4
5
15e
100
AcDbEntity
100
AcDbLine
10
154.703954
20
170.826158
30
0.0
11
154.873294
21
170.177746
31
0.0
0
LINE
8
Layer 1
62
4
5
15f
100
AcDbEntity
100
AcDbLine
10
154.873294
20
170.177746
30
0.0
11
154.828793
21
169.867985
31
0.0
0
LINE
8
Layer 1
62
4
5
160
100
AcDbEntity
100
AcDbLine
10
154.828793
20
169.867985
30
0.0
11
154.687147
21
169.770967
31
0.0
0
LINE
8
Layer 1
62
4
5
161
100
AcDbEntity
100
AcDbLine
10
154.687147
20
169.770967
30
0.0
11
154.063550
21
170.217571
31
0.0
0
LINE
8
Layer 1
62
4
5
162
100
AcDbEntity
100
AcDbLine
10
154.063550
20
170.217571
30
0.0
11
153.073831
21
171.015936
31
0.0
0
LINE
8
Layer 1
62
4
5
163
100
AcDbEntity
100
AcDbLine
10
153.073831
20
171.015936
30
0.0
11
152.804034
21
171.078835
31
0.0
0
LINE
8
Layer 1
62
4
5
164
100
AcDbEntity
100
AcDbLine
10
152.804034
20
171.078835
30
0.0
11
152.688315
21
170.942213
31
0.0
0
LINE
8
Layer 1
62
4
5
165
100
AcDbEntity
100
AcDbLine
10
152.688315
20
170.942213
30
0.0
11
152.931223
21
170.144418
31
0.0
0
LINE
8
Layer 1
62
4
5
166
100
AcDbEntity
100
AcDbLine
10
152.931223
20
170.144418
30
0.0
11
153.826774
21
168.770564
31
0.0
0
LINE
8
Layer 1
62
4
5
167
100
AcDbEntity
100
AcDbLine
10
153.826774
20
168.770564
30
0.0
11
155.041707
21
166.898116
31
0.0
0
LINE
8
Layer 1
62
4
5
168
100
AcDbEntity
100
AcDbLine
10
155.041707
20
166.898116
30
0.0
11
155.545559
21
165.565327
31
0.0
0
LINE
8
Layer 1
62
4
5
169
100
AcDbEntity
100
AcDbLine
10
155.545559
20
165.565327
30
0.0
11
155.439061
21
165.370093
31
0.0
0
LINE
8
Layer 1
62
4
5
16a
100
AcDbEntity
100
AcDbLine
10
155.439061
20
165.370093
30
0.0
11
155.150985
21
165.539668
31
0.0
0
LINE
8
Layer 1
62
4
5
16b
100
AcDbEntity
100
AcDbLine
10
155.150985
20
165.539668
30
0.0
11
154.205903
21
166.809898
31
0.0
0
LINE
8
Layer 1
62
4
5
16c
100
AcDbEntity
100
AcDbLine
10
154.205903
20
166.809898
30
0.0
11
152.656430
21
169.002954
31
0.0
0
LINE
8
Layer 1
62
4
5
16d
100
AcDbEntity
100
AcDbLine
10
152.656430
20
169.002954
30
0.0
11
152.551770
21
168.016706
31
0.0
0
LINE
8
Layer 1
62
4
5
16e
100
AcDbEntity
100
AcDbLine
10
152.551770
20
168.016706
30
0.0
11
152.598332
21
165.645514
31
0.0
0
LINE
8
Layer 1
62
4
5
16f
100
AcDbEntity
100
AcDbLine
10
152.598332
20
165.645514
30
0.0
11
152.640678
21
163.844475
31
0.0
0
LINE
8
Layer 1
62
4
5
170
100
AcDbEntity
100
AcDbLine
10
152.640678
20
163.844475
30
0.0
11
152.503197
21
162.852734
31
0.0
0
LINE
8
Layer 1
62
4
5
171
100
AcDbEntity
100
AcDbLine
10
152.503197
20
162.852734
30
0.0
11
152.102916
21
162.456072
31
0.0
0
LINE
8
Layer 1
62
4
5
172
100
AcDbEntity
100
AcDbLine
10
152.102916
20
162.456072
30
0.0
11
151.356864
21
162.440274
31
0.0
0
LINE
8
Layer 1
62
4
5
173
100
AcDbEntity
100
AcDbLine
10
151.356864
20
162.440274
30
0.0
11
150.791356
21
162.421145
31
0.0
0
LINE
8
Layer 1
62
4
5
174
100
AcDbEntity
100
AcDbLine
10
150.791356
20
162.421145
30
0.0
11
150.296315
21
162.253908
31
0.0
0
LINE
8
Layer 1
62
4
5
175
100
AcDbEntity
100
AcDbLine
10
150.296315
20
162.253908
30
0.0
11
149.921854
21
161.964860
31
0.0
0
LINE
8
Layer 1
62
4
5
176
100
AcDbEntity
100
AcDbLine
10
149.921854
20
161.964860
30
0.0
11
149.718085
21
161.580298
31
0.0
0
LINE
8
Layer 1
62
4
5
177
100
AcDbEntity
100
AcDbLine
10
149.718085
20
161.580298
30
0.0
11
149.652317
21
161.084892
31
0.0
0
LINE
8
Layer 1
62
4
5
178
100
AcDbEntity
100
AcDbLine
10
149.652317
20
161.084892
30
0.0
11
149.868630
21
161.411602
31
0.0
0
LINE
8
Layer 1
62
4
5
179
100
AcDbEntity
100
AcDbLine
10
149.868630
20
161.411602
30
0.0
11
150.366195
21
162.079266
31
0.0
0
LINE
8
Layer 1
62
4
5
17a
100
AcDbEntity
100
AcDbLine
10
150.366195
20
162.079266
30
0.0
11
150.855336
21
162.233696
31
0.0
0
LINE
8
Layer 1
62
4
5
17b
100
AcDbEntity
100
AcDbLine
10
150.855336
20
162.233696
30
0.0
11
151.143645
21
161.915437
31
0.0
0
LINE
8
Layer 1
62
4
5
17c
100
AcDbEntity
100
AcDbLine
10
151.143645
20
161.915437
30
0.0
11
151.038715
21
161.165036
31
0.0
0
LINE
8
Layer 1
62
4
5
17d
100
AcDbEntity
100
AcDbLine
10
151.038715
20
161.165036
30
0.0
11
150.897565
21
160.649556
31
0.0
0
LINE
8
Layer 1
62
4
5
17e
100
AcDbEntity
100
AcDbLine
10
150.897565
20
160.649556
30
0.0
11
150.997858
21
160.387997
31
0.0
0
LINE
8
Layer 1
62
4
5
17f
100
AcDbEntity
100
AcDbLine
10
150.997858
20
160.387997
30
0.0
11
151.376920
21
160.357628
31
0.0
0
LINE
8
Layer 1
62
4
5
180
100
AcDbEntity
100
AcDbLine
10
151.376920
20
160.357628
30
0.0
11
152.072078
21
160.535720
31
0.0
0
LINE
8
Layer 1
62
4
5
181
100
AcDbEntity
100
AcDbLine
10
152.072078
20
160.535720
30
0.0
11
152.754307
21
160.695538
31
0.0
0
LINE
8
Layer 1
62
4
5
182
100
AcDbEntity
100
AcDbLine
10
152.754307
20
160.695538
30
0.0
11
153.202709
21
160.651877
31
0.0
0
LINE
8
Layer 1
62
4
5
183
100
AcDbEntity
100
AcDbLine
10
153.202709
20
160.651877
30
0.0
11
153.448706
21
160.390952
31
0.0
0
LINE
8
Layer 1
62
4
5
184
100
AcDbEntity
100
AcDbLine
10
153.448706
20
160.390952
30
0.0
11
153.523721
21
159.898979
31
0.0
0
LINE
8
Layer 1
62
4
5
185
100
AcDbEntity
100
AcDbLine
10
153.523721
20
159.898979
30
0.0
11
153.325503
21
159.246391
31
0.0
0
LINE
8
Layer 1
62
4
5
186
100
AcDbEntity
100
AcDbLine
10
153.325503
20
159.246391
30
0.0
11
153.110941
21
159.143211
31
0.0
0
LINE
8
Layer 1
62
4
5
187
100
AcDbEntity
100
AcDbLine
10
153.110941
20
159.143211
30
0.0
11
152.848934
21
159.218541
31
0.0
0
LINE
8
Layer 1
62
4
5
188
100
AcDbEntity
100
AcDbLine
10
152.848934
20
159.218541
30
0.0
11
152.586926
21
159.276611
31
0.0
0
LINE
8
Layer 1
62
4
5
189
100
AcDbEntity
100
AcDbLine
10
152.586926
20
159.276611
30
0.0
11
152.372365
21
159.126430
31
0.0
0
LINE
8
Layer 1
62
4
5
18a
100
AcDbEntity
100
AcDbLine
10
152.372365
20
159.126430
30
0.0
11
152.174146
21
158.319339
31
0.0
0
LINE
8
Layer 1
62
4
5
18b
100
AcDbEntity
100
AcDbLine
10
152.174146
20
158.319339
30
0.0
11
152.058319
21
157.718852
31
0.0
0
LINE
8
Layer 1
62
4
5
18c
100
AcDbEntity
100
AcDbLine
10
152.058319
20
157.718852
30
0.0
11
151.713568
21
157.220504
31
0.0
0
LINE
8
Layer 1
62
4
5
18d
100
AcDbEntity
100
AcDbLine
10
151.713568
20
157.220504
30
0.0
11
151.143988
21
156.828286
31
0.0
0
LINE
8
Layer 1
62
4
5
18e
100
AcDbEntity
100
AcDbLine
10
151.143988
20
156.828286
30
0.0
11
150.353672
21
156.546184
31
0.0
0
LINE
8
Layer 1
62
4
5
18f
100
AcDbEntity
100
AcDbLine
10
150.353672
20
156.546184
30
0.0
11
149.511877
21
156.295217
31
0.0
0
LINE
8
Layer 1
62
4
5
190
100
AcDbEntity
100
AcDbLine
10
149.511877
20
156.295217
30
0.0
11
149.109283
21
156.056082
31
0.0
0
LINE
8
Layer 1
62
4
5
191
100
AcDbEntity
100
AcDbLine
10
149.109283
20
156.056082
30
0.0
11
149.118013
21
155.793248
31
0.0
0
LINE
8
Layer 1
62
4
5
192
100
AcDbEntity
100
AcDbLine
10
149.118013
20
155.793248
30
0.0
11
149.510188
21
155.471183
31
0.0
0
LINE
8
Layer 1
62
4
5
193
100
AcDbEntity
100
AcDbLine
10
149.510188
20
155.471183
30
0.0
11
150.046883
21
155.000085
31
0.0
0
LINE
8
Layer 1
62
4
5
194
100
AcDbEntity
100
AcDbLine
10
150.046883
20
155.000085
30
0.0
11
149.962366
21
154.884119
31
0.0
0
LINE
8
Layer 1
62
4
5
195
100
AcDbEntity
100
AcDbLine
10
149.962366
20
154.884119
30
0.0
11
149.643696
21
154.842759
31
0.0
0
LINE
8
Layer 1
62
4
5
196
100
AcDbEntity
100
AcDbLine
10
149.643696
20
154.842759
30
0.0
11
149.316187
21
154.742438
31
0.0
0
LINE
8
Layer 1
62
4
5
197
100
AcDbEntity
100
AcDbLine
10
149.316187
20
154.742438
30
0.0
11
149.047986
21
154.476914
31
0.0
0
LINE
8
Layer 1
62
4
5
198
100
AcDbEntity
100
AcDbLine
10
149.047986
20
154.476914
30
0.0
11
148.800213
21
153.611824
31
0.0
0
LINE
8
Layer 1
62
4
5
199
100
AcDbEntity
100
AcDbLine
10
148.800213
20
153.611824
30
0.0
11
148.519274
21
152.365569
31
0.0
0
LINE
8
Layer 1
62
4
5
19a
100
AcDbEntity
100
AcDbLine
10
148.519274
20
152.365569
30
0.0
11
147.843824
21
151.083288
31
0.0
0
LINE
8
Layer 1
62
4
5
19b
100
AcDbEntity
100
AcDbLine
10
147.843824
20
151.083288
30
0.0
11
147.449623
21
150.441302
31
0.0
0
LINE
8
Layer 1
62
4
5
19c
100
AcDbEntity
100
AcDbLine
10
147.449623
20
150.441302
30
0.0
11
147.277629
21
149.884204
31
0.0
0
LINE
8
Layer 1
62
4
5
19d
100
AcDbEntity
100
AcDbLine
10
147.277629
20
149.884204
30
0.0
11
147.325041
21
149.388315
31
0.0
0
LINE
8
Layer 1
62
4
5
19e
100
AcDbEntity
100
AcDbLine
10
147.325041
20
149.388315
30
0.0
11
147.589057
21
148.929955
31
0.0
0
LINE
8
Layer 1
62
4
5
19f
100
AcDbEntity
100
AcDbLine
10
147.589057
20
148.929955
30
0.0
11
148.307958
21
148.288051
31
0.0
0
LINE
8
Layer 1
62
4
5
1a0
100
AcDbEntity
100
AcDbLine
10
148.307958
20
148.288051
30
0.0
11
149.106434
21
148.177510
31
0.0
0
LINE
8
Layer 1
62
4
5
1a1
100
AcDbEntity
100
AcDbLine
10
149.106434
20
148.177510
30
0.0
11
150.177227
21
148.634004
31
0.0
0
LINE
8
Layer 1
62
4
5
1a2
100
AcDbEntity
100
AcDbLine
10
150.177227
20
148.634004
30
0.0
11
151.713080
21
149.693205
31
0.0
0
LINE
8
Layer 1
62
4
5
1a3
100
AcDbEntity
100
AcDbLine
10
151.713080
20
149.693205
30
0.0
11
153.725675
21
150.969780
31
0.0
0
LINE
8
Layer 1
62
4
5
1a4
100
AcDbEntity
100
AcDbLine
10
153.725675
20
150.969780
30
0.0
11
155.548082
21
151.780041
31
0.0
0
LINE
8
Layer 1
62
4
5
1a5
100
AcDbEntity
100
AcDbLine
10
155.548082
20
151.780041
30
0.0
11
157.235048
21
152.258230
31
0.0
0
LINE
8
Layer 1
62
4
5
1a6
100
AcDbEntity
100
AcDbLine
10
157.235048
20
152.258230
30
0.0
11
155.548082
21
151.082828
31
0.0
0
LINE
8
Layer 1
62
4
5
1a7
100
AcDbEntity
100
AcDbLine
10
155.548082
20
151.082828
30
0.0
11
151.499358
21
147.695365
31
0.0
0
LINE
8
Layer 1
62
4
5
1a8
100
AcDbEntity
100
AcDbLine
10
151.499358
20
147.695365
30
0.0
11
150.008583
21
146.547164
31
0.0
0
LINE
8
Layer 1
62
4
5
1a9
100
AcDbEntity
100
AcDbLine
10
150.008583
20
146.547164
30
0.0
11
148.091632
21
145.414260
31
0.0
0
LINE
8
Layer 1
62
4
5
1aa
100
AcDbEntity
100
AcDbLine
10
148.091632
20
145.414260
30
0.0
11
145.963690
21
144.375634
31
0.0
0
LINE
8
Layer 1
62
4
5
1ab
100
AcDbEntity
100
AcDbLine
10
145.963690
20
144.375634
30
0.0
11
143.839942
21
143.510269
31
0.0
0
LINE
8
Layer 1
62
4
5
1ac
100
AcDbEntity
100
AcDbLine
10
143.839942
20
143.510269
30
0.0
11
141.935573
21
142.897146
31
0.0
0
LINE
8
Layer 1
62
4
5
1ad
100
AcDbEntity
100
AcDbLine
10
141.935573
20
142.897146
30
0.0
11
140.465768
21
142.615247
31
0.0
0
LINE
8
Layer 1
62
4
5
1ae
100
AcDbEntity
100
AcDbLine
10
140.465768
20
142.615247
30
0.0
11
139.645711
21
142.743555
31
0.0
0
LINE
8
Layer 1
62
4
5
1af
100
AcDbEntity
100
AcDbLine
10
139.645711
20
142.743555
30
0.0
11
139.546584
21
142.986217
31
0.0
0
LINE
8
Layer 1
62
4
5
1b0
100
AcDbEntity
100
AcDbLine
10
139.546584
20
142.986217
30
0.0
11
139.690588
21
143.361050
31
0.0
0
LINE
8
Layer 1
62
4
5
1b1
100
AcDbEntity
100
AcDbLine
10
139.690588
20
143.361050
30
0.0
11
139.775207
21
143.837617
31
0.0
0
LINE
8
Layer 1
62
4
5
1b2
100
AcDbEntity
100
AcDbLine
10
139.775207
20
143.837617
30
0.0
11
139.393018
21
144.035835
31
0.0
0
LINE
8
Layer 1
62
4
5
1b3
100
AcDbEntity
100
AcDbLine
10
139.393018
20
144.035835
30
0.0
11
138.888324
21
143.874092
31
0.0
0
LINE
8
Layer 1
62
4
5
1b4
100
AcDbEntity
100
AcDbLine
10
138.888324
20
143.874092
30
0.0
11
138.678406
21
143.485219
31
0.0
0
LINE
8
Layer 1
62
4
5
1b5
100
AcDbEntity
100
AcDbLine
10
138.678406
20
143.485219
30
0.0
11
138.383197
21
143.098873
31
0.0
0
LINE
8
Layer 1
62
4
5
1b6
100
AcDbEntity
100
AcDbLine
10
138.383197
20
143.098873
30
0.0
11
137.576412
21
142.602389
31
0.0
0
LINE
8
Layer 1
62
4
5
1b7
100
AcDbEntity
100
AcDbLine
10
137.576412
20
142.602389
30
0.0
11
134.901166
21
141.454060
31
0.0
0
LINE
8
Layer 1
62
4
5
1b8
100
AcDbEntity
100
AcDbLine
10
134.901166
20
141.454060
30
0.0
11
131.598773
21
140.390344
31
0.0
0
LINE
8
Layer 1
62
4
5
1b9
100
AcDbEntity
100
AcDbLine
10
131.598773
20
140.390344
30
0.0
11
128.615338
21
139.761348
31
0.0
0
LINE
8
Layer 1
62
4
5
1ba
100
AcDbEntity
100
AcDbLine
10
128.615338
20
139.761348
30
0.0
11
127.021467
21
139.665249
31
0.0
0
LINE
8
Layer 1
62
4
5
1bb
100
AcDbEntity
100
AcDbLine
10
127.021467
20
139.665249
30
0.0
11
125.526995
21
139.777244
31
0.0
0
LINE
8
Layer 1
62
4
5
1bc
100
AcDbEntity
100
AcDbLine
10
125.526995
20
139.777244
30
0.0
11
124.098741
21
140.114168
31
0.0
0
LINE
8
Layer 1
62
4
5
1bd
100
AcDbEntity
100
AcDbLine
10
124.098741
20
140.114168
30
0.0
11
122.703527
21
140.692857
31
0.0
0
LINE
8
Layer 1
62
4
5
1be
100
AcDbEntity
100
AcDbLine
10
122.703527
20
140.692857
30
0.0
11
121.308174
21
141.530146
31
0.0
0
LINE
8
Layer 1
62
4
5
1bf
100
AcDbEntity
100
AcDbLine
10
121.308174
20
141.530146
30
0.0
11
119.879502
21
142.642871
31
0.0
0
LINE
8
Layer 1
62
4
5
1c0
100
AcDbEntity
100
AcDbLine
10
119.879502
20
142.642871
30
0.0
11
118.384332
21
144.047867
31
0.0
0
LINE
8
Layer 1
62
4
5
1c1
100
AcDbEntity
100
AcDbLine
10
118.384332
20
144.047867
30
0.0
11
116.789485
21
145.761971
31
0.0
0
LINE
8
Layer 1
62
4
5
1c2
100
AcDbEntity
100
AcDbLine
10
116.789485
20
145.761971
30
0.0
11
113.818468
21
148.832002
31
0.0
0
LINE
8
Layer 1
62
4
5
1c3
100
AcDbEntity
100
AcDbLine
10
113.818468
20
148.832002
30
0.0
11
112.713167
21
149.765917
31
0.0
0
LINE
8
Layer 1
62
4
5
1c4
100
AcDbEntity
100
AcDbLine
10
112.713167
20
149.765917
30
0.0
11
112.067907
21
150.108919
31
0.0
0
LINE
8
Layer 1
62
4
5
1c5
100
AcDbEntity
100
AcDbLine
10
112.067907
20
150.108919
30
0.0
11
111.657396
21
149.848392
31
0.0
0
LINE
8
Layer 1
62
4
5
1c6
100
AcDbEntity
100
AcDbLine
10
111.657396
20
149.848392
30
0.0
11
111.294072
21
149.076213
31
0.0
0
LINE
8
Layer 1
62
4
5
1c7
100
AcDbEntity
100
AcDbLine
10
111.294072
20
149.076213
30
0.0
11
110.727620
21
146.053286
31
0.0
0
LINE
8
Layer 1
62
4
5
1c8
100
AcDbEntity
100
AcDbLine
10
110.727620
20
146.053286
30
0.0
11
110.423980
21
143.935818
31
0.0
0
LINE
8
Layer 1
62
4
5
1c9
100
AcDbEntity
100
AcDbLine
10
110.423980
20
143.935818
30
0.0
11
110.017499
21
142.531962
31
0.0
0
LINE
8
Layer 1
62
4
5
1ca
100
AcDbEntity
100
AcDbLine
10
110.017499
20
142.531962
30
0.0
11
109.396025
21
141.585265
31
0.0
0
LINE
8
Layer 1
62
4
5
1cb
100
AcDbEntity
100
AcDbLine
10
109.396025
20
141.585265
30
0.0
11
108.447403
21
140.839273
31
0.0
0
LINE
8
Layer 1
62
4
5
1cc
100
AcDbEntity
100
AcDbLine
10
108.447403
20
140.839273
30
0.0
11
107.027232
21
139.830684
31
0.0
0
LINE
8
Layer 1
62
4
5
1cd
100
AcDbEntity
100
AcDbLine
10
107.027232
20
139.830684
30
0.0
11
106.170456
21
139.032436
31
0.0
0
LINE
8
Layer 1
62
4
5
1ce
100
AcDbEntity
100
AcDbLine
10
106.170456
20
139.032436
30
0.0
11
105.794786
21
138.906338
31
0.0
0
LINE
8
Layer 1
62
4
5
1cf
100
AcDbEntity
100
AcDbLine
10
105.794786
20
138.906338
30
0.0
11
105.113302
21
139.072054
31
0.0
0
LINE
8
Layer 1
62
4
5
1d0
100
AcDbEntity
100
AcDbLine
10
105.113302
20
139.072054
30
0.0
11
103.133914
21
140.166503
31
0.0
0
LINE
8
Layer 1
62
4
5
1d1
100
AcDbEntity
100
AcDbLine
10
103.133914
20
140.166503
30
0.0
11
100.567785
21
141.734572
31
0.0
0
LINE
8
Layer 1
62
4
5
1d2
100
AcDbEntity
100
AcDbLine
10
100.567785
20
141.734572
30
0.0
11
98.022495
21
143.001488
31
0.0
0
LINE
8
Layer 1
62
4
5
1d3
100
AcDbEntity
100
AcDbLine
10
98.022495
20
143.001488
30
0.0
11
95.952953
21
143.956413
31
0.0
0
LINE
8
Layer 1
62
4
5
1d4
100
AcDbEntity
100
AcDbLine
10
95.952953
20
143.956413
30
0.0
11
95.572912
21
144.216216
31
0.0
0
LINE
8
Layer 1
62
4
5
1d5
100
AcDbEntity
100
AcDbLine
10
95.572912
20
144.216216
30
0.0
11
95.604425
21
144.327087
31
0.0
0
LINE
8
Layer 1
62
4
5
1d6
100
AcDbEntity
100
AcDbLine
10
95.604425
20
144.327087
30
0.0
11
96.827307
21
144.090555
31
0.0
0
LINE
8
Layer 1
62
4
5
1d7
100
AcDbEntity
100
AcDbLine
10
96.827307
20
144.090555
30
0.0
11
99.471994
21
143.223868
31
0.0
0
LINE
8
Layer 1
62
4
5
1d8
100
AcDbEntity
100
AcDbLine
10
99.471994
20
143.223868
30
0.0
11
103.451945
21
141.791861
31
0.0
0
LINE
8
Layer 1
62
4
5
1d9
100
AcDbEntity
100
AcDbLine
10
103.451945
20
141.791861
30
0.0
11
105.713773
21
143.239872
31
0.0
0
LINE
8
Layer 1
62
4
5
1da
100
AcDbEntity
100
AcDbLine
10
105.713773
20
143.239872
30
0.0
11
107.975600
21
144.687887
31
0.0
0
LINE
8
Layer 1
62
4
5
1db
100
AcDbEntity
100
AcDbLine
10
107.975600
20
144.687887
30
0.0
11
106.159763
21
144.699260
31
0.0
0
LINE
8
Layer 1
62
4
5
1dc
100
AcDbEntity
100
AcDbLine
10
106.159763
20
144.699260
30
0.0
11
104.764244
21
144.890262
31
0.0
0
LINE
8
Layer 1
62
4
5
1dd
100
AcDbEntity
100
AcDbLine
10
104.764244
20
144.890262
30
0.0
11
103.958966
21
145.333498
31
0.0
0
LINE
8
Layer 1
62
4
5
1de
100
AcDbEntity
100
AcDbLine
10
103.958966
20
145.333498
30
0.0
11
103.113986
21
145.899277
31
0.0
0
LINE
8
Layer 1
62
4
5
1df
100
AcDbEntity
100
AcDbLine
10
103.113986
20
145.899277
30
0.0
11
101.623015
21
146.384881
31
0.0
0
LINE
8
Layer 1
62
4
5
1e0
100
AcDbEntity
100
AcDbLine
10
101.623015
20
146.384881
30
0.0
11
100.399488
21
146.857163
31
0.0
0
LINE
8
Layer 1
62
4
5
1e1
100
AcDbEntity
100
AcDbLine
10
100.399488
20
146.857163
30
0.0
11
99.462232
21
147.798253
31
0.0
0
LINE
8
Layer 1
62
4
5
1e2
100
AcDbEntity
100
AcDbLine
10
99.462232
20
147.798253
30
0.0
11
98.663006
21
149.427583
31
0.0
0
LINE
8
Layer 1
62
4
5
1e3
100
AcDbEntity
100
AcDbLine
10
98.663006
20
149.427583
30
0.0
11
97.853568
21
151.964589
31
0.0
0
LINE
8
Layer 1
62
4
5
1e4
100
AcDbEntity
100
AcDbLine
10
97.853568
20
151.964589
30
0.0
11
97.566216
21
152.636590
31
0.0
0
LINE
8
Layer 1
62
4
5
1e5
100
AcDbEntity
100
AcDbLine
10
97.566216
20
152.636590
30
0.0
11
97.135417
21
153.110187
31
0.0
0
LINE
8
Layer 1
62
4
5
1e6
100
AcDbEntity
100
AcDbLine
10
97.135417
20
153.110187
30
0.0
11
96.554231
21
153.390554
31
0.0
0
LINE
8
Layer 1
62
4
5
1e7
100
AcDbEntity
100
AcDbLine
10
96.554231
20
153.390554
30
0.0
11
95.815714
21
153.482860
31
0.0
0
LINE
8
Layer 1
62
4
5
1e8
100
AcDbEntity
100
AcDbLine
10
95.815714
20
153.482860
30
0.0
11
94.001909
21
153.724269
31
0.0
0
LINE
8
Layer 1
62
4
5
1e9
100
AcDbEntity
100
AcDbLine
10
94.001909
20
153.724269
30
0.0
11
92.357301
21
154.374139
31
0.0
0
LINE
8
Layer 1
62
4
5
1ea
100
AcDbEntity
100
AcDbLine
10
92.357301
20
154.374139
30
0.0
11
91.085614
21
155.320931
31
0.0
0
LINE
8
Layer 1
62
4
5
1eb
100
AcDbEntity
100
AcDbLine
10
91.085614
20
155.320931
30
0.0
11
90.653279
21
155.870817
31
0.0
0
LINE
8
Layer 1
62
4
5
1ec
100
AcDbEntity
100
AcDbLine
10
90.653279
20
155.870817
30
0.0
11
90.390571
21
156.453108
31
0.0
0
LINE
8
Layer 1
62
4
5
1ed
100
AcDbEntity
100
AcDbLine
10
90.390571
20
156.453108
30
0.0
11
89.782902
21
158.645271
31
0.0
0
LINE
8
Layer 1
62
4
5
1ee
100
AcDbEntity
100
AcDbLine
10
89.782902
20
158.645271
30
0.0
11
89.646953
21
159.706839
31
0.0
0
LINE
8
Layer 1
62
4
5
1ef
100
AcDbEntity
100
AcDbLine
10
89.646953
20
159.706839
30
0.0
11
89.777944
21
159.923281
31
0.0
0
LINE
8
Layer 1
62
4
5
1f0
100
AcDbEntity
100
AcDbLine
10
89.777944
20
159.923281
30
0.0
11
90.053352
21
159.988632
31
0.0
0
LINE
8
Layer 1
62
4
5
1f1
100
AcDbEntity
100
AcDbLine
10
90.053352
20
159.988632
30
0.0
11
91.072727
21
159.841473
31
0.0
0
LINE
8
Layer 1
62
4
5
1f2
100
AcDbEntity
100
AcDbLine
10
91.072727
20
159.841473
30
0.0
11
92.287596
21
159.823299
31
0.0
0
LINE
8
Layer 1
62
4
5
1f3
100
AcDbEntity
100
AcDbLine
10
92.287596
20
159.823299
30
0.0
11
92.657163
21
159.975045
31
0.0
0
LINE
8
Layer 1
62
4
5
1f4
100
AcDbEntity
100
AcDbLine
10
92.657163
20
159.975045
30
0.0
11
92.792894
21
160.217531
31
0.0
0
LINE
8
Layer 1
62
4
5
1f5
100
AcDbEntity
100
AcDbLine
10
92.792894
20
160.217531
30
0.0
11
92.709885
21
160.484663
31
0.0
0
LINE
8
Layer 1
62
4
5
1f6
100
AcDbEntity
100
AcDbLine
10
92.709885
20
160.484663
30
0.0
11
92.483868
21
160.703421
31
0.0
0
LINE
8
Layer 1
62
4
5
1f7
100
AcDbEntity
100
AcDbLine
10
92.483868
20
160.703421
30
0.0
11
91.740891
21
160.905516
31
0.0
0
LINE
8
Layer 1
62
4
5
1f8
100
AcDbEntity
100
AcDbLine
10
91.740891
20
160.905516
30
0.0
11
91.120203
21
161.103386
31
0.0
0
LINE
8
Layer 1
62
4
5
1f9
100
AcDbEntity
100
AcDbLine
10
91.120203
20
161.103386
30
0.0
11
91.026560
21
161.317571
31
0.0
0
LINE
8
Layer 1
62
4
5
1fa
100
AcDbEntity
100
AcDbLine
10
91.026560
20
161.317571
30
0.0
11
91.105197
21
161.579118
31
0.0
0
LINE
8
Layer 1
62
4
5
1fb
100
AcDbEntity
100
AcDbLine
10
91.105197
20
161.579118
30
0.0
11
91.183890
21
161.959096
31
0.0
0
LINE
8
Layer 1
62
4
5
1fc
100
AcDbEntity
100
AcDbLine
10
91.183890
20
161.959096
30
0.0
11
91.090404
21
162.495740
31
0.0
0
LINE
8
Layer 1
62
4
5
1fd
100
AcDbEntity
100
AcDbLine
10
91.090404
20
162.495740
30
0.0
11
90.470234
21
163.753624
31
0.0
0
LINE
8
Layer 1
62
4
5
1fe
100
AcDbEntity
100
AcDbLine
10
90.470234
20
163.753624
30
0.0
11
89.741188
21
165.116414
31
0.0
0
LINE
8
Layer 1
62
4
5
1ff
100
AcDbEntity
100
AcDbLine
10
89.741188
20
165.116414
30
0.0
11
89.464631
21
166.285258
31
0.0
0
LINE
8
Layer 1
62
4
5
200
100
AcDbEntity
100
AcDbLine
10
89.464631
20
166.285258
30
0.0
11
89.532396
21
166.625668
31
0.0
0
LINE
8
Layer 1
62
4
5
201
100
AcDbEntity
100
AcDbLine
10
89.532396
20
166.625668
30
0.0
11
89.688154
21
166.655676
31
0.0
0
LINE
8
Layer 1
62
4
5
202
100
AcDbEntity
100
AcDbLine
10
89.688154
20
166.655676
30
0.0
11
90.242534
21
165.797720
31
0.0
0
LINE
8
Layer 1
62
4
5
203
100
AcDbEntity
100
AcDbLine
10
90.242534
20
165.797720
30
0.0
11
90.640785
21
165.195738
31
0.0
0
LINE
8
Layer 1
62
4
5
204
100
AcDbEntity
100
AcDbLine
10
90.640785
20
165.195738
30
0.0
11
91.170078
21
164.716618
31
0.0
0
LINE
8
Layer 1
62
4
5
205
100
AcDbEntity
100
AcDbLine
10
91.170078
20
164.716618
30
0.0
11
91.772446
21
164.401064
31
0.0
0
LINE
8
Layer 1
62
4
5
206
100
AcDbEntity
100
AcDbLine
10
91.772446
20
164.401064
30
0.0
11
92.389923
21
164.289784
31
0.0
0
LINE
8
Layer 1
62
4
5
207
100
AcDbEntity
100
AcDbLine
10
92.389923
20
164.289784
30
0.0
11
93.338166
21
164.423948
31
0.0
0
LINE
8
Layer 1
62
4
5
208
100
AcDbEntity
100
AcDbLine
10
93.338166
20
164.423948
30
0.0
11
93.243508
21
164.625215
31
0.0
0
LINE
8
Layer 1
62
4
5
209
100
AcDbEntity
100
AcDbLine
10
93.243508
20
164.625215
30
0.0
11
92.792894
21
164.954236
31
0.0
0
LINE
8
Layer 1
62
4
5
20a
100
AcDbEntity
100
AcDbLine
10
92.792894
20
164.954236
30
0.0
11
92.202884
21
165.465836
31
0.0
0
LINE
8
Layer 1
62
4
5
20b
100
AcDbEntity
100
AcDbLine
10
92.202884
20
165.465836
30
0.0
11
92.307631
21
165.579975
31
0.0
0
LINE
8
Layer 1
62
4
5
20c
100
AcDbEntity
100
AcDbLine
10
92.307631
20
165.579975
30
0.0
11
92.675521
21
165.618692
31
0.0
0
LINE
8
Layer 1
62
4
5
20d
100
AcDbEntity
100
AcDbLine
10
92.675521
20
165.618692
30
0.0
11
92.909271
21
165.792854
31
0.0
0
LINE
8
Layer 1
62
4
5
20e
100
AcDbEntity
100
AcDbLine
10
92.909271
20
165.792854
30
0.0
11
92.830922
21
166.244584
31
0.0
0
LINE
8
Layer 1
62
4
5
20f
100
AcDbEntity
100
AcDbLine
10
92.830922
20
166.244584
30
0.0
11
92.013266
21
167.613356
31
0.0
0
LINE
8
Layer 1
62
4
5
210
100
AcDbEntity
100
AcDbLine
10
92.013266
20
167.613356
30
0.0
11
90.773228
21
168.990225
31
0.0
0
LINE
8
Layer 1
62
4
5
211
100
AcDbEntity
100
AcDbLine
10
90.773228
20
168.990225
30
0.0
11
90.166902
21
169.452077
31
0.0
0
LINE
8
Layer 1
62
4
5
212
100
AcDbEntity
100
AcDbLine
10
90.166902
20
169.452077
30
0.0
11
89.661484
21
169.640409
31
0.0
0
LINE
8
Layer 1
62
4
5
213
100
AcDbEntity
100
AcDbLine
10
89.661484
20
169.640409
30
0.0
11
89.284986
21
169.854056
31
0.0
0
LINE
8
Layer 1
62
4
5
214
100
AcDbEntity
100
AcDbLine
10
89.284986
20
169.854056
30
0.0
11
88.982379
21
170.392990
31
0.0
0
LINE
8
Layer 1
62
4
5
215
100
AcDbEntity
100
AcDbLine
10
88.982379
20
170.392990
30
0.0
11
88.631349
21
172.073790
31
0.0
0
LINE
8
Layer 1
62
4
5
216
100
AcDbEntity
100
AcDbLine
10
88.631349
20
172.073790
30
0.0
11
88.673418
21
173.936945
31
0.0
0
LINE
8
Layer 1
62
4
5
217
100
AcDbEntity
100
AcDbLine
10
88.673418
20
173.936945
30
0.0
11
88.862186
21
174.703823
31
0.0
0
LINE
8
Layer 1
62
4
5
218
100
AcDbEntity
100
AcDbLine
10
88.862186
20
174.703823
30
0.0
11
89.173612
21
175.236591
31
0.0
0
LINE
8
Layer 1
62
4
5
219
100
AcDbEntity
100
AcDbLine
10
89.173612
20
175.236591
30
0.0
11
89.937359
21
176.466294
31
0.0
0
LINE
8
Layer 1
62
4
5
21a
100
AcDbEntity
100
AcDbLine
10
89.937359
20
176.466294
30
0.0
11
90.486596
21
178.042098
31
0.0
0
LINE
8
Layer 1
62
4
5
21b
100
AcDbEntity
100
AcDbLine
10
90.486596
20
178.042098
30
0.0
11
90.653156
21
179.298598
31
0.0
0
LINE
8
Layer 1
62
4
5
21c
100
AcDbEntity
100
AcDbLine
10
90.653156
20
179.298598
30
0.0
11
90.540382
21
179.599171
31
0.0
0
LINE
8
Layer 1
62
4
5
21d
100
AcDbEntity
100
AcDbLine
10
90.540382
20
179.599171
30
0.0
11
90.268877
21
179.570393
31
0.0
0
LINE
8
Layer 1
62
4
5
21e
100
AcDbEntity
100
AcDbLine
10
90.268877
20
179.570393
30
0.0
11
89.972599
21
179.502093
31
0.0
0
LINE
8
Layer 1
62
4
5
21f
100
AcDbEntity
100
AcDbLine
10
89.972599
20
179.502093
30
0.0
11
89.680765
21
179.634333
31
0.0
0
LINE
8
Layer 1
62
4
5
220
100
AcDbEntity
100
AcDbLine
10
89.680765
20
179.634333
30
0.0
11
89.244836
21
180.392526
31
0.0
0
LINE
8
Layer 1
62
4
5
221
100
AcDbEntity
100
AcDbLine
10
89.244836
20
180.392526
30
0.0
11
89.166497
21
180.932646
31
0.0
0
LINE
8
Layer 1
62
4
5
222
100
AcDbEntity
100
AcDbLine
10
89.166497
20
180.932646
30
0.0
11
89.255674
21
181.309428
31
0.0
0
LINE
8
Layer 1
62
4
5
223
100
AcDbEntity
100
AcDbLine
10
89.255674
20
181.309428
30
0.0
11
89.511319
21
181.521079
31
0.0
0
LINE
8
Layer 1
62
4
5
224
100
AcDbEntity
100
AcDbLine
10
89.511319
20
181.521079
30
0.0
11
89.932386
21
181.565811
31
0.0
0
LINE
8
Layer 1
62
4
5
225
100
AcDbEntity
100
AcDbLine
10
89.932386
20
181.565811
30
0.0
11
90.420031
21
181.640512
31
0.0
0
LINE
8
Layer 1
62
4
5
226
100
AcDbEntity
100
AcDbLine
10
90.420031
20
181.640512
30
0.0
11
90.787713
21
181.917665
31
0.0
0
LINE
8
Layer 1
62
4
5
227
100
AcDbEntity
100
AcDbLine
10
90.787713
20
181.917665
30
0.0
11
91.031242
21
182.348838
31
0.0
0
LINE
8
Layer 1
62
4
5
228
100
AcDbEntity
100
AcDbLine
10
91.031242
20
182.348838
30
0.0
11
91.146428
21
182.885600
31
0.0
0
LINE
8
Layer 1
62
4
5
229
100
AcDbEntity
100
AcDbLine
10
91.146428
20
182.885600
30
0.0
11
90.975005
21
184.082170
31
0.0
0
LINE
8
Layer 1
62
4
5
22a
100
AcDbEntity
100
AcDbLine
10
90.975005
20
184.082170
30
0.0
11
90.680016
21
184.645116
31
0.0
0
LINE
8
Layer 1
62
4
5
22b
100
AcDbEntity
100
AcDbLine
10
90.680016
20
184.645116
30
0.0
11
90.239921
21
185.119929
31
0.0
0
LINE
8
Layer 1
62
4
5
22c
100
AcDbEntity
100
AcDbLine
10
90.239921
20
185.119929
30
0.0
11
89.424964
21
185.857299
31
0.0
0
LINE
8
Layer 1
62
4
5
22d
100
AcDbEntity
100
AcDbLine
10
89.424964
20
185.857299
30
0.0
11
90.262442
21
185.647199
31
0.0
0
LINE
8
Layer 1
62
4
5
22e
100
AcDbEntity
100
AcDbLine
10
90.262442
20
185.647199
30
0.0
11
90.761565
21
185.537140
31
0.0
0
LINE
8
Layer 1
62
4
5
22f
100
AcDbEntity
100
AcDbLine
10
90.761565
20
185.537140
30
0.0
11
91.132534
21
185.589128
31
0.0
0
LINE
8
Layer 1
62
4
5
230
100
AcDbEntity
100
AcDbLine
10
91.132534
20
185.589128
30
0.0
11
91.363677
21
185.798104
31
0.0
0
LINE
8
Layer 1
62
4
5
231
100
AcDbEntity
100
AcDbLine
10
91.363677
20
185.798104
30
0.0
11
91.443319
21
186.159009
31
0.0
0
LINE
8
Layer 1
62
4
5
232
100
AcDbEntity
100
AcDbLine
10
91.443319
20
186.159009
30
0.0
11
91.740647
21
186.922012
31
0.0
0
LINE
8
Layer 1
62
4
5
233
100
AcDbEntity
100
AcDbLine
10
91.740647
20
186.922012
30
0.0
11
92.455498
21
187.466225
31
0.0
0
LINE
8
Layer 1
62
4
5
234
100
AcDbEntity
100
AcDbLine
10
92.455498
20
187.466225
30
0.0
11
92.913165
21
187.833147
31
0.0
0
LINE
8
Layer 1
62
4
5
235
100
AcDbEntity
100
AcDbLine
10
92.913165
20
187.833147
30
0.0
11
93.227823
21
188.549420
31
0.0
0
LINE
8
Layer 1
62
4
5
236
100
AcDbEntity
100
AcDbLine
10
93.227823
20
188.549420
30
0.0
11
93.409364
21
189.651287
31
0.0
0
LINE
8
Layer 1
62
4
5
237
100
AcDbEntity
100
AcDbLine
10
93.409364
20
189.651287
30
0.0
11
93.467679
21
191.174995
31
0.0
0
LINE
8
Layer 1
62
4
5
238
100
AcDbEntity
100
AcDbLine
10
93.467679
20
191.174995
30
0.0
11
93.544203
21
192.793141
31
0.0
0
LINE
8
Layer 1
62
4
5
239
100
AcDbEntity
100
AcDbLine
10
93.544203
20
192.793141
30
0.0
11
93.788492
21
194.099808
31
0.0
0
LINE
8
Layer 1
62
4
5
23a
100
AcDbEntity
100
AcDbLine
10
93.788492
20
194.099808
30
0.0
11
94.222621
21
195.172414
31
0.0
0
LINE
8
Layer 1
62
4
5
23b
100
AcDbEntity
100
AcDbLine
10
94.222621
20
195.172414
30
0.0
11
94.868664
21
196.088377
31
0.0
0
LINE
8
Layer 1
62
4
5
23c
100
AcDbEntity
100
AcDbLine
10
94.868664
20
196.088377
30
0.0
11
95.732199
21
196.965679
31
0.0
0
LINE
8
Layer 1
62
4
5
23d
100
AcDbEntity
100
AcDbLine
10
95.732199
20
196.965679
30
0.0
11
95.896902
21
197.039729
31
0.0
0
LINE
8
Layer 1
62
4
5
23e
100
AcDbEntity
100
AcDbLine
10
95.896902
20
197.039729
30
0.0
11
95.841021
21
196.837919
31
0.0
0
LINE
8
Layer 1
62
4
5
23f
100
AcDbEntity
100
AcDbLine
10
95.841021
20
196.837919
30
0.0
11
95.748220
21
196.242210
31
0.0
0
LINE
8
Layer 1
62
4
5
240
100
AcDbEntity
100
AcDbLine
10
95.748220
20
196.242210
30
0.0
11
95.883355
21
196.060993
31
0.0
0
LINE
8
Layer 1
62
4
5
241
100
AcDbEntity
100
AcDbLine
10
95.883355
20
196.060993
30
0.0
11
96.127003
21
195.994436
31
0.0
0
LINE
8
Layer 1
62
4
5
242
100
AcDbEntity
100
AcDbLine
10
96.127003
20
195.994436
30
0.0
11
96.841615
21
196.167588
31
0.0
0
LINE
8
Layer 1
62
4
5
243
100
AcDbEntity
100
AcDbLine
10
96.841615
20
196.167588
30
0.0
11
97.469297
21
198.529342
31
0.0
0
LINE
8
Layer 1
62
4
5
244
100
AcDbEntity
100
AcDbLine
10
97.469297
20
198.529342
30
0.0
11
98.096982
21
200.717944
31
0.0
0
LINE
8
Layer 1
62
4
5
245
100
AcDbEntity
100
AcDbLine
10
98.096982
20
200.717944
30
0.0
11
85.997920
21
200.717944
31
0.0
0
LINE
8
Layer 1
62
4
5
246
100
AcDbEntity
100
AcDbLine
10
85.997920
20
200.717944
30
0.0
11
73.898859
21
200.717944
31
0.0
0
LINE
8
Layer 1
62
4
5
247
100
AcDbEntity
100
AcDbLine
10
73.898859
20
200.717944
30
0.0
11
73.898859
21
164.914412
31
0.0
0
LINE
8
Layer 1
62
4
5
248
100
AcDbEntity
100
AcDbLine
10
73.898859
20
164.914412
30
0.0
11
74.068863
21
137.592517
31
0.0
0
LINE
8
Layer 1
62
4
5
249
100
AcDbEntity
100
AcDbLine
10
74.068863
20
137.592517
30
0.0
11
74.294481
21
131.377741
31
0.0
0
LINE
8
Layer 1
62
4
5
24a
100
AcDbEntity
100
AcDbLine
10
74.294481
20
131.377741
30
0.0
11
74.446269
21
129.945813
31
0.0
0
LINE
8
Layer 1
62
4
5
24b
100
AcDbEntity
100
AcDbLine
10
74.446269
20
129.945813
30
0.0
11
74.625499
21
129.559969
31
0.0
0
LINE
8
Layer 1
62
4
5
24c
100
AcDbEntity
100
AcDbLine
10
74.625499
20
129.559969
30
0.0
11
75.160553
21
129.647976
31
0.0
0
LINE
8
Layer 1
62
4
5
24d
100
AcDbEntity
100
AcDbLine
10
75.160553
20
129.647976
30
0.0
11
76.042975
21
129.532518
31
0.0
0
LINE
8
Layer 1
62
4
5
24e
100
AcDbEntity
100
AcDbLine
10
76.042975
20
129.532518
30
0.0
11
78.436177
21
128.838696
31
0.0
0
LINE
8
Layer 1
62
4
5
24f
100
AcDbEntity
100
AcDbLine
10
78.436177
20
128.838696
30
0.0
11
80.977612
21
127.773477
31
0.0
0
LINE
8
Layer 1
62
4
5
250
100
AcDbEntity
100
AcDbLine
10
80.977612
20
127.773477
30
0.0
11
82.839786
21
126.631837
31
0.0
0
LINE
8
Layer 1
62
4
5
251
100
AcDbEntity
100
AcDbLine
10
82.839786
20
126.631837
30
0.0
11
83.827457
21
125.951231
31
0.0
0
LINE
8
Layer 1
62
4
5
252
100
AcDbEntity
100
AcDbLine
10
83.827457
20
125.951231
30
0.0
11
83.985113
21
126.139369
31
0.0
0
LINE
8
Layer 1
62
4
5
253
100
AcDbEntity
100
AcDbLine
10
83.985113
20
126.139369
30
0.0
11
84.020663
21
126.684336
31
0.0
0
LINE
8
Layer 1
62
4
5
254
100
AcDbEntity
100
AcDbLine
10
84.020663
20
126.684336
30
0.0
11
83.822444
21
127.567427
31
0.0
0
LINE
8
Layer 1
62
4
5
255
100
AcDbEntity
100
AcDbLine
10
83.822444
20
127.567427
30
0.0
11
83.345875
21
128.178316
31
0.0
0
LINE
8
Layer 1
62
4
5
256
100
AcDbEntity
100
AcDbLine
10
83.345875
20
128.178316
30
0.0
11
82.869306
21
128.669662
31
0.0
0
LINE
8
Layer 1
62
4
5
257
100
AcDbEntity
100
AcDbLine
10
82.869306
20
128.669662
30
0.0
11
82.671087
21
129.265348
31
0.0
0
LINE
8
Layer 1
62
4
5
258
100
AcDbEntity
100
AcDbLine
10
82.671087
20
129.265348
30
0.0
11
82.740010
21
129.342931
31
0.0
0
LINE
8
Layer 1
62
4
5
259
100
AcDbEntity
100
AcDbLine
10
82.740010
20
129.342931
30
0.0
11
82.937159
21
129.243477
31
0.0
0
LINE
8
Layer 1
62
4
5
25a
100
AcDbEntity
100
AcDbLine
10
82.937159
20
129.243477
30
0.0
11
83.658413
21
128.583470
31
0.0
0
LINE
8
Layer 1
62
4
5
25b
100
AcDbEntity
100
AcDbLine
10
83.658413
20
128.583470
30
0.0
11
86.004716
21
125.909193
31
0.0
0
LINE
8
Layer 1
62
4
5
25c
100
AcDbEntity
100
AcDbLine
10
86.004716
20
125.909193
30
0.0
11
88.786486
21
122.362794
31
0.0
0
LINE
8
Layer 1
62
4
5
25d
100
AcDbEntity
100
AcDbLine
10
88.786486
20
122.362794
30
0.0
11
91.080212
21
119.064547
31
0.0
0
LINE
8
Layer 1
62
4
5
25e
100
AcDbEntity
100
AcDbLine
10
91.080212
20
119.064547
30
0.0
11
92.966156
21
116.032183
31
0.0
0
LINE
8
Layer 1
62
4
5
25f
100
AcDbEntity
100
AcDbLine
10
92.966156
20
116.032183
30
0.0
11
90.986935
21
117.887847
31
0.0
0
LINE
8
Layer 1
62
4
5
260
100
AcDbEntity
100
AcDbLine
10
90.986935
20
117.887847
30
0.0
11
89.180698
21
119.198410
31
0.0
0
LINE
8
Layer 1
62
4
5
261
100
AcDbEntity
100
AcDbLine
10
89.180698
20
119.198410
30
0.0
11
88.313388
21
119.597088
31
0.0
0
LINE
8
Layer 1
62
4
5
262
100
AcDbEntity
100
AcDbLine
10
88.313388
20
119.597088
30
0.0
11
87.617371
21
119.743512
31
0.0
0
LINE
8
Layer 1
62
4
5
263
100
AcDbEntity
100
AcDbLine
10
87.617371
20
119.743512
30
0.0
11
86.127017
21
120.143437
31
0.0
0
LINE
8
Layer 1
62
4
5
264
100
AcDbEntity
100
AcDbLine
10
86.127017
20
120.143437
30
0.0
11
84.496224
21
121.104960
31
0.0
0
LINE
8
Layer 1
62
4
5
265
100
AcDbEntity
100
AcDbLine
10
84.496224
20
121.104960
30
0.0
11
82.350064
21
122.508809
31
0.0
0
LINE
8
Layer 1
62
4
5
266
100
AcDbEntity
100
AcDbLine
10
82.350064
20
122.508809
30
0.0
11
79.774786
21
123.800686
31
0.0
0
LINE
8
Layer 1
62
4
5
267
100
AcDbEntity
100
AcDbLine
10
79.774786
20
123.800686
30
0.0
11
77.290454
21
124.750208
31
0.0
0
LINE
8
Layer 1
62
4
5
268
100
AcDbEntity
100
AcDbLine
10
77.290454
20
124.750208
30
0.0
11
75.417130
21
125.126988
31
0.0
0
LINE
8
Layer 1
62
4
5
269
100
AcDbEntity
100
AcDbLine
10
75.417130
20
125.126988
30
0.0
11
73.898859
21
125.141805
31
0.0
0
LINE
8
Layer 1
62
4
5
26a
100
AcDbEntity
100
AcDbLine
10
73.898859
20
125.141805
30
0.0
11
73.898859
21
112.320853
31
0.0
0
LINE
8
Layer 1
62
4
5
26b
100
AcDbEntity
100
AcDbLine
10
73.898859
20
112.320853
30
0.0
11
73.898859
21
99.499901
31
0.0
0
LINE
8
Layer 1
62
4
5
26c
100
AcDbEntity
100
AcDbLine
10
73.898859
20
99.499901
30
0.0
11
82.379168
21
99.499901
31
0.0
0
LINE
8
Layer 1
62
4
5
26d
100
AcDbEntity
100
AcDbLine
10
82.379168
20
99.499901
30
0.0
11
87.266696
21
99.524192
31
0.0
0
LINE
8
Layer 1
62
4
5
26e
100
AcDbEntity
100
AcDbLine
10
87.266696
20
99.524192
30
0.0
11
89.742793
21
99.691198
31
0.0
0
LINE
8
Layer 1
62
4
5
26f
100
AcDbEntity
100
AcDbLine
10
89.742793
20
99.691198
30
0.0
11
90.311895
21
99.872346
31
0.0
0
LINE
8
Layer 1
62
4
5
270
100
AcDbEntity
100
AcDbLine
10
90.311895
20
99.872346
30
0.0
11
90.560548
21
100.142124
31
0.0
0
LINE
8
Layer 1
62
4
5
271
100
AcDbEntity
100
AcDbLine
10
90.560548
20
100.142124
30
0.0
11
90.582889
21
100.518183
31
0.0
0
LINE
8
Layer 1
62
4
5
272
100
AcDbEntity
100
AcDbLine
10
90.582889
20
100.518183
30
0.0
11
90.473053
21
101.018172
31
0.0
0
LINE
8
Layer 1
62
4
5
273
100
AcDbEntity
100
AcDbLine
10
90.473053
20
101.018172
30
0.0
11
90.473056
21
101.018169
31
0.0
0
LINE
8
Layer 1
62
4
5
274
100
AcDbEntity
100
AcDbLine
10
90.473056
20
101.018169
30
0.0
11
90.473056
21
101.018169
31
0.0
0
LINE
8
Layer 1
62
4
5
275
100
AcDbEntity
100
AcDbLine
10
148.575285
20
105.348054
30
0.0
11
148.227326
21
105.904477
31
0.0
0
LINE
8
Layer 1
62
4
5
276
100
AcDbEntity
100
AcDbLine
10
148.227326
20
105.904477
30
0.0
11
148.135504
21
106.563584
31
0.0
0
LINE
8
Layer 1
62
4
5
277
100
AcDbEntity
100
AcDbLine
10
148.135504
20
106.563584
30
0.0
11
148.267167
21
107.270860
31
0.0
0
LINE
8
Layer 1
62
4
5
278
100
AcDbEntity
100
AcDbLine
10
148.267167
20
107.270860
30
0.0
11
148.589664
21
107.971787
31
0.0
0
LINE
8
Layer 1
62
4
5
279
100
AcDbEntity
100
AcDbLine
10
148.589664
20
107.971787
30
0.0
11
149.070342
21
108.611851
31
0.0
0
LINE
8
Layer 1
62
4
5
27a
100
AcDbEntity
100
AcDbLine
10
149.070342
20
108.611851
30
0.0
11
149.676550
21
109.136536
31
0.0
0
LINE
8
Layer 1
62
4
5
27b
100
AcDbEntity
100
AcDbLine
10
149.676550
20
109.136536
30
0.0
11
150.375636
21
109.491325
31
0.0
0
LINE
8
Layer 1
62
4
5
27c
100
AcDbEntity
100
AcDbLine
10
150.375636
20
109.491325
30
0.0
11
151.134947
21
109.621702
31
0.0
0
LINE
8
Layer 1
62
4
5
27d
100
AcDbEntity
100
AcDbLine
10
151.134947
20
109.621702
30
0.0
11
151.691336
21
109.536680
31
0.0
0
LINE
8
Layer 1
62
4
5
27e
100
AcDbEntity
100
AcDbLine
10
151.691336
20
109.536680
30
0.0
11
152.123938
21
109.299848
31
0.0
0
LINE
8
Layer 1
62
4
5
27f
100
AcDbEntity
100
AcDbLine
10
152.123938
20
109.299848
30
0.0
11
152.427288
21
108.938560
31
0.0
0
LINE
8
Layer 1
62
4
5
280
100
AcDbEntity
100
AcDbLine
10
152.427288
20
108.938560
30
0.0
11
152.595922
21
108.480169
31
0.0
0
LINE
8
Layer 1
62
4
5
281
100
AcDbEntity
100
AcDbLine
10
152.595922
20
108.480169
30
0.0
11
152.507183
21
107.381489
31
0.0
0
LINE
8
Layer 1
62
4
5
282
100
AcDbEntity
100
AcDbLine
10
152.507183
20
107.381489
30
0.0
11
151.814005
21
106.222632
31
0.0
0
LINE
8
Layer 1
62
4
5
283
100
AcDbEntity
100
AcDbLine
10
151.814005
20
106.222632
30
0.0
11
150.904887
21
105.402482
31
0.0
0
LINE
8
Layer 1
62
4
5
284
100
AcDbEntity
100
AcDbLine
10
150.904887
20
105.402482
30
0.0
11
150.037459
21
104.976691
31
0.0
0
LINE
8
Layer 1
62
4
5
285
100
AcDbEntity
100
AcDbLine
10
150.037459
20
104.976691
30
0.0
11
149.248624
21
104.955227
31
0.0
0
LINE
8
Layer 1
62
4
5
286
100
AcDbEntity
100
AcDbLine
10
149.248624
20
104.955227
30
0.0
11
148.575285
21
105.348054
31
0.0
0
LINE
8
Layer 1
62
4
5
287
100
AcDbEntity
100
AcDbLine
10
148.575285
20
105.348054
30
0.0
11
148.575285
21
105.348054
31
0.0
0
LINE
8
Layer 1
62
4
5
288
100
AcDbEntity
100
AcDbLine
10
118.097404
20
110.777659
30
0.0
11
116.779414
21
111.211136
31
0.0
0
LINE
8
Layer 1
62
4
5
289
100
AcDbEntity
100
AcDbLine
10
116.779414
20
111.211136
30
0.0
11
116.252393
21
111.609501
31
0.0
0
LINE
8
Layer 1
62
4
5
28a
100
AcDbEntity
100
AcDbLine
10
116.252393
20
111.609501
30
0.0
11
116.299231
21
111.755751
31
0.0
0
LINE
8
Layer 1
62
4
5
28b
100
AcDbEntity
100
AcDbLine
10
116.299231
20
111.755751
30
0.0
11
116.560294
21
111.845505
31
0.0
0
LINE
8
Layer 1
62
4
5
28c
100
AcDbEntity
100
AcDbLine
10
116.560294
20
111.845505
30
0.0
11
117.747071
21
111.791898
31
0.0
0
LINE
8
Layer 1
62
4
5
28d
100
AcDbEntity
100
AcDbLine
10
117.747071
20
111.791898
30
0.0
11
119.305963
21
111.403644
31
0.0
0
LINE
8
Layer 1
62
4
5
28e
100
AcDbEntity
100
AcDbLine
10
119.305963
20
111.403644
30
0.0
11
120.169850
21
110.893472
31
0.0
0
LINE
8
Layer 1
62
4
5
28f
100
AcDbEntity
100
AcDbLine
10
120.169850
20
110.893472
30
0.0
11
120.318068
21
110.536251
31
0.0
0
LINE
8
Layer 1
62
4
5
290
100
AcDbEntity
100
AcDbLine
10
120.318068
20
110.536251
30
0.0
11
120.101255
21
110.402300
31
0.0
0
LINE
8
Layer 1
62
4
5
291
100
AcDbEntity
100
AcDbLine
10
120.101255
20
110.402300
30
0.0
11
118.097404
21
110.777659
31
0.0
0
LINE
8
Layer 1
62
4
5
292
100
AcDbEntity
100
AcDbLine
10
118.097404
20
110.777659
30
0.0
11
118.097404
21
110.777659
31
0.0
0
LINE
8
Layer 1
62
4
5
293
100
AcDbEntity
100
AcDbLine
10
121.640038
20
110.743380
30
0.0
11
122.483521
21
110.883775
31
0.0
0
LINE
8
Layer 1
62
4
5
294
100
AcDbEntity
100
AcDbLine
10
122.483521
20
110.883775
30
0.0
11
123.327005
21
110.743380
31
0.0
0
LINE
8
Layer 1
62
4
5
295
100
AcDbEntity
100
AcDbLine
10
123.327005
20
110.743380
30
0.0
11
123.521402
21
110.611228
31
0.0
0
LINE
8
Layer 1
62
4
5
296
100
AcDbEntity
100
AcDbLine
10
123.521402
20
110.611228
30
0.0
11
123.427169
21
110.503005
31
0.0
0
LINE
8
Layer 1
62
4
5
297
100
AcDbEntity
100
AcDbLine
10
123.427169
20
110.503005
30
0.0
11
122.483522
21
110.403023
31
0.0
0
LINE
8
Layer 1
62
4
5
298
100
AcDbEntity
100
AcDbLine
10
122.483522
20
110.403023
30
0.0
11
121.539873
21
110.503005
31
0.0
0
LINE
8
Layer 1
62
4
5
299
100
AcDbEntity
100
AcDbLine
10
121.539873
20
110.503005
30
0.0
11
121.445641
21
110.611228
31
0.0
0
LINE
8
Layer 1
62
4
5
29a
100
AcDbEntity
100
AcDbLine
10
121.445641
20
110.611228
30
0.0
11
121.640038
21
110.743380
31
0.0
0
LINE
8
Layer 1
62
4
5
29b
100
AcDbEntity
100
AcDbLine
10
121.640038
20
110.743380
30
0.0
11
121.640038
21
110.743380
31
0.0
0
LINE
8
Layer 1
62
4
5
29c
100
AcDbEntity
100
AcDbLine
10
124.507882
20
111.476834
30
0.0
11
125.152092
21
112.244409
31
0.0
0
LINE
8
Layer 1
62
4
5
29d
100
AcDbEntity
100
AcDbLine
10
125.152092
20
112.244409
30
0.0
11
126.700940
21
113.313245
31
0.0
0
LINE
8
Layer 1
62
4
5
29e
100
AcDbEntity
100
AcDbLine
10
126.700940
20
113.313245
30
0.0
11
128.363999
21
114.182999
31
0.0
0
LINE
8
Layer 1
62
4
5
29f
100
AcDbEntity
100
AcDbLine
10
128.363999
20
114.182999
30
0.0
11
128.373980
21
114.002973
31
0.0
0
LINE
8
Layer 1
62
4
5
2a0
100
AcDbEntity
100
AcDbLine
10
128.373980
20
114.002973
30
0.0
11
127.937314
21
113.421892
31
0.0
0
LINE
8
Layer 1
62
4
5
2a1
100
AcDbEntity
100
AcDbLine
10
127.937314
20
113.421892
30
0.0
11
126.912023
21
112.409185
31
0.0
0
LINE
8
Layer 1
62
4
5
2a2
100
AcDbEntity
100
AcDbLine
10
126.912023
20
112.409185
30
0.0
11
125.787538
21
111.627682
31
0.0
0
LINE
8
Layer 1
62
4
5
2a3
100
AcDbEntity
100
AcDbLine
10
125.787538
20
111.627682
30
0.0
11
124.880583
21
111.257021
31
0.0
0
LINE
8
Layer 1
62
4
5
2a4
100
AcDbEntity
100
AcDbLine
10
124.880583
20
111.257021
30
0.0
11
124.607656
21
111.281891
31
0.0
0
LINE
8
Layer 1
62
4
5
2a5
100
AcDbEntity
100
AcDbLine
10
124.607656
20
111.281891
30
0.0
11
124.507882
21
111.476834
31
0.0
0
LINE
8
Layer 1
62
4
5
2a6
100
AcDbEntity
100
AcDbLine
10
124.507882
20
111.476834
30
0.0
11
124.507882
21
111.476834
31
0.0
0
LINE
8
Layer 1
62
4
5
2a7
100
AcDbEntity
100
AcDbLine
10
111.012142
20
116.369571
30
0.0
11
110.601149
21
117.322709
31
0.0
0
LINE
8
Layer 1
62
4
5
2a8
100
AcDbEntity
100
AcDbLine
10
110.601149
20
117.322709
30
0.0
11
110.627267
21
117.719146
31
0.0
0
LINE
8
Layer 1
62
4
5
2a9
100
AcDbEntity
100
AcDbLine
10
110.627267
20
117.719146
30
0.0
11
111.077717
21
117.322709
31
0.0
0
LINE
8
Layer 1
62
4
5
2aa
100
AcDbEntity
100
AcDbLine
10
111.077717
20
117.322709
30
0.0
11
111.686930
21
116.369571
31
0.0
0
LINE
8
Layer 1
62
4
5
2ab
100
AcDbEntity
100
AcDbLine
10
111.686930
20
116.369571
30
0.0
11
112.097924
21
115.416435
31
0.0
0
LINE
8
Layer 1
62
4
5
2ac
100
AcDbEntity
100
AcDbLine
10
112.097924
20
115.416435
30
0.0
11
112.071808
21
115.019998
31
0.0
0
LINE
8
Layer 1
62
4
5
2ad
100
AcDbEntity
100
AcDbLine
10
112.071808
20
115.019998
30
0.0
11
111.621356
21
115.416435
31
0.0
0
LINE
8
Layer 1
62
4
5
2ae
100
AcDbEntity
100
AcDbLine
10
111.621356
20
115.416435
30
0.0
11
111.012142
21
116.369571
31
0.0
0
LINE
8
Layer 1
62
4
5
2af
100
AcDbEntity
100
AcDbLine
10
111.012142
20
116.369571
30
0.0
11
111.012142
21
116.369571
31
0.0
0
LINE
8
Layer 1
62
4
5
2b0
100
AcDbEntity
100
AcDbLine
10
131.030777
20
116.927538
30
0.0
11
132.184743
21
118.745562
31
0.0
0
LINE
8
Layer 1
62
4
5
2b1
100
AcDbEntity
100
AcDbLine
10
132.184743
20
118.745562
30
0.0
11
133.221891
21
119.964080
31
0.0
0
LINE
8
Layer 1
62
4
5
2b2
100
AcDbEntity
100
AcDbLine
10
133.221891
20
119.964080
30
0.0
11
133.858060
21
120.360081
31
0.0
0
LINE
8
Layer 1
62
4
5
2b3
100
AcDbEntity
100
AcDbLine
10
133.858060
20
120.360081
30
0.0
11
133.409786
21
119.406113
31
0.0
0
LINE
8
Layer 1
62
4
5
2b4
100
AcDbEntity
100
AcDbLine
10
133.409786
20
119.406113
30
0.0
11
131.218672
21
116.369571
31
0.0
0
LINE
8
Layer 1
62
4
5
2b5
100
AcDbEntity
100
AcDbLine
10
131.218672
20
116.369571
30
0.0
11
129.793625
21
114.682604
31
0.0
0
LINE
8
Layer 1
62
4
5
2b6
100
AcDbEntity
100
AcDbLine
10
129.793625
20
114.682604
30
0.0
11
131.030777
21
116.927538
31
0.0
0
LINE
8
Layer 1
62
4
5
2b7
100
AcDbEntity
100
AcDbLine
10
131.030777
20
116.927538
30
0.0
11
131.030777
21
116.927538
31
0.0
0
LINE
8
Layer 1
62
4
5
2b8
100
AcDbEntity
100
AcDbLine
10
108.312994
20
123.117442
30
0.0
11
107.902001
21
124.070577
31
0.0
0
LINE
8
Layer 1
62
4
5
2b9
100
AcDbEntity
100
AcDbLine
10
107.902001
20
124.070577
30
0.0
11
107.928119
21
124.467015
31
0.0
0
LINE
8
Layer 1
62
4
5
2ba
100
AcDbEntity
100
AcDbLine
10
107.928119
20
124.467015
30
0.0
11
108.378569
21
124.070577
31
0.0
0
LINE
8
Layer 1
62
4
5
2bb
100
AcDbEntity
100
AcDbLine
10
108.378569
20
124.070577
30
0.0
11
108.987782
21
123.117442
31
0.0
0
LINE
8
Layer 1
62
4
5
2bc
100
AcDbEntity
100
AcDbLine
10
108.987782
20
123.117442
30
0.0
11
109.398776
21
122.164304
31
0.0
0
LINE
8
Layer 1
62
4
5
2bd
100
AcDbEntity
100
AcDbLine
10
109.398776
20
122.164304
30
0.0
11
109.372660
21
121.767867
31
0.0
0
LINE
8
Layer 1
62
4
5
2be
100
AcDbEntity
100
AcDbLine
10
109.372660
20
121.767867
30
0.0
11
108.922208
21
122.164304
31
0.0
0
LINE
8
Layer 1
62
4
5
2bf
100
AcDbEntity
100
AcDbLine
10
108.922208
20
122.164304
30
0.0
11
108.312994
21
123.117442
31
0.0
0
LINE
8
Layer 1
62
4
5
2c0
100
AcDbEntity
100
AcDbLine
10
108.312994
20
123.117442
30
0.0
11
108.312994
21
123.117442
31
0.0
0
LINE
8
Layer 1
62
4
5
2c1
100
AcDbEntity
100
AcDbLine
10
134.707283
20
123.792227
30
0.0
11
135.304474
21
126.491375
31
0.0
0
LINE
8
Layer 1
62
4
5
2c2
100
AcDbEntity
100
AcDbLine
10
135.304474
20
126.491375
30
0.0
11
135.844734
21
128.178344
31
0.0
0
LINE
8
Layer 1
62
4
5
2c3
100
AcDbEntity
100
AcDbLine
10
135.844734
20
128.178344
30
0.0
11
135.901667
21
126.491375
31
0.0
0
LINE
8
Layer 1
62
4
5
2c4
100
AcDbEntity
100
AcDbLine
10
135.901667
20
126.491375
30
0.0
11
135.749725
21
125.002627
31
0.0
0
LINE
8
Layer 1
62
4
5
2c5
100
AcDbEntity
100
AcDbLine
10
135.749725
20
125.002627
30
0.0
11
135.304476
21
123.792227
31
0.0
0
LINE
8
Layer 1
62
4
5
2c6
100
AcDbEntity
100
AcDbLine
10
135.304476
20
123.792227
30
0.0
11
134.768863
21
123.117442
31
0.0
0
LINE
8
Layer 1
62
4
5
2c7
100
AcDbEntity
100
AcDbLine
10
134.768863
20
123.117442
30
0.0
11
134.707283
21
123.792227
31
0.0
0
LINE
8
Layer 1
62
4
5
2c8
100
AcDbEntity
100
AcDbLine
10
134.707283
20
123.792227
30
0.0
11
134.707283
21
123.792227
31
0.0
0
LINE
8
Layer 1
62
4
5
2c9
100
AcDbEntity
100
AcDbLine
10
107.094974
20
130.202704
30
0.0
11
107.176038
21
131.388406
31
0.0
0
LINE
8
Layer 1
62
4
5
2ca
100
AcDbEntity
100
AcDbLine
10
107.176038
20
131.388406
30
0.0
11
107.277524
21
131.559209
31
0.0
0
LINE
8
Layer 1
62
4
5
2cb
100
AcDbEntity
100
AcDbLine
10
107.277524
20
131.559209
30
0.0
11
107.406039
21
131.396422
31
0.0
0
LINE
8
Layer 1
62
4
5
2cc
100
AcDbEntity
100
AcDbLine
10
107.406039
20
131.396422
30
0.0
11
107.552013
21
130.459128
31
0.0
0
LINE
8
Layer 1
62
4
5
2cd
100
AcDbEntity
100
AcDbLine
10
107.552013
20
130.459128
30
0.0
11
107.431044
21
129.372062
31
0.0
0
LINE
8
Layer 1
62
4
5
2ce
100
AcDbEntity
100
AcDbLine
10
107.431044
20
129.372062
30
0.0
11
107.308290
21
129.068297
31
0.0
0
LINE
8
Layer 1
62
4
5
2cf
100
AcDbEntity
100
AcDbLine
10
107.308290
20
129.068297
30
0.0
11
107.204008
21
129.123653
31
0.0
0
LINE
8
Layer 1
62
4
5
2d0
100
AcDbEntity
100
AcDbLine
10
107.204008
20
129.123653
30
0.0
11
107.094974
21
130.202704
31
0.0
0
LINE
8
Layer 1
62
4
5
2d1
100
AcDbEntity
100
AcDbLine
10
107.094974
20
130.202704
30
0.0
11
107.094974
21
130.202704
31
0.0
0
LINE
8
Layer 1
62
4
5
2d2
100
AcDbEntity
100
AcDbLine
10
136.347022
20
132.733154
30
0.0
11
136.876099
21
134.003652
31
0.0
0
LINE
8
Layer 1
62
4
5
2d3
100
AcDbEntity
100
AcDbLine
10
136.876099
20
134.003652
30
0.0
11
137.503989
21
134.926212
31
0.0
0
LINE
8
Layer 1
62
4
5
2d4
100
AcDbEntity
100
AcDbLine
10
137.503989
20
134.926212
30
0.0
11
137.787684
21
135.151262
31
0.0
0
LINE
8
Layer 1
62
4
5
2d5
100
AcDbEntity
100
AcDbLine
10
137.787684
20
135.151262
30
0.0
11
137.925083
21
135.134358
31
0.0
0
LINE
8
Layer 1
62
4
5
2d6
100
AcDbEntity
100
AcDbLine
10
137.925083
20
135.134358
30
0.0
11
137.765542
21
134.364935
31
0.0
0
LINE
8
Layer 1
62
4
5
2d7
100
AcDbEntity
100
AcDbLine
10
137.765542
20
134.364935
30
0.0
11
137.457116
21
133.210845
31
0.0
0
LINE
8
Layer 1
62
4
5
2d8
100
AcDbEntity
100
AcDbLine
10
137.457116
20
133.210845
30
0.0
11
137.328834
21
132.171873
31
0.0
0
LINE
8
Layer 1
62
4
5
2d9
100
AcDbEntity
100
AcDbLine
10
137.328834
20
132.171873
30
0.0
11
137.117258
21
131.496001
31
0.0
0
LINE
8
Layer 1
62
4
5
2da
100
AcDbEntity
100
AcDbLine
10
137.117258
20
131.496001
30
0.0
11
136.608574
21
131.214883
31
0.0
0
LINE
8
Layer 1
62
4
5
2db
100
AcDbEntity
100
AcDbLine
10
136.608574
20
131.214883
30
0.0
11
136.346261
21
131.323761
31
0.0
0
LINE
8
Layer 1
62
4
5
2dc
100
AcDbEntity
100
AcDbLine
10
136.346261
20
131.323761
30
0.0
11
136.212018
21
131.631747
31
0.0
0
LINE
8
Layer 1
62
4
5
2dd
100
AcDbEntity
100
AcDbLine
10
136.212018
20
131.631747
30
0.0
11
136.347022
21
132.733154
31
0.0
0
LINE
8
Layer 1
62
4
5
2de
100
AcDbEntity
100
AcDbLine
10
136.347022
20
132.733154
30
0.0
11
136.347022
21
132.733154
31
0.0
0
LINE
8
Layer 1
62
4
5
2df
100
AcDbEntity
100
AcDbLine
10
161.456658
20
100.680775
30
0.0
11
161.509524
21
101.054439
31
0.0
0
LINE
8
Layer 1
62
4
5
2e0
100
AcDbEntity
100
AcDbLine
10
161.509524
20
101.054439
30
0.0
11
161.398575
21
101.308990
31
0.0
0
LINE
8
Layer 1
62
4
5
2e1
100
AcDbEntity
100
AcDbLine
10
161.398575
20
101.308990
30
0.0
11
160.777506
21
101.468420
31
0.0
0
LINE
8
Layer 1
62
4
5
2e2
100
AcDbEntity
100
AcDbLine
10
160.777506
20
101.468420
30
0.0
11
159.778004
21
101.174393
31
0.0
0
LINE
8
Layer 1
62
4
5
2e3
100
AcDbEntity
100
AcDbLine
10
159.778004
20
101.174393
30
0.0
11
158.584623
21
100.442238
31
0.0
0
LINE
8
Layer 1
62
4
5
2e4
100
AcDbEntity
100
AcDbLine
10
158.584623
20
100.442238
30
0.0
11
157.866284
21
99.862101
31
0.0
0
LINE
8
Layer 1
62
4
5
2e5
100
AcDbEntity
100
AcDbLine
10
157.866284
20
99.862101
30
0.0
11
157.695992
21
99.577438
31
0.0
0
LINE
8
Layer 1
62
4
5
2e6
100
AcDbEntity
100
AcDbLine
10
157.695992
20
99.577438
30
0.0
11
158.125703
21
99.519669
31
0.0
0
LINE
8
Layer 1
62
4
5
2e7
100
AcDbEntity
100
AcDbLine
10
158.125703
20
99.519669
30
0.0
11
159.207369
21
99.620212
31
0.0
0
LINE
8
Layer 1
62
4
5
2e8
100
AcDbEntity
100
AcDbLine
10
159.207369
20
99.620212
30
0.0
11
160.681684
21
100.021296
31
0.0
0
LINE
8
Layer 1
62
4
5
2e9
100
AcDbEntity
100
AcDbLine
10
160.681684
20
100.021296
30
0.0
11
161.193491
21
100.336136
31
0.0
0
LINE
8
Layer 1
62
4
5
2ea
100
AcDbEntity
100
AcDbLine
10
161.193491
20
100.336136
30
0.0
11
161.456658
21
100.680775
31
0.0
0
LINE
8
Layer 1
62
4
5
2eb
100
AcDbEntity
100
AcDbLine
10
161.456658
20
100.680775
30
0.0
11
161.456658
21
100.680775
31
0.0
0
LINE
8
Layer 1
62
4
5
2ec
100
AcDbEntity
100
AcDbLine
10
175.116902
20
115.374720
30
0.0
11
175.116902
21
131.249540
31
0.0
0
LINE
8
Layer 1
62
4
5
2ed
100
AcDbEntity
100
AcDbLine
10
175.116902
20
131.249540
30
0.0
11
173.135330
21
130.224830
31
0.0
0
LINE
8
Layer 1
62
4
5
2ee
100
AcDbEntity
100
AcDbLine
10
173.135330
20
130.224830
30
0.0
11
171.575593
21
129.251946
31
0.0
0
LINE
8
Layer 1
62
4
5
2ef
100
AcDbEntity
100
AcDbLine
10
171.575593
20
129.251946
30
0.0
11
170.608219
21
128.351837
31
0.0
0
LINE
8
Layer 1
62
4
5
2f0
100
AcDbEntity
100
AcDbLine
10
170.608219
20
128.351837
30
0.0
11
170.110978
21
126.496401
31
0.0
0
LINE
8
Layer 1
62
4
5
2f1
100
AcDbEntity
100
AcDbLine
10
170.110978
20
126.496401
30
0.0
11
169.613368
21
122.514175
31
0.0
0
LINE
8
Layer 1
62
4
5
2f2
100
AcDbEntity
100
AcDbLine
10
169.613368
20
122.514175
30
0.0
11
169.122083
21
116.473027
31
0.0
0
LINE
8
Layer 1
62
4
5
2f3
100
AcDbEntity
100
AcDbLine
10
169.122083
20
116.473027
30
0.0
11
168.643819
21
108.440825
31
0.0
0
LINE
8
Layer 1
62
4
5
2f4
100
AcDbEntity
100
AcDbLine
10
168.643819
20
108.440825
30
0.0
11
168.177645
21
99.499898
31
0.0
0
LINE
8
Layer 1
62
4
5
2f5
100
AcDbEntity
100
AcDbLine
10
168.177645
20
99.499898
30
0.0
11
171.647276
21
99.499898
31
0.0
0
LINE
8
Layer 1
62
4
5
2f6
100
AcDbEntity
100
AcDbLine
10
171.647276
20
99.499898
30
0.0
11
175.116902
21
99.499898
31
0.0
0
LINE
8
Layer 1
62
4
5
2f7
100
AcDbEntity
100
AcDbLine
10
175.116902
20
99.499898
30
0.0
11
175.116902
21
115.374720
31
0.0
0
LINE
8
Layer 1
62
4
5
2f8
100
AcDbEntity
100
AcDbLine
10
175.116902
20
115.374720
30
0.0
11
175.116902
21
115.374720
31
0.0
0
LINE
8
Layer 1
62
4
5
2f9
100
AcDbEntity
100
AcDbLine
10
175.116902
20
139.649721
30
0.0
11
175.007679
21
141.794278
31
0.0
0
LINE
8
Layer 1
62
4
5
2fa
100
AcDbEntity
100
AcDbLine
10
175.007679
20
141.794278
30
0.0
11
174.745074
21
142.686262
31
0.0
0
LINE
8
Layer 1
62
4
5
2fb
100
AcDbEntity
100
AcDbLine
10
174.745074
20
142.686262
30
0.0
11
174.196654
21
141.988459
31
0.0
0
LINE
8
Layer 1
62
4
5
2fc
100
AcDbEntity
100
AcDbLine
10
174.196654
20
141.988459
30
0.0
11
173.417168
21
140.377401
31
0.0
0
LINE
8
Layer 1
62
4
5
2fd
100
AcDbEntity
100
AcDbLine
10
173.417168
20
140.377401
30
0.0
11
172.719806
21
138.576619
31
0.0
0
LINE
8
Layer 1
62
4
5
2fe
100
AcDbEntity
100
AcDbLine
10
172.719806
20
138.576619
30
0.0
11
172.417754
21
137.309641
31
0.0
0
LINE
8
Layer 1
62
4
5
2ff
100
AcDbEntity
100
AcDbLine
10
172.417754
20
137.309641
30
0.0
11
172.524244
21
137.039218
31
0.0
0
LINE
8
Layer 1
62
4
5
300
100
AcDbEntity
100
AcDbLine
10
172.524244
20
137.039218
30
0.0
11
172.814192
21
136.817765
31
0.0
0
LINE
8
Layer 1
62
4
5
301
100
AcDbEntity
100
AcDbLine
10
172.814192
20
136.817765
30
0.0
11
173.767329
21
136.613179
31
0.0
0
LINE
8
Layer 1
62
4
5
302
100
AcDbEntity
100
AcDbLine
10
173.767329
20
136.613179
30
0.0
11
174.463202
21
136.723886
31
0.0
0
LINE
8
Layer 1
62
4
5
303
100
AcDbEntity
100
AcDbLine
10
174.463202
20
136.723886
30
0.0
11
174.873229
21
137.161444
31
0.0
0
LINE
8
Layer 1
62
4
5
304
100
AcDbEntity
100
AcDbLine
10
174.873229
20
137.161444
30
0.0
11
175.067699
21
138.084004
31
0.0
0
LINE
8
Layer 1
62
4
5
305
100
AcDbEntity
100
AcDbLine
10
175.067699
20
138.084004
30
0.0
11
175.116902
21
139.649721
31
0.0
0
LINE
8
Layer 1
62
4
5
306
100
AcDbEntity
100
AcDbLine
10
175.116902
20
139.649721
30
0.0
11
175.116902
21
139.649721
31
0.0
0
LINE
8
Layer 1
62
4
5
307
100
AcDbEntity
100
AcDbLine
10
125.929923
20
151.510093
30
0.0
11
127.226321
21
152.650687
31
0.0
0
LINE
8
Layer 1
62
4
5
308
100
AcDbEntity
100
AcDbLine
10
127.226321
20
152.650687
30
0.0
11
127.548053
21
153.115188
31
0.0
0
LINE
8
Layer 1
62
4
5
309
100
AcDbEntity
100
AcDbLine
10
127.548053
20
153.115188
30
0.0
11
127.579953
21
153.425365
31
0.0
0
LINE
8
Layer 1
62
4
5
30a
100
AcDbEntity
100
AcDbLine
10
127.579953
20
153.425365
30
0.0
11
127.148248
21
153.629052
31
0.0
0
LINE
8
Layer 1
62
4
5
30b
100
AcDbEntity
100
AcDbLine
10
127.148248
20
153.629052
30
0.0
11
126.207692
21
153.803606
31
0.0
0
LINE
8
Layer 1
62
4
5
30c
100
AcDbEntity
100
AcDbLine
10
126.207692
20
153.803606
30
0.0
11
123.354600
21
153.991069
31
0.0
0
LINE
8
Layer 1
62
4
5
30d
100
AcDbEntity
100
AcDbLine
10
123.354600
20
153.991069
30
0.0
11
120.099296
21
154.230056
31
0.0
0
LINE
8
Layer 1
62
4
5
30e
100
AcDbEntity
100
AcDbLine
10
120.099296
20
154.230056
30
0.0
11
117.760013
21
154.732173
31
0.0
0
LINE
8
Layer 1
62
4
5
30f
100
AcDbEntity
100
AcDbLine
10
117.760013
20
154.732173
30
0.0
11
116.978713
21
155.097860
31
0.0
0
LINE
8
Layer 1
62
4
5
310
100
AcDbEntity
100
AcDbLine
10
116.978713
20
155.097860
30
0.0
11
116.857058
21
155.221704
31
0.0
0
LINE
8
Layer 1
62
4
5
311
100
AcDbEntity
100
AcDbLine
10
116.857058
20
155.221704
30
0.0
11
116.931675
21
155.313670
31
0.0
0
LINE
8
Layer 1
62
4
5
312
100
AcDbEntity
100
AcDbLine
10
116.931675
20
155.313670
30
0.0
11
119.446980
21
155.474601
31
0.0
0
LINE
8
Layer 1
62
4
5
313
100
AcDbEntity
100
AcDbLine
10
119.446980
20
155.474601
30
0.0
11
122.029657
21
155.706052
31
0.0
0
LINE
8
Layer 1
62
4
5
314
100
AcDbEntity
100
AcDbLine
10
122.029657
20
155.706052
30
0.0
11
124.690222
21
156.243522
31
0.0
0
LINE
8
Layer 1
62
4
5
315
100
AcDbEntity
100
AcDbLine
10
124.690222
20
156.243522
30
0.0
11
126.947189
21
156.963858
31
0.0
0
LINE
8
Layer 1
62
4
5
316
100
AcDbEntity
100
AcDbLine
10
126.947189
20
156.963858
30
0.0
11
128.319076
21
157.743905
31
0.0
0
LINE
8
Layer 1
62
4
5
317
100
AcDbEntity
100
AcDbLine
10
128.319076
20
157.743905
30
0.0
11
128.195692
21
157.890917
31
0.0
0
LINE
8
Layer 1
62
4
5
318
100
AcDbEntity
100
AcDbLine
10
128.195692
20
157.890917
30
0.0
11
127.558335
21
158.021517
31
0.0
0
LINE
8
Layer 1
62
4
5
319
100
AcDbEntity
100
AcDbLine
10
127.558335
20
158.021517
30
0.0
11
124.989538
21
158.221937
31
0.0
0
LINE
8
Layer 1
62
4
5
31a
100
AcDbEntity
100
AcDbLine
10
124.989538
20
158.221937
30
0.0
11
116.410438
21
158.298813
31
0.0
0
LINE
8
Layer 1
62
4
5
31b
100
AcDbEntity
100
AcDbLine
10
116.410438
20
158.298813
30
0.0
11
114.631415
21
158.342082
31
0.0
0
LINE
8
Layer 1
62
4
5
31c
100
AcDbEntity
100
AcDbLine
10
114.631415
20
158.342082
30
0.0
11
115.878929
21
158.840075
31
0.0
0
LINE
8
Layer 1
62
4
5
31d
100
AcDbEntity
100
AcDbLine
10
115.878929
20
158.840075
30
0.0
11
117.019413
21
159.045225
31
0.0
0
LINE
8
Layer 1
62
4
5
31e
100
AcDbEntity
100
AcDbLine
10
117.019413
20
159.045225
30
0.0
11
118.771714
21
159.170945
31
0.0
0
LINE
8
Layer 1
62
4
5
31f
100
AcDbEntity
100
AcDbLine
10
118.771714
20
159.170945
30
0.0
11
123.156576
21
159.144181
31
0.0
0
LINE
8
Layer 1
62
4
5
320
100
AcDbEntity
100
AcDbLine
10
123.156576
20
159.144181
30
0.0
11
126.238216
21
159.026347
31
0.0
0
LINE
8
Layer 1
62
4
5
321
100
AcDbEntity
100
AcDbLine
10
126.238216
20
159.026347
30
0.0
11
128.066600
21
159.157570
31
0.0
0
LINE
8
Layer 1
62
4
5
322
100
AcDbEntity
100
AcDbLine
10
128.066600
20
159.157570
30
0.0
11
129.217642
21
159.660415
31
0.0
0
LINE
8
Layer 1
62
4
5
323
100
AcDbEntity
100
AcDbLine
10
129.217642
20
159.660415
30
0.0
11
130.267258
21
160.657445
31
0.0
0
LINE
8
Layer 1
62
4
5
324
100
AcDbEntity
100
AcDbLine
10
130.267258
20
160.657445
30
0.0
11
131.441950
21
162.206372
31
0.0
0
LINE
8
Layer 1
62
4
5
325
100
AcDbEntity
100
AcDbLine
10
131.441950
20
162.206372
30
0.0
11
131.930538
21
163.410159
31
0.0
0
LINE
8
Layer 1
62
4
5
326
100
AcDbEntity
100
AcDbLine
10
131.930538
20
163.410159
30
0.0
11
132.172419
21
164.519713
31
0.0
0
LINE
8
Layer 1
62
4
5
327
100
AcDbEntity
100
AcDbLine
10
132.172419
20
164.519713
30
0.0
11
132.753966
21
165.842076
31
0.0
0
LINE
8
Layer 1
62
4
5
328
100
AcDbEntity
100
AcDbLine
10
132.753966
20
165.842076
30
0.0
11
133.686262
21
167.721118
31
0.0
0
LINE
8
Layer 1
62
4
5
329
100
AcDbEntity
100
AcDbLine
10
133.686262
20
167.721118
30
0.0
11
134.428240
21
169.714895
31
0.0
0
LINE
8
Layer 1
62
4
5
32a
100
AcDbEntity
100
AcDbLine
10
134.428240
20
169.714895
30
0.0
11
134.861107
21
171.663097
31
0.0
0
LINE
8
Layer 1
62
4
5
32b
100
AcDbEntity
100
AcDbLine
10
134.861107
20
171.663097
30
0.0
11
134.866070
21
173.405412
31
0.0
0
LINE
8
Layer 1
62
4
5
32c
100
AcDbEntity
100
AcDbLine
10
134.866070
20
173.405412
30
0.0
11
134.619365
21
173.488851
31
0.0
0
LINE
8
Layer 1
62
4
5
32d
100
AcDbEntity
100
AcDbLine
10
134.619365
20
173.488851
30
0.0
11
134.050829
21
173.421711
31
0.0
0
LINE
8
Layer 1
62
4
5
32e
100
AcDbEntity
100
AcDbLine
10
134.050829
20
173.421711
30
0.0
11
132.651909
21
173.009609
31
0.0
0
LINE
8
Layer 1
62
4
5
32f
100
AcDbEntity
100
AcDbLine
10
132.651909
20
173.009609
30
0.0
11
131.845051
21
172.809144
31
0.0
0
LINE
8
Layer 1
62
4
5
330
100
AcDbEntity
100
AcDbLine
10
131.845051
20
172.809144
30
0.0
11
130.920123
21
172.739005
31
0.0
0
LINE
8
Layer 1
62
4
5
331
100
AcDbEntity
100
AcDbLine
10
130.920123
20
172.739005
30
0.0
11
129.786679
21
172.875638
31
0.0
0
LINE
8
Layer 1
62
4
5
332
100
AcDbEntity
100
AcDbLine
10
129.786679
20
172.875638
30
0.0
11
129.741160
21
173.135682
31
0.0
0
LINE
8
Layer 1
62
4
5
333
100
AcDbEntity
100
AcDbLine
10
129.741160
20
173.135682
30
0.0
11
129.881215
21
173.261879
31
0.0
0
LINE
8
Layer 1
62
4
5
334
100
AcDbEntity
100
AcDbLine
10
129.881215
20
173.261879
30
0.0
11
130.478277
21
173.352798
31
0.0
0
LINE
8
Layer 1
62
4
5
335
100
AcDbEntity
100
AcDbLine
10
130.478277
20
173.352798
30
0.0
11
131.098327
21
173.628527
31
0.0
0
LINE
8
Layer 1
62
4
5
336
100
AcDbEntity
100
AcDbLine
10
131.098327
20
173.628527
30
0.0
11
131.267116
21
173.985737
31
0.0
0
LINE
8
Layer 1
62
4
5
337
100
AcDbEntity
100
AcDbLine
10
131.267116
20
173.985737
30
0.0
11
131.261824
21
174.569198
31
0.0
0
LINE
8
Layer 1
62
4
5
338
100
AcDbEntity
100
AcDbLine
10
131.261824
20
174.569198
30
0.0
11
131.078326
21
174.835151
31
0.0
0
LINE
8
Layer 1
62
4
5
339
100
AcDbEntity
100
AcDbLine
10
131.078326
20
174.835151
30
0.0
11
130.691335
21
174.981983
31
0.0
0
LINE
8
Layer 1
62
4
5
33a
100
AcDbEntity
100
AcDbLine
10
130.691335
20
174.981983
30
0.0
11
129.661435
21
175.009111
31
0.0
0
LINE
8
Layer 1
62
4
5
33b
100
AcDbEntity
100
AcDbLine
10
129.661435
20
175.009111
30
0.0
11
128.635516
21
174.861969
31
0.0
0
LINE
8
Layer 1
62
4
5
33c
100
AcDbEntity
100
AcDbLine
10
128.635516
20
174.861969
30
0.0
11
128.469159
21
174.709191
31
0.0
0
LINE
8
Layer 1
62
4
5
33d
100
AcDbEntity
100
AcDbLine
10
128.469159
20
174.709191
30
0.0
11
128.657239
21
174.483079
31
0.0
0
LINE
8
Layer 1
62
4
5
33e
100
AcDbEntity
100
AcDbLine
10
128.657239
20
174.483079
30
0.0
11
128.694634
21
174.115929
31
0.0
0
LINE
8
Layer 1
62
4
5
33f
100
AcDbEntity
100
AcDbLine
10
128.694634
20
174.115929
30
0.0
11
128.509285
21
173.887595
31
0.0
0
LINE
8
Layer 1
62
4
5
340
100
AcDbEntity
100
AcDbLine
10
128.509285
20
173.887595
30
0.0
11
128.177361
21
173.723302
31
0.0
0
LINE
8
Layer 1
62
4
5
341
100
AcDbEntity
100
AcDbLine
10
128.177361
20
173.723302
30
0.0
11
127.731984
21
173.728076
31
0.0
0
LINE
8
Layer 1
62
4
5
342
100
AcDbEntity
100
AcDbLine
10
127.731984
20
173.728076
30
0.0
11
127.206276
21
174.006946
31
0.0
0
LINE
8
Layer 1
62
4
5
343
100
AcDbEntity
100
AcDbLine
10
127.206276
20
174.006946
30
0.0
11
127.128882
21
174.187883
31
0.0
0
LINE
8
Layer 1
62
4
5
344
100
AcDbEntity
100
AcDbLine
10
127.128882
20
174.187883
30
0.0
11
127.200924
21
174.404280
31
0.0
0
LINE
8
Layer 1
62
4
5
345
100
AcDbEntity
100
AcDbLine
10
127.200924
20
174.404280
30
0.0
11
127.412850
21
174.777698
31
0.0
0
LINE
8
Layer 1
62
4
5
346
100
AcDbEntity
100
AcDbLine
10
127.412850
20
174.777698
30
0.0
11
127.362502
21
174.851839
31
0.0
0
LINE
8
Layer 1
62
4
5
347
100
AcDbEntity
100
AcDbLine
10
127.362502
20
174.851839
30
0.0
11
127.081123
21
174.795681
31
0.0
0
LINE
8
Layer 1
62
4
5
348
100
AcDbEntity
100
AcDbLine
10
127.081123
20
174.795681
30
0.0
11
125.444812
21
174.126713
31
0.0
0
LINE
8
Layer 1
62
4
5
349
100
AcDbEntity
100
AcDbLine
10
125.444812
20
174.126713
30
0.0
11
124.116888
21
173.328414
31
0.0
0
LINE
8
Layer 1
62
4
5
34a
100
AcDbEntity
100
AcDbLine
10
124.116888
20
173.328414
30
0.0
11
123.437384
21
172.400729
31
0.0
0
LINE
8
Layer 1
62
4
5
34b
100
AcDbEntity
100
AcDbLine
10
123.437384
20
172.400729
30
0.0
11
123.245532
21
171.284140
31
0.0
0
LINE
8
Layer 1
62
4
5
34c
100
AcDbEntity
100
AcDbLine
10
123.245532
20
171.284140
30
0.0
11
123.380565
21
169.919129
31
0.0
0
LINE
8
Layer 1
62
4
5
34d
100
AcDbEntity
100
AcDbLine
10
123.380565
20
169.919129
30
0.0
11
123.431062
21
168.200565
31
0.0
0
LINE
8
Layer 1
62
4
5
34e
100
AcDbEntity
100
AcDbLine
10
123.431062
20
168.200565
30
0.0
11
123.281436
21
167.583532
31
0.0
0
LINE
8
Layer 1
62
4
5
34f
100
AcDbEntity
100
AcDbLine
10
123.281436
20
167.583532
30
0.0
11
123.029407
21
167.236322
31
0.0
0
LINE
8
Layer 1
62
4
5
350
100
AcDbEntity
100
AcDbLine
10
123.029407
20
167.236322
30
0.0
11
122.863348
21
167.199730
31
0.0
0
LINE
8
Layer 1
62
4
5
351
100
AcDbEntity
100
AcDbLine
10
122.863348
20
167.199730
30
0.0
11
122.730016
21
167.316896
31
0.0
0
LINE
8
Layer 1
62
4
5
352
100
AcDbEntity
100
AcDbLine
10
122.730016
20
167.316896
30
0.0
11
122.560694
21
168.020700
31
0.0
0
LINE
8
Layer 1
62
4
5
353
100
AcDbEntity
100
AcDbLine
10
122.560694
20
168.020700
30
0.0
11
122.605518
21
171.363591
31
0.0
0
LINE
8
Layer 1
62
4
5
354
100
AcDbEntity
100
AcDbLine
10
122.605518
20
171.363591
30
0.0
11
122.820451
21
173.789787
31
0.0
0
LINE
8
Layer 1
62
4
5
355
100
AcDbEntity
100
AcDbLine
10
122.820451
20
173.789787
30
0.0
11
123.166084
21
175.397621
31
0.0
0
LINE
8
Layer 1
62
4
5
356
100
AcDbEntity
100
AcDbLine
10
123.166084
20
175.397621
30
0.0
11
123.756482
21
176.519769
31
0.0
0
LINE
8
Layer 1
62
4
5
357
100
AcDbEntity
100
AcDbLine
10
123.756482
20
176.519769
30
0.0
11
124.705708
21
177.488905
31
0.0
0
LINE
8
Layer 1
62
4
5
358
100
AcDbEntity
100
AcDbLine
10
124.705708
20
177.488905
30
0.0
11
126.514964
21
179.045163
31
0.0
0
LINE
8
Layer 1
62
4
5
359
100
AcDbEntity
100
AcDbLine
10
126.514964
20
179.045163
30
0.0
11
124.563773
21
180.434534
31
0.0
0
LINE
8
Layer 1
62
4
5
35a
100
AcDbEntity
100
AcDbLine
10
124.563773
20
180.434534
30
0.0
11
123.071799
21
181.351442
31
0.0
0
LINE
8
Layer 1
62
4
5
35b
100
AcDbEntity
100
AcDbLine
10
123.071799
20
181.351442
30
0.0
11
121.855037
21
181.753495
31
0.0
0
LINE
8
Layer 1
62
4
5
35c
100
AcDbEntity
100
AcDbLine
10
121.855037
20
181.753495
30
0.0
11
120.840971
21
181.650413
31
0.0
0
LINE
8
Layer 1
62
4
5
35d
100
AcDbEntity
100
AcDbLine
10
120.840971
20
181.650413
30
0.0
11
119.957085
21
181.051915
31
0.0
0
LINE
8
Layer 1
62
4
5
35e
100
AcDbEntity
100
AcDbLine
10
119.957085
20
181.051915
30
0.0
11
119.611048
21
180.759665
31
0.0
0
LINE
8
Layer 1
62
4
5
35f
100
AcDbEntity
100
AcDbLine
10
119.611048
20
180.759665
30
0.0
11
119.435891
21
180.762570
31
0.0
0
LINE
8
Layer 1
62
4
5
360
100
AcDbEntity
100
AcDbLine
10
119.435891
20
180.762570
30
0.0
11
119.560797
21
181.716616
31
0.0
0
LINE
8
Layer 1
62
4
5
361
100
AcDbEntity
100
AcDbLine
10
119.560797
20
181.716616
30
0.0
11
119.708255
21
183.038481
31
0.0
0
LINE
8
Layer 1
62
4
5
362
100
AcDbEntity
100
AcDbLine
10
119.708255
20
183.038481
30
0.0
11
119.535200
21
184.199094
31
0.0
0
LINE
8
Layer 1
62
4
5
363
100
AcDbEntity
100
AcDbLine
10
119.535200
20
184.199094
30
0.0
11
119.268560
21
184.722003
31
0.0
0
LINE
8
Layer 1
62
4
5
364
100
AcDbEntity
100
AcDbLine
10
119.268560
20
184.722003
30
0.0
11
118.916192
21
184.886206
31
0.0
0
LINE
8
Layer 1
62
4
5
365
100
AcDbEntity
100
AcDbLine
10
118.916192
20
184.886206
30
0.0
11
118.342957
21
184.686522
31
0.0
0
LINE
8
Layer 1
62
4
5
366
100
AcDbEntity
100
AcDbLine
10
118.342957
20
184.686522
30
0.0
11
117.413715
21
184.117772
31
0.0
0
LINE
8
Layer 1
62
4
5
367
100
AcDbEntity
100
AcDbLine
10
117.413715
20
184.117772
30
0.0
11
116.302414
21
183.218179
31
0.0
0
LINE
8
Layer 1
62
4
5
368
100
AcDbEntity
100
AcDbLine
10
116.302414
20
183.218179
30
0.0
11
116.044960
21
182.863912
31
0.0
0
LINE
8
Layer 1
62
4
5
369
100
AcDbEntity
100
AcDbLine
10
116.044960
20
182.863912
30
0.0
11
116.046134
21
182.638069
31
0.0
0
LINE
8
Layer 1
62
4
5
36a
100
AcDbEntity
100
AcDbLine
10
116.046134
20
182.638069
30
0.0
11
116.081590
21
182.131719
31
0.0
0
LINE
8
Layer 1
62
4
5
36b
100
AcDbEntity
100
AcDbLine
10
116.081590
20
182.131719
30
0.0
11
115.671707
21
181.409460
31
0.0
0
LINE
8
Layer 1
62
4
5
36c
100
AcDbEntity
100
AcDbLine
10
115.671707
20
181.409460
30
0.0
11
115.270220
21
180.548363
31
0.0
0
LINE
8
Layer 1
62
4
5
36d
100
AcDbEntity
100
AcDbLine
10
115.270220
20
180.548363
30
0.0
11
115.429254
21
179.815146
31
0.0
0
LINE
8
Layer 1
62
4
5
36e
100
AcDbEntity
100
AcDbLine
10
115.429254
20
179.815146
30
0.0
11
116.034918
21
179.383325
31
0.0
0
LINE
8
Layer 1
62
4
5
36f
100
AcDbEntity
100
AcDbLine
10
116.034918
20
179.383325
30
0.0
11
116.973319
21
179.426417
31
0.0
0
LINE
8
Layer 1
62
4
5
370
100
AcDbEntity
100
AcDbLine
10
116.973319
20
179.426417
30
0.0
11
117.487035
21
179.489104
31
0.0
0
LINE
8
Layer 1
62
4
5
371
100
AcDbEntity
100
AcDbLine
10
117.487035
20
179.489104
30
0.0
11
117.741147
21
179.211503
31
0.0
0
LINE
8
Layer 1
62
4
5
372
100
AcDbEntity
100
AcDbLine
10
117.741147
20
179.211503
30
0.0
11
117.835082
21
177.406547
31
0.0
0
LINE
8
Layer 1
62
4
5
373
100
AcDbEntity
100
AcDbLine
10
117.835082
20
177.406547
30
0.0
11
118.108084
21
176.271165
31
0.0
0
LINE
8
Layer 1
62
4
5
374
100
AcDbEntity
100
AcDbLine
10
118.108084
20
176.271165
30
0.0
11
118.539215
21
175.386454
31
0.0
0
LINE
8
Layer 1
62
4
5
375
100
AcDbEntity
100
AcDbLine
10
118.539215
20
175.386454
30
0.0
11
118.760551
21
174.739307
31
0.0
0
LINE
8
Layer 1
62
4
5
376
100
AcDbEntity
100
AcDbLine
10
118.760551
20
174.739307
30
0.0
11
118.572625
21
174.461114
31
0.0
0
LINE
8
Layer 1
62
4
5
377
100
AcDbEntity
100
AcDbLine
10
118.572625
20
174.461114
30
0.0
11
117.945943
21
174.520662
31
0.0
0
LINE
8
Layer 1
62
4
5
378
100
AcDbEntity
100
AcDbLine
10
117.945943
20
174.520662
30
0.0
11
116.851015
21
174.886737
31
0.0
0
LINE
8
Layer 1
62
4
5
379
100
AcDbEntity
100
AcDbLine
10
116.851015
20
174.886737
30
0.0
11
116.421436
21
175.300751
31
0.0
0
LINE
8
Layer 1
62
4
5
37a
100
AcDbEntity
100
AcDbLine
10
116.421436
20
175.300751
30
0.0
11
115.991204
21
175.581935
31
0.0
0
LINE
8
Layer 1
62
4
5
37b
100
AcDbEntity
100
AcDbLine
10
115.991204
20
175.581935
30
0.0
11
115.285630
21
175.788629
31
0.0
0
LINE
8
Layer 1
62
4
5
37c
100
AcDbEntity
100
AcDbLine
10
115.285630
20
175.788629
30
0.0
11
115.037606
21
175.733628
31
0.0
0
LINE
8
Layer 1
62
4
5
37d
100
AcDbEntity
100
AcDbLine
10
115.037606
20
175.733628
30
0.0
11
114.828474
21
175.524166
31
0.0
0
LINE
8
Layer 1
62
4
5
37e
100
AcDbEntity
100
AcDbLine
10
114.828474
20
175.524166
30
0.0
11
114.520763
21
174.883311
31
0.0
0
LINE
8
Layer 1
62
4
5
37f
100
AcDbEntity
100
AcDbLine
10
114.520763
20
174.883311
30
0.0
11
114.315646
21
174.598856
31
0.0
0
LINE
8
Layer 1
62
4
5
380
100
AcDbEntity
100
AcDbLine
10
114.315646
20
174.598856
30
0.0
11
113.969554
21
174.390032
31
0.0
0
LINE
8
Layer 1
62
4
5
381
100
AcDbEntity
100
AcDbLine
10
113.969554
20
174.390032
30
0.0
11
113.560333
21
174.304845
31
0.0
0
LINE
8
Layer 1
62
4
5
382
100
AcDbEntity
100
AcDbLine
10
113.560333
20
174.304845
30
0.0
11
113.165831
21
174.391302
31
0.0
0
LINE
8
Layer 1
62
4
5
383
100
AcDbEntity
100
AcDbLine
10
113.165831
20
174.391302
30
0.0
11
112.624969
21
174.818459
31
0.0
0
LINE
8
Layer 1
62
4
5
384
100
AcDbEntity
100
AcDbLine
10
112.624969
20
174.818459
30
0.0
11
112.402172
21
175.455688
31
0.0
0
LINE
8
Layer 1
62
4
5
385
100
AcDbEntity
100
AcDbLine
10
112.402172
20
175.455688
30
0.0
11
112.286479
21
175.692274
31
0.0
0
LINE
8
Layer 1
62
4
5
386
100
AcDbEntity
100
AcDbLine
10
112.286479
20
175.692274
30
0.0
11
112.016819
21
175.783662
31
0.0
0
LINE
8
Layer 1
62
4
5
387
100
AcDbEntity
100
AcDbLine
10
112.016819
20
175.783662
30
0.0
11
109.992010
21
175.993079
31
0.0
0
LINE
8
Layer 1
62
4
5
388
100
AcDbEntity
100
AcDbLine
10
109.992010
20
175.993079
30
0.0
11
108.264486
21
175.761341
31
0.0
0
LINE
8
Layer 1
62
4
5
389
100
AcDbEntity
100
AcDbLine
10
108.264486
20
175.761341
30
0.0
11
107.422363
21
175.417304
31
0.0
0
LINE
8
Layer 1
62
4
5
38a
100
AcDbEntity
100
AcDbLine
10
107.422363
20
175.417304
30
0.0
11
107.102021
21
175.055745
31
0.0
0
LINE
8
Layer 1
62
4
5
38b
100
AcDbEntity
100
AcDbLine
10
107.102021
20
175.055745
30
0.0
11
106.907420
21
174.671162
31
0.0
0
LINE
8
Layer 1
62
4
5
38c
100
AcDbEntity
100
AcDbLine
10
106.907420
20
174.671162
30
0.0
11
106.541778
21
173.791125
31
0.0
0
LINE
8
Layer 1
62
4
5
38d
100
AcDbEntity
100
AcDbLine
10
106.541778
20
173.791125
30
0.0
11
106.244505
21
172.244181
31
0.0
0
LINE
8
Layer 1
62
4
5
38e
100
AcDbEntity
100
AcDbLine
10
106.244505
20
172.244181
30
0.0
11
105.887164
21
167.966104
31
0.0
0
LINE
8
Layer 1
62
4
5
38f
100
AcDbEntity
100
AcDbLine
10
105.887164
20
167.966104
30
0.0
11
105.899594
21
163.469997
31
0.0
0
LINE
8
Layer 1
62
4
5
390
100
AcDbEntity
100
AcDbLine
10
105.899594
20
163.469997
30
0.0
11
106.064534
21
161.650515
31
0.0
0
LINE
8
Layer 1
62
4
5
391
100
AcDbEntity
100
AcDbLine
10
106.064534
20
161.650515
30
0.0
11
106.345990
21
160.388925
31
0.0
0
LINE
8
Layer 1
62
4
5
392
100
AcDbEntity
100
AcDbLine
10
106.345990
20
160.388925
30
0.0
11
106.942546
21
159.339700
31
0.0
0
LINE
8
Layer 1
62
4
5
393
100
AcDbEntity
100
AcDbLine
10
106.942546
20
159.339700
30
0.0
11
108.056206
21
157.846907
31
0.0
0
LINE
8
Layer 1
62
4
5
394
100
AcDbEntity
100
AcDbLine
10
108.056206
20
157.846907
30
0.0
11
111.198008
21
154.326337
31
0.0
0
LINE
8
Layer 1
62
4
5
395
100
AcDbEntity
100
AcDbLine
10
111.198008
20
154.326337
30
0.0
11
115.359273
21
150.108919
31
0.0
0
LINE
8
Layer 1
62
4
5
396
100
AcDbEntity
100
AcDbLine
10
115.359273
20
150.108919
30
0.0
11
119.660715
21
150.108919
31
0.0
0
LINE
8
Layer 1
62
4
5
397
100
AcDbEntity
100
AcDbLine
10
119.660715
20
150.108919
30
0.0
11
121.810383
21
150.177940
31
0.0
0
LINE
8
Layer 1
62
4
5
398
100
AcDbEntity
100
AcDbLine
10
121.810383
20
150.177940
30
0.0
11
123.461134
21
150.409740
31
0.0
0
LINE
8
Layer 1
62
4
5
399
100
AcDbEntity
100
AcDbLine
10
123.461134
20
150.409740
30
0.0
11
124.778977
21
150.841423
31
0.0
0
LINE
8
Layer 1
62
4
5
39a
100
AcDbEntity
100
AcDbLine
10
124.778977
20
150.841423
30
0.0
11
125.929923
21
151.510093
31
0.0
0
LINE
8
Layer 1
62
4
5
39b
100
AcDbEntity
100
AcDbLine
10
125.929923
20
151.510093
30
0.0
11
125.929923
21
151.510093
31
0.0
0
LINE
8
Layer 1
62
4
5
39c
100
AcDbEntity
100
AcDbLine
10
121.506003
20
162.225661
30
0.0
11
120.575600
21
162.628846
31
0.0
0
LINE
8
Layer 1
62
4
5
39d
100
AcDbEntity
100
AcDbLine
10
120.575600
20
162.628846
30
0.0
11
119.784374
21
163.248875
31
0.0
0
LINE
8
Layer 1
62
4
5
39e
100
AcDbEntity
100
AcDbLine
10
119.784374
20
163.248875
30
0.0
11
118.772192
21
163.970845
31
0.0
0
LINE
8
Layer 1
62
4
5
39f
100
AcDbEntity
100
AcDbLine
10
118.772192
20
163.970845
30
0.0
11
117.760013
21
164.506756
31
0.0
0
LINE
8
Layer 1
62
4
5
3a0
100
AcDbEntity
100
AcDbLine
10
117.760013
20
164.506756
30
0.0
11
117.560573
21
164.633728
31
0.0
0
LINE
8
Layer 1
62
4
5
3a1
100
AcDbEntity
100
AcDbLine
10
117.560573
20
164.633728
30
0.0
11
117.765780
21
164.681229
31
0.0
0
LINE
8
Layer 1
62
4
5
3a2
100
AcDbEntity
100
AcDbLine
10
117.765780
20
164.681229
30
0.0
11
119.201006
21
164.534216
31
0.0
0
LINE
8
Layer 1
62
4
5
3a3
100
AcDbEntity
100
AcDbLine
10
119.201006
20
164.534216
30
0.0
11
121.096398
21
164.468405
31
0.0
0
LINE
8
Layer 1
62
4
5
3a4
100
AcDbEntity
100
AcDbLine
10
121.096398
20
164.468405
30
0.0
11
121.744629
21
164.623560
31
0.0
0
LINE
8
Layer 1
62
4
5
3a5
100
AcDbEntity
100
AcDbLine
10
121.744629
20
164.623560
30
0.0
11
122.108674
21
164.893640
31
0.0
0
LINE
8
Layer 1
62
4
5
3a6
100
AcDbEntity
100
AcDbLine
10
122.108674
20
164.893640
30
0.0
11
122.835608
21
165.413009
31
0.0
0
LINE
8
Layer 1
62
4
5
3a7
100
AcDbEntity
100
AcDbLine
10
122.835608
20
165.413009
30
0.0
11
123.945114
21
165.629030
31
0.0
0
LINE
8
Layer 1
62
4
5
3a8
100
AcDbEntity
100
AcDbLine
10
123.945114
20
165.629030
30
0.0
11
124.547932
21
165.689108
31
0.0
0
LINE
8
Layer 1
62
4
5
3a9
100
AcDbEntity
100
AcDbLine
10
124.547932
20
165.689108
30
0.0
11
124.905514
21
165.876508
31
0.0
0
LINE
8
Layer 1
62
4
5
3aa
100
AcDbEntity
100
AcDbLine
10
124.905514
20
165.876508
30
0.0
11
125.027917
21
166.201975
31
0.0
0
LINE
8
Layer 1
62
4
5
3ab
100
AcDbEntity
100
AcDbLine
10
125.027917
20
166.201975
30
0.0
11
124.925198
21
166.676258
31
0.0
0
LINE
8
Layer 1
62
4
5
3ac
100
AcDbEntity
100
AcDbLine
10
124.925198
20
166.676258
30
0.0
11
124.827942
21
167.307582
31
0.0
0
LINE
8
Layer 1
62
4
5
3ad
100
AcDbEntity
100
AcDbLine
10
124.827942
20
167.307582
30
0.0
11
124.955183
21
167.396187
31
0.0
0
LINE
8
Layer 1
62
4
5
3ae
100
AcDbEntity
100
AcDbLine
10
124.955183
20
167.396187
30
0.0
11
125.190397
21
167.311221
31
0.0
0
LINE
8
Layer 1
62
4
5
3af
100
AcDbEntity
100
AcDbLine
10
125.190397
20
167.311221
30
0.0
11
125.619010
21
166.794936
31
0.0
0
LINE
8
Layer 1
62
4
5
3b0
100
AcDbEntity
100
AcDbLine
10
125.619010
20
166.794936
30
0.0
11
125.825194
21
165.999221
31
0.0
0
LINE
8
Layer 1
62
4
5
3b1
100
AcDbEntity
100
AcDbLine
10
125.825194
20
165.999221
30
0.0
11
125.835299
21
165.036607
31
0.0
0
LINE
8
Layer 1
62
4
5
3b2
100
AcDbEntity
100
AcDbLine
10
125.835299
20
165.036607
30
0.0
11
125.675673
21
164.019623
31
0.0
0
LINE
8
Layer 1
62
4
5
3b3
100
AcDbEntity
100
AcDbLine
10
125.675673
20
164.019623
30
0.0
11
125.372664
21
163.060799
31
0.0
0
LINE
8
Layer 1
62
4
5
3b4
100
AcDbEntity
100
AcDbLine
10
125.372664
20
163.060799
30
0.0
11
124.952623
21
162.272664
31
0.0
0
LINE
8
Layer 1
62
4
5
3b5
100
AcDbEntity
100
AcDbLine
10
124.952623
20
162.272664
30
0.0
11
124.441896
21
161.767749
31
0.0
0
LINE
8
Layer 1
62
4
5
3b6
100
AcDbEntity
100
AcDbLine
10
124.441896
20
161.767749
30
0.0
11
123.866834
21
161.658584
31
0.0
0
LINE
8
Layer 1
62
4
5
3b7
100
AcDbEntity
100
AcDbLine
10
123.866834
20
161.658584
30
0.0
11
123.368315
21
161.890462
31
0.0
0
LINE
8
Layer 1
62
4
5
3b8
100
AcDbEntity
100
AcDbLine
10
123.368315
20
161.890462
30
0.0
11
122.466190
21
162.225672
31
0.0
0
LINE
8
Layer 1
62
4
5
3b9
100
AcDbEntity
100
AcDbLine
10
122.466190
20
162.225672
30
0.0
11
121.506003
21
162.225661
31
0.0
0
LINE
8
Layer 1
62
4
5
3ba
100
AcDbEntity
100
AcDbLine
10
121.506003
20
162.225661
30
0.0
11
121.506003
21
162.225661
31
0.0
0
LINE
8
Layer 1
62
4
5
3bb
100
AcDbEntity
100
AcDbLine
10
100.623235
20
155.324459
30
0.0
11
100.469143
21
155.380702
31
0.0
0
LINE
8
Layer 1
62
4
5
3bc
100
AcDbEntity
100
AcDbLine
10
100.469143
20
155.380702
30
0.0
11
100.350958
21
155.232466
31
0.0
0
LINE
8
Layer 1
62
4
5
3bd
100
AcDbEntity
100
AcDbLine
10
100.350958
20
155.232466
30
0.0
11
100.268826
21
154.438803
31
0.0
0
LINE
8
Layer 1
62
4
5
3be
100
AcDbEntity
100
AcDbLine
10
100.268826
20
154.438803
30
0.0
11
100.404028
21
153.738314
31
0.0
0
LINE
8
Layer 1
62
4
5
3bf
100
AcDbEntity
100
AcDbLine
10
100.404028
20
153.738314
30
0.0
11
100.526484
21
153.757179
31
0.0
0
LINE
8
Layer 1
62
4
5
3c0
100
AcDbEntity
100
AcDbLine
10
100.526484
20
153.757179
30
0.0
11
100.676507
21
154.031119
31
0.0
0
LINE
8
Layer 1
62
4
5
3c1
100
AcDbEntity
100
AcDbLine
10
100.676507
20
154.031119
30
0.0
11
100.807053
21
154.776370
31
0.0
0
LINE
8
Layer 1
62
4
5
3c2
100
AcDbEntity
100
AcDbLine
10
100.807053
20
154.776370
30
0.0
11
100.623235
21
155.324459
31
0.0
0
LINE
8
Layer 1
62
4
5
3c3
100
AcDbEntity
100
AcDbLine
10
100.623235
20
155.324459
30
0.0
11
100.623235
21
155.324459
31
0.0
0
LINE
8
Layer 1
62
4
5
3c4
100
AcDbEntity
100
AcDbLine
10
94.142470
20
155.507214
30
0.0
11
94.049291
21
155.768406
31
0.0
0
LINE
8
Layer 1
62
4
5
3c5
100
AcDbEntity
100
AcDbLine
10
94.049291
20
155.768406
30
0.0
11
93.795586
21
155.980747
31
0.0
0
LINE
8
Layer 1
62
4
5
3c6
100
AcDbEntity
100
AcDbLine
10
93.795586
20
155.980747
30
0.0
11
92.961593
21
156.171667
31
0.0
0
LINE
8
Layer 1
62
4
5
3c7
100
AcDbEntity
100
AcDbLine
10
92.961593
20
156.171667
30
0.0
11
92.174425
21
156.045758
31
0.0
0
LINE
8
Layer 1
62
4
5
3c8
100
AcDbEntity
100
AcDbLine
10
92.174425
20
156.045758
30
0.0
11
92.792894
21
155.507214
31
0.0
0
LINE
8
Layer 1
62
4
5
3c9
100
AcDbEntity
100
AcDbLine
10
92.792894
20
155.507214
30
0.0
11
93.945233
21
154.889982
31
0.0
0
LINE
8
Layer 1
62
4
5
3ca
100
AcDbEntity
100
AcDbLine
10
93.945233
20
154.889982
30
0.0
11
94.110680
21
155.044290
31
0.0
0
LINE
8
Layer 1
62
4
5
3cb
100
AcDbEntity
100
AcDbLine
10
94.110680
20
155.044290
30
0.0
11
94.142470
21
155.507214
31
0.0
0
LINE
8
Layer 1
62
4
5
3cc
100
AcDbEntity
100
AcDbLine
10
94.142470
20
155.507214
30
0.0
11
94.142470
21
155.507214
31
0.0
0
LINE
8
Layer 1
62
4
5
3cd
100
AcDbEntity
100
AcDbLine
10
94.142470
20
162.592477
30
0.0
11
94.064273
21
162.985488
31
0.0
0
LINE
8
Layer 1
62
4
5
3ce
100
AcDbEntity
100
AcDbLine
10
94.064273
20
162.985488
30
0.0
11
93.851363
21
163.307330
31
0.0
0
LINE
8
Layer 1
62
4
5
3cf
100
AcDbEntity
100
AcDbLine
10
93.851363
20
163.307330
30
0.0
11
93.536255
21
163.524791
31
0.0
0
LINE
8
Layer 1
62
4
5
3d0
100
AcDbEntity
100
AcDbLine
10
93.536255
20
163.524791
30
0.0
11
93.151466
21
163.604658
31
0.0
0
LINE
8
Layer 1
62
4
5
3d1
100
AcDbEntity
100
AcDbLine
10
93.151466
20
163.604658
30
0.0
11
92.769371
21
163.533209
31
0.0
0
LINE
8
Layer 1
62
4
5
3d2
100
AcDbEntity
100
AcDbLine
10
92.769371
20
163.533209
30
0.0
11
92.535074
21
163.329777
31
0.0
0
LINE
8
Layer 1
62
4
5
3d3
100
AcDbEntity
100
AcDbLine
10
92.535074
20
163.329777
30
0.0
11
92.458326
21
163.010741
31
0.0
0
LINE
8
Layer 1
62
4
5
3d4
100
AcDbEntity
100
AcDbLine
10
92.458326
20
163.010741
30
0.0
11
92.548874
21
162.592477
31
0.0
0
LINE
8
Layer 1
62
4
5
3d5
100
AcDbEntity
100
AcDbLine
10
92.548874
20
162.592477
30
0.0
11
93.000201
21
161.877625
31
0.0
0
LINE
8
Layer 1
62
4
5
3d6
100
AcDbEntity
100
AcDbLine
10
93.000201
20
161.877625
30
0.0
11
93.539877
21
161.580298
31
0.0
0
LINE
8
Layer 1
62
4
5
3d7
100
AcDbEntity
100
AcDbLine
10
93.539877
20
161.580298
30
0.0
11
93.965458
21
161.877625
31
0.0
0
LINE
8
Layer 1
62
4
5
3d8
100
AcDbEntity
100
AcDbLine
10
93.965458
20
161.877625
30
0.0
11
94.142470
21
162.592477
31
0.0
0
LINE
8
Layer 1
62
4
5
3d9
100
AcDbEntity
100
AcDbLine
10
94.142470
20
162.592477
30
0.0
11
94.142470
21
162.592477
31
0.0
0
LINE
8
Layer 1
62
4
5
3da
100
AcDbEntity
100
AcDbLine
10
110.315897
20
178.578844
30
0.0
11
110.384676
21
178.167552
31
0.0
0
LINE
8
Layer 1
62
4
5
3db
100
AcDbEntity
100
AcDbLine
10
110.384676
20
178.167552
30
0.0
11
110.544619
21
177.975655
31
0.0
0
LINE
8
Layer 1
62
4
5
3dc
100
AcDbEntity
100
AcDbLine
10
110.544619
20
177.975655
30
0.0
11
111.014301
21
178.136321
31
0.0
0
LINE
8
Layer 1
62
4
5
3dd
100
AcDbEntity
100
AcDbLine
10
111.014301
20
178.136321
30
0.0
11
111.477539
21
178.833379
31
0.0
0
LINE
8
Layer 1
62
4
5
3de
100
AcDbEntity
100
AcDbLine
10
111.477539
20
178.833379
30
0.0
11
111.686930
21
179.839367
31
0.0
0
LINE
8
Layer 1
62
4
5
3df
100
AcDbEntity
100
AcDbLine
10
111.686930
20
179.839367
30
0.0
11
111.566282
21
180.550229
31
0.0
0
LINE
8
Layer 1
62
4
5
3e0
100
AcDbEntity
100
AcDbLine
10
111.566282
20
180.550229
30
0.0
11
111.244935
21
180.947648
31
0.0
0
LINE
8
Layer 1
62
4
5
3e1
100
AcDbEntity
100
AcDbLine
10
111.244935
20
180.947648
30
0.0
11
110.783781
21
181.060195
31
0.0
0
LINE
8
Layer 1
62
4
5
3e2
100
AcDbEntity
100
AcDbLine
10
110.783781
20
181.060195
30
0.0
11
110.243711
21
180.916440
31
0.0
0
LINE
8
Layer 1
62
4
5
3e3
100
AcDbEntity
100
AcDbLine
10
110.243711
20
180.916440
30
0.0
11
109.685619
21
180.544951
31
0.0
0
LINE
8
Layer 1
62
4
5
3e4
100
AcDbEntity
100
AcDbLine
10
109.685619
20
180.544951
30
0.0
11
109.170397
21
179.974301
31
0.0
0
LINE
8
Layer 1
62
4
5
3e5
100
AcDbEntity
100
AcDbLine
10
109.170397
20
179.974301
30
0.0
11
108.758938
21
179.233058
31
0.0
0
LINE
8
Layer 1
62
4
5
3e6
100
AcDbEntity
100
AcDbLine
10
108.758938
20
179.233058
30
0.0
11
108.512133
21
178.349793
31
0.0
0
LINE
8
Layer 1
62
4
5
3e7
100
AcDbEntity
100
AcDbLine
10
108.512133
20
178.349793
30
0.0
11
108.395752
21
177.487684
31
0.0
0
LINE
8
Layer 1
62
4
5
3e8
100
AcDbEntity
100
AcDbLine
10
108.395752
20
177.487684
30
0.0
11
108.440684
21
177.176002
31
0.0
0
LINE
8
Layer 1
62
4
5
3e9
100
AcDbEntity
100
AcDbLine
10
108.440684
20
177.176002
30
0.0
11
109.284191
21
178.125601
31
0.0
0
LINE
8
Layer 1
62
4
5
3ea
100
AcDbEntity
100
AcDbLine
10
109.284191
20
178.125601
30
0.0
11
110.025505
21
178.858392
31
0.0
0
LINE
8
Layer 1
62
4
5
3eb
100
AcDbEntity
100
AcDbLine
10
110.025505
20
178.858392
30
0.0
11
110.235571
21
178.848896
31
0.0
0
LINE
8
Layer 1
62
4
5
3ec
100
AcDbEntity
100
AcDbLine
10
110.235571
20
178.848896
30
0.0
11
110.315897
21
178.578844
31
0.0
0
LINE
8
Layer 1
62
4
5
3ed
100
AcDbEntity
100
AcDbLine
10
110.315897
20
178.578844
30
0.0
11
110.315897
21
178.578844
31
0.0
0
LINE
8
Layer 1
62
4
5
3ee
100
AcDbEntity
100
AcDbLine
10
115.060865
20
178.826240
30
0.0
11
114.842536
21
179.296932
31
0.0
0
LINE
8
Layer 1
62
4
5
3ef
100
AcDbEntity
100
AcDbLine
10
114.842536
20
179.296932
30
0.0
11
114.313115
21
179.502063
31
0.0
0
LINE
8
Layer 1
62
4
5
3f0
100
AcDbEntity
100
AcDbLine
10
114.313115
20
179.502063
30
0.0
11
113.660951
21
179.410984
31
0.0
0
LINE
8
Layer 1
62
4
5
3f1
100
AcDbEntity
100
AcDbLine
10
113.660951
20
179.410984
30
0.0
11
113.074396
21
178.993045
31
0.0
0
LINE
8
Layer 1
62
4
5
3f2
100
AcDbEntity
100
AcDbLine
10
113.074396
20
178.993045
30
0.0
11
112.736132
21
178.506308
31
0.0
0
LINE
8
Layer 1
62
4
5
3f3
100
AcDbEntity
100
AcDbLine
10
112.736132
20
178.506308
30
0.0
11
112.706224
21
178.215878
31
0.0
0
LINE
8
Layer 1
62
4
5
3f4
100
AcDbEntity
100
AcDbLine
10
112.706224
20
178.215878
30
0.0
11
113.009986
21
178.126861
31
0.0
0
LINE
8
Layer 1
62
4
5
3f5
100
AcDbEntity
100
AcDbLine
10
113.009986
20
178.126861
30
0.0
11
113.672727
21
178.244357
31
0.0
0
LINE
8
Layer 1
62
4
5
3f6
100
AcDbEntity
100
AcDbLine
10
113.672727
20
178.244357
30
0.0
11
114.653100
21
178.565024
31
0.0
0
LINE
8
Layer 1
62
4
5
3f7
100
AcDbEntity
100
AcDbLine
10
114.653100
20
178.565024
30
0.0
11
115.060865
21
178.826232
31
0.0
0
LINE
8
Layer 1
62
4
5
3f8
100
AcDbEntity
100
AcDbLine
10
115.060865
20
178.826232
30
0.0
11
115.060865
21
178.826240
31
0.0
0
LINE
8
Layer 1
62
4
5
3f9
100
AcDbEntity
100
AcDbLine
10
115.060865
20
178.826240
30
0.0
11
115.060865
21
178.826240
31
0.0
0
LINE
8
Layer 1
62
4
5
3fa
100
AcDbEntity
100
AcDbLine
10
151.161967
20
179.799543
30
0.0
11
150.350189
21
181.056831
31
0.0
0
LINE
8
Layer 1
62
4
5
3fb
100
AcDbEntity
100
AcDbLine
10
150.350189
20
181.056831
30
0.0
11
149.587531
21
181.733030
31
0.0
0
LINE
8
Layer 1
62
4
5
3fc
100
AcDbEntity
100
AcDbLine
10
149.587531
20
181.733030
30
0.0
11
149.270766
21
181.829112
31
0.0
0
LINE
8
Layer 1
62
4
5
3fd
100
AcDbEntity
100
AcDbLine
10
149.270766
20
181.829112
30
0.0
11
149.021653
21
181.750988
31
0.0
0
LINE
8
Layer 1
62
4
5
3fe
100
AcDbEntity
100
AcDbLine
10
149.021653
20
181.750988
30
0.0
11
148.858649
21
181.489017
31
0.0
0
LINE
8
Layer 1
62
4
5
3ff
100
AcDbEntity
100
AcDbLine
10
148.858649
20
181.489017
30
0.0
11
148.800213
21
181.033554
31
0.0
0
LINE
8
Layer 1
62
4
5
400
100
AcDbEntity
100
AcDbLine
10
148.800213
20
181.033554
30
0.0
11
149.125105
21
180.122839
31
0.0
0
LINE
8
Layer 1
62
4
5
401
100
AcDbEntity
100
AcDbLine
10
149.125105
20
180.122839
30
0.0
11
149.901679
21
179.047396
31
0.0
0
LINE
8
Layer 1
62
4
5
402
100
AcDbEntity
100
AcDbLine
10
149.901679
20
179.047396
30
0.0
11
150.832785
21
178.150438
31
0.0
0
LINE
8
Layer 1
62
4
5
403
100
AcDbEntity
100
AcDbLine
10
150.832785
20
178.150438
30
0.0
11
151.621273
21
177.775183
31
0.0
0
LINE
8
Layer 1
62
4
5
404
100
AcDbEntity
100
AcDbLine
10
151.621273
20
177.775183
30
0.0
11
151.766798
21
177.934917
31
0.0
0
LINE
8
Layer 1
62
4
5
405
100
AcDbEntity
100
AcDbLine
10
151.766798
20
177.934917
30
0.0
11
151.728709
21
178.369839
31
0.0
0
LINE
8
Layer 1
62
4
5
406
100
AcDbEntity
100
AcDbLine
10
151.728709
20
178.369839
30
0.0
11
151.161967
21
179.799543
31
0.0
0
LINE
8
Layer 1
62
4
5
407
100
AcDbEntity
100
AcDbLine
10
151.161967
20
179.799543
30
0.0
11
151.161967
21
179.799543
31
0.0
0
LINE
8
Layer 1
62
4
5
408
100
AcDbEntity
100
AcDbLine
10
113.238046
20
182.271993
30
0.0
11
113.110412
21
182.988518
31
0.0
0
LINE
8
Layer 1
62
4
5
409
100
AcDbEntity
100
AcDbLine
10
113.110412
20
182.988518
30
0.0
11
113.264770
21
183.056719
31
0.0
0
LINE
8
Layer 1
62
4
5
40a
100
AcDbEntity
100
AcDbLine
10
113.264770
20
183.056719
30
0.0
11
113.562762
21
182.927880
31
0.0
0
LINE
8
Layer 1
62
4
5
40b
100
AcDbEntity
100
AcDbLine
10
113.562762
20
182.927880
30
0.0
11
113.912065
21
182.851039
31
0.0
0
LINE
8
Layer 1
62
4
5
40c
100
AcDbEntity
100
AcDbLine
10
113.912065
20
182.851039
30
0.0
11
114.304571
21
182.987028
31
0.0
0
LINE
8
Layer 1
62
4
5
40d
100
AcDbEntity
100
AcDbLine
10
114.304571
20
182.987028
30
0.0
11
115.027007
21
183.785003
31
0.0
0
LINE
8
Layer 1
62
4
5
40e
100
AcDbEntity
100
AcDbLine
10
115.027007
20
183.785003
30
0.0
11
115.523690
21
184.879490
31
0.0
0
LINE
8
Layer 1
62
4
5
40f
100
AcDbEntity
100
AcDbLine
10
115.523690
20
184.879490
30
0.0
11
115.730191
21
185.707815
31
0.0
0
LINE
8
Layer 1
62
4
5
410
100
AcDbEntity
100
AcDbLine
10
115.730191
20
185.707815
30
0.0
11
115.685548
21
186.257721
31
0.0
0
LINE
8
Layer 1
62
4
5
411
100
AcDbEntity
100
AcDbLine
10
115.685548
20
186.257721
30
0.0
11
115.428800
21
186.516954
31
0.0
0
LINE
8
Layer 1
62
4
5
412
100
AcDbEntity
100
AcDbLine
10
115.428800
20
186.516954
30
0.0
11
114.998988
21
186.473257
31
0.0
0
LINE
8
Layer 1
62
4
5
413
100
AcDbEntity
100
AcDbLine
10
114.998988
20
186.473257
30
0.0
11
114.435150
21
186.114374
31
0.0
0
LINE
8
Layer 1
62
4
5
414
100
AcDbEntity
100
AcDbLine
10
114.435150
20
186.114374
30
0.0
11
113.776326
21
185.428051
31
0.0
0
LINE
8
Layer 1
62
4
5
415
100
AcDbEntity
100
AcDbLine
10
113.776326
20
185.428051
30
0.0
11
113.061555
21
184.402031
31
0.0
0
LINE
8
Layer 1
62
4
5
416
100
AcDbEntity
100
AcDbLine
10
113.061555
20
184.402031
30
0.0
11
112.349337
21
183.015925
31
0.0
0
LINE
8
Layer 1
62
4
5
417
100
AcDbEntity
100
AcDbLine
10
112.349337
20
183.015925
30
0.0
11
112.110830
21
181.995274
31
0.0
0
LINE
8
Layer 1
62
4
5
418
100
AcDbEntity
100
AcDbLine
10
112.110830
20
181.995274
30
0.0
11
112.346085
21
181.364773
31
0.0
0
LINE
8
Layer 1
62
4
5
419
100
AcDbEntity
100
AcDbLine
10
112.346085
20
181.364773
30
0.0
11
113.055149
21
181.149118
31
0.0
0
LINE
8
Layer 1
62
4
5
41a
100
AcDbEntity
100
AcDbLine
10
113.055149
20
181.149118
30
0.0
11
113.259471
21
181.237720
31
0.0
0
LINE
8
Layer 1
62
4
5
41b
100
AcDbEntity
100
AcDbLine
10
113.259471
20
181.237720
30
0.0
11
113.362062
21
181.478963
31
0.0
0
LINE
8
Layer 1
62
4
5
41c
100
AcDbEntity
100
AcDbLine
10
113.362062
20
181.478963
30
0.0
11
113.238046
21
182.271993
31
0.0
0
LINE
8
Layer 1
62
4
5
41d
100
AcDbEntity
100
AcDbLine
10
113.238046
20
182.271993
30
0.0
11
113.238046
21
182.271993
31
0.0
0
LINE
8
Layer 1
62
4
5
41e
100
AcDbEntity
100
AcDbLine
10
125.816498
20
184.625746
30
0.0
11
125.355287
21
184.949992
31
0.0
0
LINE
8
Layer 1
62
4
5
41f
100
AcDbEntity
100
AcDbLine
10
125.355287
20
184.949992
30
0.0
11
124.864089
21
185.120554
31
0.0
0
LINE
8
Layer 1
62
4
5
420
100
AcDbEntity
100
AcDbLine
10
124.864089
20
185.120554
30
0.0
11
124.136063
21
185.197839
31
0.0
0
LINE
8
Layer 1
62
4
5
421
100
AcDbEntity
100
AcDbLine
10
124.136063
20
185.197839
30
0.0
11
124.020547
21
185.117971
31
0.0
0
LINE
8
Layer 1
62
4
5
422
100
AcDbEntity
100
AcDbLine
10
124.020547
20
185.117971
30
0.0
11
124.052145
21
184.900511
31
0.0
0
LINE
8
Layer 1
62
4
5
423
100
AcDbEntity
100
AcDbLine
10
124.052145
20
184.900511
30
0.0
11
124.507882
21
184.185660
31
0.0
0
LINE
8
Layer 1
62
4
5
424
100
AcDbEntity
100
AcDbLine
10
124.507882
20
184.185660
30
0.0
11
125.289263
21
183.470807
31
0.0
0
LINE
8
Layer 1
62
4
5
425
100
AcDbEntity
100
AcDbLine
10
125.289263
20
183.470807
30
0.0
11
125.988278
21
183.173479
31
0.0
0
LINE
8
Layer 1
62
4
5
426
100
AcDbEntity
100
AcDbLine
10
125.988278
20
183.173479
30
0.0
11
126.188308
21
183.322109
31
0.0
0
LINE
8
Layer 1
62
4
5
427
100
AcDbEntity
100
AcDbLine
10
126.188308
20
183.322109
30
0.0
11
126.243226
21
183.690850
31
0.0
0
LINE
8
Layer 1
62
4
5
428
100
AcDbEntity
100
AcDbLine
10
126.243226
20
183.690850
30
0.0
11
126.127725
21
184.163971
31
0.0
0
LINE
8
Layer 1
62
4
5
429
100
AcDbEntity
100
AcDbLine
10
126.127725
20
184.163971
30
0.0
11
125.816498
21
184.625746
31
0.0
0
LINE
8
Layer 1
62
4
5
42a
100
AcDbEntity
100
AcDbLine
10
125.816498
20
184.625746
30
0.0
11
125.816498
21
184.625746
31
0.0
0
LINE
8
Layer 1
62
4
5
42b
100
AcDbEntity
100
AcDbLine
10
115.050530
20
188.740470
30
0.0
11
114.913878
21
189.741069
31
0.0
0
LINE
8
Layer 1
62
4
5
42c
100
AcDbEntity
100
AcDbLine
10
114.913878
20
189.741069
30
0.0
11
114.721806
21
189.684149
31
0.0
0
LINE
8
Layer 1
62
4
5
42d
100
AcDbEntity
100
AcDbLine
10
114.721806
20
189.684149
30
0.0
11
114.420269
21
189.278781
31
0.0
0
LINE
8
Layer 1
62
4
5
42e
100
AcDbEntity
100
AcDbLine
10
114.420269
20
189.278781
30
0.0
11
114.080172
21
188.428553
31
0.0
0
LINE
8
Layer 1
62
4
5
42f
100
AcDbEntity
100
AcDbLine
10
114.080172
20
188.428553
30
0.0
11
114.133032
21
187.760510
31
0.0
0
LINE
8
Layer 1
62
4
5
430
100
AcDbEntity
100
AcDbLine
10
114.133032
20
187.760510
30
0.0
11
114.524804
21
187.294618
31
0.0
0
LINE
8
Layer 1
62
4
5
431
100
AcDbEntity
100
AcDbLine
10
114.524804
20
187.294618
30
0.0
11
114.815248
21
187.310057
31
0.0
0
LINE
8
Layer 1
62
4
5
432
100
AcDbEntity
100
AcDbLine
10
114.815248
20
187.310057
30
0.0
11
114.993959
21
187.795713
31
0.0
0
LINE
8
Layer 1
62
4
5
433
100
AcDbEntity
100
AcDbLine
10
114.993959
20
187.795713
30
0.0
11
115.050530
21
188.740470
31
0.0
0
LINE
8
Layer 1
62
4
5
434
100
AcDbEntity
100
AcDbLine
10
115.050530
20
188.740470
30
0.0
11
115.050530
21
188.740470
31
0.0
0
LINE
8
Layer 1
62
4
5
435
100
AcDbEntity
100
AcDbLine
10
118.167695
20
190.413382
30
0.0
11
118.013602
21
190.469625
31
0.0
0
LINE
8
Layer 1
62
4
5
436
100
AcDbEntity
100
AcDbLine
10
118.013602
20
190.469625
30
0.0
11
117.895417
21
190.321389
31
0.0
0
LINE
8
Layer 1
62
4
5
437
100
AcDbEntity
100
AcDbLine
10
117.895417
20
190.321389
30
0.0
11
117.813286
21
189.527723
31
0.0
0
LINE
8
Layer 1
62
4
5
438
100
AcDbEntity
100
AcDbLine
10
117.813286
20
189.527723
30
0.0
11
117.948490
21
188.827236
31
0.0
0
LINE
8
Layer 1
62
4
5
439
100
AcDbEntity
100
AcDbLine
10
117.948490
20
188.827236
30
0.0
11
118.070945
21
188.846101
31
0.0
0
LINE
8
Layer 1
62
4
5
43a
100
AcDbEntity
100
AcDbLine
10
118.070945
20
188.846101
30
0.0
11
118.220970
21
189.120039
31
0.0
0
LINE
8
Layer 1
62
4
5
43b
100
AcDbEntity
100
AcDbLine
10
118.220970
20
189.120039
30
0.0
11
118.351515
21
189.865292
31
0.0
0
LINE
8
Layer 1
62
4
5
43c
100
AcDbEntity
100
AcDbLine
10
118.351515
20
189.865292
30
0.0
11
118.167695
21
190.413382
31
0.0
0
LINE
8
Layer 1
62
4
5
43d
100
AcDbEntity
100
AcDbLine
10
118.167695
20
190.413382
30
0.0
11
118.167695
21
190.413382
31
0.0
0
LINE
8
Layer 1
62
4
5
43e
100
AcDbEntity
100
AcDbLine
10
109.662570
20
189.921347
30
0.0
11
109.464351
21
190.397916
31
0.0
0
LINE
8
Layer 1
62
4
5
43f
100
AcDbEntity
100
AcDbLine
10
109.464351
20
190.397916
30
0.0
11
108.987782
21
190.596135
31
0.0
0
LINE
8
Layer 1
62
4
5
440
100
AcDbEntity
100
AcDbLine
10
108.987782
20
190.596135
30
0.0
11
108.511213
21
190.397916
31
0.0
0
LINE
8
Layer 1
62
4
5
441
100
AcDbEntity
100
AcDbLine
10
108.511213
20
190.397916
30
0.0
11
108.312994
21
189.921347
31
0.0
0
LINE
8
Layer 1
62
4
5
442
100
AcDbEntity
100
AcDbLine
10
108.312994
20
189.921347
30
0.0
11
108.511213
21
189.444781
31
0.0
0
LINE
8
Layer 1
62
4
5
443
100
AcDbEntity
100
AcDbLine
10
108.511213
20
189.444781
30
0.0
11
108.987782
21
189.246562
31
0.0
0
LINE
8
Layer 1
62
4
5
444
100
AcDbEntity
100
AcDbLine
10
108.987782
20
189.246562
30
0.0
11
109.464351
21
189.444781
31
0.0
0
LINE
8
Layer 1
62
4
5
445
100
AcDbEntity
100
AcDbLine
10
109.464351
20
189.444781
30
0.0
11
109.662570
21
189.921347
31
0.0
0
LINE
8
Layer 1
62
4
5
446
100
AcDbEntity
100
AcDbLine
10
109.662570
20
189.921347
30
0.0
11
109.662570
21
189.921347
31
0.0
0
LINE
8
Layer 1
62
4
5
447
100
AcDbEntity
100
AcDbLine
10
120.305359
20
191.597030
30
0.0
11
120.035827
21
192.646709
31
0.0
0
LINE
8
Layer 1
62
4
5
448
100
AcDbEntity
100
AcDbLine
10
120.035827
20
192.646709
30
0.0
11
119.812898
21
192.789951
31
0.0
0
LINE
8
Layer 1
62
4
5
449
100
AcDbEntity
100
AcDbLine
10
119.812898
20
192.789951
30
0.0
11
119.548532
21
192.654568
31
0.0
0
LINE
8
Layer 1
62
4
5
44a
100
AcDbEntity
100
AcDbLine
10
119.548532
20
192.654568
30
0.0
11
119.231174
21
191.907353
31
0.0
0
LINE
8
Layer 1
62
4
5
44b
100
AcDbEntity
100
AcDbLine
10
119.231174
20
191.907353
30
0.0
11
119.336202
21
190.978887
31
0.0
0
LINE
8
Layer 1
62
4
5
44c
100
AcDbEntity
100
AcDbLine
10
119.336202
20
190.978887
30
0.0
11
119.768031
21
190.136589
31
0.0
0
LINE
8
Layer 1
62
4
5
44d
100
AcDbEntity
100
AcDbLine
10
119.768031
20
190.136589
30
0.0
11
120.109076
21
189.981537
31
0.0
0
LINE
8
Layer 1
62
4
5
44e
100
AcDbEntity
100
AcDbLine
10
120.109076
20
189.981537
30
0.0
11
120.305973
21
190.479696
31
0.0
0
LINE
8
Layer 1
62
4
5
44f
100
AcDbEntity
100
AcDbLine
10
120.305973
20
190.479696
30
0.0
11
120.305359
21
191.597030
31
0.0
0
LINE
8
Layer 1
62
4
5
450
100
AcDbEntity
100
AcDbLine
10
120.305359
20
191.597030
30
0.0
11
120.305359
21
191.597030
31
0.0
0
LINE
8
Layer 1
62
4
5
451
100
AcDbEntity
100
AcDbLine
10
98.528584
20
191.787347
30
0.0
11
99.340033
21
192.732130
31
0.0
0
LINE
8
Layer 1
62
4
5
452
100
AcDbEntity
100
AcDbLine
10
99.340033
20
192.732130
30
0.0
11
100.343389
21
194.307464
31
0.0
0
LINE
8
Layer 1
62
4
5
453
100
AcDbEntity
100
AcDbLine
10
100.343389
20
194.307464
30
0.0
11
100.982418
21
195.286293
31
0.0
0
LINE
8
Layer 1
62
4
5
454
100
AcDbEntity
100
AcDbLine
10
100.982418
20
195.286293
30
0.0
11
101.619156
21
195.871304
31
0.0
0
LINE
8
Layer 1
62
4
5
455
100
AcDbEntity
100
AcDbLine
10
101.619156
20
195.871304
30
0.0
11
102.353924
21
196.123753
31
0.0
0
LINE
8
Layer 1
62
4
5
456
100
AcDbEntity
100
AcDbLine
10
102.353924
20
196.123753
30
0.0
11
103.287043
21
196.104901
31
0.0
0
LINE
8
Layer 1
62
4
5
457
100
AcDbEntity
100
AcDbLine
10
103.287043
20
196.104901
30
0.0
11
104.510971
21
196.124574
31
0.0
0
LINE
8
Layer 1
62
4
5
458
100
AcDbEntity
100
AcDbLine
10
104.510971
20
196.124574
30
0.0
11
104.714957
21
196.310747
31
0.0
0
LINE
8
Layer 1
62
4
5
459
100
AcDbEntity
100
AcDbLine
10
104.714957
20
196.310747
30
0.0
11
104.637654
21
196.610993
31
0.0
0
LINE
8
Layer 1
62
4
5
45a
100
AcDbEntity
100
AcDbLine
10
104.637654
20
196.610993
30
0.0
11
104.087124
21
197.122258
31
0.0
0
LINE
8
Layer 1
62
4
5
45b
100
AcDbEntity
100
AcDbLine
10
104.087124
20
197.122258
30
0.0
11
103.337182
21
197.297054
31
0.0
0
LINE
8
Layer 1
62
4
5
45c
100
AcDbEntity
100
AcDbLine
10
103.337182
20
197.297054
30
0.0
11
102.457466
21
197.172551
31
0.0
0
LINE
8
Layer 1
62
4
5
45d
100
AcDbEntity
100
AcDbLine
10
102.457466
20
197.172551
30
0.0
11
101.517613
21
196.785919
31
0.0
0
LINE
8
Layer 1
62
4
5
45e
100
AcDbEntity
100
AcDbLine
10
101.517613
20
196.785919
30
0.0
11
100.587262
21
196.174327
31
0.0
0
LINE
8
Layer 1
62
4
5
45f
100
AcDbEntity
100
AcDbLine
10
100.587262
20
196.174327
30
0.0
11
99.736050
21
195.374944
31
0.0
0
LINE
8
Layer 1
62
4
5
460
100
AcDbEntity
100
AcDbLine
10
99.736050
20
195.374944
30
0.0
11
99.033615
21
194.424940
31
0.0
0
LINE
8
Layer 1
62
4
5
461
100
AcDbEntity
100
AcDbLine
10
99.033615
20
194.424940
30
0.0
11
98.549595
21
193.361483
31
0.0
0
LINE
8
Layer 1
62
4
5
462
100
AcDbEntity
100
AcDbLine
10
98.549595
20
193.361483
30
0.0
11
97.914117
21
192.334000
31
0.0
0
LINE
8
Layer 1
62
4
5
463
100
AcDbEntity
100
AcDbLine
10
97.914117
20
192.334000
30
0.0
11
97.458092
21
191.952284
31
0.0
0
LINE
8
Layer 1
62
4
5
464
100
AcDbEntity
100
AcDbLine
10
97.458092
20
191.952284
30
0.0
11
96.978605
21
191.729965
31
0.0
0
LINE
8
Layer 1
62
4
5
465
100
AcDbEntity
100
AcDbLine
10
96.978605
20
191.729965
30
0.0
11
96.310924
21
191.479726
31
0.0
0
LINE
8
Layer 1
62
4
5
466
100
AcDbEntity
100
AcDbLine
10
96.310924
20
191.479726
30
0.0
11
96.841618
21
191.359532
31
0.0
0
LINE
8
Layer 1
62
4
5
467
100
AcDbEntity
100
AcDbLine
10
96.841618
20
191.359532
30
0.0
11
97.754687
21
191.457175
31
0.0
0
LINE
8
Layer 1
62
4
5
468
100
AcDbEntity
100
AcDbLine
10
97.754687
20
191.457175
30
0.0
11
98.528584
21
191.787347
31
0.0
0
LINE
8
Layer 1
62
4
5
469
100
AcDbEntity
100
AcDbLine
10
98.528584
20
191.787347
30
0.0
11
98.528584
21
191.787347
31
0.0
0
LINE
8
Layer 1
62
4
5
46a
100
AcDbEntity
100
AcDbLine
10
145.833965
20
193.787314
30
0.0
11
145.679869
21
193.843557
31
0.0
0
LINE
8
Layer 1
62
4
5
46b
100
AcDbEntity
100
AcDbLine
10
145.679869
20
193.843557
30
0.0
11
145.561683
21
193.695322
31
0.0
0
LINE
8
Layer 1
62
4
5
46c
100
AcDbEntity
100
AcDbLine
10
145.561683
20
193.695322
30
0.0
11
145.479553
21
192.901659
31
0.0
0
LINE
8
Layer 1
62
4
5
46d
100
AcDbEntity
100
AcDbLine
10
145.479553
20
192.901659
30
0.0
11
145.614760
21
192.201170
31
0.0
0
LINE
8
Layer 1
62
4
5
46e
100
AcDbEntity
100
AcDbLine
10
145.614760
20
192.201170
30
0.0
11
145.737211
21
192.220035
31
0.0
0
LINE
8
Layer 1
62
4
5
46f
100
AcDbEntity
100
AcDbLine
10
145.737211
20
192.220035
30
0.0
11
145.887231
21
192.493975
31
0.0
0
LINE
8
Layer 1
62
4
5
470
100
AcDbEntity
100
AcDbLine
10
145.887231
20
192.493975
30
0.0
11
146.017782
21
193.239226
31
0.0
0
LINE
8
Layer 1
62
4
5
471
100
AcDbEntity
100
AcDbLine
10
146.017782
20
193.239226
30
0.0
11
145.833990
21
193.787314
31
0.0
0
LINE
8
Layer 1
62
4
5
472
100
AcDbEntity
100
AcDbLine
10
145.833990
20
193.787314
30
0.0
11
145.833965
21
193.787314
31
0.0
0
LINE
8
Layer 1
62
4
5
473
100
AcDbEntity
100
AcDbLine
10
145.833965
20
193.787314
30
0.0
11
145.833965
21
193.787314
31
0.0
0
LINE
8
Layer 1
62
4
5
474
100
AcDbEntity
100
AcDbLine
10
113.444187
20
194.462102
30
0.0
11
113.290095
21
194.518345
31
0.0
0
LINE
8
Layer 1
62
4
5
475
100
AcDbEntity
100
AcDbLine
10
113.290095
20
194.518345
30
0.0
11
113.171910
21
194.370109
31
0.0
0
LINE
8
Layer 1
62
4
5
476
100
AcDbEntity
100
AcDbLine
10
113.171910
20
194.370109
30
0.0
11
113.089777
21
193.576444
31
0.0
0
LINE
8
Layer 1
62
4
5
477
100
AcDbEntity
100
AcDbLine
10
113.089777
20
193.576444
30
0.0
11
113.224980
21
192.875956
31
0.0
0
LINE
8
Layer 1
62
4
5
478
100
AcDbEntity
100
AcDbLine
10
113.224980
20
192.875956
30
0.0
11
113.347435
21
192.894822
31
0.0
0
LINE
8
Layer 1
62
4
5
479
100
AcDbEntity
100
AcDbLine
10
113.347435
20
192.894822
30
0.0
11
113.497459
21
193.168760
31
0.0
0
LINE
8
Layer 1
62
4
5
47a
100
AcDbEntity
100
AcDbLine
10
113.497459
20
193.168760
30
0.0
11
113.628005
21
193.914014
31
0.0
0
LINE
8
Layer 1
62
4
5
47b
100
AcDbEntity
100
AcDbLine
10
113.628005
20
193.914014
30
0.0
11
113.444187
21
194.462102
31
0.0
0
LINE
8
Layer 1
62
4
5
47c
100
AcDbEntity
100
AcDbLine
10
113.444187
20
194.462102
30
0.0
11
113.444187
21
194.462102
31
0.0
0
LINE
8
Layer 1
62
4
5
47d
100
AcDbEntity
100
AcDbLine
10
139.597215
20
193.632676
30
0.0
11
139.121618
21
194.347530
31
0.0
0
LINE
8
Layer 1
62
4
5
47e
100
AcDbEntity
100
AcDbLine
10
139.121618
20
194.347530
30
0.0
11
138.523588
21
194.644858
31
0.0
0
LINE
8
Layer 1
62
4
5
47f
100
AcDbEntity
100
AcDbLine
10
138.523588
20
194.644858
30
0.0
11
138.313067
21
194.568747
31
0.0
0
LINE
8
Layer 1
62
4
5
480
100
AcDbEntity
100
AcDbLine
10
138.313067
20
194.568747
30
0.0
11
138.271317
21
194.357548
31
0.0
0
LINE
8
Layer 1
62
4
5
481
100
AcDbEntity
100
AcDbLine
10
138.271317
20
194.357548
30
0.0
11
138.678406
21
193.632676
31
0.0
0
LINE
8
Layer 1
62
4
5
482
100
AcDbEntity
100
AcDbLine
10
138.678406
20
193.632676
30
0.0
11
139.752033
21
192.620495
31
0.0
0
LINE
8
Layer 1
62
4
5
483
100
AcDbEntity
100
AcDbLine
10
139.752033
20
192.620495
30
0.0
11
139.802913
21
192.917823
31
0.0
0
LINE
8
Layer 1
62
4
5
484
100
AcDbEntity
100
AcDbLine
10
139.802913
20
192.917823
30
0.0
11
139.597215
21
193.632676
31
0.0
0
LINE
8
Layer 1
62
4
5
485
100
AcDbEntity
100
AcDbLine
10
139.597215
20
193.632676
30
0.0
11
139.597215
21
193.632676
31
0.0
0
LINE
8
Layer 1
62
4
5
486
100
AcDbEntity
100
AcDbLine
10
112.361718
20
196.331824
30
0.0
11
112.279751
21
196.724836
31
0.0
0
LINE
8
Layer 1
62
4
5
487
100
AcDbEntity
100
AcDbLine
10
112.279751
20
196.724836
30
0.0
11
112.056574
21
197.046678
31
0.0
0
LINE
8
Layer 1
62
4
5
488
100
AcDbEntity
100
AcDbLine
10
112.056574
20
197.046678
30
0.0
11
111.726273
21
197.264139
31
0.0
0
LINE
8
Layer 1
62
4
5
489
100
AcDbEntity
100
AcDbLine
10
111.726273
20
197.264139
30
0.0
11
111.322931
21
197.344006
31
0.0
0
LINE
8
Layer 1
62
4
5
48a
100
AcDbEntity
100
AcDbLine
10
111.322931
20
197.344006
30
0.0
11
110.833401
21
197.304483
31
0.0
0
LINE
8
Layer 1
62
4
5
48b
100
AcDbEntity
100
AcDbLine
10
110.833401
20
197.304483
30
0.0
11
110.647155
21
197.156401
31
0.0
0
LINE
8
Layer 1
62
4
5
48c
100
AcDbEntity
100
AcDbLine
10
110.647155
20
197.156401
30
0.0
11
111.154235
21
196.357493
31
0.0
0
LINE
8
Layer 1
62
4
5
48d
100
AcDbEntity
100
AcDbLine
10
111.154235
20
196.357493
30
0.0
11
111.809538
21
195.651357
31
0.0
0
LINE
8
Layer 1
62
4
5
48e
100
AcDbEntity
100
AcDbLine
10
111.809538
20
195.651357
30
0.0
11
112.172762
21
195.412899
31
0.0
0
LINE
8
Layer 1
62
4
5
48f
100
AcDbEntity
100
AcDbLine
10
112.172762
20
195.412899
30
0.0
11
112.328593
21
195.640317
31
0.0
0
LINE
8
Layer 1
62
4
5
490
100
AcDbEntity
100
AcDbLine
10
112.328593
20
195.640317
30
0.0
11
112.361718
21
196.331810
31
0.0
0
LINE
8
Layer 1
62
4
5
491
100
AcDbEntity
100
AcDbLine
10
112.361718
20
196.331810
30
0.0
11
112.361718
21
196.331824
31
0.0
0
LINE
8
Layer 1
62
4
5
492
100
AcDbEntity
100
AcDbLine
10
112.361718
20
196.331824
30
0.0
11
112.361718
21
196.331824
31
0.0
0
LINE
8
Layer 1
62
4
5
493
100
AcDbEntity
100
AcDbLine
10
109.946903
20
198.184314
30
0.0
11
110.090839
21
198.097174
31
0.0
0
LINE
8
Layer 1
62
4
5
494
100
AcDbEntity
100
AcDbLine
10
110.090839
20
198.097174
30
0.0
11
110.141382
21
198.201271
31
0.0
0
LINE
8
Layer 1
62
4
5
495
100
AcDbEntity
100
AcDbLine
10
110.141382
20
198.201271
30
0.0
11
109.960506
21
198.890496
31
0.0
0
LINE
8
Layer 1
62
4
5
496
100
AcDbEntity
100
AcDbLine
10
109.960506
20
198.890496
30
0.0
11
109.801835
21
199.424652
31
0.0
0
LINE
8
Layer 1
62
4
5
497
100
AcDbEntity
100
AcDbLine
10
109.801835
20
199.424652
30
0.0
11
109.844761
21
199.715252
31
0.0
0
LINE
8
Layer 1
62
4
5
498
100
AcDbEntity
100
AcDbLine
10
109.844761
20
199.715252
30
0.0
11
110.105341
21
199.781154
31
0.0
0
LINE
8
Layer 1
62
4
5
499
100
AcDbEntity
100
AcDbLine
10
110.105341
20
199.781154
30
0.0
11
110.599629
21
199.641216
31
0.0
0
LINE
8
Layer 1
62
4
5
49a
100
AcDbEntity
100
AcDbLine
10
110.599629
20
199.641216
30
0.0
11
111.367544
21
199.548427
31
0.0
0
LINE
8
Layer 1
62
4
5
49b
100
AcDbEntity
100
AcDbLine
10
111.367544
20
199.548427
30
0.0
11
111.601146
21
199.677317
31
0.0
0
LINE
8
Layer 1
62
4
5
49c
100
AcDbEntity
100
AcDbLine
10
111.601146
20
199.677317
30
0.0
11
111.686941
21
199.911249
31
0.0
0
LINE
8
Layer 1
62
4
5
49d
100
AcDbEntity
100
AcDbLine
10
111.686941
20
199.911249
30
0.0
11
111.613385
21
200.249166
31
0.0
0
LINE
8
Layer 1
62
4
5
49e
100
AcDbEntity
100
AcDbLine
10
111.613385
20
200.249166
30
0.0
11
111.404288
21
200.437643
31
0.0
0
LINE
8
Layer 1
62
4
5
49f
100
AcDbEntity
100
AcDbLine
10
111.404288
20
200.437643
30
0.0
11
110.648898
21
200.389736
31
0.0
0
LINE
8
Layer 1
62
4
5
4a0
100
AcDbEntity
100
AcDbLine
10
110.648898
20
200.389736
30
0.0
11
109.559630
21
199.814439
31
0.0
0
LINE
8
Layer 1
62
4
5
4a1
100
AcDbEntity
100
AcDbLine
10
109.559630
20
199.814439
30
0.0
11
108.275340
21
198.758665
31
0.0
0
LINE
8
Layer 1
62
4
5
4a2
100
AcDbEntity
100
AcDbLine
10
108.275340
20
198.758665
30
0.0
11
107.154016
21
197.574533
31
0.0
0
LINE
8
Layer 1
62
4
5
4a3
100
AcDbEntity
100
AcDbLine
10
107.154016
20
197.574533
30
0.0
11
107.358410
21
197.577917
31
0.0
0
LINE
8
Layer 1
62
4
5
4a4
100
AcDbEntity
100
AcDbLine
10
107.358410
20
197.577917
30
0.0
11
108.055588
21
197.911775
31
0.0
0
LINE
8
Layer 1
62
4
5
4a5
100
AcDbEntity
100
AcDbLine
10
108.055588
20
197.911775
30
0.0
11
109.200853
21
198.294741
31
0.0
0
LINE
8
Layer 1
62
4
5
4a6
100
AcDbEntity
100
AcDbLine
10
109.200853
20
198.294741
30
0.0
11
109.654814
21
198.305673
31
0.0
0
LINE
8
Layer 1
62
4
5
4a7
100
AcDbEntity
100
AcDbLine
10
109.654814
20
198.305673
30
0.0
11
109.946914
21
198.184314
31
0.0
0
LINE
8
Layer 1
62
4
5
4a8
100
AcDbEntity
100
AcDbLine
10
109.946914
20
198.184314
30
0.0
11
109.946903
21
198.184314
31
0.0
0
LINE
8
Layer 1
62
4
5
4a9
100
AcDbEntity
100
AcDbLine
10
109.946903
20
198.184314
30
0.0
11
109.946903
21
198.184314
31
0.0
0
LINE
8
Layer 1
62
4
5
4aa
100
AcDbEntity
100
AcDbLine
10
103.933681
20
198.704585
30
0.0
11
104.384507
21
199.095305
31
0.0
0
LINE
8
Layer 1
62
4
5
4ab
100
AcDbEntity
100
AcDbLine
10
104.384507
20
199.095305
30
0.0
11
104.873222
21
199.071663
31
0.0
0
LINE
8
Layer 1
62
4
5
4ac
100
AcDbEntity
100
AcDbLine
10
104.873222
20
199.071663
30
0.0
11
105.073457
21
199.020848
31
0.0
0
LINE
8
Layer 1
62
4
5
4ad
100
AcDbEntity
100
AcDbLine
10
105.073457
20
199.020848
30
0.0
11
105.237432
21
199.118100
31
0.0
0
LINE
8
Layer 1
62
4
5
4ae
100
AcDbEntity
100
AcDbLine
10
105.237432
20
199.118100
30
0.0
11
105.388918
21
199.677309
31
0.0
0
LINE
8
Layer 1
62
4
5
4af
100
AcDbEntity
100
AcDbLine
10
105.388918
20
199.677309
30
0.0
11
105.323023
21
200.095804
31
0.0
0
LINE
8
Layer 1
62
4
5
4b0
100
AcDbEntity
100
AcDbLine
10
105.323023
20
200.095804
30
0.0
11
105.081990
21
200.220374
31
0.0
0
LINE
8
Layer 1
62
4
5
4b1
100
AcDbEntity
100
AcDbLine
10
105.081990
20
200.220374
30
0.0
11
103.814414
21
199.570017
31
0.0
0
LINE
8
Layer 1
62
4
5
4b2
100
AcDbEntity
100
AcDbLine
10
103.814414
20
199.570017
30
0.0
11
102.702423
21
198.765100
31
0.0
0
LINE
8
Layer 1
62
4
5
4b3
100
AcDbEntity
100
AcDbLine
10
102.702423
20
198.765100
30
0.0
11
102.239913
21
198.278579
31
0.0
0
LINE
8
Layer 1
62
4
5
4b4
100
AcDbEntity
100
AcDbLine
10
102.239913
20
198.278579
30
0.0
11
102.447919
21
198.021262
31
0.0
0
LINE
8
Layer 1
62
4
5
4b5
100
AcDbEntity
100
AcDbLine
10
102.447919
20
198.021262
30
0.0
11
102.935742
21
198.040745
31
0.0
0
LINE
8
Layer 1
62
4
5
4b6
100
AcDbEntity
100
AcDbLine
10
102.935742
20
198.040745
30
0.0
11
103.499092
21
198.285647
31
0.0
0
LINE
8
Layer 1
62
4
5
4b7
100
AcDbEntity
100
AcDbLine
10
103.499092
20
198.285647
30
0.0
11
103.933681
21
198.704585
31
0.0
0
LINE
8
Layer 1
62
4
5
4b8
100
AcDbEntity
100
AcDbLine
10
103.933681
20
198.704585
30
0.0
11
103.933681
21
198.704585
31
0.0
0
LINE
8
Layer 1
62
4
5
4b9
100
AcDbEntity
100
AcDbLine
10
100.060912
20
199.916631
30
0.0
11
100.069677
21
200.559734
31
0.0
0
LINE
8
Layer 1
62
4
5
4ba
100
AcDbEntity
100
AcDbLine
10
100.069677
20
200.559734
30
0.0
11
99.658936
21
200.698411
31
0.0
0
LINE
8
Layer 1
62
4
5
4bb
100
AcDbEntity
100
AcDbLine
10
99.658936
20
200.698411
30
0.0
11
99.084036
21
200.379384
31
0.0
0
LINE
8
Layer 1
62
4
5
4bc
100
AcDbEntity
100
AcDbLine
10
99.084036
20
200.379384
30
0.0
11
98.600319
21
199.649375
31
0.0
0
LINE
8
Layer 1
62
4
5
4bd
100
AcDbEntity
100
AcDbLine
10
98.600319
20
199.649375
30
0.0
11
98.516699
21
198.940638
31
0.0
0
LINE
8
Layer 1
62
4
5
4be
100
AcDbEntity
100
AcDbLine
10
98.516699
20
198.940638
30
0.0
11
98.687345
21
198.811510
31
0.0
0
LINE
8
Layer 1
62
4
5
4bf
100
AcDbEntity
100
AcDbLine
10
98.687345
20
198.811510
30
0.0
11
98.992041
21
198.848064
31
0.0
0
LINE
8
Layer 1
62
4
5
4c0
100
AcDbEntity
100
AcDbLine
10
98.992041
20
198.848064
30
0.0
11
99.636752
21
199.272198
31
0.0
0
LINE
8
Layer 1
62
4
5
4c1
100
AcDbEntity
100
AcDbLine
10
99.636752
20
199.272198
30
0.0
11
100.060912
21
199.916631
31
0.0
0
LINE
8
Layer 1
62
4
5
4c2
100
AcDbEntity
100
AcDbLine
10
100.060912
20
199.916631
30
0.0
11
100.060912
21
199.916631
31
0.0
  0
ENDSEC
  0
SECTION
  2
OBJECTS
  0
DICTIONARY
  5
C
330
0
100
AcDbDictionary
  3
ACAD_GROUP
350
D
  3
ACAD_MLINESTYLE
350
17
  0
DICTIONARY
  5
D
330
C
100
AcDbDictionary
  0
DICTIONARY
  5
1A
330
C
100
AcDbDictionary
  0
DICTIONARY
  5
17
330
C
100
AcDbDictionary
  3
STANDARD
350
18
  0
DICTIONARY
  5
19
330
C
100
AcDbDictionary
  0
ENDSEC
  0
EOF
