999
"DXF R12 Output" (www.mydxf.blogspot.com)
 0 
SECTION
 2 
HEADER
 9 
$ACADVER
 1 
AC1009
 9 
$EXTMIN
 10 
 0 
 20 
 0 
 9 
$EXTMAX
 10 
 8.5 
 20 
 11 
 0 
ENDSEC
 0 
SECTION
 2 
ENTITIES
0
LINE
8
Layer 1
10
31.745767
20
-57.435352
11
26.491162
21
-57.285346
0
LINE
8
Layer 1
10
26.491162
20
-57.285346
11
25.710886
21
-57.108266
0
LINE
8
Layer 1
10
25.710886
20
-57.108266
11
25.492740
21
-56.794555
0
LINE
8
Layer 1
10
25.492740
20
-56.794555
11
25.356307
21
-56.505041
0
LINE
8
Layer 1
10
25.356307
20
-56.505041
11
25.068994
21
-56.335338
0
LINE
8
Layer 1
10
25.068994
20
-56.335338
11
23.645816
21
-56.235527
0
LINE
8
Layer 1
10
23.645816
20
-56.235527
11
22.225380
21
-56.335995
0
LINE
8
Layer 1
10
22.225380
20
-56.335995
11
21.924271
21
-56.502490
0
LINE
8
Layer 1
10
21.924271
20
-56.502490
11
21.771364
21
-56.782857
0
LINE
8
Layer 1
10
21.771364
20
-56.782857
11
21.536595
21
-57.087399
0
LINE
8
Layer 1
10
21.536595
20
-57.087399
11
20.753586
21
-57.252412
0
LINE
8
Layer 1
10
20.753586
20
-57.252412
11
15.589150
21
-57.339882
0
LINE
8
Layer 1
10
15.589150
20
-57.339882
11
9.580651
21
-57.349579
0
LINE
8
Layer 1
10
9.580651
20
-57.349579
11
8.861622
21
-56.580885
0
LINE
8
Layer 1
10
8.861622
20
-56.580885
11
8.190010
21
-55.738684
0
LINE
8
Layer 1
10
8.190010
20
-55.738684
11
7.668609
21
-54.843296
0
LINE
8
Layer 1
10
7.668609
20
-54.843296
11
7.349539
21
-54.002393
0
LINE
8
Layer 1
10
7.349539
20
-54.002393
11
7.284917
21
-53.323648
0
LINE
8
Layer 1
10
7.284917
20
-53.323648
11
7.394871
21
-52.985146
0
LINE
8
Layer 1
10
7.394871
20
-52.985146
11
7.721308
21
-52.789619
0
LINE
8
Layer 1
10
7.721308
20
-52.789619
11
9.732277
21
-52.625272
0
LINE
8
Layer 1
10
9.732277
20
-52.625272
11
11.724462
21
-52.657100
0
LINE
8
Layer 1
10
11.724462
20
-52.657100
11
12.766166
21
-52.984558
0
LINE
8
Layer 1
10
12.766166
20
-52.984558
11
13.252063
21
-53.255264
0
LINE
8
Layer 1
10
13.252063
20
-53.255264
11
13.408691
21
-53.217527
0
LINE
8
Layer 1
10
13.408691
20
-53.217527
11
12.734820
21
-52.232947
0
LINE
8
Layer 1
10
12.734820
20
-52.232947
11
12.029264
21
-51.133872
0
LINE
8
Layer 1
10
12.029264
20
-51.133872
11
12.342015
21
-50.973194
0
LINE
8
Layer 1
10
12.342015
20
-50.973194
11
13.086691
21
-50.855146
0
LINE
8
Layer 1
10
13.086691
20
-50.855146
11
14.710375
21
-50.863892
0
LINE
8
Layer 1
10
14.710375
20
-50.863892
11
19.578709
21
-50.911859
0
LINE
8
Layer 1
10
19.578709
20
-50.911859
11
23.507050
21
-50.982623
0
LINE
8
Layer 1
10
23.507050
20
-50.982623
11
24.061472
21
-51.145997
0
LINE
8
Layer 1
10
24.061472
20
-51.145997
11
24.164820
21
-51.452295
0
LINE
8
Layer 1
10
24.164820
20
-51.452295
11
24.242788
21
-51.854782
0
LINE
8
Layer 1
10
24.242788
20
-51.854782
11
24.431532
21
-51.985589
0
LINE
8
Layer 1
10
24.431532
20
-51.985589
11
24.663308
21
-51.846112
0
LINE
8
Layer 1
10
24.663308
20
-51.846112
11
24.870375
21
-51.437749
0
LINE
8
Layer 1
10
24.870375
20
-51.437749
11
25.026848
21
-51.143941
0
LINE
8
Layer 1
10
25.026848
20
-51.143941
11
25.337835
21
-50.972759
0
LINE
8
Layer 1
10
25.337835
20
-50.972759
11
26.864951
21
-50.873304
0
LINE
8
Layer 1
10
26.864951
20
-50.873304
11
28.892046
21
-50.802749
0
LINE
8
Layer 1
10
28.892046
20
-50.802749
11
29.084871
21
-51.043079
0
LINE
8
Layer 1
10
29.084871
20
-51.043079
11
29.251241
21
-51.719971
0
LINE
8
Layer 1
10
29.251241
20
-51.719971
11
29.398770
21
-52.707749
0
LINE
8
Layer 1
10
29.398770
20
-52.707749
11
29.730449
21
-51.790527
0
LINE
8
Layer 1
10
29.730449
20
-51.790527
11
30.062128
21
-50.873304
0
LINE
8
Layer 1
10
30.062128
20
-50.873304
11
35.015698
21
-50.873304
0
LINE
8
Layer 1
10
35.015698
20
-50.873304
11
39.279516
21
-50.951899
0
LINE
8
Layer 1
10
39.279516
20
-50.951899
11
39.865410
21
-51.120473
0
LINE
8
Layer 1
10
39.865410
20
-51.120473
11
39.969268
21
-51.437749
0
LINE
8
Layer 1
10
39.969268
20
-51.437749
11
39.908453
21
-51.743551
0
LINE
8
Layer 1
10
39.908453
20
-51.743551
11
39.624828
21
-51.913912
0
LINE
8
Layer 1
10
39.624828
20
-51.913912
11
37.782046
21
-52.006046
0
LINE
8
Layer 1
10
37.782046
20
-52.006046
11
36.025066
21
-52.048492
0
LINE
8
Layer 1
10
36.025066
20
-52.048492
11
34.971844
21
-52.200160
0
LINE
8
Layer 1
10
34.971844
20
-52.200160
11
34.459418
21
-52.508981
0
LINE
8
Layer 1
10
34.459418
20
-52.508981
11
34.324823
21
-53.022887
0
LINE
8
Layer 1
10
34.324823
20
-53.022887
11
34.373253
21
-53.407324
0
LINE
8
Layer 1
10
34.373253
20
-53.407324
11
34.680424
21
-53.607506
0
LINE
8
Layer 1
10
34.680424
20
-53.607506
11
37.042293
21
-53.695527
0
LINE
8
Layer 1
10
37.042293
20
-53.695527
11
39.759763
21
-53.695527
0
LINE
8
Layer 1
10
39.759763
20
-53.695527
11
39.572777
21
-55.177193
0
LINE
8
Layer 1
10
39.572777
20
-55.177193
11
39.286045
21
-56.412055
0
LINE
8
Layer 1
10
39.286045
20
-56.412055
11
38.799598
21
-57.152749
0
LINE
8
Layer 1
10
38.799598
20
-57.152749
11
38.033003
21
-57.581882
0
LINE
8
Layer 1
10
38.033003
20
-57.581882
11
31.745767
21
-57.435352
0
LINE
8
Layer 1
10
31.745767
20
-57.435352
11
31.745767
21
-57.435352
0
LINE
8
Layer 1
10
16.121486
20
-56.517749
11
16.405586
21
-56.318429
0
LINE
8
Layer 1
10
16.405586
20
-56.318429
11
16.843699
21
-56.235527
0
LINE
8
Layer 1
10
16.843699
20
-56.235527
11
17.230574
21
-56.318429
0
LINE
8
Layer 1
10
17.230574
20
-56.318429
11
17.391486
21
-56.517749
0
LINE
8
Layer 1
10
17.391486
20
-56.517749
11
17.920653
21
-56.718561
0
LINE
8
Layer 1
10
17.920653
20
-56.718561
11
19.225931
21
-56.799971
0
LINE
8
Layer 1
10
19.225931
20
-56.799971
11
20.521507
21
-56.722990
0
LINE
8
Layer 1
10
20.521507
20
-56.722990
11
21.060375
21
-56.537908
0
LINE
8
Layer 1
10
21.060375
20
-56.537908
11
21.232490
21
-56.063657
0
LINE
8
Layer 1
10
21.232490
20
-56.063657
11
21.722058
21
-55.701418
0
LINE
8
Layer 1
10
21.722058
20
-55.701418
11
22.488916
21
-55.470161
0
LINE
8
Layer 1
10
22.488916
20
-55.470161
11
23.492899
21
-55.388860
0
LINE
8
Layer 1
10
23.492899
20
-55.388860
11
24.870844
21
-55.521476
0
LINE
8
Layer 1
10
24.870844
20
-55.521476
11
25.692325
21
-56.094416
0
LINE
8
Layer 1
10
25.692325
20
-56.094416
11
26.346211
21
-56.799971
0
LINE
8
Layer 1
10
26.346211
20
-56.799971
11
32.442257
21
-56.799971
0
LINE
8
Layer 1
10
32.442257
20
-56.799971
11
37.685029
21
-56.719716
0
LINE
8
Layer 1
10
37.685029
20
-56.719716
11
38.523205
21
-56.556152
0
LINE
8
Layer 1
10
38.523205
20
-56.556152
11
38.830450
21
-56.254080
0
LINE
8
Layer 1
10
38.830450
20
-56.254080
11
39.122601
21
-54.984080
0
LINE
8
Layer 1
10
39.122601
20
-54.984080
11
39.122601
21
-54.259971
0
LINE
8
Layer 1
10
39.122601
20
-54.259971
11
36.402179
21
-54.259971
0
LINE
8
Layer 1
10
36.402179
20
-54.259971
11
33.681757
21
-54.259971
0
LINE
8
Layer 1
10
33.681757
20
-54.259971
11
33.848881
21
-52.848860
0
LINE
8
Layer 1
10
33.848881
20
-52.848860
11
34.016007
21
-51.437749
0
LINE
8
Layer 1
10
34.016007
20
-51.437749
11
32.225279
21
-51.437749
0
LINE
8
Layer 1
10
32.225279
20
-51.437749
11
30.434551
21
-51.437749
0
LINE
8
Layer 1
10
30.434551
20
-51.437749
11
30.043600
21
-53.039594
0
LINE
8
Layer 1
10
30.043600
20
-53.039594
11
29.677148
21
-54.201009
0
LINE
8
Layer 1
10
29.677148
20
-54.201009
11
29.345105
21
-54.743951
0
LINE
8
Layer 1
10
29.345105
20
-54.743951
11
29.102981
21
-54.588556
0
LINE
8
Layer 1
10
29.102981
20
-54.588556
11
28.889843
21
-54.039732
0
LINE
8
Layer 1
10
28.889843
20
-54.039732
11
28.680379
21
-52.249138
0
LINE
8
Layer 1
10
28.680379
20
-52.249138
11
28.651838
21
-51.787333
0
LINE
8
Layer 1
10
28.651838
20
-51.787333
11
28.476501
21
-51.545643
0
LINE
8
Layer 1
10
28.476501
20
-51.545643
11
27.147173
21
-51.437749
0
LINE
8
Layer 1
10
27.147173
20
-51.437749
11
25.875096
21
-51.540943
0
LINE
8
Layer 1
10
25.875096
20
-51.540943
11
25.591355
21
-51.705260
0
LINE
8
Layer 1
10
25.591355
20
-51.705260
11
25.443094
21
-51.976122
0
LINE
8
Layer 1
10
25.443094
20
-51.976122
11
24.969487
21
-52.571865
0
LINE
8
Layer 1
10
24.969487
20
-52.571865
11
24.254770
21
-52.772295
0
LINE
8
Layer 1
10
24.254770
20
-52.772295
11
23.602980
21
-52.576401
0
LINE
8
Layer 1
10
23.602980
20
-52.576401
11
23.395694
21
-52.329518
0
LINE
8
Layer 1
10
23.395694
20
-52.329518
11
23.318153
21
-51.983174
0
LINE
8
Layer 1
10
23.318153
20
-51.983174
11
23.262364
21
-51.696000
0
LINE
8
Layer 1
10
23.262364
20
-51.696000
11
23.027768
21
-51.530949
0
LINE
8
Layer 1
10
23.027768
20
-51.530949
11
21.618769
21
-51.437749
0
LINE
8
Layer 1
10
21.618769
20
-51.437749
11
20.140451
21
-51.550945
0
LINE
8
Layer 1
10
20.140451
20
-51.550945
11
19.820084
21
-51.763532
0
LINE
8
Layer 1
10
19.820084
20
-51.763532
11
19.597914
21
-52.143304
0
LINE
8
Layer 1
10
19.597914
20
-52.143304
11
19.269752
21
-52.643490
0
LINE
8
Layer 1
10
19.269752
20
-52.643490
11
18.928724
21
-52.824701
0
LINE
8
Layer 1
10
18.928724
20
-52.824701
11
18.640174
21
-52.682853
0
LINE
8
Layer 1
10
18.640174
20
-52.682853
11
18.469448
21
-52.213860
0
LINE
8
Layer 1
10
18.469448
20
-52.213860
11
18.357736
21
-51.859684
0
LINE
8
Layer 1
10
18.357736
20
-51.859684
11
18.008409
21
-51.659553
0
LINE
8
Layer 1
10
18.008409
20
-51.659553
11
15.745070
21
-51.497402
0
LINE
8
Layer 1
10
15.745070
20
-51.497402
11
13.110872
21
-51.415942
0
LINE
8
Layer 1
10
13.110872
20
-51.415942
11
13.557847
21
-52.054085
0
LINE
8
Layer 1
10
13.557847
20
-52.054085
11
13.860412
21
-52.651292
0
LINE
8
Layer 1
10
13.860412
20
-52.651292
11
13.988885
21
-53.267139
0
LINE
8
Layer 1
10
13.988885
20
-53.267139
11
13.936319
21
-53.796798
0
LINE
8
Layer 1
10
13.936319
20
-53.796798
11
13.695767
21
-54.135441
0
LINE
8
Layer 1
10
13.695767
20
-54.135441
11
13.240030
21
-54.094770
0
LINE
8
Layer 1
10
13.240030
20
-54.094770
11
12.578305
21
-53.728764
0
LINE
8
Layer 1
10
12.578305
20
-53.728764
11
11.554135
21
-53.255384
0
LINE
8
Layer 1
10
11.554135
20
-53.255384
11
9.924025
21
-53.131082
0
LINE
8
Layer 1
10
9.924025
20
-53.131082
11
8.372099
21
-53.223922
0
LINE
8
Layer 1
10
8.372099
20
-53.223922
11
8.130699
21
-53.399495
0
LINE
8
Layer 1
10
8.130699
20
-53.399495
11
8.078153
21
-53.714080
0
LINE
8
Layer 1
10
8.078153
20
-53.714080
11
8.395646
21
-54.888663
0
LINE
8
Layer 1
10
8.395646
20
-54.888663
11
9.291505
21
-56.164971
0
LINE
8
Layer 1
10
9.291505
20
-56.164971
11
9.688254
21
-56.510306
0
LINE
8
Layer 1
10
9.688254
20
-56.510306
11
10.252392
21
-56.701241
0
LINE
8
Layer 1
10
10.252392
20
-56.701241
11
12.908471
21
-56.799971
0
LINE
8
Layer 1
10
12.908471
20
-56.799971
11
15.123414
21
-56.718812
0
LINE
8
Layer 1
10
15.123414
20
-56.718812
11
16.121486
21
-56.517749
0
LINE
8
Layer 1
10
16.121486
20
-56.517749
11
16.121486
21
-56.517749
0
LINE
8
Layer 1
10
-47.796944
20
-56.729416
11
-46.690274
21
-51.502070
0
LINE
8
Layer 1
10
-46.690274
20
-51.502070
11
-46.368976
21
-50.308860
0
LINE
8
Layer 1
10
-46.368976
20
-50.308860
11
-41.229300
21
-50.310598
0
LINE
8
Layer 1
10
-41.229300
20
-50.310598
11
-37.043159
21
-50.398505
0
LINE
8
Layer 1
10
-37.043159
20
-50.398505
11
-35.947946
21
-50.521372
0
LINE
8
Layer 1
10
-35.947946
20
-50.521372
11
-35.327957
21
-50.709700
0
LINE
8
Layer 1
10
-35.327957
20
-50.709700
11
-34.642609
21
-50.965849
0
LINE
8
Layer 1
10
-34.642609
20
-50.965849
11
-34.235065
21
-50.707962
0
LINE
8
Layer 1
10
-34.235065
20
-50.707962
11
-33.462965
21
-50.402790
0
LINE
8
Layer 1
10
-33.462965
20
-50.402790
11
-31.699367
21
-50.308860
0
LINE
8
Layer 1
10
-31.699367
20
-50.308860
11
-29.762172
21
-50.407510
0
LINE
8
Layer 1
10
-29.762172
20
-50.407510
11
-29.487935
21
-50.638123
0
LINE
8
Layer 1
10
-29.487935
20
-50.638123
11
-29.393196
21
-51.084971
0
LINE
8
Layer 1
10
-29.393196
20
-51.084971
11
-29.291506
21
-51.861082
0
LINE
8
Layer 1
10
-29.291506
20
-51.861082
11
-28.905821
21
-51.084971
0
LINE
8
Layer 1
10
-28.905821
20
-51.084971
11
-28.641701
21
-50.646405
0
LINE
8
Layer 1
10
-28.641701
20
-50.646405
11
-28.257024
21
-50.414872
0
LINE
8
Layer 1
10
-28.257024
20
-50.414872
11
-26.208230
21
-50.308860
0
LINE
8
Layer 1
10
-26.208230
20
-50.308860
11
-23.896328
21
-50.308860
0
LINE
8
Layer 1
10
-23.896328
20
-50.308860
11
-23.533531
21
-53.249534
0
LINE
8
Layer 1
10
-23.533531
20
-53.249534
11
-23.327579
21
-55.457393
0
LINE
8
Layer 1
10
-23.327579
20
-55.457393
11
-23.341876
21
-56.636200
0
LINE
8
Layer 1
10
-23.341876
20
-56.636200
11
-23.526601
21
-56.855838
0
LINE
8
Layer 1
10
-23.526601
20
-56.855838
11
-23.935909
21
-56.992486
0
LINE
8
Layer 1
10
-23.935909
20
-56.992486
11
-25.786641
21
-57.082193
0
LINE
8
Layer 1
10
-25.786641
20
-57.082193
11
-27.773832
21
-56.981418
0
LINE
8
Layer 1
10
-27.773832
20
-56.981418
11
-28.128083
21
-56.770384
0
LINE
8
Layer 1
10
-28.128083
20
-56.770384
11
-28.328513
21
-56.376638
0
LINE
8
Layer 1
10
-28.328513
20
-56.376638
11
-28.753987
21
-55.803905
0
LINE
8
Layer 1
10
-28.753987
20
-55.803905
11
-29.700178
21
-55.671082
0
LINE
8
Layer 1
10
-29.700178
20
-55.671082
11
-30.671626
21
-55.816313
0
LINE
8
Layer 1
10
-30.671626
20
-55.816313
11
-31.265890
21
-56.376638
0
LINE
8
Layer 1
10
-31.265890
20
-56.376638
11
-31.728190
21
-57.082193
0
LINE
8
Layer 1
10
-31.728190
20
-57.082193
11
-39.765015
21
-57.082193
0
LINE
8
Layer 1
10
-39.765015
20
-57.082193
11
-46.123880
21
-57.008583
0
LINE
8
Layer 1
10
-46.123880
20
-57.008583
11
-47.421613
21
-56.900163
0
LINE
8
Layer 1
10
-47.421613
20
-56.900163
11
-47.796944
21
-56.729416
0
LINE
8
Layer 1
10
-47.796944
20
-56.729416
11
-47.796944
21
-56.729416
0
LINE
8
Layer 1
10
-31.591092
20
-55.798570
11
-31.290999
21
-55.413642
0
LINE
8
Layer 1
10
-31.290999
20
-55.413642
11
-30.937940
21
-55.208033
0
LINE
8
Layer 1
10
-30.937940
20
-55.208033
11
-29.512522
21
-55.163570
0
LINE
8
Layer 1
10
-29.512522
20
-55.163570
11
-28.160535
21
-55.340458
0
LINE
8
Layer 1
10
-28.160535
20
-55.340458
11
-27.913959
21
-55.543898
0
LINE
8
Layer 1
10
-27.913959
20
-55.543898
11
-27.814995
21
-55.882749
0
LINE
8
Layer 1
10
-27.814995
20
-55.882749
11
-27.714636
21
-56.230825
0
LINE
8
Layer 1
10
-27.714636
20
-56.230825
11
-27.437024
21
-56.421455
0
LINE
8
Layer 1
10
-27.437024
20
-56.421455
11
-25.736840
21
-56.517749
0
LINE
8
Layer 1
10
-25.736840
20
-56.517749
11
-23.748867
21
-56.517749
0
LINE
8
Layer 1
10
-23.748867
20
-56.517749
11
-23.910758
21
-55.318304
0
LINE
8
Layer 1
10
-23.910758
20
-55.318304
11
-24.257541
21
-52.496082
0
LINE
8
Layer 1
10
-24.257541
20
-52.496082
11
-24.442439
21
-50.873304
0
LINE
8
Layer 1
10
-24.442439
20
-50.873304
11
-26.270785
21
-50.873304
0
LINE
8
Layer 1
10
-26.270785
20
-50.873304
11
-27.807220
21
-50.971337
0
LINE
8
Layer 1
10
-27.807220
20
-50.971337
11
-28.107542
21
-51.142342
0
LINE
8
Layer 1
10
-28.107542
20
-51.142342
11
-28.246739
21
-51.437749
0
LINE
8
Layer 1
10
-28.246739
20
-51.437749
11
-28.573145
21
-51.880051
0
LINE
8
Layer 1
10
-28.573145
20
-51.880051
11
-29.368222
21
-52.002193
0
LINE
8
Layer 1
10
-29.368222
20
-52.002193
11
-30.140952
21
-51.903724
0
LINE
8
Layer 1
10
-30.140952
20
-51.903724
11
-30.223279
21
-51.732666
0
LINE
8
Layer 1
10
-30.223279
20
-51.732666
11
-30.162954
21
-51.437749
0
LINE
8
Layer 1
10
-30.162954
20
-51.437749
11
-30.110489
21
-51.128783
0
LINE
8
Layer 1
10
-30.110489
20
-51.128783
11
-30.279552
21
-50.959285
0
LINE
8
Layer 1
10
-30.279552
20
-50.959285
11
-31.746162
21
-50.873304
0
LINE
8
Layer 1
10
-31.746162
20
-50.873304
11
-33.359352
21
-51.011502
0
LINE
8
Layer 1
10
-33.359352
20
-51.011502
11
-33.812155
21
-51.286745
0
LINE
8
Layer 1
10
-33.812155
20
-51.286745
11
-34.280870
21
-51.790527
0
LINE
8
Layer 1
10
-34.280870
20
-51.790527
11
-35.053228
21
-52.707749
0
LINE
8
Layer 1
10
-35.053228
20
-52.707749
11
-35.338137
21
-51.970127
0
LINE
8
Layer 1
10
-35.338137
20
-51.970127
11
-35.636034
21
-51.425510
0
LINE
8
Layer 1
10
-35.636034
20
-51.425510
11
-36.081891
21
-51.089948
0
LINE
8
Layer 1
10
-36.081891
20
-51.089948
11
-36.772847
21
-50.920270
0
LINE
8
Layer 1
10
-36.772847
20
-50.920270
11
-37.806037
21
-50.873304
0
LINE
8
Layer 1
10
-37.806037
20
-50.873304
11
-39.052954
21
-50.873304
0
LINE
8
Layer 1
10
-39.052954
20
-50.873304
11
-39.052954
21
-51.967638
0
LINE
8
Layer 1
10
-39.052954
20
-51.967638
11
-39.151464
21
-52.816784
0
LINE
8
Layer 1
10
-39.151464
20
-52.816784
11
-39.472755
21
-53.356194
0
LINE
8
Layer 1
10
-39.472755
20
-53.356194
11
-40.055471
21
-53.620212
0
LINE
8
Layer 1
10
-40.055471
20
-53.620212
11
-40.938258
21
-53.643183
0
LINE
8
Layer 1
10
-40.938258
20
-53.643183
11
-42.016288
21
-53.554416
0
LINE
8
Layer 1
10
-42.016288
20
-53.554416
11
-41.947857
21
-52.213860
0
LINE
8
Layer 1
10
-41.947857
20
-52.213860
11
-41.879430
21
-50.873304
0
LINE
8
Layer 1
10
-41.879430
20
-50.873304
11
-43.677191
21
-50.873304
0
LINE
8
Layer 1
10
-43.677191
20
-50.873304
11
-45.063816
21
-50.968406
0
LINE
8
Layer 1
10
-45.063816
20
-50.968406
11
-45.747601
21
-51.226082
0
LINE
8
Layer 1
10
-45.747601
20
-51.226082
11
-46.506759
21
-53.413304
0
LINE
8
Layer 1
10
-46.506759
20
-53.413304
11
-47.127064
21
-55.718685
0
LINE
8
Layer 1
10
-47.127064
20
-55.718685
11
-47.088993
21
-56.098336
0
LINE
8
Layer 1
10
-47.088993
20
-56.098336
11
-46.755242
21
-56.320947
0
LINE
8
Layer 1
10
-46.755242
20
-56.320947
11
-39.155968
21
-56.485011
0
LINE
8
Layer 1
10
-39.155968
20
-56.485011
11
-32.062316
21
-56.517749
0
LINE
8
Layer 1
10
-32.062316
20
-56.517749
11
-31.591092
21
-55.798570
0
LINE
8
Layer 1
10
-31.591092
20
-55.798570
11
-31.591092
21
-55.798570
0
LINE
8
Layer 1
10
-40.063815
20
-52.959776
11
-39.740717
21
-52.692967
0
LINE
8
Layer 1
10
-39.740717
20
-52.692967
11
-39.633136
21
-52.285152
0
LINE
8
Layer 1
10
-39.633136
20
-52.285152
11
-39.741037
21
-51.829234
0
LINE
8
Layer 1
10
-39.741037
20
-51.829234
11
-40.064388
21
-51.418115
0
LINE
8
Layer 1
10
-40.064388
20
-51.418115
11
-40.516681
21
-51.199342
0
LINE
8
Layer 1
10
-40.516681
20
-51.199342
11
-40.981610
21
-51.343252
0
LINE
8
Layer 1
10
-40.981610
20
-51.343252
11
-41.343466
21
-51.651848
0
LINE
8
Layer 1
10
-41.343466
20
-51.651848
11
-41.535855
21
-51.988660
0
LINE
8
Layer 1
10
-41.535855
20
-51.988660
11
-41.478835
21
-52.629624
0
LINE
8
Layer 1
10
-41.478835
20
-52.629624
11
-40.943754
21
-53.031533
0
LINE
8
Layer 1
10
-40.943754
20
-53.031533
11
-40.538567
21
-53.069526
0
LINE
8
Layer 1
10
-40.538567
20
-53.069526
11
-40.063815
21
-52.959776
0
LINE
8
Layer 1
10
-40.063815
20
-52.959776
11
-40.063815
21
-52.959776
0
LINE
8
Layer 1
10
-21.156482
20
-56.816120
11
-22.327569
21
-56.422544
0
LINE
8
Layer 1
10
-22.327569
20
-56.422544
11
-22.632701
21
-55.905170
0
LINE
8
Layer 1
10
-22.632701
20
-55.905170
11
-22.929596
21
-54.856014
0
LINE
8
Layer 1
10
-22.929596
20
-54.856014
11
-23.311695
21
-52.002193
0
LINE
8
Layer 1
10
-23.311695
20
-52.002193
11
-23.389623
21
-50.449971
0
LINE
8
Layer 1
10
-23.389623
20
-50.449971
11
-21.272958
21
-50.449971
0
LINE
8
Layer 1
10
-21.272958
20
-50.449971
11
-19.156291
21
-50.449971
0
LINE
8
Layer 1
10
-19.156291
20
-50.449971
11
-19.067854
21
-51.367193
0
LINE
8
Layer 1
10
-19.067854
20
-51.367193
11
-18.956097
21
-52.016336
0
LINE
8
Layer 1
10
-18.956097
20
-52.016336
11
-18.778385
21
-52.231763
0
LINE
8
Layer 1
10
-18.778385
20
-52.231763
11
-18.520572
21
-52.013379
0
LINE
8
Layer 1
10
-18.520572
20
-52.013379
11
-18.168514
21
-51.361086
0
LINE
8
Layer 1
10
-18.168514
20
-51.361086
11
-17.894202
21
-50.854204
0
LINE
8
Layer 1
10
-17.894202
20
-50.854204
11
-17.561019
21
-50.570680
0
LINE
8
Layer 1
10
-17.561019
20
-50.570680
11
-16.063607
21
-50.363577
0
LINE
8
Layer 1
10
-16.063607
20
-50.363577
11
-13.705886
21
-50.446886
0
LINE
8
Layer 1
10
-13.705886
20
-50.446886
11
-13.355455
21
-50.570403
0
LINE
8
Layer 1
10
-13.355455
20
-50.570403
11
-13.167406
21
-50.765119
0
LINE
8
Layer 1
10
-13.167406
20
-50.765119
11
-13.149840
21
-51.645368
0
LINE
8
Layer 1
10
-13.149840
20
-51.645368
11
-13.187981
21
-52.371532
0
LINE
8
Layer 1
10
-13.187981
20
-52.371532
11
-12.967564
21
-52.143093
0
LINE
8
Layer 1
10
-12.967564
20
-52.143093
11
-12.347401
21
-51.225592
0
LINE
8
Layer 1
10
-12.347401
20
-51.225592
11
-11.669607
21
-50.665175
0
LINE
8
Layer 1
10
-11.669607
20
-50.665175
11
-10.792291
21
-50.385158
0
LINE
8
Layer 1
10
-10.792291
20
-50.385158
11
-9.573563
21
-50.308860
0
LINE
8
Layer 1
10
-9.573563
20
-50.308860
11
-7.979010
21
-50.406743
0
LINE
8
Layer 1
10
-7.979010
20
-50.406743
11
-7.763334
21
-50.620208
0
LINE
8
Layer 1
10
-7.763334
20
-50.620208
11
-7.726291
21
-51.024344
0
LINE
8
Layer 1
10
-7.726291
20
-51.024344
11
-7.629864
21
-51.565993
0
LINE
8
Layer 1
10
-7.629864
20
-51.565993
11
-7.161847
21
-51.437749
0
LINE
8
Layer 1
10
-7.161847
20
-51.437749
11
-6.763208
21
-51.102967
0
LINE
8
Layer 1
10
-6.763208
20
-51.102967
11
-6.597402
21
-50.722265
0
LINE
8
Layer 1
10
-6.597402
20
-50.722265
11
-6.405396
21
-50.535507
0
LINE
8
Layer 1
10
-6.405396
20
-50.535507
11
-5.897363
21
-50.398420
0
LINE
8
Layer 1
10
-5.897363
20
-50.398420
11
-4.341125
21
-50.277315
0
LINE
8
Layer 1
10
-4.341125
20
-50.277315
11
-2.744508
21
-50.367063
0
LINE
8
Layer 1
10
-2.744508
20
-50.367063
11
-2.186001
21
-50.493542
0
LINE
8
Layer 1
10
-2.186001
20
-50.493542
11
-1.923331
21
-50.675777
0
LINE
8
Layer 1
10
-1.923331
20
-50.675777
11
-1.720524
21
-53.991888
0
LINE
8
Layer 1
10
-1.720524
20
-53.991888
11
-1.658514
21
-56.941082
0
LINE
8
Layer 1
10
-1.658514
20
-56.941082
11
-3.986847
21
-57.023051
0
LINE
8
Layer 1
10
-3.986847
20
-57.023051
11
-6.315180
21
-57.105019
0
LINE
8
Layer 1
10
-6.315180
20
-57.105019
11
-6.315180
21
-56.246940
0
LINE
8
Layer 1
10
-6.315180
20
-56.246940
11
-6.340993
21
-55.753448
0
LINE
8
Layer 1
10
-6.340993
20
-55.753448
11
-6.513367
21
-55.498419
0
LINE
8
Layer 1
10
-6.513367
20
-55.498419
11
-7.867402
21
-55.388860
0
LINE
8
Layer 1
10
-7.867402
20
-55.388860
11
-9.157413
21
-55.485389
0
LINE
8
Layer 1
10
-9.157413
20
-55.485389
11
-9.369802
21
-55.658170
0
LINE
8
Layer 1
10
-9.369802
20
-55.658170
11
-9.419625
21
-55.960289
0
LINE
8
Layer 1
10
-9.419625
20
-55.960289
11
-9.613549
21
-56.452376
0
LINE
8
Layer 1
10
-9.613549
20
-56.452376
11
-10.143553
21
-56.806956
0
LINE
8
Layer 1
10
-10.143553
20
-56.806956
11
-12.029818
21
-56.985553
0
LINE
8
Layer 1
10
-12.029818
20
-56.985553
11
-15.469155
21
-57.047424
0
LINE
8
Layer 1
10
-15.469155
20
-57.047424
11
-18.998922
21
-56.991351
0
LINE
8
Layer 1
10
-18.998922
20
-56.991351
11
-21.156482
21
-56.816120
0
LINE
8
Layer 1
10
-21.156482
20
-56.816120
11
-21.156482
21
-56.816120
0
LINE
8
Layer 1
10
-9.984069
20
-55.640105
11
-9.984069
21
-54.824416
0
LINE
8
Layer 1
10
-9.984069
20
-54.824416
11
-7.867402
21
-54.824416
0
LINE
8
Layer 1
10
-7.867402
20
-54.824416
11
-5.750736
21
-54.824416
0
LINE
8
Layer 1
10
-5.750736
20
-54.824416
11
-5.750736
21
-55.684550
0
LINE
8
Layer 1
10
-5.750736
20
-55.684550
11
-5.750736
21
-56.544681
0
LINE
8
Layer 1
10
-5.750736
20
-56.544681
11
-3.986847
21
-56.460661
0
LINE
8
Layer 1
10
-3.986847
20
-56.460661
11
-2.222958
21
-56.376638
0
LINE
8
Layer 1
10
-2.222958
20
-56.376638
11
-2.305556
21
-54.148358
0
LINE
8
Layer 1
10
-2.305556
20
-54.148358
11
-2.425842
21
-52.361094
0
LINE
8
Layer 1
10
-2.425842
20
-52.361094
11
-2.722768
21
-51.377021
0
LINE
8
Layer 1
10
-2.722768
20
-51.377021
11
-2.986307
21
-51.112341
0
LINE
8
Layer 1
10
-2.986307
20
-51.112341
11
-3.352610
21
-50.959853
0
LINE
8
Layer 1
10
-3.352610
20
-50.959853
11
-4.471648
21
-50.873304
0
LINE
8
Layer 1
10
-4.471648
20
-50.873304
11
-5.744888
21
-50.978302
0
LINE
8
Layer 1
10
-5.744888
20
-50.978302
11
-6.024140
21
-51.150177
0
LINE
8
Layer 1
10
-6.024140
20
-51.150177
11
-6.174069
21
-51.437749
0
LINE
8
Layer 1
10
-6.174069
20
-51.437749
11
-6.531438
21
-51.878919
0
LINE
8
Layer 1
10
-6.531438
20
-51.878919
11
-7.348399
21
-52.002193
0
LINE
8
Layer 1
10
-7.348399
20
-52.002193
11
-8.161828
21
-51.881155
0
LINE
8
Layer 1
10
-8.161828
20
-51.881155
11
-8.491184
21
-51.437749
0
LINE
8
Layer 1
10
-8.491184
20
-51.437749
11
-8.620074
21
-51.153252
0
LINE
8
Layer 1
10
-8.620074
20
-51.153252
11
-8.868546
21
-50.981036
0
LINE
8
Layer 1
10
-8.868546
20
-50.981036
11
-9.990168
21
-50.873304
0
LINE
8
Layer 1
10
-9.990168
20
-50.873304
11
-10.771313
21
-50.899223
0
LINE
8
Layer 1
10
-10.771313
20
-50.899223
11
-11.263331
21
-51.054133
0
LINE
8
Layer 1
10
-11.263331
20
-51.054133
11
-11.649498
21
-51.453767
0
LINE
8
Layer 1
10
-11.649498
20
-51.453767
11
-12.113089
21
-52.213860
0
LINE
8
Layer 1
10
-12.113089
20
-52.213860
11
-13.339350
21
-54.080963
0
LINE
8
Layer 1
10
-13.339350
20
-54.080963
11
-13.594023
21
-54.328549
0
LINE
8
Layer 1
10
-13.594023
20
-54.328549
11
-13.747746
21
-54.264364
0
LINE
8
Layer 1
10
-13.747746
20
-54.264364
11
-13.935180
21
-52.810963
0
LINE
8
Layer 1
10
-13.935180
20
-52.810963
11
-14.076291
21
-51.014416
0
LINE
8
Layer 1
10
-14.076291
20
-51.014416
11
-15.707479
21
-50.929526
0
LINE
8
Layer 1
10
-15.707479
20
-50.929526
11
-17.338670
21
-50.844633
0
LINE
8
Layer 1
10
-17.338670
20
-50.844633
11
-17.764958
21
-51.864887
0
LINE
8
Layer 1
10
-17.764958
20
-51.864887
11
-18.241687
21
-52.601984
0
LINE
8
Layer 1
10
-18.241687
20
-52.601984
11
-18.782350
21
-52.838123
0
LINE
8
Layer 1
10
-18.782350
20
-52.838123
11
-19.291571
21
-52.575691
0
LINE
8
Layer 1
10
-19.291571
20
-52.575691
11
-19.673972
21
-51.817078
0
LINE
8
Layer 1
10
-19.673972
20
-51.817078
11
-20.001756
21
-51.195546
0
LINE
8
Layer 1
10
-20.001756
20
-51.195546
11
-20.533357
21
-50.823359
0
LINE
8
Layer 1
10
-20.533357
20
-50.823359
11
-21.225469
21
-50.717437
0
LINE
8
Layer 1
10
-21.225469
20
-50.717437
11
-22.034786
21
-50.894700
0
LINE
8
Layer 1
10
-22.034786
20
-50.894700
11
-22.375132
21
-51.073920
0
LINE
8
Layer 1
10
-22.375132
20
-51.073920
11
-22.569507
21
-51.355416
0
LINE
8
Layer 1
10
-22.569507
20
-51.355416
11
-22.668141
21
-52.630208
0
LINE
8
Layer 1
10
-22.668141
20
-52.630208
11
-22.562896
21
-54.047581
0
LINE
8
Layer 1
10
-22.562896
20
-54.047581
11
-22.288014
21
-55.142294
0
LINE
8
Layer 1
10
-22.288014
20
-55.142294
11
-21.854400
21
-55.886050
0
LINE
8
Layer 1
10
-21.854400
20
-55.886050
11
-21.272958
21
-56.250555
0
LINE
8
Layer 1
10
-21.272958
20
-56.250555
11
-15.275736
21
-56.442734
0
LINE
8
Layer 1
10
-15.275736
20
-56.442734
11
-9.984069
21
-56.455798
0
LINE
8
Layer 1
10
-9.984069
20
-56.455798
11
-9.984069
21
-55.640105
0
LINE
8
Layer 1
10
-9.984069
20
-55.640105
11
-9.984069
21
-55.640105
0
LINE
8
Layer 1
10
9.373240
20
-49.440538
11
8.857224
21
-48.636517
0
LINE
8
Layer 1
10
8.857224
20
-48.636517
11
8.642598
21
-47.922784
0
LINE
8
Layer 1
10
8.642598
20
-47.922784
11
8.774054
21
-47.080922
0
LINE
8
Layer 1
10
8.774054
20
-47.080922
11
9.135311
21
-46.147213
0
LINE
8
Layer 1
10
9.135311
20
-46.147213
11
9.676704
21
-45.223838
0
LINE
8
Layer 1
10
9.676704
20
-45.223838
11
10.348566
21
-44.412978
0
LINE
8
Layer 1
10
10.348566
20
-44.412978
11
11.226017
21
-43.535527
0
LINE
8
Layer 1
10
11.226017
20
-43.535527
11
14.609526
21
-43.535527
0
LINE
8
Layer 1
10
14.609526
20
-43.535527
11
17.159216
21
-43.621202
0
LINE
8
Layer 1
10
17.159216
20
-43.621202
11
18.538009
21
-43.827186
0
LINE
8
Layer 1
10
18.538009
20
-43.827186
11
19.043189
21
-44.296361
0
LINE
8
Layer 1
10
19.043189
20
-44.296361
11
19.566366
21
-45.102772
0
LINE
8
Layer 1
10
19.566366
20
-45.102772
11
20.026563
21
-46.098059
0
LINE
8
Layer 1
10
20.026563
20
-46.098059
11
20.342803
21
-47.133860
0
LINE
8
Layer 1
10
20.342803
20
-47.133860
11
20.432807
21
-47.732360
0
LINE
8
Layer 1
10
20.432807
20
-47.732360
11
20.169473
21
-48.024725
0
LINE
8
Layer 1
10
20.169473
20
-48.024725
11
19.259486
21
-48.103811
0
LINE
8
Layer 1
10
19.259486
20
-48.103811
11
17.409532
21
-48.062475
0
LINE
8
Layer 1
10
17.409532
20
-48.062475
11
15.850068
21
-47.896016
0
LINE
8
Layer 1
10
15.850068
20
-47.896016
11
14.897003
21
-47.461864
0
LINE
8
Layer 1
10
14.897003
20
-47.461864
11
14.074585
21
-47.040574
0
LINE
8
Layer 1
10
14.074585
20
-47.040574
11
14.029778
21
-47.292395
0
LINE
8
Layer 1
10
14.029778
20
-47.292395
11
14.296573
21
-47.613987
0
LINE
8
Layer 1
10
14.296573
20
-47.613987
11
15.658690
21
-48.376834
0
LINE
8
Layer 1
10
15.658690
20
-48.376834
11
17.314023
21
-49.284428
0
LINE
8
Layer 1
10
17.314023
20
-49.284428
11
17.787004
21
-49.711297
0
LINE
8
Layer 1
10
17.787004
20
-49.711297
11
17.955931
21
-50.070379
0
LINE
8
Layer 1
10
17.955931
20
-50.070379
11
16.802661
21
-50.238806
0
LINE
8
Layer 1
10
16.802661
20
-50.238806
11
14.029906
21
-50.308860
0
LINE
8
Layer 1
10
14.029906
20
-50.308860
11
10.103885
21
-50.308860
0
LINE
8
Layer 1
10
10.103885
20
-50.308860
11
9.373240
21
-49.440538
0
LINE
8
Layer 1
10
9.373240
20
-49.440538
11
9.373240
21
-49.440538
0
LINE
8
Layer 1
10
16.138101
20
-49.312108
11
15.242534
21
-48.897749
0
LINE
8
Layer 1
10
15.242534
20
-48.897749
11
14.703906
21
-48.672845
0
LINE
8
Layer 1
10
14.703906
20
-48.672845
11
14.011060
21
-48.144629
0
LINE
8
Layer 1
10
14.011060
20
-48.144629
11
13.412856
21
-47.532844
0
LINE
8
Layer 1
10
13.412856
20
-47.532844
11
13.158153
21
-47.057234
0
LINE
8
Layer 1
10
13.158153
20
-47.057234
11
13.352218
21
-46.626062
0
LINE
8
Layer 1
10
13.352218
20
-46.626062
11
13.860789
21
-46.478535
0
LINE
8
Layer 1
10
13.860789
20
-46.478535
11
14.573431
21
-46.615600
0
LINE
8
Layer 1
10
14.573431
20
-46.615600
11
15.379710
21
-47.038204
0
LINE
8
Layer 1
10
15.379710
20
-47.038204
11
16.546795
21
-47.619964
0
LINE
8
Layer 1
10
16.546795
20
-47.619964
11
18.041656
21
-47.768860
0
LINE
8
Layer 1
10
18.041656
20
-47.768860
11
19.382627
21
-47.672917
0
LINE
8
Layer 1
10
19.382627
20
-47.672917
11
19.599513
21
-47.498232
0
LINE
8
Layer 1
10
19.599513
20
-47.498232
11
19.649264
21
-47.190400
0
LINE
8
Layer 1
10
19.649264
20
-47.190400
11
19.523143
21
-46.497632
0
LINE
8
Layer 1
10
19.523143
20
-46.497632
11
19.180886
21
-45.739407
0
LINE
8
Layer 1
10
19.180886
20
-45.739407
11
18.676658
21
-45.010856
0
LINE
8
Layer 1
10
18.676658
20
-45.010856
11
18.064620
21
-44.407114
0
LINE
8
Layer 1
10
18.064620
20
-44.407114
11
17.597108
21
-44.110556
0
LINE
8
Layer 1
10
17.597108
20
-44.110556
11
17.031865
21
-43.930680
0
LINE
8
Layer 1
10
17.031865
20
-43.930680
11
15.086583
21
-43.817749
0
LINE
8
Layer 1
10
15.086583
20
-43.817749
11
12.941616
21
-43.985596
0
LINE
8
Layer 1
10
12.941616
20
-43.985596
11
11.359050
21
-44.521674
0
LINE
8
Layer 1
10
11.359050
20
-44.521674
11
10.751108
21
-44.943052
0
LINE
8
Layer 1
10
10.751108
20
-44.943052
11
10.250695
21
-45.474790
0
LINE
8
Layer 1
10
10.250695
20
-45.474790
11
9.528358
21
-46.893751
0
LINE
8
Layer 1
10
9.528358
20
-46.893751
11
9.295192
21
-47.635104
0
LINE
8
Layer 1
10
9.295192
20
-47.635104
11
9.255326
21
-48.097036
0
LINE
8
Layer 1
10
9.255326
20
-48.097036
11
9.444667
21
-48.483300
0
LINE
8
Layer 1
10
9.444667
20
-48.483300
11
9.899121
21
-48.997650
0
LINE
8
Layer 1
10
9.899121
20
-48.997650
11
10.351738
21
-49.417901
0
LINE
8
Layer 1
10
10.351738
20
-49.417901
11
10.917257
21
-49.639794
0
LINE
8
Layer 1
10
10.917257
20
-49.639794
11
13.638566
21
-49.735441
0
LINE
8
Layer 1
10
13.638566
20
-49.735441
11
16.101039
21
-49.660514
0
LINE
8
Layer 1
10
16.101039
20
-49.660514
11
16.340906
21
-49.534357
0
LINE
8
Layer 1
10
16.340906
20
-49.534357
11
16.138101
21
-49.312108
0
LINE
8
Layer 1
10
16.138101
20
-49.312108
11
16.138101
21
-49.312108
0
LINE
8
Layer 1
10
20.213709
20
-49.986802
11
20.673095
21
-48.724235
0
LINE
8
Layer 1
10
20.673095
20
-48.724235
11
21.707000
21
-46.532623
0
LINE
8
Layer 1
10
21.707000
20
-46.532623
11
22.799045
21
-44.450118
0
LINE
8
Layer 1
10
22.799045
20
-44.450118
11
23.432851
21
-43.514876
0
LINE
8
Layer 1
10
23.432851
20
-43.514876
11
26.359798
21
-43.567238
0
LINE
8
Layer 1
10
26.359798
20
-43.567238
11
27.590522
21
-43.711901
0
LINE
8
Layer 1
10
27.590522
20
-43.711901
11
28.163787
21
-43.895177
0
LINE
8
Layer 1
10
28.163787
20
-43.895177
11
28.446500
21
-45.068125
0
LINE
8
Layer 1
10
28.446500
20
-45.068125
11
28.839569
21
-48.544971
0
LINE
8
Layer 1
10
28.839569
20
-48.544971
11
29.018021
21
-50.308860
0
LINE
8
Layer 1
10
29.018021
20
-50.308860
11
24.615864
21
-50.308860
0
LINE
8
Layer 1
10
24.615864
20
-50.308860
11
21.248673
21
-50.233143
0
LINE
8
Layer 1
10
21.248673
20
-50.233143
11
20.464253
21
-50.133100
0
LINE
8
Layer 1
10
20.464253
20
-50.133100
11
20.213709
21
-49.986802
0
LINE
8
Layer 1
10
20.213709
20
-49.986802
11
20.213709
21
-49.986802
0
LINE
8
Layer 1
10
24.672820
20
-49.405749
11
25.011486
21
-49.208194
0
LINE
8
Layer 1
10
25.011486
20
-49.208194
11
25.350153
21
-49.405749
0
LINE
8
Layer 1
10
25.350153
20
-49.405749
11
25.996682
21
-49.644932
0
LINE
8
Layer 1
10
25.996682
20
-49.644932
11
27.075531
21
-49.744416
0
LINE
8
Layer 1
10
27.075531
20
-49.744416
11
28.462247
21
-49.744416
0
LINE
8
Layer 1
10
28.462247
20
-49.744416
11
28.295304
21
-48.544971
0
LINE
8
Layer 1
10
28.295304
20
-48.544971
11
27.939440
21
-45.793304
0
LINE
8
Layer 1
10
27.939440
20
-45.793304
11
27.714603
21
-44.636140
0
LINE
8
Layer 1
10
27.714603
20
-44.636140
11
27.439333
21
-44.033736
0
LINE
8
Layer 1
10
27.439333
20
-44.033736
11
25.413012
21
-43.822070
0
LINE
8
Layer 1
10
25.413012
20
-43.822070
11
23.697872
21
-43.817749
0
LINE
8
Layer 1
10
23.697872
20
-43.817749
11
22.378680
21
-46.569416
0
LINE
8
Layer 1
10
22.378680
20
-46.569416
11
21.059932
21
-49.532749
0
LINE
8
Layer 1
10
21.059932
20
-49.532749
11
21.573524
21
-49.712420
0
LINE
8
Layer 1
10
21.573524
20
-49.712420
11
22.730033
21
-49.737675
0
LINE
8
Layer 1
10
22.730033
20
-49.737675
11
23.954713
21
-49.628717
0
LINE
8
Layer 1
10
23.954713
20
-49.628717
11
24.672820
21
-49.405749
0
LINE
8
Layer 1
10
24.672820
20
-49.405749
11
24.672820
21
-49.405749
0
LINE
8
Layer 1
10
30.175547
20
-49.532749
11
30.829989
21
-46.146082
0
LINE
8
Layer 1
10
30.829989
20
-46.146082
11
31.329819
21
-43.535527
0
LINE
8
Layer 1
10
31.329819
20
-43.535527
11
36.213988
21
-43.535527
0
LINE
8
Layer 1
10
36.213988
20
-43.535527
11
41.098157
21
-43.535527
0
LINE
8
Layer 1
10
41.098157
20
-43.535527
11
41.094304
21
-44.593860
0
LINE
8
Layer 1
10
41.094304
20
-44.593860
11
41.039592
21
-45.931202
0
LINE
8
Layer 1
10
41.039592
20
-45.931202
11
40.925247
21
-46.344663
0
LINE
8
Layer 1
10
40.925247
20
-46.344663
11
40.707858
21
-46.623395
0
LINE
8
Layer 1
10
40.707858
20
-46.623395
11
39.828797
21
-46.882904
0
LINE
8
Layer 1
10
39.828797
20
-46.882904
11
38.132103
21
-46.922193
0
LINE
8
Layer 1
10
38.132103
20
-46.922193
11
35.976347
21
-47.010042
0
LINE
8
Layer 1
10
35.976347
20
-47.010042
11
35.530300
21
-47.151447
0
LINE
8
Layer 1
10
35.530300
20
-47.151447
11
35.336153
21
-47.385921
0
LINE
8
Layer 1
10
35.336153
20
-47.385921
11
35.243931
21
-47.935374
0
LINE
8
Layer 1
10
35.243931
20
-47.935374
11
37.857808
21
-48.247760
0
LINE
8
Layer 1
10
37.857808
20
-48.247760
11
39.928970
21
-48.527200
0
LINE
8
Layer 1
10
39.928970
20
-48.527200
11
40.334627
21
-48.715557
0
LINE
8
Layer 1
10
40.334627
20
-48.715557
11
40.483141
21
-48.981862
0
LINE
8
Layer 1
10
40.483141
20
-48.981862
11
40.449460
21
-49.694033
0
LINE
8
Layer 1
10
40.449460
20
-49.694033
11
40.209986
21
-49.927595
0
LINE
8
Layer 1
10
40.209986
20
-49.927595
11
39.761233
21
-50.094097
0
LINE
8
Layer 1
10
39.761233
20
-50.094097
11
38.053311
21
-50.269792
0
LINE
8
Layer 1
10
38.053311
20
-50.269792
11
34.960546
21
-50.308860
0
LINE
8
Layer 1
10
34.960546
20
-50.308860
11
30.020935
21
-50.308860
0
LINE
8
Layer 1
10
30.020935
20
-50.308860
11
30.175547
21
-49.532749
0
LINE
8
Layer 1
10
30.175547
20
-49.532749
11
30.175547
21
-49.532749
0
LINE
8
Layer 1
10
39.679135
20
-49.473053
11
39.900434
21
-49.218097
0
LINE
8
Layer 1
10
39.900434
20
-49.218097
11
39.575573
21
-49.037632
0
LINE
8
Layer 1
10
39.575573
20
-49.037632
11
37.005935
21
-48.832762
0
LINE
8
Layer 1
10
37.005935
20
-48.832762
11
35.050390
21
-48.669561
0
LINE
8
Layer 1
10
35.050390
20
-48.669561
11
34.762791
21
-48.449961
0
LINE
8
Layer 1
10
34.762791
20
-48.449961
11
34.675047
21
-48.051082
0
LINE
8
Layer 1
10
34.675047
20
-48.051082
11
34.703344
21
-47.251344
0
LINE
8
Layer 1
10
34.703344
20
-47.251344
11
35.105230
21
-46.770655
0
LINE
8
Layer 1
10
35.105230
20
-46.770655
11
36.048518
21
-46.517465
0
LINE
8
Layer 1
10
36.048518
20
-46.517465
11
37.701020
21
-46.400223
0
LINE
8
Layer 1
10
37.701020
20
-46.400223
11
39.873002
21
-46.226045
0
LINE
8
Layer 1
10
39.873002
20
-46.226045
11
40.190772
21
-46.031828
0
LINE
8
Layer 1
10
40.190772
20
-46.031828
11
40.255342
21
-45.694668
0
LINE
8
Layer 1
10
40.255342
20
-45.694668
11
40.429372
21
-44.452749
0
LINE
8
Layer 1
10
40.429372
20
-44.452749
11
40.599543
21
-43.817749
0
LINE
8
Layer 1
10
40.599543
20
-43.817749
11
36.228043
21
-43.817749
0
LINE
8
Layer 1
10
36.228043
20
-43.817749
11
31.856539
21
-43.817749
0
LINE
8
Layer 1
10
31.856539
20
-43.817749
11
31.397349
21
-46.327644
0
LINE
8
Layer 1
10
31.397349
20
-46.327644
11
30.938157
21
-49.290978
0
LINE
8
Layer 1
10
30.938157
20
-49.290978
11
31.077177
21
-49.528802
0
LINE
8
Layer 1
10
31.077177
20
-49.528802
11
31.655775
21
-49.665502
0
LINE
8
Layer 1
10
31.655775
20
-49.665502
11
35.100935
21
-49.740095
0
LINE
8
Layer 1
10
35.100935
20
-49.740095
11
38.162927
21
-49.659868
0
LINE
8
Layer 1
10
38.162927
20
-49.659868
11
39.679135
21
-49.473053
0
LINE
8
Layer 1
10
39.679135
20
-49.473053
11
39.679135
21
-49.473053
0
LINE
8
Layer 1
10
-46.108510
20
-49.411467
11
-45.378336
21
-46.024800
0
LINE
8
Layer 1
10
-45.378336
20
-46.024800
11
-44.648162
21
-42.971082
0
LINE
8
Layer 1
10
-44.648162
20
-42.971082
11
-40.195286
21
-42.971082
0
LINE
8
Layer 1
10
-40.195286
20
-42.971082
11
-36.328524
21
-43.062496
0
LINE
8
Layer 1
10
-36.328524
20
-43.062496
11
-35.528660
21
-43.236928
0
LINE
8
Layer 1
10
-35.528660
20
-43.236928
11
-35.005594
21
-43.550659
0
LINE
8
Layer 1
10
-35.005594
20
-43.550659
11
-34.517095
21
-44.055973
0
LINE
8
Layer 1
10
-34.517095
20
-44.055973
11
-34.156646
21
-44.680213
0
LINE
8
Layer 1
10
-34.156646
20
-44.680213
11
-33.826008
21
-46.145843
0
LINE
8
Layer 1
10
-33.826008
20
-46.145843
11
-34.025898
21
-47.668293
0
LINE
8
Layer 1
10
-34.025898
20
-47.668293
11
-34.328610
21
-48.363557
0
LINE
8
Layer 1
10
-34.328610
20
-48.363557
11
-34.768536
21
-48.968304
0
LINE
8
Layer 1
10
-34.768536
20
-48.968304
11
-35.489667
21
-49.744416
0
LINE
8
Layer 1
10
-35.489667
20
-49.744416
11
-40.799089
21
-49.744416
0
LINE
8
Layer 1
10
-40.799089
20
-49.744416
11
-44.912830
21
-49.669435
0
LINE
8
Layer 1
10
-44.912830
20
-49.669435
11
-45.826049
21
-49.566421
0
LINE
8
Layer 1
10
-45.826049
20
-49.566421
11
-46.108510
21
-49.411467
0
LINE
8
Layer 1
10
-46.108510
20
-49.411467
11
-46.108510
21
-49.411467
0
LINE
8
Layer 1
10
-35.130644
20
-48.501229
11
-34.672372
21
-47.679768
0
LINE
8
Layer 1
10
-34.672372
20
-47.679768
11
-34.507944
21
-46.511404
0
LINE
8
Layer 1
10
-34.507944
20
-46.511404
11
-34.641302
21
-45.298371
0
LINE
8
Layer 1
10
-34.641302
20
-45.298371
11
-35.076390
21
-44.342902
0
LINE
8
Layer 1
10
-35.076390
20
-44.342902
11
-35.466055
21
-43.965554
0
LINE
8
Layer 1
10
-35.466055
20
-43.965554
11
-36.127292
21
-43.766886
0
LINE
8
Layer 1
10
-36.127292
20
-43.766886
11
-39.933615
21
-43.676638
0
LINE
8
Layer 1
10
-39.933615
20
-43.676638
11
-44.251849
21
-43.676638
0
LINE
8
Layer 1
10
-44.251849
20
-43.676638
11
-44.745278
21
-45.793304
0
LINE
8
Layer 1
10
-44.745278
20
-45.793304
11
-45.250275
21
-48.563555
0
LINE
8
Layer 1
10
-45.250275
20
-48.563555
11
-45.261843
21
-49.217140
0
LINE
8
Layer 1
10
-45.261843
20
-49.217140
11
-40.492866
21
-49.128000
0
LINE
8
Layer 1
10
-40.492866
20
-49.128000
11
-36.426571
21
-48.963389
0
LINE
8
Layer 1
10
-36.426571
20
-48.963389
11
-35.596641
21
-48.788711
0
LINE
8
Layer 1
10
-35.596641
20
-48.788711
11
-35.130644
21
-48.501229
0
LINE
8
Layer 1
10
-35.130644
20
-48.501229
11
-35.130644
21
-48.501229
0
LINE
8
Layer 1
10
-40.891655
20
-48.044196
11
-40.885886
21
-46.915307
0
LINE
8
Layer 1
10
-40.885886
20
-46.915307
11
-40.571984
21
-46.225589
0
LINE
8
Layer 1
10
-40.571984
20
-46.225589
11
-39.792529
21
-46.075527
0
LINE
8
Layer 1
10
-39.792529
20
-46.075527
11
-39.051130
21
-46.175010
0
LINE
8
Layer 1
10
-39.051130
20
-46.175010
11
-38.544954
21
-46.414193
0
LINE
8
Layer 1
10
-38.544954
20
-46.414193
11
-38.283678
21
-46.863022
0
LINE
8
Layer 1
10
-38.283678
20
-46.863022
11
-38.220087
21
-47.393831
0
LINE
8
Layer 1
10
-38.220087
20
-47.393831
11
-38.345866
21
-47.871772
0
LINE
8
Layer 1
10
-38.345866
20
-47.871772
11
-38.652704
21
-48.161998
0
LINE
8
Layer 1
10
-38.652704
20
-48.161998
11
-39.962677
21
-48.323572
0
LINE
8
Layer 1
10
-39.962677
20
-48.323572
11
-40.558039
21
-48.234623
0
LINE
8
Layer 1
10
-40.558039
20
-48.234623
11
-40.891655
21
-48.044196
0
LINE
8
Layer 1
10
-40.891655
20
-48.044196
11
-40.891655
21
-48.044196
0
LINE
8
Layer 1
10
-38.911843
20
-47.208282
11
-39.063562
21
-46.887264
0
LINE
8
Layer 1
10
-39.063562
20
-46.887264
11
-39.427411
21
-46.700954
0
LINE
8
Layer 1
10
-39.427411
20
-46.700954
11
-39.866435
21
-46.684021
0
LINE
8
Layer 1
10
-39.866435
20
-46.684021
11
-40.243675
21
-46.871136
0
LINE
8
Layer 1
10
-40.243675
20
-46.871136
11
-40.385687
21
-47.166647
0
LINE
8
Layer 1
10
-40.385687
20
-47.166647
11
-40.328178
21
-47.478185
0
LINE
8
Layer 1
10
-40.328178
20
-47.478185
11
-39.988522
21
-47.698864
0
LINE
8
Layer 1
10
-39.988522
20
-47.698864
11
-39.514807
21
-47.703726
0
LINE
8
Layer 1
10
-39.514807
20
-47.703726
11
-39.093694
21
-47.528342
0
LINE
8
Layer 1
10
-39.093694
20
-47.528342
11
-38.911843
21
-47.208282
0
LINE
8
Layer 1
10
-38.911843
20
-47.208282
11
-38.911843
21
-47.208282
0
LINE
8
Layer 1
10
-33.408510
20
-49.454348
11
-31.956028
21
-46.067681
0
LINE
8
Layer 1
10
-31.956028
20
-46.067681
11
-30.503546
21
-42.971082
0
LINE
8
Layer 1
10
-30.503546
20
-42.971082
11
-27.733576
21
-42.971082
0
LINE
8
Layer 1
10
-27.733576
20
-42.971082
11
-24.963602
21
-42.971082
0
LINE
8
Layer 1
10
-24.963602
20
-42.971082
11
-24.692799
21
-44.029416
0
LINE
8
Layer 1
10
-24.692799
20
-44.029416
11
-24.229215
21
-47.416082
0
LINE
8
Layer 1
10
-24.229215
20
-47.416082
11
-24.036431
21
-49.744416
0
LINE
8
Layer 1
10
-24.036431
20
-49.744416
11
-28.722472
21
-49.744416
0
LINE
8
Layer 1
10
-28.722472
20
-49.744416
11
-32.198127
21
-49.669493
0
LINE
8
Layer 1
10
-32.198127
20
-49.669493
11
-33.408510
21
-49.454348
0
LINE
8
Layer 1
10
-33.408510
20
-49.454348
11
-33.408510
21
-49.454348
0
LINE
8
Layer 1
10
-29.336122
20
-48.558199
11
-28.900617
21
-47.936427
0
LINE
8
Layer 1
10
-28.900617
20
-47.936427
11
-28.321350
21
-48.558199
0
LINE
8
Layer 1
10
-28.321350
20
-48.558199
11
-27.542592
21
-49.055690
0
LINE
8
Layer 1
10
-27.542592
20
-49.055690
11
-26.164782
21
-49.179971
0
LINE
8
Layer 1
10
-26.164782
20
-49.179971
11
-24.587482
21
-49.179971
0
LINE
8
Layer 1
10
-24.587482
20
-49.179971
11
-24.755302
21
-48.121638
0
LINE
8
Layer 1
10
-24.755302
20
-48.121638
11
-25.108783
21
-45.471743
0
LINE
8
Layer 1
10
-25.108783
20
-45.471743
11
-25.233188
21
-44.559682
0
LINE
8
Layer 1
10
-25.233188
20
-44.559682
11
-25.404320
21
-44.066791
0
LINE
8
Layer 1
10
-25.404320
20
-44.066791
11
-25.729884
21
-43.836180
0
LINE
8
Layer 1
10
-25.729884
20
-43.836180
11
-26.317589
21
-43.710962
0
LINE
8
Layer 1
10
-26.317589
20
-43.710962
11
-28.678141
21
-43.538634
0
LINE
8
Layer 1
10
-28.678141
20
-43.538634
11
-30.015544
21
-43.535527
0
LINE
8
Layer 1
10
-30.015544
20
-43.535527
11
-31.110420
21
-45.722749
0
LINE
8
Layer 1
10
-31.110420
20
-45.722749
11
-32.094179
21
-47.735260
0
LINE
8
Layer 1
10
-32.094179
20
-47.735260
11
-32.429813
21
-48.760089
0
LINE
8
Layer 1
10
-32.429813
20
-48.760089
11
-32.356852
21
-49.006284
0
LINE
8
Layer 1
10
-32.356852
20
-49.006284
11
-32.124583
21
-49.130553
0
LINE
8
Layer 1
10
-32.124583
20
-49.130553
11
-31.185753
21
-49.179971
0
LINE
8
Layer 1
10
-31.185753
20
-49.179971
11
-29.965703
21
-49.056664
0
LINE
8
Layer 1
10
-29.965703
20
-49.056664
11
-29.336122
21
-48.558199
0
LINE
8
Layer 1
10
-29.336122
20
-48.558199
11
-29.336122
21
-48.558199
0
LINE
8
Layer 1
10
-17.522205
20
-47.851015
11
-17.279847
21
-45.715120
0
LINE
8
Layer 1
10
-17.279847
20
-45.715120
11
-16.970334
21
-44.197939
0
LINE
8
Layer 1
10
-16.970334
20
-44.197939
11
-16.582482
21
-43.260097
0
LINE
8
Layer 1
10
-16.582482
20
-43.260097
11
-16.105105
21
-42.862218
0
LINE
8
Layer 1
10
-16.105105
20
-42.862218
11
-14.021909
21
-42.697864
0
LINE
8
Layer 1
10
-14.021909
20
-42.697864
11
-12.123819
21
-42.860166
0
LINE
8
Layer 1
10
-12.123819
20
-42.860166
11
-11.806419
21
-43.235200
0
LINE
8
Layer 1
10
-11.806419
20
-43.235200
11
-11.712607
21
-44.069464
0
LINE
8
Layer 1
10
-11.712607
20
-44.069464
11
-12.199632
21
-47.345527
0
LINE
8
Layer 1
10
-12.199632
20
-47.345527
11
-12.674559
21
-49.603304
0
LINE
8
Layer 1
10
-12.674559
20
-49.603304
11
-15.181220
21
-49.685459
0
LINE
8
Layer 1
10
-15.181220
20
-49.685459
11
-17.687881
21
-49.767614
0
LINE
8
Layer 1
10
-17.687881
20
-49.767614
11
-17.522205
21
-47.851015
0
LINE
8
Layer 1
10
-17.522205
20
-47.851015
11
-17.522205
21
-47.851015
0
LINE
8
Layer 1
10
-13.437566
20
-48.945024
11
-13.062526
21
-48.140977
0
LINE
8
Layer 1
10
-13.062526
20
-48.140977
11
-12.661455
21
-46.525632
0
LINE
8
Layer 1
10
-12.661455
20
-46.525632
11
-12.304538
21
-44.563586
0
LINE
8
Layer 1
10
-12.304538
20
-44.563586
11
-12.332802
21
-43.599917
0
LINE
8
Layer 1
10
-12.332802
20
-43.599917
11
-12.543918
21
-43.381974
0
LINE
8
Layer 1
10
-12.543918
20
-43.381974
11
-12.914379
21
-43.281024
0
LINE
8
Layer 1
10
-12.914379
20
-43.281024
11
-14.217402
21
-43.253304
0
LINE
8
Layer 1
10
-14.217402
20
-43.253304
11
-16.193345
21
-43.323860
0
LINE
8
Layer 1
10
-16.193345
20
-43.323860
11
-16.616291
21
-45.793304
0
LINE
8
Layer 1
10
-16.616291
20
-45.793304
11
-16.959089
21
-47.824921
0
LINE
8
Layer 1
10
-16.959089
20
-47.824921
11
-16.959976
21
-48.821846
0
LINE
8
Layer 1
10
-16.959976
20
-48.821846
11
-16.791643
21
-49.046676
0
LINE
8
Layer 1
10
-16.791643
20
-49.046676
11
-16.489160
21
-49.150086
0
LINE
8
Layer 1
10
-16.489160
20
-49.150086
11
-15.416847
21
-49.175650
0
LINE
8
Layer 1
10
-15.416847
20
-49.175650
11
-14.166037
21
-49.106122
0
LINE
8
Layer 1
10
-14.166037
20
-49.106122
11
-13.437566
21
-48.945024
0
LINE
8
Layer 1
10
-13.437566
20
-48.945024
11
-13.437566
21
-48.945024
0
LINE
8
Layer 1
10
-10.960868
20
-49.479956
11
-10.800475
21
-48.851339
0
LINE
8
Layer 1
10
-10.800475
20
-48.851339
11
-10.188758
21
-47.487452
0
LINE
8
Layer 1
10
-10.188758
20
-47.487452
11
-8.117217
21
-43.599887
0
LINE
8
Layer 1
10
-8.117217
20
-43.599887
11
-7.585180
21
-42.676468
0
LINE
8
Layer 1
10
-7.585180
20
-42.676468
11
-5.197168
21
-42.753221
0
LINE
8
Layer 1
10
-5.197168
20
-42.753221
11
-2.809154
21
-42.829971
0
LINE
8
Layer 1
10
-2.809154
20
-42.829971
11
-2.623482
21
-43.741193
0
LINE
8
Layer 1
10
-2.623482
20
-43.741193
11
-2.238641
21
-47.198415
0
LINE
8
Layer 1
10
-2.238641
20
-47.198415
11
-2.039472
21
-49.744416
0
LINE
8
Layer 1
10
-2.039472
20
-49.744416
11
-6.418448
21
-49.744416
0
LINE
8
Layer 1
10
-6.418448
20
-49.744416
11
-9.562860
21
-49.666965
0
LINE
8
Layer 1
10
-9.562860
20
-49.666965
11
-10.960868
21
-49.479956
0
LINE
8
Layer 1
10
-10.960868
20
-49.479956
11
-10.960868
21
-49.479956
0
LINE
8
Layer 1
10
-7.254896
20
-48.761825
11
-6.700083
21
-48.484789
0
LINE
8
Layer 1
10
-6.700083
20
-48.484789
11
-6.310876
21
-48.761825
0
LINE
8
Layer 1
10
-6.310876
20
-48.761825
11
-5.658948
21
-49.074789
0
LINE
8
Layer 1
10
-5.658948
20
-49.074789
11
-4.404714
21
-49.179971
0
LINE
8
Layer 1
10
-4.404714
20
-49.179971
11
-2.845583
21
-49.179971
0
LINE
8
Layer 1
10
-2.845583
20
-49.179971
11
-3.007686
21
-46.462888
0
LINE
8
Layer 1
10
-3.007686
20
-46.462888
11
-3.198784
21
-44.467337
0
LINE
8
Layer 1
10
-3.198784
20
-44.467337
11
-3.430596
21
-43.485000
0
LINE
8
Layer 1
10
-3.430596
20
-43.485000
11
-4.145236
21
-43.325809
0
LINE
8
Layer 1
10
-4.145236
20
-43.325809
11
-5.497179
21
-43.309306
0
LINE
8
Layer 1
10
-5.497179
20
-43.309306
11
-7.302958
21
-43.394416
0
LINE
8
Layer 1
10
-7.302958
20
-43.394416
11
-8.783665
21
-46.075527
0
LINE
8
Layer 1
10
-8.783665
20
-46.075527
11
-10.265332
21
-48.968304
0
LINE
8
Layer 1
10
-10.265332
20
-48.968304
11
-9.881267
21
-49.158254
0
LINE
8
Layer 1
10
-9.881267
20
-49.158254
11
-8.988981
21
-49.169151
0
LINE
8
Layer 1
10
-8.988981
20
-49.169151
11
-7.982262
21
-49.028006
0
LINE
8
Layer 1
10
-7.982262
20
-49.028006
11
-7.254896
21
-48.761825
0
LINE
8
Layer 1
10
-7.254896
20
-48.761825
11
-7.254896
21
-48.761825
0
LINE
8
Layer 1
10
-33.695076
20
-40.749155
11
-35.253739
21
-40.109604
0
LINE
8
Layer 1
10
-35.253739
20
-40.109604
11
-36.815346
21
-39.231261
0
LINE
8
Layer 1
10
-36.815346
20
-39.231261
11
-38.175189
21
-38.244793
0
LINE
8
Layer 1
10
-38.175189
20
-38.244793
11
-39.128562
21
-37.280870
0
LINE
8
Layer 1
10
-39.128562
20
-37.280870
11
-40.130919
21
-35.802797
0
LINE
8
Layer 1
10
-40.130919
20
-35.802797
11
-40.714621
21
-34.482997
0
LINE
8
Layer 1
10
-40.714621
20
-34.482997
11
-40.967794
21
-33.029429
0
LINE
8
Layer 1
10
-40.967794
20
-33.029429
11
-40.978562
21
-31.150052
0
LINE
8
Layer 1
10
-40.978562
20
-31.150052
11
-40.778768
21
-28.831967
0
LINE
8
Layer 1
10
-40.778768
20
-28.831967
11
-40.360007
21
-27.385253
0
LINE
8
Layer 1
10
-40.360007
20
-27.385253
11
-39.123340
21
-25.523499
0
LINE
8
Layer 1
10
-39.123340
20
-25.523499
11
-37.463074
21
-23.942813
0
LINE
8
Layer 1
10
-37.463074
20
-23.942813
11
-35.563651
21
-22.785083
0
LINE
8
Layer 1
10
-35.563651
20
-22.785083
11
-34.581893
21
-22.409167
0
LINE
8
Layer 1
10
-34.581893
20
-22.409167
11
-33.609511
21
-22.192197
0
LINE
8
Layer 1
10
-33.609511
20
-22.192197
11
-32.517374
21
-22.148195
0
LINE
8
Layer 1
10
-32.517374
20
-22.148195
11
-32.287691
21
-22.309611
0
LINE
8
Layer 1
10
-32.287691
20
-22.309611
11
-32.145086
21
-22.630361
0
LINE
8
Layer 1
10
-32.145086
20
-22.630361
11
-32.087696
21
-23.141393
0
LINE
8
Layer 1
10
-32.087696
20
-23.141393
11
-32.291907
21
-23.613779
0
LINE
8
Layer 1
10
-32.291907
20
-23.613779
11
-32.799412
21
-24.103902
0
LINE
8
Layer 1
10
-32.799412
20
-24.103902
11
-33.651904
21
-24.668147
0
LINE
8
Layer 1
10
-33.651904
20
-24.668147
11
-35.250534
21
-25.791373
0
LINE
8
Layer 1
10
-35.250534
20
-25.791373
11
-36.324452
21
-26.972141
0
LINE
8
Layer 1
10
-36.324452
20
-26.972141
11
-36.928549
21
-28.292258
0
LINE
8
Layer 1
10
-36.928549
20
-28.292258
11
-37.117717
21
-29.833533
0
LINE
8
Layer 1
10
-37.117717
20
-29.833533
11
-36.885317
21
-31.694245
0
LINE
8
Layer 1
10
-36.885317
20
-31.694245
11
-36.165365
21
-33.242856
0
LINE
8
Layer 1
10
-36.165365
20
-33.242856
11
-34.923731
21
-34.528681
0
LINE
8
Layer 1
10
-34.923731
20
-34.528681
11
-33.126288
21
-35.601035
0
LINE
8
Layer 1
10
-33.126288
20
-35.601035
11
-31.627172
21
-36.128969
0
LINE
8
Layer 1
10
-31.627172
20
-36.128969
11
-30.074171
21
-36.352926
0
LINE
8
Layer 1
10
-30.074171
20
-36.352926
11
-28.516437
21
-36.288518
0
LINE
8
Layer 1
10
-28.516437
20
-36.288518
11
-27.003123
21
-35.951353
0
LINE
8
Layer 1
10
-27.003123
20
-35.951353
11
-25.583381
21
-35.357042
0
LINE
8
Layer 1
10
-25.583381
20
-35.357042
11
-24.306364
21
-34.521193
0
LINE
8
Layer 1
10
-24.306364
20
-34.521193
11
-23.221225
21
-33.459418
0
LINE
8
Layer 1
10
-23.221225
20
-33.459418
11
-22.377116
21
-32.187326
0
LINE
8
Layer 1
10
-22.377116
20
-32.187326
11
-21.978134
21
-31.152895
0
LINE
8
Layer 1
10
-21.978134
20
-31.152895
11
-21.870225
21
-30.122622
0
LINE
8
Layer 1
10
-21.870225
20
-30.122622
11
-22.055427
21
-29.040758
0
LINE
8
Layer 1
10
-22.055427
20
-29.040758
11
-22.535781
21
-27.851554
0
LINE
8
Layer 1
10
-22.535781
20
-27.851554
11
-23.382668
21
-26.659497
0
LINE
8
Layer 1
10
-23.382668
20
-26.659497
11
-24.610802
21
-25.545259
0
LINE
8
Layer 1
10
-24.610802
20
-25.545259
11
-26.013631
21
-24.665393
0
LINE
8
Layer 1
10
-26.013631
20
-24.665393
11
-27.384603
21
-24.176454
0
LINE
8
Layer 1
10
-27.384603
20
-24.176454
11
-28.217089
21
-23.871159
0
LINE
8
Layer 1
10
-28.217089
20
-23.871159
11
-28.783932
21
-23.364666
0
LINE
8
Layer 1
10
-28.783932
20
-23.364666
11
-29.026667
21
-22.738752
0
LINE
8
Layer 1
10
-29.026667
20
-22.738752
11
-28.886833
21
-22.075194
0
LINE
8
Layer 1
10
-28.886833
20
-22.075194
11
-28.655637
21
-21.748238
0
LINE
8
Layer 1
10
-28.655637
20
-21.748238
11
-28.309292
21
-21.578012
0
LINE
8
Layer 1
10
-28.309292
20
-21.578012
11
-26.679553
21
-21.573208
0
LINE
8
Layer 1
10
-26.679553
20
-21.573208
11
-24.297259
21
-22.011832
0
LINE
8
Layer 1
10
-24.297259
20
-22.011832
11
-22.110681
21
-22.990590
0
LINE
8
Layer 1
10
-22.110681
20
-22.990590
11
-20.237054
21
-24.439385
0
LINE
8
Layer 1
10
-20.237054
20
-24.439385
11
-19.454234
21
-25.318142
0
LINE
8
Layer 1
10
-19.454234
20
-25.318142
11
-18.793616
21
-26.288122
0
LINE
8
Layer 1
10
-18.793616
20
-26.288122
11
-18.383235
21
-27.077861
0
LINE
8
Layer 1
10
-18.383235
20
-27.077861
11
-18.138937
21
-27.891677
0
LINE
8
Layer 1
10
-18.138937
20
-27.891677
11
-17.928794
21
-30.717236
0
LINE
8
Layer 1
10
-17.928794
20
-30.717236
11
-17.952605
21
-33.578388
0
LINE
8
Layer 1
10
-17.952605
20
-33.578388
11
-18.153505
21
-34.392228
0
LINE
8
Layer 1
10
-18.153505
20
-34.392228
11
-18.539636
21
-35.232792
0
LINE
8
Layer 1
10
-18.539636
20
-35.232792
11
-19.329662
21
-36.444353
0
LINE
8
Layer 1
10
-19.329662
20
-36.444353
11
-20.441730
21
-37.723164
0
LINE
8
Layer 1
10
-20.441730
20
-37.723164
11
-21.713468
21
-38.901835
0
LINE
8
Layer 1
10
-21.713468
20
-38.901835
11
-22.982505
21
-39.812976
0
LINE
8
Layer 1
10
-22.982505
20
-39.812976
11
-24.023024
21
-40.312978
0
LINE
8
Layer 1
10
-24.023024
20
-40.312978
11
-25.263048
21
-40.713538
0
LINE
8
Layer 1
10
-25.263048
20
-40.713538
11
-28.113204
21
-41.196369
0
LINE
8
Layer 1
10
-28.113204
20
-41.196369
11
-31.076153
21
-41.221549
0
LINE
8
Layer 1
10
-31.076153
20
-41.221549
11
-32.457169
21
-41.050044
0
LINE
8
Layer 1
10
-32.457169
20
-41.050044
11
-33.695076
21
-40.749155
0
LINE
8
Layer 1
10
-33.695076
20
-40.749155
11
-33.695076
21
-40.749155
0
LINE
8
Layer 1
10
-24.347807
20
-39.672554
11
-22.734001
21
-38.794834
0
LINE
8
Layer 1
10
-22.734001
20
-38.794834
11
-21.363594
21
-37.759839
0
LINE
8
Layer 1
10
-21.363594
20
-37.759839
11
-20.210568
21
-36.544364
0
LINE
8
Layer 1
10
-20.210568
20
-36.544364
11
-19.248905
21
-35.125206
0
LINE
8
Layer 1
10
-19.248905
20
-35.125206
11
-18.748406
21
-34.188776
0
LINE
8
Layer 1
10
-18.748406
20
-34.188776
11
-18.486860
21
-33.405452
0
LINE
8
Layer 1
10
-18.486860
20
-33.405452
11
-18.418015
21
-30.991672
0
LINE
8
Layer 1
10
-18.418015
20
-30.991672
11
-18.729894
21
-28.308628
0
LINE
8
Layer 1
10
-18.729894
20
-28.308628
11
-19.071154
21
-27.198397
0
LINE
8
Layer 1
10
-19.071154
20
-27.198397
11
-19.549807
21
-26.219248
0
LINE
8
Layer 1
10
-19.549807
20
-26.219248
11
-20.176238
21
-25.353846
0
LINE
8
Layer 1
10
-20.176238
20
-25.353846
11
-20.960833
21
-24.584858
0
LINE
8
Layer 1
10
-20.960833
20
-24.584858
11
-21.913976
21
-23.894949
0
LINE
8
Layer 1
10
-21.913976
20
-23.894949
11
-23.046053
21
-23.266787
0
LINE
8
Layer 1
10
-23.046053
20
-23.266787
11
-24.680113
21
-22.569699
0
LINE
8
Layer 1
10
-24.680113
20
-22.569699
11
-26.219960
21
-22.095991
0
LINE
8
Layer 1
10
-26.219960
20
-22.095991
11
-27.439086
21
-21.900594
0
LINE
8
Layer 1
10
-27.439086
20
-21.900594
11
-28.110984
21
-22.038443
0
LINE
8
Layer 1
10
-28.110984
20
-22.038443
11
-28.290599
21
-22.408467
0
LINE
8
Layer 1
10
-28.290599
20
-22.408467
11
-28.190095
21
-22.819014
0
LINE
8
Layer 1
10
-28.190095
20
-22.819014
11
-27.841814
21
-23.212162
0
LINE
8
Layer 1
10
-27.841814
20
-23.212162
11
-27.278098
21
-23.529993
0
LINE
8
Layer 1
10
-27.278098
20
-23.529993
11
-25.008699
21
-24.542161
0
LINE
8
Layer 1
10
-25.008699
20
-24.542161
11
-23.524890
21
-25.653269
0
LINE
8
Layer 1
10
-23.524890
20
-25.653269
11
-22.538028
21
-26.669260
0
LINE
8
Layer 1
10
-22.538028
20
-26.669260
11
-21.905256
21
-27.659943
0
LINE
8
Layer 1
10
-21.905256
20
-27.659943
11
-21.571346
21
-28.743842
0
LINE
8
Layer 1
10
-21.571346
20
-28.743842
11
-21.481069
21
-30.039482
0
LINE
8
Layer 1
10
-21.481069
20
-30.039482
11
-21.566281
21
-31.064296
0
LINE
8
Layer 1
10
-21.566281
20
-31.064296
11
-21.798348
21
-32.040755
0
LINE
8
Layer 1
10
-21.798348
20
-32.040755
11
-22.170503
21
-32.959196
0
LINE
8
Layer 1
10
-22.170503
20
-32.959196
11
-22.675975
21
-33.809954
0
LINE
8
Layer 1
10
-22.675975
20
-33.809954
11
-24.059798
21
-35.269762
0
LINE
8
Layer 1
10
-24.059798
20
-35.269762
11
-25.895666
21
-36.342862
0
LINE
8
Layer 1
10
-25.895666
20
-36.342862
11
-27.267054
21
-36.654940
0
LINE
8
Layer 1
10
-27.267054
20
-36.654940
11
-29.128787
21
-36.749562
0
LINE
8
Layer 1
10
-29.128787
20
-36.749562
11
-31.129251
21
-36.629083
0
LINE
8
Layer 1
10
-31.129251
20
-36.629083
11
-32.916831
21
-36.295855
0
LINE
8
Layer 1
10
-32.916831
20
-36.295855
11
-34.436182
21
-35.659868
0
LINE
8
Layer 1
10
-34.436182
20
-35.659868
11
-35.733944
21
-34.691099
0
LINE
8
Layer 1
10
-35.733944
20
-34.691099
11
-36.755951
21
-33.441349
0
LINE
8
Layer 1
10
-36.755951
20
-33.441349
11
-37.448038
21
-31.962420
0
LINE
8
Layer 1
10
-37.448038
20
-31.962420
11
-37.753601
21
-30.787752
0
LINE
8
Layer 1
10
-37.753601
20
-30.787752
11
-37.870854
21
-29.711162
0
LINE
8
Layer 1
10
-37.870854
20
-29.711162
11
-37.792121
21
-28.714595
0
LINE
8
Layer 1
10
-37.792121
20
-28.714595
11
-37.509724
21
-27.779992
0
LINE
8
Layer 1
10
-37.509724
20
-27.779992
11
-37.015984
21
-26.889299
0
LINE
8
Layer 1
10
-37.015984
20
-26.889299
11
-36.303224
21
-26.024459
0
LINE
8
Layer 1
10
-36.303224
20
-26.024459
11
-34.189932
21
-24.300109
0
LINE
8
Layer 1
10
-34.189932
20
-24.300109
11
-33.056209
21
-23.413503
0
LINE
8
Layer 1
10
-33.056209
20
-23.413503
11
-32.769934
21
-22.904849
0
LINE
8
Layer 1
10
-32.769934
20
-22.904849
11
-33.313197
21
-22.815803
0
LINE
8
Layer 1
10
-33.313197
20
-22.815803
11
-34.668087
21
-23.188024
0
LINE
8
Layer 1
10
-34.668087
20
-23.188024
11
-36.034707
21
-23.768093
0
LINE
8
Layer 1
10
-36.034707
20
-23.768093
11
-37.216433
21
-24.483105
0
LINE
8
Layer 1
10
-37.216433
20
-24.483105
11
-38.213870
21
-25.333945
0
LINE
8
Layer 1
10
-38.213870
20
-25.333945
11
-39.027622
21
-26.321496
0
LINE
8
Layer 1
10
-39.027622
20
-26.321496
11
-39.658293
21
-27.446642
0
LINE
8
Layer 1
10
-39.658293
20
-27.446642
11
-40.106489
21
-28.710267
0
LINE
8
Layer 1
10
-40.106489
20
-28.710267
11
-40.372812
21
-30.113256
0
LINE
8
Layer 1
10
-40.372812
20
-30.113256
11
-40.457868
21
-31.656491
0
LINE
8
Layer 1
10
-40.457868
20
-31.656491
11
-40.334198
21
-33.065236
0
LINE
8
Layer 1
10
-40.334198
20
-33.065236
11
-39.976924
21
-34.391982
0
LINE
8
Layer 1
10
-39.976924
20
-34.391982
11
-39.392178
21
-35.629420
0
LINE
8
Layer 1
10
-39.392178
20
-35.629420
11
-38.586097
21
-36.770239
0
LINE
8
Layer 1
10
-38.586097
20
-36.770239
11
-37.564812
21
-37.807130
0
LINE
8
Layer 1
10
-37.564812
20
-37.807130
11
-36.334460
21
-38.732782
0
LINE
8
Layer 1
10
-36.334460
20
-38.732782
11
-34.901172
21
-39.539886
0
LINE
8
Layer 1
10
-34.901172
20
-39.539886
11
-33.271085
21
-40.221131
0
LINE
8
Layer 1
10
-33.271085
20
-40.221131
11
-31.560442
21
-40.599668
0
LINE
8
Layer 1
10
-31.560442
20
-40.599668
11
-29.034065
21
-40.630323
0
LINE
8
Layer 1
10
-29.034065
20
-40.630323
11
-26.381020
21
-40.399437
0
LINE
8
Layer 1
10
-26.381020
20
-40.399437
11
-24.347807
21
-39.672554
0
LINE
8
Layer 1
10
-24.347807
20
-39.672554
11
-24.347807
21
-39.672554
0
LINE
8
Layer 1
10
18.371376
20
-40.478620
11
16.203928
21
-39.461436
0
LINE
8
Layer 1
10
16.203928
20
-39.461436
11
14.342620
21
-38.134381
0
LINE
8
Layer 1
10
14.342620
20
-38.134381
11
12.802113
21
-36.510172
0
LINE
8
Layer 1
10
12.802113
20
-36.510172
11
11.597066
21
-34.601528
0
LINE
8
Layer 1
10
11.597066
20
-34.601528
11
10.908336
21
-32.821633
0
LINE
8
Layer 1
10
10.908336
20
-32.821633
11
10.762157
21
-30.547369
0
LINE
8
Layer 1
10
10.762157
20
-30.547369
11
10.912635
21
-28.226907
0
LINE
8
Layer 1
10
10.912635
20
-28.226907
11
11.690267
21
-26.251408
0
LINE
8
Layer 1
10
11.690267
20
-26.251408
11
12.511327
21
-24.794791
0
LINE
8
Layer 1
10
12.511327
20
-24.794791
11
13.396908
21
-23.629788
0
LINE
8
Layer 1
10
13.396908
20
-23.629788
11
14.347493
21
-22.755864
0
LINE
8
Layer 1
10
14.347493
20
-22.755864
11
15.363565
21
-22.172481
0
LINE
8
Layer 1
10
15.363565
20
-22.172481
11
16.265144
21
-21.917463
0
LINE
8
Layer 1
10
16.265144
20
-21.917463
11
16.973467
21
-22.205278
0
LINE
8
Layer 1
10
16.973467
20
-22.205278
11
17.623525
21
-22.786473
0
LINE
8
Layer 1
10
17.623525
20
-22.786473
11
17.813436
21
-23.482561
0
LINE
8
Layer 1
10
17.813436
20
-23.482561
11
17.535022
21
-24.446991
0
LINE
8
Layer 1
10
17.535022
20
-24.446991
11
16.780106
21
-25.833208
0
LINE
8
Layer 1
10
16.780106
20
-25.833208
11
15.770274
21
-27.784504
0
LINE
8
Layer 1
10
15.770274
20
-27.784504
11
15.598783
21
-28.554969
0
LINE
8
Layer 1
10
15.598783
20
-28.554969
11
15.557042
21
-29.463289
0
LINE
8
Layer 1
10
15.557042
20
-29.463289
11
15.758881
21
-30.978821
0
LINE
8
Layer 1
10
15.758881
20
-30.978821
11
16.376632
21
-32.282219
0
LINE
8
Layer 1
10
16.376632
20
-32.282219
11
17.428640
21
-33.400088
0
LINE
8
Layer 1
10
17.428640
20
-33.400088
11
18.933255
21
-34.359034
0
LINE
8
Layer 1
10
18.933255
20
-34.359034
11
20.706663
21
-35.012581
0
LINE
8
Layer 1
10
20.706663
20
-35.012581
11
22.506077
21
-35.226185
0
LINE
8
Layer 1
10
22.506077
20
-35.226185
11
24.250059
21
-35.038559
0
LINE
8
Layer 1
10
24.250059
20
-35.038559
11
25.857171
21
-34.488413
0
LINE
8
Layer 1
10
25.857171
20
-34.488413
11
27.245976
21
-33.614459
0
LINE
8
Layer 1
10
27.245976
20
-33.614459
11
28.335036
21
-32.455408
0
LINE
8
Layer 1
10
28.335036
20
-32.455408
11
29.042913
21
-31.049971
0
LINE
8
Layer 1
10
29.042913
20
-31.049971
11
29.288170
21
-29.436859
0
LINE
8
Layer 1
10
29.288170
20
-29.436859
11
29.182014
21
-28.360523
0
LINE
8
Layer 1
10
29.182014
20
-28.360523
11
28.886318
21
-27.372716
0
LINE
8
Layer 1
10
28.886318
20
-27.372716
11
28.409260
21
-26.481584
0
LINE
8
Layer 1
10
28.409260
20
-26.481584
11
27.759019
21
-25.695274
0
LINE
8
Layer 1
10
27.759019
20
-25.695274
11
26.943773
21
-25.021930
0
LINE
8
Layer 1
10
26.943773
20
-25.021930
11
25.971701
21
-24.469699
0
LINE
8
Layer 1
10
25.971701
20
-24.469699
11
24.850982
21
-24.046727
0
LINE
8
Layer 1
10
24.850982
20
-24.046727
11
23.589795
21
-23.761161
0
LINE
8
Layer 1
10
23.589795
20
-23.761161
11
20.930981
21
-23.220437
0
LINE
8
Layer 1
10
20.930981
20
-23.220437
11
20.479329
21
-22.891295
0
LINE
8
Layer 1
10
20.479329
20
-22.891295
11
20.207751
21
-22.354475
0
LINE
8
Layer 1
10
20.207751
20
-22.354475
11
20.005138
21
-21.504824
0
LINE
8
Layer 1
10
20.005138
20
-21.504824
11
20.418915
21
-20.728107
0
LINE
8
Layer 1
10
20.418915
20
-20.728107
11
20.794988
21
-20.301708
0
LINE
8
Layer 1
10
20.794988
20
-20.301708
11
21.277188
21
-20.077362
0
LINE
8
Layer 1
10
21.277188
20
-20.077362
11
23.635599
21
-19.987014
0
LINE
8
Layer 1
10
23.635599
20
-19.987014
11
26.165964
21
-20.150558
0
LINE
8
Layer 1
10
26.165964
20
-20.150558
11
27.086490
21
-20.436887
0
LINE
8
Layer 1
10
27.086490
20
-20.436887
11
28.196539
21
-20.947925
0
LINE
8
Layer 1
10
28.196539
20
-20.947925
11
30.028136
21
-22.076596
0
LINE
8
Layer 1
10
30.028136
20
-22.076596
11
31.685281
21
-23.591568
0
LINE
8
Layer 1
10
31.685281
20
-23.591568
11
33.057585
21
-25.234808
0
LINE
8
Layer 1
10
33.057585
20
-25.234808
11
33.900787
21
-26.733112
0
LINE
8
Layer 1
10
33.900787
20
-26.733112
11
34.328244
21
-28.365800
0
LINE
8
Layer 1
10
34.328244
20
-28.365800
11
34.453314
21
-30.412193
0
LINE
8
Layer 1
10
34.453314
20
-30.412193
11
34.326335
21
-32.803366
0
LINE
8
Layer 1
10
34.326335
20
-32.803366
11
34.077074
21
-33.640670
0
LINE
8
Layer 1
10
34.077074
20
-33.640670
11
33.634748
21
-34.592613
0
LINE
8
Layer 1
10
33.634748
20
-34.592613
11
32.633565
21
-36.202199
0
LINE
8
Layer 1
10
32.633565
20
-36.202199
11
31.355438
21
-37.663445
0
LINE
8
Layer 1
10
31.355438
20
-37.663445
11
29.857331
21
-38.920574
0
LINE
8
Layer 1
10
29.857331
20
-38.920574
11
28.196211
21
-39.917807
0
LINE
8
Layer 1
10
28.196211
20
-39.917807
11
27.068572
21
-40.434972
0
LINE
8
Layer 1
10
27.068572
20
-40.434972
11
26.091777
21
-40.725303
0
LINE
8
Layer 1
10
26.091777
20
-40.725303
11
23.042196
21
-40.929408
0
LINE
8
Layer 1
10
23.042196
20
-40.929408
11
20.155049
21
-40.884865
0
LINE
8
Layer 1
10
20.155049
20
-40.884865
11
18.371376
21
-40.478620
0
LINE
8
Layer 1
10
18.371376
20
-40.478620
11
18.371376
21
-40.478620
0
LINE
8
Layer 1
10
27.002876
20
-39.741142
11
28.389098
21
-39.094024
0
LINE
8
Layer 1
10
28.389098
20
-39.094024
11
29.628018
21
-38.340514
0
LINE
8
Layer 1
10
29.628018
20
-38.340514
11
30.716798
21
-37.483936
0
LINE
8
Layer 1
10
30.716798
20
-37.483936
11
31.652599
21
-36.527614
0
LINE
8
Layer 1
10
31.652599
20
-36.527614
11
32.432582
21
-35.474873
0
LINE
8
Layer 1
10
32.432582
20
-35.474873
11
33.053908
21
-34.329037
0
LINE
8
Layer 1
10
33.053908
20
-34.329037
11
33.513739
21
-33.093430
0
LINE
8
Layer 1
10
33.513739
20
-33.093430
11
33.809234
21
-31.771376
0
LINE
8
Layer 1
10
33.809234
20
-31.771376
11
33.883707
21
-29.752570
0
LINE
8
Layer 1
10
33.883707
20
-29.752570
11
33.502858
21
-27.804175
0
LINE
8
Layer 1
10
33.502858
20
-27.804175
11
32.711487
21
-25.978457
0
LINE
8
Layer 1
10
32.711487
20
-25.978457
11
31.554395
21
-24.327685
0
LINE
8
Layer 1
10
31.554395
20
-24.327685
11
30.076382
21
-22.904127
0
LINE
8
Layer 1
10
30.076382
20
-22.904127
11
28.322248
21
-21.760049
0
LINE
8
Layer 1
10
28.322248
20
-21.760049
11
26.336794
21
-20.947721
0
LINE
8
Layer 1
10
26.336794
20
-20.947721
11
24.164820
21
-20.519410
0
LINE
8
Layer 1
10
24.164820
20
-20.519410
11
22.671194
21
-20.463026
0
LINE
8
Layer 1
10
22.671194
20
-20.463026
11
21.614190
21
-20.629183
0
LINE
8
Layer 1
10
21.614190
20
-20.629183
11
20.985834
21
-21.020516
0
LINE
8
Layer 1
10
20.985834
20
-21.020516
11
20.778153
21
-21.639663
0
LINE
8
Layer 1
10
20.778153
20
-21.639663
11
20.858289
21
-22.192841
0
LINE
8
Layer 1
10
20.858289
20
-22.192841
11
21.229670
21
-22.553103
0
LINE
8
Layer 1
10
21.229670
20
-22.553103
11
22.088759
21
-22.820692
0
LINE
8
Layer 1
10
22.088759
20
-22.820692
11
23.632015
21
-23.095853
0
LINE
8
Layer 1
10
23.632015
20
-23.095853
11
25.385966
21
-23.512796
0
LINE
8
Layer 1
10
25.385966
20
-23.512796
11
26.848441
21
-24.171092
0
LINE
8
Layer 1
10
26.848441
20
-24.171092
11
28.074415
21
-25.103265
0
LINE
8
Layer 1
10
28.074415
20
-25.103265
11
29.118865
21
-26.341838
0
LINE
8
Layer 1
10
29.118865
20
-26.341838
11
29.604140
21
-27.252179
0
LINE
8
Layer 1
10
29.604140
20
-27.252179
11
29.887686
21
-28.258056
0
LINE
8
Layer 1
10
29.887686
20
-28.258056
11
29.976607
21
-29.319405
0
LINE
8
Layer 1
10
29.976607
20
-29.319405
11
29.878010
21
-30.396163
0
LINE
8
Layer 1
10
29.878010
20
-30.396163
11
29.599001
21
-31.448265
0
LINE
8
Layer 1
10
29.599001
20
-31.448265
11
29.146687
21
-32.435648
0
LINE
8
Layer 1
10
29.146687
20
-32.435648
11
28.528174
21
-33.318248
0
LINE
8
Layer 1
10
28.528174
20
-33.318248
11
27.750568
21
-34.056001
0
LINE
8
Layer 1
10
27.750568
20
-34.056001
11
26.598757
21
-34.813569
0
LINE
8
Layer 1
10
26.598757
20
-34.813569
11
25.424062
21
-35.298976
0
LINE
8
Layer 1
10
25.424062
20
-35.298976
11
24.073691
21
-35.557222
0
LINE
8
Layer 1
10
24.073691
20
-35.557222
11
22.394852
21
-35.633304
0
LINE
8
Layer 1
10
22.394852
20
-35.633304
11
20.221498
21
-35.499309
0
LINE
8
Layer 1
10
20.221498
20
-35.499309
11
18.630546
21
-34.929792
0
LINE
8
Layer 1
10
18.630546
20
-34.929792
11
17.420018
21
-34.218164
0
LINE
8
Layer 1
10
17.420018
20
-34.218164
11
16.492730
21
-33.412766
0
LINE
8
Layer 1
10
16.492730
20
-33.412766
11
15.802334
21
-32.463322
0
LINE
8
Layer 1
10
15.802334
20
-32.463322
11
15.302483
21
-31.319552
0
LINE
8
Layer 1
10
15.302483
20
-31.319552
11
14.919028
21
-29.745094
0
LINE
8
Layer 1
10
14.919028
20
-29.745094
11
14.946931
21
-28.352621
0
LINE
8
Layer 1
10
14.946931
20
-28.352621
11
15.420719
21
-26.949747
0
LINE
8
Layer 1
10
15.420719
20
-26.949747
11
16.374922
21
-25.344083
0
LINE
8
Layer 1
10
16.374922
20
-25.344083
11
16.910307
21
-24.346076
0
LINE
8
Layer 1
10
16.910307
20
-24.346076
11
17.059137
21
-23.534768
0
LINE
8
Layer 1
10
17.059137
20
-23.534768
11
16.825009
21
-22.968289
0
LINE
8
Layer 1
10
16.825009
20
-22.968289
11
16.211524
21
-22.704772
0
LINE
8
Layer 1
10
16.211524
20
-22.704772
11
15.305504
21
-22.926449
0
LINE
8
Layer 1
10
15.305504
20
-22.926449
11
14.269837
21
-23.695161
0
LINE
8
Layer 1
10
14.269837
20
-23.695161
11
13.232564
21
-24.889645
0
LINE
8
Layer 1
10
13.232564
20
-24.889645
11
12.321725
21
-26.388639
0
LINE
8
Layer 1
10
12.321725
20
-26.388639
11
11.612362
21
-28.214010
0
LINE
8
Layer 1
10
11.612362
20
-28.214010
11
11.464820
21
-30.460346
0
LINE
8
Layer 1
10
11.464820
20
-30.460346
11
11.573686
21
-32.295167
0
LINE
8
Layer 1
10
11.573686
20
-32.295167
11
11.949411
21
-33.806168
0
LINE
8
Layer 1
10
11.949411
20
-33.806168
11
12.665681
21
-35.188595
0
LINE
8
Layer 1
10
12.665681
20
-35.188595
11
13.796181
21
-36.637694
0
LINE
8
Layer 1
10
13.796181
20
-36.637694
11
15.615091
21
-38.340357
0
LINE
8
Layer 1
10
15.615091
20
-38.340357
11
17.644900
21
-39.513519
0
LINE
8
Layer 1
10
17.644900
20
-39.513519
11
19.973495
21
-40.194570
0
LINE
8
Layer 1
10
19.973495
20
-40.194570
11
22.688761
21
-40.420900
0
LINE
8
Layer 1
10
22.688761
20
-40.420900
11
25.127384
21
-40.295710
0
LINE
8
Layer 1
10
25.127384
20
-40.295710
11
27.002876
21
-39.741142
0
LINE
8
Layer 1
10
27.002876
20
-39.741142
11
27.002876
21
-39.741142
0
LINE
8
Layer 1
10
34.731906
20
-37.018121
11
34.581419
21
-36.415854
0
LINE
8
Layer 1
10
34.581419
20
-36.415854
11
34.566139
21
-35.529205
0
LINE
8
Layer 1
10
34.566139
20
-35.529205
11
34.670953
21
-34.655320
0
LINE
8
Layer 1
10
34.670953
20
-34.655320
11
34.880750
21
-34.091347
0
LINE
8
Layer 1
10
34.880750
20
-34.091347
11
35.432295
21
-33.688018
0
LINE
8
Layer 1
10
35.432295
20
-33.688018
11
36.393827
21
-33.248101
0
LINE
8
Layer 1
10
36.393827
20
-33.248101
11
39.130369
21
-32.369909
0
LINE
8
Layer 1
10
39.130369
20
-32.369909
11
42.257400
21
-31.679592
0
LINE
8
Layer 1
10
42.257400
20
-31.679592
11
44.941947
21
-31.399971
0
LINE
8
Layer 1
10
44.941947
20
-31.399971
11
45.600479
21
-31.504235
0
LINE
8
Layer 1
10
45.600479
20
-31.504235
11
46.056831
21
-31.797314
0
LINE
8
Layer 1
10
46.056831
20
-31.797314
11
46.283893
21
-32.249640
0
LINE
8
Layer 1
10
46.283893
20
-32.249640
11
46.254554
21
-32.831645
0
LINE
8
Layer 1
10
46.254554
20
-32.831645
11
46.117700
21
-33.171227
0
LINE
8
Layer 1
10
46.117700
20
-33.171227
11
45.756242
21
-33.450583
0
LINE
8
Layer 1
10
45.756242
20
-33.450583
11
43.355935
21
-34.356599
0
LINE
8
Layer 1
10
43.355935
20
-34.356599
11
38.944214
21
-36.161373
0
LINE
8
Layer 1
10
38.944214
20
-36.161373
11
37.243124
21
-36.869743
0
LINE
8
Layer 1
10
37.243124
20
-36.869743
11
35.999448
21
-37.243490
0
LINE
8
Layer 1
10
35.999448
20
-37.243490
11
35.175077
21
-37.290366
0
LINE
8
Layer 1
10
35.175077
20
-37.290366
11
34.731906
21
-37.018121
0
LINE
8
Layer 1
10
34.731906
20
-37.018121
11
34.731906
21
-37.018121
0
LINE
8
Layer 1
10
38.892661
20
-35.455332
11
43.265443
21
-33.709308
0
LINE
8
Layer 1
10
43.265443
20
-33.709308
11
44.934253
21
-33.004742
0
LINE
8
Layer 1
10
44.934253
20
-33.004742
11
45.562187
21
-32.446877
0
LINE
8
Layer 1
10
45.562187
20
-32.446877
11
45.464558
21
-32.089956
0
LINE
8
Layer 1
10
45.464558
20
-32.089956
11
44.857390
21
-31.981422
0
LINE
8
Layer 1
10
44.857390
20
-31.981422
11
41.337859
21
-32.523625
0
LINE
8
Layer 1
10
41.337859
20
-32.523625
11
38.200598
21
-33.208877
0
LINE
8
Layer 1
10
38.200598
20
-33.208877
11
36.322439
21
-33.867269
0
LINE
8
Layer 1
10
36.322439
20
-33.867269
11
35.763964
21
-34.233685
0
LINE
8
Layer 1
10
35.763964
20
-34.233685
11
35.410397
21
-34.650138
0
LINE
8
Layer 1
10
35.410397
20
-34.650138
11
35.225113
21
-35.135545
0
LINE
8
Layer 1
10
35.225113
20
-35.135545
11
35.171490
21
-35.708824
0
LINE
8
Layer 1
10
35.171490
20
-35.708824
11
35.265964
21
-36.437268
0
LINE
8
Layer 1
10
35.265964
20
-36.437268
11
35.435844
21
-36.609415
0
LINE
8
Layer 1
10
35.435844
20
-36.609415
11
35.733518
21
-36.650377
0
LINE
8
Layer 1
10
35.733518
20
-36.650377
11
36.850351
21
-36.329337
0
LINE
8
Layer 1
10
36.850351
20
-36.329337
11
38.892661
21
-35.455332
0
LINE
8
Layer 1
10
38.892661
20
-35.455332
11
38.892661
21
-35.455332
0
LINE
8
Layer 1
10
-14.711291
20
-31.642535
11
-14.994999
21
-31.156786
0
LINE
8
Layer 1
10
-14.994999
20
-31.156786
11
-15.038956
21
-30.573175
0
LINE
8
Layer 1
10
-15.038956
20
-30.573175
11
-14.852857
21
-29.972459
0
LINE
8
Layer 1
10
-14.852857
20
-29.972459
11
-14.446392
21
-29.435394
0
LINE
8
Layer 1
10
-14.446392
20
-29.435394
11
-13.651157
21
-28.903621
0
LINE
8
Layer 1
10
-13.651157
20
-28.903621
11
-12.401475
21
-28.320571
0
LINE
8
Layer 1
10
-12.401475
20
-28.320571
11
-8.975352
21
-27.130793
0
LINE
8
Layer 1
10
-8.975352
20
-27.130793
11
-5.041192
21
-26.126362
0
LINE
8
Layer 1
10
-5.041192
20
-26.126362
11
-1.472162
21
-25.567584
0
LINE
8
Layer 1
10
-1.472162
20
-25.567584
11
0.216878
21
-25.513633
0
LINE
8
Layer 1
10
0.216878
20
-25.513633
11
1.795890
21
-25.699305
0
LINE
8
Layer 1
10
1.795890
20
-25.699305
11
3.621149
21
-26.196016
0
LINE
8
Layer 1
10
3.621149
20
-26.196016
11
6.048930
21
-27.075181
0
LINE
8
Layer 1
10
6.048930
20
-27.075181
11
7.941495
21
-27.889200
0
LINE
8
Layer 1
10
7.941495
20
-27.889200
11
8.999067
21
-28.607870
0
LINE
8
Layer 1
10
8.999067
20
-28.607870
11
9.251279
21
-28.969763
0
LINE
8
Layer 1
10
9.251279
20
-28.969763
11
9.338601
21
-29.353795
0
LINE
8
Layer 1
10
9.338601
20
-29.353795
11
9.077050
21
-30.249577
0
LINE
8
Layer 1
10
9.077050
20
-30.249577
11
8.643738
21
-30.862723
0
LINE
8
Layer 1
10
8.643738
20
-30.862723
11
8.232382
21
-31.117749
0
LINE
8
Layer 1
10
8.232382
20
-31.117749
11
5.205741
21
-30.396259
0
LINE
8
Layer 1
10
5.205741
20
-30.396259
11
1.143554
21
-29.562567
0
LINE
8
Layer 1
10
1.143554
20
-29.562567
11
-2.750071
21
-29.330347
0
LINE
8
Layer 1
10
-2.750071
20
-29.330347
11
-4.625076
21
-29.439634
0
LINE
8
Layer 1
10
-4.625076
20
-29.439634
11
-6.447626
21
-29.699103
0
LINE
8
Layer 1
10
-6.447626
20
-29.699103
11
-8.214280
21
-30.108693
0
LINE
8
Layer 1
10
-8.214280
20
-30.108693
11
-9.921602
21
-30.668341
0
LINE
8
Layer 1
10
-9.921602
20
-30.668341
11
-13.352119
21
-31.790270
0
LINE
8
Layer 1
10
-13.352119
20
-31.790270
11
-14.219924
21
-31.860731
0
LINE
8
Layer 1
10
-14.219924
20
-31.860731
11
-14.711291
21
-31.642535
0
LINE
8
Layer 1
10
-14.711291
20
-31.642535
11
-14.711291
21
-31.642535
0
LINE
8
Layer 1
10
-11.899517
20
-30.798764
11
-7.642439
21
-29.314706
0
LINE
8
Layer 1
10
-7.642439
20
-29.314706
11
-5.759559
21
-28.879108
0
LINE
8
Layer 1
10
-5.759559
20
-28.879108
11
-3.947066
21
-28.640431
0
LINE
8
Layer 1
10
-3.947066
20
-28.640431
11
-2.134922
21
-28.593148
0
LINE
8
Layer 1
10
-2.134922
20
-28.593148
11
-0.253088
21
-28.731735
0
LINE
8
Layer 1
10
-0.253088
20
-28.731735
11
3.999805
21
-29.544411
0
LINE
8
Layer 1
10
3.999805
20
-29.544411
11
7.386895
21
-30.287280
0
LINE
8
Layer 1
10
7.386895
20
-30.287280
11
8.048068
21
-30.281928
0
LINE
8
Layer 1
10
8.048068
20
-30.281928
11
8.421849
21
-30.073332
0
LINE
8
Layer 1
10
8.421849
20
-30.073332
11
8.736604
21
-29.620837
0
LINE
8
Layer 1
10
8.736604
20
-29.620837
11
8.637368
21
-29.132420
0
LINE
8
Layer 1
10
8.637368
20
-29.132420
11
7.637112
21
-28.432963
0
LINE
8
Layer 1
10
7.637112
20
-28.432963
11
5.623533
21
-27.566162
0
LINE
8
Layer 1
10
5.623533
20
-27.566162
11
3.213178
21
-26.764539
0
LINE
8
Layer 1
10
3.213178
20
-26.764539
11
1.022597
21
-26.260617
0
LINE
8
Layer 1
10
1.022597
20
-26.260617
11
-1.241995
21
-26.104741
0
LINE
8
Layer 1
10
-1.241995
20
-26.104741
11
-4.069721
21
-26.548196
0
LINE
8
Layer 1
10
-4.069721
20
-26.548196
11
-8.611229
21
-27.686430
0
LINE
8
Layer 1
10
-8.611229
20
-27.686430
11
-12.138005
21
-28.979721
0
LINE
8
Layer 1
10
-12.138005
20
-28.979721
11
-13.367791
21
-29.615017
0
LINE
8
Layer 1
10
-13.367791
20
-29.615017
11
-14.160202
21
-30.205679
0
LINE
8
Layer 1
10
-14.160202
20
-30.205679
11
-14.454006
21
-30.723910
0
LINE
8
Layer 1
10
-14.454006
20
-30.723910
11
-14.187972
21
-31.141910
0
LINE
8
Layer 1
10
-14.187972
20
-31.141910
11
-13.837722
21
-31.328971
0
LINE
8
Layer 1
10
-13.837722
20
-31.328971
11
-13.471162
21
-31.353868
0
LINE
8
Layer 1
10
-13.471162
20
-31.353868
11
-11.899517
21
-30.798764
0
LINE
8
Layer 1
10
-11.899517
20
-30.798764
11
-11.899517
21
-30.798764
0
LINE
8
Layer 1
10
36.184044
20
-30.642221
11
35.586818
21
-29.823159
0
LINE
8
Layer 1
10
35.586818
20
-29.823159
11
35.502851
21
-29.427252
0
LINE
8
Layer 1
10
35.502851
20
-29.427252
11
35.569827
21
-29.017477
0
LINE
8
Layer 1
10
35.569827
20
-29.017477
11
36.180144
21
-28.087473
0
LINE
8
Layer 1
10
36.180144
20
-28.087473
11
37.464842
21
-26.895445
0
LINE
8
Layer 1
10
37.464842
20
-26.895445
11
40.256884
21
-24.839854
0
LINE
8
Layer 1
10
40.256884
20
-24.839854
11
42.861296
21
-23.409091
0
LINE
8
Layer 1
10
42.861296
20
-23.409091
11
43.986451
21
-22.975545
0
LINE
8
Layer 1
10
43.986451
20
-22.975545
11
44.936671
21
-22.755237
0
LINE
8
Layer 1
10
44.936671
20
-22.755237
11
45.669280
21
-22.767176
0
LINE
8
Layer 1
10
45.669280
20
-22.767176
11
46.141603
21
-23.030372
0
LINE
8
Layer 1
10
46.141603
20
-23.030372
11
46.352664
21
-23.482986
0
LINE
8
Layer 1
10
46.352664
20
-23.482986
11
46.165994
21
-23.973405
0
LINE
8
Layer 1
10
46.165994
20
-23.973405
11
45.510076
21
-24.596111
0
LINE
8
Layer 1
10
45.510076
20
-24.596111
11
44.313390
21
-25.445585
0
LINE
8
Layer 1
10
44.313390
20
-25.445585
11
42.346389
21
-26.963180
0
LINE
8
Layer 1
10
42.346389
20
-26.963180
11
40.037673
21
-28.997566
0
LINE
8
Layer 1
10
40.037673
20
-28.997566
11
37.213701
21
-31.399971
0
LINE
8
Layer 1
10
37.213701
20
-31.399971
11
36.184044
21
-30.642221
0
LINE
8
Layer 1
10
36.184044
20
-30.642221
11
36.184044
21
-30.642221
0
LINE
8
Layer 1
10
41.612098
20
-26.637209
11
44.504875
21
-24.616407
0
LINE
8
Layer 1
10
44.504875
20
-24.616407
11
45.189886
21
-24.181216
0
LINE
8
Layer 1
10
45.189886
20
-24.181216
11
45.552334
21
-23.760142
0
LINE
8
Layer 1
10
45.552334
20
-23.760142
11
45.571861
21
-23.395085
0
LINE
8
Layer 1
10
45.571861
20
-23.395085
11
45.228106
21
-23.127945
0
LINE
8
Layer 1
10
45.228106
20
-23.127945
11
44.171330
21
-23.445821
0
LINE
8
Layer 1
10
44.171330
20
-23.445821
11
42.204408
21
-24.459853
0
LINE
8
Layer 1
10
42.204408
20
-24.459853
11
39.963701
21
-25.812157
0
LINE
8
Layer 1
10
39.963701
20
-25.812157
11
38.085570
21
-27.144847
0
LINE
8
Layer 1
10
38.085570
20
-27.144847
11
36.801767
21
-28.238223
0
LINE
8
Layer 1
10
36.801767
20
-28.238223
11
36.190708
21
-28.970298
0
LINE
8
Layer 1
10
36.190708
20
-28.970298
11
36.153699
21
-29.539199
0
LINE
8
Layer 1
10
36.153699
20
-29.539199
11
36.592044
21
-30.143055
0
LINE
8
Layer 1
10
36.592044
20
-30.143055
11
37.288157
21
-30.887066
0
LINE
8
Layer 1
10
37.288157
20
-30.887066
11
38.558157
21
-29.489694
0
LINE
8
Layer 1
10
38.558157
20
-29.489694
11
41.612098
21
-26.637209
0
LINE
8
Layer 1
10
41.612098
20
-26.637209
11
41.612098
21
-26.637209
0
LINE
8
Layer 1
10
-16.572550
20
-24.110527
11
-16.927008
21
-23.535835
0
LINE
8
Layer 1
10
-16.927008
20
-23.535835
11
-17.012444
21
-22.917644
0
LINE
8
Layer 1
10
-17.012444
20
-22.917644
11
-16.831536
21
-22.290898
0
LINE
8
Layer 1
10
-16.831536
20
-22.290898
11
-16.386966
21
-21.690544
0
LINE
8
Layer 1
10
-16.386966
20
-21.690544
11
-15.144024
21
-20.891185
0
LINE
8
Layer 1
10
-15.144024
20
-20.891185
11
-13.107966
21
-20.105255
0
LINE
8
Layer 1
10
-13.107966
20
-20.105255
11
-10.427574
21
-19.360608
0
LINE
8
Layer 1
10
-10.427574
20
-19.360608
11
-7.251626
21
-18.685096
0
LINE
8
Layer 1
10
-7.251626
20
-18.685096
11
-3.728905
21
-18.106573
0
LINE
8
Layer 1
10
-3.728905
20
-18.106573
11
-0.008190
21
-17.652890
0
LINE
8
Layer 1
10
-0.008190
20
-17.652890
11
3.761738
21
-17.351901
0
LINE
8
Layer 1
10
3.761738
20
-17.351901
11
7.432099
21
-17.231459
0
LINE
8
Layer 1
10
7.432099
20
-17.231459
11
10.624913
21
-17.250645
0
LINE
8
Layer 1
10
10.624913
20
-17.250645
11
12.439811
21
-17.404251
0
LINE
8
Layer 1
10
12.439811
20
-17.404251
11
13.252922
21
-17.766044
0
LINE
8
Layer 1
10
13.252922
20
-17.766044
11
13.440375
21
-18.409790
0
LINE
8
Layer 1
10
13.440375
20
-18.409790
11
13.181554
21
-18.704928
0
LINE
8
Layer 1
10
13.181554
20
-18.704928
11
12.144583
21
-19.023558
0
LINE
8
Layer 1
10
12.144583
20
-19.023558
11
6.173153
21
-20.093409
0
LINE
8
Layer 1
10
6.173153
20
-20.093409
11
-3.449871
21
-21.853070
0
LINE
8
Layer 1
10
-3.449871
20
-21.853070
11
-11.559668
21
-23.787701
0
LINE
8
Layer 1
10
-11.559668
20
-23.787701
11
-13.790614
21
-24.349058
0
LINE
8
Layer 1
10
-13.790614
20
-24.349058
11
-15.194191
21
-24.578676
0
LINE
8
Layer 1
10
-15.194191
20
-24.578676
11
-16.033726
21
-24.493513
0
LINE
8
Layer 1
10
-16.033726
20
-24.493513
11
-16.572550
21
-24.110527
0
LINE
8
Layer 1
10
-16.572550
20
-24.110527
11
-16.572550
21
-24.110527
0
LINE
8
Layer 1
10
-9.071729
20
-22.548099
11
-1.025490
21
-20.711652
0
LINE
8
Layer 1
10
-1.025490
20
-20.711652
11
8.013741
21
-19.238172
0
LINE
8
Layer 1
10
8.013741
20
-19.238172
11
11.360592
21
-18.686442
0
LINE
8
Layer 1
10
11.360592
20
-18.686442
11
12.506076
21
-18.295070
0
LINE
8
Layer 1
10
12.506076
20
-18.295070
11
11.224956
21
-18.051762
0
LINE
8
Layer 1
10
11.224956
20
-18.051762
11
7.772710
21
-17.913861
0
LINE
8
Layer 1
10
7.772710
20
-17.913861
11
2.618844
21
-18.020951
0
LINE
8
Layer 1
10
2.618844
20
-18.020951
11
-2.535406
21
-18.506221
0
LINE
8
Layer 1
10
-2.535406
20
-18.506221
11
-7.536215
21
-19.349544
0
LINE
8
Layer 1
10
-7.536215
20
-19.349544
11
-12.229759
21
-20.530797
0
LINE
8
Layer 1
10
-12.229759
20
-20.530797
11
-14.498227
21
-21.297016
0
LINE
8
Layer 1
10
-14.498227
20
-21.297016
11
-15.831805
21
-21.994640
0
LINE
8
Layer 1
10
-15.831805
20
-21.994640
11
-16.184945
21
-22.346015
0
LINE
8
Layer 1
10
-16.184945
20
-22.346015
11
-16.348683
21
-22.714185
0
LINE
8
Layer 1
10
-16.348683
20
-22.714185
11
-16.337792
21
-23.110463
0
LINE
8
Layer 1
10
-16.337792
20
-23.110463
11
-16.167047
21
-23.546164
0
LINE
8
Layer 1
10
-16.167047
20
-23.546164
11
-15.805646
21
-23.931076
0
LINE
8
Layer 1
10
-15.805646
20
-23.931076
11
-14.901208
21
-23.949103
0
LINE
8
Layer 1
10
-14.901208
20
-23.949103
11
-9.071729
21
-22.548099
0
LINE
8
Layer 1
10
-9.071729
20
-22.548099
11
-9.071729
21
-22.548099
0
LINE
8
Layer 1
10
-29.486798
20
-18.952794
11
-29.815477
21
-18.524407
0
LINE
8
Layer 1
10
-29.815477
20
-18.524407
11
-29.953330
21
-18.036985
0
LINE
8
Layer 1
10
-29.953330
20
-18.036985
11
-29.874012
21
-17.441209
0
LINE
8
Layer 1
10
-29.874012
20
-17.441209
11
-29.551176
21
-16.687760
0
LINE
8
Layer 1
10
-29.551176
20
-16.687760
11
-28.069572
21
-14.510567
0
LINE
8
Layer 1
10
-28.069572
20
-14.510567
11
-25.297753
21
-11.110852
0
LINE
8
Layer 1
10
-25.297753
20
-11.110852
11
-19.565324
21
-4.804281
0
LINE
8
Layer 1
10
-19.565324
20
-4.804281
11
-13.874494
21
0.940057
0
LINE
8
Layer 1
10
-13.874494
20
0.940057
11
-11.697144
21
2.941193
0
LINE
8
Layer 1
10
-11.697144
20
2.941193
11
-6.376010
21
3.119176
0
LINE
8
Layer 1
10
-6.376010
20
3.119176
11
5.497601
21
3.118999
0
LINE
8
Layer 1
10
5.497601
20
3.118999
11
12.050078
21
2.940837
0
LINE
8
Layer 1
10
12.050078
20
2.940837
11
12.815781
21
2.067614
0
LINE
8
Layer 1
10
12.815781
20
2.067614
11
14.053977
21
0.124793
0
LINE
8
Layer 1
10
14.053977
20
0.124793
11
15.955670
21
-3.320014
0
LINE
8
Layer 1
10
15.955670
20
-3.320014
11
20.682892
21
-12.159623
0
LINE
8
Layer 1
10
20.682892
20
-12.159623
11
22.215031
21
-15.101550
0
LINE
8
Layer 1
10
22.215031
20
-15.101550
11
22.923248
21
-16.912534
0
LINE
8
Layer 1
10
22.923248
20
-16.912534
11
22.994586
21
-17.504075
0
LINE
8
Layer 1
10
22.994586
20
-17.504075
11
22.891384
21
-17.945061
0
LINE
8
Layer 1
10
22.891384
20
-17.945061
11
22.624122
21
-18.279553
0
LINE
8
Layer 1
10
22.624122
20
-18.279553
11
22.203279
21
-18.551612
0
LINE
8
Layer 1
10
22.203279
20
-18.551612
11
21.207184
21
-18.911685
0
LINE
8
Layer 1
10
21.207184
20
-18.911685
11
20.237114
21
-18.976647
0
LINE
8
Layer 1
10
20.237114
20
-18.976647
11
19.363668
21
-18.752590
0
LINE
8
Layer 1
10
19.363668
20
-18.752590
11
18.657445
21
-18.245607
0
LINE
8
Layer 1
10
18.657445
20
-18.245607
11
16.975357
21
-15.300816
0
LINE
8
Layer 1
10
16.975357
20
-15.300816
11
13.889797
21
-9.255139
0
LINE
8
Layer 1
10
13.889797
20
-9.255139
11
9.804797
21
-1.001260
0
LINE
8
Layer 1
10
9.804797
20
-1.001260
11
8.478751
21
-0.819503
0
LINE
8
Layer 1
10
8.478751
20
-0.819503
11
-1.825386
21
-0.637749
0
LINE
8
Layer 1
10
-1.825386
20
-0.637749
11
-10.803482
21
-0.637749
0
LINE
8
Layer 1
10
-10.803482
20
-0.637749
11
-15.010588
21
-5.223860
0
LINE
8
Layer 1
10
-15.010588
20
-5.223860
11
-22.673291
21
-13.902193
0
LINE
8
Layer 1
10
-22.673291
20
-13.902193
11
-25.701315
21
-17.413839
0
LINE
8
Layer 1
10
-25.701315
20
-17.413839
11
-27.501887
21
-19.170898
0
LINE
8
Layer 1
10
-27.501887
20
-19.170898
11
-28.103295
21
-19.511109
0
LINE
8
Layer 1
10
-28.103295
20
-19.511109
11
-28.591538
21
-19.556255
0
LINE
8
Layer 1
10
-28.591538
20
-19.556255
11
-29.031184
21
-19.354197
0
LINE
8
Layer 1
10
-29.031184
20
-19.354197
11
-29.486798
21
-18.952794
0
LINE
8
Layer 1
10
-29.486798
20
-18.952794
11
-29.486798
21
-18.952794
0
LINE
8
Layer 1
10
-27.606077
20
-18.483984
11
-23.549172
21
-13.902193
0
LINE
8
Layer 1
10
-23.549172
20
-13.902193
11
-15.426773
21
-4.784550
0
LINE
8
Layer 1
10
-15.426773
20
-4.784550
11
-11.062175
21
-0.041351
0
LINE
8
Layer 1
10
-11.062175
20
-0.041351
11
-0.815688
21
-0.127883
0
LINE
8
Layer 1
10
-0.815688
20
-0.127883
11
8.065572
21
-0.282218
0
LINE
8
Layer 1
10
8.065572
20
-0.282218
11
9.480768
21
-0.461355
0
LINE
8
Layer 1
10
9.480768
20
-0.461355
11
10.054363
21
-0.778860
0
LINE
8
Layer 1
10
10.054363
20
-0.778860
11
11.692414
21
-3.580815
0
LINE
8
Layer 1
10
11.692414
20
-3.580815
11
14.755057
21
-9.524808
0
LINE
8
Layer 1
10
14.755057
20
-9.524808
11
17.775260
21
-15.386762
0
LINE
8
Layer 1
10
17.775260
20
-15.386762
11
19.311278
21
-17.991475
0
LINE
8
Layer 1
10
19.311278
20
-17.991475
11
20.041910
21
-18.352565
0
LINE
8
Layer 1
10
20.041910
20
-18.352565
11
20.666745
21
-18.488146
0
LINE
8
Layer 1
10
20.666745
20
-18.488146
11
21.226199
21
-18.399831
0
LINE
8
Layer 1
10
21.226199
20
-18.399831
11
21.760684
21
-18.089231
0
LINE
8
Layer 1
10
21.760684
20
-18.089231
11
22.262688
21
-17.585449
0
LINE
8
Layer 1
10
22.262688
20
-17.585449
11
22.471486
21
-17.159371
0
LINE
8
Layer 1
10
22.471486
20
-17.159371
11
19.175416
21
-10.618188
0
LINE
8
Layer 1
10
19.175416
20
-10.618188
11
13.117470
21
0.566834
0
LINE
8
Layer 1
10
13.117470
20
0.566834
11
12.161603
21
1.960653
0
LINE
8
Layer 1
10
12.161603
20
1.960653
11
11.572936
21
2.276712
0
LINE
8
Layer 1
10
11.572936
20
2.276712
11
7.740610
21
2.468716
0
LINE
8
Layer 1
10
7.740610
20
2.468716
11
-0.330675
21
2.570415
0
LINE
8
Layer 1
10
-0.330675
20
2.570415
11
-11.420614
21
2.607807
0
LINE
8
Layer 1
10
-11.420614
20
2.607807
11
-16.436279
21
-2.472193
0
LINE
8
Layer 1
10
-16.436279
20
-2.472193
11
-20.750704
21
-6.990590
0
LINE
8
Layer 1
10
-20.750704
20
-6.990590
11
-24.696619
21
-11.381735
0
LINE
8
Layer 1
10
-24.696619
20
-11.381735
11
-27.715033
21
-15.002548
0
LINE
8
Layer 1
10
-27.715033
20
-15.002548
11
-29.246951
21
-17.209948
0
LINE
8
Layer 1
10
-29.246951
20
-17.209948
11
-29.329038
21
-17.937661
0
LINE
8
Layer 1
10
-29.329038
20
-17.937661
11
-28.966723
21
-18.482791
0
LINE
8
Layer 1
10
-28.966723
20
-18.482791
11
-28.334303
21
-18.710009
0
LINE
8
Layer 1
10
-28.334303
20
-18.710009
11
-27.606077
21
-18.483984
0
LINE
8
Layer 1
10
-27.606077
20
-18.483984
11
-27.606077
21
-18.483984
0
LINE
8
Layer 1
10
25.968005
20
-18.296949
11
26.030164
21
-16.507206
0
LINE
8
Layer 1
10
26.030164
20
-16.507206
11
26.406090
21
-12.681600
0
LINE
8
Layer 1
10
26.406090
20
-12.681600
11
27.560661
21
-3.818822
0
LINE
8
Layer 1
10
27.560661
20
-3.818822
11
28.813789
21
2.561809
0
LINE
8
Layer 1
10
28.813789
20
2.561809
11
30.536481
21
8.957807
0
LINE
8
Layer 1
10
30.536481
20
8.957807
11
32.406370
21
14.674127
0
LINE
8
Layer 1
10
32.406370
20
14.674127
11
32.926990
21
15.618291
0
LINE
8
Layer 1
10
32.926990
20
15.618291
11
33.436139
21
15.922340
0
LINE
8
Layer 1
10
33.436139
20
15.922340
11
34.041224
21
15.941287
0
LINE
8
Layer 1
10
34.041224
20
15.941287
11
34.463222
21
15.641467
0
LINE
8
Layer 1
10
34.463222
20
15.641467
11
34.793748
21
15.356490
0
LINE
8
Layer 1
10
34.793748
20
15.356490
11
35.118438
21
15.508755
0
LINE
8
Layer 1
10
35.118438
20
15.508755
11
35.458670
21
15.628303
0
LINE
8
Layer 1
10
35.458670
20
15.628303
11
36.179395
21
15.619294
0
LINE
8
Layer 1
10
36.179395
20
15.619294
11
39.138171
21
15.185365
0
LINE
8
Layer 1
10
39.138171
20
15.185365
11
43.378343
21
14.353367
0
LINE
8
Layer 1
10
43.378343
20
14.353367
11
45.895348
21
13.594704
0
LINE
8
Layer 1
10
45.895348
20
13.594704
11
46.588182
21
13.207755
0
LINE
8
Layer 1
10
46.588182
20
13.207755
11
46.946848
21
12.796999
0
LINE
8
Layer 1
10
46.946848
20
12.796999
11
47.003552
21
12.348388
0
LINE
8
Layer 1
10
47.003552
20
12.348388
11
46.790503
21
11.847875
0
LINE
8
Layer 1
10
46.790503
20
11.847875
11
45.616385
21
11.304674
0
LINE
8
Layer 1
10
45.616385
20
11.304674
11
43.110412
21
10.497879
0
LINE
8
Layer 1
10
43.110412
20
10.497879
11
39.835576
21
9.425218
0
LINE
8
Layer 1
10
39.835576
20
9.425218
11
36.812906
21
8.242811
0
LINE
8
Layer 1
10
36.812906
20
8.242811
11
33.717936
21
6.982251
0
LINE
8
Layer 1
10
33.717936
20
6.982251
11
33.444012
21
7.193023
0
LINE
8
Layer 1
10
33.444012
20
7.193023
11
33.139132
21
7.699770
0
LINE
8
Layer 1
10
33.139132
20
7.699770
11
33.029446
21
8.412069
0
LINE
8
Layer 1
10
33.029446
20
8.412069
11
33.213822
21
8.737143
0
LINE
8
Layer 1
10
33.213822
20
8.737143
11
33.600842
21
9.071458
0
LINE
8
Layer 1
10
33.600842
20
9.071458
11
35.112306
21
9.857686
0
LINE
8
Layer 1
10
35.112306
20
9.857686
11
37.822824
21
10.950504
0
LINE
8
Layer 1
10
37.822824
20
10.950504
11
40.518110
21
12.039175
0
LINE
8
Layer 1
10
40.518110
20
12.039175
11
41.491713
21
12.539150
0
LINE
8
Layer 1
10
41.491713
20
12.539150
11
38.275935
21
13.014867
0
LINE
8
Layer 1
10
38.275935
20
13.014867
11
34.874098
21
13.591647
0
LINE
8
Layer 1
10
34.874098
20
13.591647
11
34.599295
21
13.508666
0
LINE
8
Layer 1
10
34.599295
20
13.508666
11
34.259393
21
12.936469
0
LINE
8
Layer 1
10
34.259393
20
12.936469
11
33.102753
21
9.706997
0
LINE
8
Layer 1
10
33.102753
20
9.706997
11
31.547915
21
4.558457
0
LINE
8
Layer 1
10
31.547915
20
4.558457
11
30.341746
21
-0.516482
0
LINE
8
Layer 1
10
30.341746
20
-0.516482
11
29.336305
21
-6.240163
0
LINE
8
Layer 1
10
29.336305
20
-6.240163
11
28.383653
21
-13.334927
0
LINE
8
Layer 1
10
28.383653
20
-13.334927
11
27.650738
21
-18.485482
0
LINE
8
Layer 1
10
27.650738
20
-18.485482
11
27.312614
21
-18.673238
0
LINE
8
Layer 1
10
27.312614
20
-18.673238
11
26.782741
21
-18.689084
0
LINE
8
Layer 1
10
26.782741
20
-18.689084
11
26.266184
21
-18.555996
0
LINE
8
Layer 1
10
26.266184
20
-18.555996
11
25.968005
21
-18.296949
0
LINE
8
Layer 1
10
25.968005
20
-18.296949
11
25.968005
21
-18.296949
0
LINE
8
Layer 1
10
27.972404
20
-11.771876
11
28.812203
21
-5.427374
0
LINE
8
Layer 1
10
28.812203
20
-5.427374
11
29.748836
21
-0.218484
0
LINE
8
Layer 1
10
29.748836
20
-0.218484
11
30.998661
21
4.874183
0
LINE
8
Layer 1
10
30.998661
20
4.874183
11
32.778040
21
10.870017
0
LINE
8
Layer 1
10
32.778040
20
10.870017
11
33.863385
21
14.844660
0
LINE
8
Layer 1
10
33.863385
20
14.844660
11
33.835602
21
15.445393
0
LINE
8
Layer 1
10
33.835602
20
15.445393
11
33.446844
21
15.248272
0
LINE
8
Layer 1
10
33.446844
20
15.248272
11
32.968191
21
14.368111
0
LINE
8
Layer 1
10
32.968191
20
14.368111
11
32.319994
21
12.618868
0
LINE
8
Layer 1
10
32.319994
20
12.618868
11
30.748519
21
7.367548
0
LINE
8
Layer 1
10
30.748519
20
7.367548
11
29.199525
21
1.203140
0
LINE
8
Layer 1
10
29.199525
20
1.203140
11
28.140117
21
-4.165527
0
LINE
8
Layer 1
10
28.140117
20
-4.165527
11
26.997830
21
-13.017794
0
LINE
8
Layer 1
10
26.997830
20
-13.017794
11
26.659444
21
-16.438934
0
LINE
8
Layer 1
10
26.659444
20
-16.438934
11
26.615067
21
-17.936405
0
LINE
8
Layer 1
10
26.615067
20
-17.936405
11
26.763449
21
-18.083889
0
LINE
8
Layer 1
10
26.763449
20
-18.083889
11
26.907327
21
-18.017149
0
LINE
8
Layer 1
10
26.907327
20
-18.017149
11
27.202741
21
-17.144843
0
LINE
8
Layer 1
10
27.202741
20
-17.144843
11
27.972404
21
-11.771876
0
LINE
8
Layer 1
10
27.972404
20
-11.771876
11
27.972404
21
-11.771876
0
LINE
8
Layer 1
10
40.674823
20
10.445304
11
44.541200
21
11.520867
0
LINE
8
Layer 1
10
44.541200
20
11.520867
11
45.717962
21
11.868885
0
LINE
8
Layer 1
10
45.717962
20
11.868885
11
46.288314
21
12.224464
0
LINE
8
Layer 1
10
46.288314
20
12.224464
11
46.327105
21
12.505698
0
LINE
8
Layer 1
10
46.327105
20
12.505698
11
46.189002
21
12.761285
0
LINE
8
Layer 1
10
46.189002
20
12.761285
11
45.228764
21
13.246112
0
LINE
8
Layer 1
10
45.228764
20
13.246112
11
43.100897
21
13.780132
0
LINE
8
Layer 1
10
43.100897
20
13.780132
11
39.498702
21
14.464535
0
LINE
8
Layer 1
10
39.498702
20
14.464535
11
36.393075
21
14.938486
0
LINE
8
Layer 1
10
36.393075
20
14.938486
11
35.696304
21
14.944932
0
LINE
8
Layer 1
10
35.696304
20
14.944932
11
35.408551
21
14.811403
0
LINE
8
Layer 1
10
35.408551
20
14.811403
11
35.337235
21
14.414406
0
LINE
8
Layer 1
10
35.337235
20
14.414406
11
35.812763
21
14.102194
0
LINE
8
Layer 1
10
35.812763
20
14.102194
11
39.122601
21
13.473362
0
LINE
8
Layer 1
10
39.122601
20
13.473362
11
41.338204
21
13.102880
0
LINE
8
Layer 1
10
41.338204
20
13.102880
11
42.604528
21
12.764225
0
LINE
8
Layer 1
10
42.604528
20
12.764225
11
42.970406
21
12.437489
0
LINE
8
Layer 1
10
42.970406
20
12.437489
11
42.484669
21
12.102764
0
LINE
8
Layer 1
10
42.484669
20
12.102764
11
34.774590
21
9.000951
0
LINE
8
Layer 1
10
34.774590
20
9.000951
11
33.653186
21
8.332732
0
LINE
8
Layer 1
10
33.653186
20
8.332732
11
33.522810
21
8.099459
0
LINE
8
Layer 1
10
33.522810
20
8.099459
11
33.582904
21
7.887758
0
LINE
8
Layer 1
10
33.582904
20
7.887758
11
33.811882
21
7.819614
0
LINE
8
Layer 1
10
33.811882
20
7.819614
11
34.307594
21
7.923389
0
LINE
8
Layer 1
10
34.307594
20
7.923389
11
36.095463
21
8.645562
0
LINE
8
Layer 1
10
36.095463
20
8.645562
11
40.674823
21
10.445304
0
LINE
8
Layer 1
10
40.674823
20
10.445304
11
40.674823
21
10.445304
0
LINE
8
Layer 1
10
-43.098139
20
17.612622
11
-43.249652
21
17.919887
0
LINE
8
Layer 1
10
-43.249652
20
17.919887
11
-43.277474
21
18.329734
0
LINE
8
Layer 1
10
-43.277474
20
18.329734
11
-43.190388
21
18.723108
0
LINE
8
Layer 1
10
-43.190388
20
18.723108
11
-42.997179
21
18.980952
0
LINE
8
Layer 1
10
-42.997179
20
18.980952
11
-42.501259
21
19.068250
0
LINE
8
Layer 1
10
-42.501259
20
19.068250
11
-41.845453
21
18.961357
0
LINE
8
Layer 1
10
-41.845453
20
18.961357
11
-41.273343
21
18.727805
0
LINE
8
Layer 1
10
-41.273343
20
18.727805
11
-41.028510
21
18.435128
0
LINE
8
Layer 1
10
-41.028510
20
18.435128
11
-41.239667
21
18.087770
0
LINE
8
Layer 1
10
-41.239667
20
18.087770
11
-41.747344
21
17.751998
0
LINE
8
Layer 1
10
-41.747344
20
17.751998
11
-42.633330
21
17.442447
0
LINE
8
Layer 1
10
-42.633330
20
17.442447
11
-43.098139
21
17.612622
0
LINE
8
Layer 1
10
-43.098139
20
17.612622
11
-43.098139
21
17.612622
0
LINE
8
Layer 1
10
-41.875177
20
18.271140
11
-41.705796
21
18.488492
0
LINE
8
Layer 1
10
-41.705796
20
18.488492
11
-42.244611
21
18.549041
0
LINE
8
Layer 1
10
-42.244611
20
18.549041
11
-42.763095
21
18.472102
0
LINE
8
Layer 1
10
-42.763095
20
18.472102
11
-42.862954
21
18.271140
0
LINE
8
Layer 1
10
-42.862954
20
18.271140
11
-42.491189
21
18.008328
0
LINE
8
Layer 1
10
-42.491189
20
18.008328
11
-41.875177
21
18.271140
0
LINE
8
Layer 1
10
-41.875177
20
18.271140
11
-41.875177
21
18.271140
0
LINE
8
Layer 1
10
-33.516917
20
17.989400
11
-34.308433
21
18.344133
0
LINE
8
Layer 1
10
-34.308433
20
18.344133
11
-35.029501
21
18.188455
0
LINE
8
Layer 1
10
-35.029501
20
18.188455
11
-35.543882
21
18.058496
0
LINE
8
Layer 1
10
-35.543882
20
18.058496
11
-35.932649
21
18.160315
0
LINE
8
Layer 1
10
-35.932649
20
18.160315
11
-36.190432
21
18.444947
0
LINE
8
Layer 1
10
-36.190432
20
18.444947
11
-36.311859
21
18.863430
0
LINE
8
Layer 1
10
-36.311859
20
18.863430
11
-36.124160
21
19.906089
0
LINE
8
Layer 1
10
-36.124160
20
19.906089
11
-35.804292
21
20.432338
0
LINE
8
Layer 1
10
-35.804292
20
20.432338
11
-35.326582
21
20.896583
0
LINE
8
Layer 1
10
-35.326582
20
20.896583
11
-34.876468
21
21.200685
0
LINE
8
Layer 1
10
-34.876468
20
21.200685
11
-34.468364
21
21.289375
0
LINE
8
Layer 1
10
-34.468364
20
21.289375
11
-32.872330
21
20.776023
0
LINE
8
Layer 1
10
-32.872330
20
20.776023
11
-31.724857
21
20.245480
0
LINE
8
Layer 1
10
-31.724857
20
20.245480
11
-31.212433
21
19.728281
0
LINE
8
Layer 1
10
-31.212433
20
19.728281
11
-31.293586
21
19.115789
0
LINE
8
Layer 1
10
-31.293586
20
19.115789
11
-31.926843
21
18.299371
0
LINE
8
Layer 1
10
-31.926843
20
18.299371
11
-32.702954
21
17.472031
0
LINE
8
Layer 1
10
-32.702954
20
17.472031
11
-33.516917
21
17.989400
0
LINE
8
Layer 1
10
-33.516917
20
17.989400
11
-33.516917
21
17.989400
0
LINE
8
Layer 1
10
-31.967785
20
19.047262
11
-31.879976
21
19.393465
0
LINE
8
Layer 1
10
-31.879976
20
19.393465
11
-31.951113
21
19.645324
0
LINE
8
Layer 1
10
-31.951113
20
19.645324
11
-32.746510
21
20.105596
0
LINE
8
Layer 1
10
-32.746510
20
20.105596
11
-33.958650
21
20.467963
0
LINE
8
Layer 1
10
-33.958650
20
20.467963
11
-34.878332
21
20.440403
0
LINE
8
Layer 1
10
-34.878332
20
20.440403
11
-35.462048
21
20.035433
0
LINE
8
Layer 1
10
-35.462048
20
20.035433
11
-35.666288
21
19.265570
0
LINE
8
Layer 1
10
-35.666288
20
19.265570
11
-35.629316
21
18.962151
0
LINE
8
Layer 1
10
-35.629316
20
18.962151
11
-35.476374
21
18.799225
0
LINE
8
Layer 1
10
-35.476374
20
18.799225
11
-34.570427
21
18.784065
0
LINE
8
Layer 1
10
-34.570427
20
18.784065
11
-33.729055
21
18.766687
0
LINE
8
Layer 1
10
-33.729055
20
18.766687
11
-33.274116
21
18.564231
0
LINE
8
Layer 1
10
-33.274116
20
18.564231
11
-32.976922
21
18.329920
0
LINE
8
Layer 1
10
-32.976922
20
18.329920
11
-32.603616
21
18.353220
0
LINE
8
Layer 1
10
-32.603616
20
18.353220
11
-32.238977
21
18.602784
0
LINE
8
Layer 1
10
-32.238977
20
18.602784
11
-31.967785
21
19.047262
0
LINE
8
Layer 1
10
-31.967785
20
19.047262
11
-31.967785
21
19.047262
0
LINE
8
Layer 1
10
-40.111288
20
18.279934
11
-40.566837
21
18.564254
0
LINE
8
Layer 1
10
-40.566837
20
18.564254
11
-40.715676
21
18.929654
0
LINE
8
Layer 1
10
-40.715676
20
18.929654
11
-40.557774
21
19.379031
0
LINE
8
Layer 1
10
-40.557774
20
19.379031
11
-40.093098
21
19.915279
0
LINE
8
Layer 1
10
-40.093098
20
19.915279
11
-39.431184
21
20.332932
0
LINE
8
Layer 1
10
-39.431184
20
20.332932
11
-38.658328
21
20.507974
0
LINE
8
Layer 1
10
-38.658328
20
20.507974
11
-37.880056
21
20.433559
0
LINE
8
Layer 1
10
-37.880056
20
20.433559
11
-37.201896
21
20.102841
0
LINE
8
Layer 1
10
-37.201896
20
20.102841
11
-36.911703
21
19.845194
0
LINE
8
Layer 1
10
-36.911703
20
19.845194
11
-36.862148
21
19.619748
0
LINE
8
Layer 1
10
-36.862148
20
19.619748
11
-37.631184
21
18.832841
0
LINE
8
Layer 1
10
-37.631184
20
18.832841
11
-38.302792
21
18.314370
0
LINE
8
Layer 1
10
-38.302792
20
18.314370
11
-38.861496
21
18.066899
0
LINE
8
Layer 1
10
-38.861496
20
18.066899
11
-39.425069
21
18.064173
0
LINE
8
Layer 1
10
-39.425069
20
18.064173
11
-40.111288
21
18.279934
0
LINE
8
Layer 1
10
-40.111288
20
18.279934
11
-40.111288
21
18.279934
0
LINE
8
Layer 1
10
-38.339892
20
19.007565
11
-37.912942
21
19.377165
0
LINE
8
Layer 1
10
-37.912942
20
19.377165
11
-37.820382
21
19.681649
0
LINE
8
Layer 1
10
-37.820382
20
19.681649
11
-38.053239
21
19.888318
0
LINE
8
Layer 1
10
-38.053239
20
19.888318
11
-38.602536
21
19.964473
0
LINE
8
Layer 1
10
-38.602536
20
19.964473
11
-39.212140
21
19.805896
0
LINE
8
Layer 1
10
-39.212140
20
19.805896
11
-39.734822
21
19.440063
0
LINE
8
Layer 1
10
-39.734822
20
19.440063
11
-40.002307
21
19.031822
0
LINE
8
Layer 1
10
-40.002307
20
19.031822
11
-39.846318
21
18.746024
0
LINE
8
Layer 1
10
-39.846318
20
18.746024
11
-39.136804
21
18.607359
0
LINE
8
Layer 1
10
-39.136804
20
18.607359
11
-38.339892
21
19.007565
0
LINE
8
Layer 1
10
-38.339892
20
19.007565
11
-38.339892
21
19.007565
0
LINE
8
Layer 1
10
-29.872503
20
18.257822
11
-28.914212
21
21.718300
0
LINE
8
Layer 1
10
-28.914212
20
21.718300
11
-26.365445
21
29.642091
0
LINE
8
Layer 1
10
-26.365445
20
29.642091
11
-22.684069
21
41.078833
0
LINE
8
Layer 1
10
-22.684069
20
41.078833
11
-22.835510
21
41.370076
0
LINE
8
Layer 1
10
-22.835510
20
41.370076
11
-23.221556
21
41.383474
0
LINE
8
Layer 1
10
-23.221556
20
41.383474
11
-23.739792
21
41.144567
0
LINE
8
Layer 1
10
-23.739792
20
41.144567
11
-24.287801
21
40.678896
0
LINE
8
Layer 1
10
-24.287801
20
40.678896
11
-25.031750
21
40.109043
0
LINE
8
Layer 1
10
-25.031750
20
40.109043
11
-26.013497
21
40.157888
0
LINE
8
Layer 1
10
-26.013497
20
40.157888
11
-27.905179
21
40.398466
0
LINE
8
Layer 1
10
-27.905179
20
40.398466
11
-28.372313
21
40.440734
0
LINE
8
Layer 1
10
-28.372313
20
40.440734
11
-28.626150
21
40.587547
0
LINE
8
Layer 1
10
-28.626150
20
40.587547
11
-28.751846
21
41.543653
0
LINE
8
Layer 1
10
-28.751846
20
41.543653
11
-28.605526
21
42.531104
0
LINE
8
Layer 1
10
-28.605526
20
42.531104
11
-27.982863
21
43.093338
0
LINE
8
Layer 1
10
-27.982863
20
43.093338
11
-27.181136
21
43.374413
0
LINE
8
Layer 1
10
-27.181136
20
43.374413
11
-26.236515
21
42.998607
0
LINE
8
Layer 1
10
-26.236515
20
42.998607
11
-25.263674
21
42.628222
0
LINE
8
Layer 1
10
-25.263674
20
42.628222
11
-24.444436
21
42.714997
0
LINE
8
Layer 1
10
-24.444436
20
42.714997
11
-23.673857
21
43.303506
0
LINE
8
Layer 1
10
-23.673857
20
43.303506
11
-22.846993
21
44.438324
0
LINE
8
Layer 1
10
-22.846993
20
44.438324
11
-21.904297
21
46.130638
0
LINE
8
Layer 1
10
-21.904297
20
46.130638
11
-21.921408
21
46.421560
0
LINE
8
Layer 1
10
-21.921408
20
46.421560
11
-22.217926
21
46.493362
0
LINE
8
Layer 1
10
-22.217926
20
46.493362
11
-22.613399
21
46.170740
0
LINE
8
Layer 1
10
-22.613399
20
46.170740
11
-23.029868
21
45.395075
0
LINE
8
Layer 1
10
-23.029868
20
45.395075
11
-23.461288
21
44.296784
0
LINE
8
Layer 1
10
-23.461288
20
44.296784
11
-25.509095
21
44.356954
0
LINE
8
Layer 1
10
-25.509095
20
44.356954
11
-27.177953
21
44.506174
0
LINE
8
Layer 1
10
-27.177953
20
44.506174
11
-27.629956
21
44.659125
0
LINE
8
Layer 1
10
-27.629956
20
44.659125
11
-27.894734
21
44.879127
0
LINE
8
Layer 1
10
-27.894734
20
44.879127
11
-28.108370
21
45.115954
0
LINE
8
Layer 1
10
-28.108370
20
45.115954
11
-28.351679
21
45.184889
0
LINE
8
Layer 1
10
-28.351679
20
45.184889
11
-29.338865
21
44.795149
0
LINE
8
Layer 1
10
-29.338865
20
44.795149
11
-30.224920
21
44.471282
0
LINE
8
Layer 1
10
-30.224920
20
44.471282
11
-30.975089
21
44.420482
0
LINE
8
Layer 1
10
-30.975089
20
44.420482
11
-31.538919
21
44.636409
0
LINE
8
Layer 1
10
-31.538919
20
44.636409
11
-31.865959
21
45.112723
0
LINE
8
Layer 1
10
-31.865959
20
45.112723
11
-32.085569
21
45.515118
0
LINE
8
Layer 1
10
-32.085569
20
45.515118
11
-32.328819
21
45.634885
0
LINE
8
Layer 1
10
-32.328819
20
45.634885
11
-32.492797
21
45.480716
0
LINE
8
Layer 1
10
-32.492797
20
45.480716
11
-32.474591
21
45.061307
0
LINE
8
Layer 1
10
-32.474591
20
45.061307
11
-32.516133
21
44.505006
0
LINE
8
Layer 1
10
-32.516133
20
44.505006
11
-32.845987
21
43.962899
0
LINE
8
Layer 1
10
-32.845987
20
43.962899
11
-33.360569
21
43.551899
0
LINE
8
Layer 1
10
-33.360569
20
43.551899
11
-33.956298
21
43.388918
0
LINE
8
Layer 1
10
-33.956298
20
43.388918
11
-34.414206
21
43.459000
0
LINE
8
Layer 1
10
-34.414206
20
43.459000
11
-34.655835
21
43.736477
0
LINE
8
Layer 1
10
-34.655835
20
43.736477
11
-34.716501
21
44.322196
0
LINE
8
Layer 1
10
-34.716501
20
44.322196
11
-34.631523
21
45.317006
0
LINE
8
Layer 1
10
-34.631523
20
45.317006
11
-34.388732
21
46.447353
0
LINE
8
Layer 1
10
-34.388732
20
46.447353
11
-33.993890
21
46.910052
0
LINE
8
Layer 1
10
-33.993890
20
46.910052
11
-33.655305
21
47.225974
0
LINE
8
Layer 1
10
-33.655305
20
47.225974
11
-33.538507
21
47.832958
0
LINE
8
Layer 1
10
-33.538507
20
47.832958
11
-33.506457
21
48.243179
0
LINE
8
Layer 1
10
-33.506457
20
48.243179
11
-33.359076
21
48.515849
0
LINE
8
Layer 1
10
-33.359076
20
48.515849
11
-32.496537
21
48.869075
0
LINE
8
Layer 1
10
-32.496537
20
48.869075
11
-31.546059
21
48.983877
0
LINE
8
Layer 1
10
-31.546059
20
48.983877
11
-30.910973
21
48.648456
0
LINE
8
Layer 1
10
-30.910973
20
48.648456
11
-30.471809
21
48.327531
0
LINE
8
Layer 1
10
-30.471809
20
48.327531
11
-30.503004
21
48.817919
0
LINE
8
Layer 1
10
-30.503004
20
48.817919
11
-30.423361
21
49.528084
0
LINE
8
Layer 1
10
-30.423361
20
49.528084
11
-30.037153
21
50.227564
0
LINE
8
Layer 1
10
-30.037153
20
50.227564
11
-29.496401
21
50.720758
0
LINE
8
Layer 1
10
-29.496401
20
50.720758
11
-28.953127
21
50.812068
0
LINE
8
Layer 1
10
-28.953127
20
50.812068
11
-28.043859
21
50.248643
0
LINE
8
Layer 1
10
-28.043859
20
50.248643
11
-27.488103
21
49.398665
0
LINE
8
Layer 1
10
-27.488103
20
49.398665
11
-27.333083
21
48.385896
0
LINE
8
Layer 1
10
-27.333083
20
48.385896
11
-27.626024
21
47.334099
0
LINE
8
Layer 1
10
-27.626024
20
47.334099
11
-27.943693
21
46.674390
0
LINE
8
Layer 1
10
-27.943693
20
46.674390
11
-27.969636
21
46.392633
0
LINE
8
Layer 1
10
-27.969636
20
46.392633
11
-26.934975
21
46.799449
0
LINE
8
Layer 1
10
-26.934975
20
46.799449
11
-25.963333
21
47.182747
0
LINE
8
Layer 1
10
-25.963333
20
47.182747
11
-25.312197
21
47.116402
0
LINE
8
Layer 1
10
-25.312197
20
47.116402
11
-23.771021
21
46.696119
0
LINE
8
Layer 1
10
-23.771021
20
46.696119
11
-22.888975
21
46.676283
0
LINE
8
Layer 1
10
-22.888975
20
46.676283
11
-22.711690
21
46.861296
0
LINE
8
Layer 1
10
-22.711690
20
46.861296
11
-22.610714
21
47.221307
0
LINE
8
Layer 1
10
-22.610714
20
47.221307
11
-22.610289
21
47.734998
0
LINE
8
Layer 1
10
-22.610289
20
47.734998
11
-22.874247
21
47.904473
0
LINE
8
Layer 1
10
-22.874247
20
47.904473
11
-23.925902
21
48.335305
0
LINE
8
Layer 1
10
-23.925902
20
48.335305
11
-24.594677
21
48.609643
0
LINE
8
Layer 1
10
-24.594677
20
48.609643
11
-25.291251
21
48.497027
0
LINE
8
Layer 1
10
-25.291251
20
48.497027
11
-25.820910
21
48.382042
0
LINE
8
Layer 1
10
-25.820910
20
48.382042
11
-26.226735
21
48.457573
0
LINE
8
Layer 1
10
-26.226735
20
48.457573
11
-26.501527
21
48.682335
0
LINE
8
Layer 1
10
-26.501527
20
48.682335
11
-26.638085
21
49.015044
0
LINE
8
Layer 1
10
-26.638085
20
49.015044
11
-26.467697
21
49.839157
0
LINE
8
Layer 1
10
-26.467697
20
49.839157
11
-26.146349
21
50.247993
0
LINE
8
Layer 1
10
-26.146349
20
50.247993
11
-25.657965
21
50.599634
0
LINE
8
Layer 1
10
-25.657965
20
50.599634
11
-25.070766
21
50.889344
0
LINE
8
Layer 1
10
-25.070766
20
50.889344
11
-24.594320
21
50.979965
0
LINE
8
Layer 1
10
-24.594320
20
50.979965
11
-23.047411
21
50.544307
0
LINE
8
Layer 1
10
-23.047411
20
50.544307
11
-21.741341
21
49.952290
0
LINE
8
Layer 1
10
-21.741341
20
49.952290
11
-21.444580
21
49.662742
0
LINE
8
Layer 1
10
-21.444580
20
49.662742
11
-21.320628
21
49.332075
0
LINE
8
Layer 1
10
-21.320628
20
49.332075
11
-21.105518
21
48.852699
0
LINE
8
Layer 1
10
-21.105518
20
48.852699
11
-20.474540
21
48.890341
0
LINE
8
Layer 1
10
-20.474540
20
48.890341
11
-19.927790
21
49.037628
0
LINE
8
Layer 1
10
-19.927790
20
49.037628
11
-19.598322
21
49.289860
0
LINE
8
Layer 1
10
-19.598322
20
49.289860
11
-18.850543
21
51.131176
0
LINE
8
Layer 1
10
-18.850543
20
51.131176
11
-18.471446
21
52.372727
0
LINE
8
Layer 1
10
-18.471446
20
52.372727
11
-18.495848
21
52.955800
0
LINE
8
Layer 1
10
-18.495848
20
52.955800
11
-18.946521
21
52.905953
0
LINE
8
Layer 1
10
-18.946521
20
52.905953
11
-19.846234
21
52.248745
0
LINE
8
Layer 1
10
-19.846234
20
52.248745
11
-20.753922
21
51.685062
0
LINE
8
Layer 1
10
-20.753922
20
51.685062
11
-21.772889
21
51.695852
0
LINE
8
Layer 1
10
-21.772889
20
51.695852
11
-23.883512
21
51.860317
0
LINE
8
Layer 1
10
-23.883512
20
51.860317
11
-24.586534
21
51.925349
0
LINE
8
Layer 1
10
-24.586534
20
51.925349
11
-24.912567
21
52.189790
0
LINE
8
Layer 1
10
-24.912567
20
52.189790
11
-24.883226
21
52.710866
0
LINE
8
Layer 1
10
-24.883226
20
52.710866
11
-24.520124
21
53.545802
0
LINE
8
Layer 1
10
-24.520124
20
53.545802
11
-23.968918
21
54.213111
0
LINE
8
Layer 1
10
-23.968918
20
54.213111
11
-23.040807
21
54.449009
0
LINE
8
Layer 1
10
-23.040807
20
54.449009
11
-22.206550
21
54.635152
0
LINE
8
Layer 1
10
-22.206550
20
54.635152
11
-21.886281
21
55.047879
0
LINE
8
Layer 1
10
-21.886281
20
55.047879
11
-21.870409
21
55.308220
0
LINE
8
Layer 1
10
-21.870409
20
55.308220
11
-21.983226
21
55.436487
0
LINE
8
Layer 1
10
-21.983226
20
55.436487
11
-22.801155
21
55.369248
0
LINE
8
Layer 1
10
-22.801155
20
55.369248
11
-23.673453
21
55.321579
0
LINE
8
Layer 1
10
-23.673453
20
55.321579
11
-23.792262
21
55.550361
0
LINE
8
Layer 1
10
-23.792262
20
55.550361
11
-23.812957
21
56.020583
0
LINE
8
Layer 1
10
-23.812957
20
56.020583
11
-23.780779
21
56.474896
0
LINE
8
Layer 1
10
-23.780779
20
56.474896
11
-23.638955
21
56.752198
0
LINE
8
Layer 1
10
-23.638955
20
56.752198
11
-22.754625
21
57.036662
0
LINE
8
Layer 1
10
-22.754625
20
57.036662
11
-20.683323
21
57.193124
0
LINE
8
Layer 1
10
-20.683323
20
57.193124
11
-19.960318
21
57.073003
0
LINE
8
Layer 1
10
-19.960318
20
57.073003
11
-19.417813
21
56.818826
0
LINE
8
Layer 1
10
-19.417813
20
56.818826
11
-19.066427
21
56.627263
0
LINE
8
Layer 1
10
-19.066427
20
56.627263
11
-18.675455
21
56.580200
0
LINE
8
Layer 1
10
-18.675455
20
56.580200
11
-17.277645
21
56.950057
0
LINE
8
Layer 1
10
-17.277645
20
56.950057
11
-14.636823
21
57.551254
0
LINE
8
Layer 1
10
-14.636823
20
57.551254
11
-11.848335
21
57.744502
0
LINE
8
Layer 1
10
-11.848335
20
57.744502
11
-9.452133
21
57.531824
0
LINE
8
Layer 1
10
-9.452133
20
57.531824
11
-8.569875
21
57.273894
0
LINE
8
Layer 1
10
-8.569875
20
57.273894
11
-7.988171
21
56.915242
0
LINE
8
Layer 1
10
-7.988171
20
56.915242
11
-7.569945
21
56.156079
0
LINE
8
Layer 1
10
-7.569945
20
56.156079
11
-7.459357
21
55.064780
0
LINE
8
Layer 1
10
-7.459357
20
55.064780
11
-7.654307
21
53.702395
0
LINE
8
Layer 1
10
-7.654307
20
53.702395
11
-8.152695
21
52.129975
0
LINE
8
Layer 1
10
-8.152695
20
52.129975
11
-8.746583
21
50.140349
0
LINE
8
Layer 1
10
-8.746583
20
50.140349
11
-8.672525
21
50.077947
0
LINE
8
Layer 1
10
-8.672525
20
50.077947
11
-8.510424
21
50.194449
0
LINE
8
Layer 1
10
-8.510424
20
50.194449
11
-7.924033
21
50.973965
0
LINE
8
Layer 1
10
-7.924033
20
50.973965
11
-7.056228
21
51.998939
0
LINE
8
Layer 1
10
-7.056228
20
51.998939
11
-6.048122
21
52.833789
0
LINE
8
Layer 1
10
-6.048122
20
52.833789
11
-5.038023
21
53.734356
0
LINE
8
Layer 1
10
-5.038023
20
53.734356
11
-4.319827
21
55.234419
0
LINE
8
Layer 1
10
-4.319827
20
55.234419
11
-3.699550
21
56.935584
0
LINE
8
Layer 1
10
-3.699550
20
56.935584
11
1.378705
21
56.935584
0
LINE
8
Layer 1
10
1.378705
20
56.935584
11
6.456962
21
56.935584
0
LINE
8
Layer 1
10
6.456962
20
56.935584
11
6.281987
21
55.841367
0
LINE
8
Layer 1
10
6.281987
20
55.841367
11
5.288948
21
52.736922
0
LINE
8
Layer 1
10
5.288948
20
52.736922
11
4.567625
21
50.726696
0
LINE
8
Layer 1
10
4.567625
20
50.726696
11
5.518576
21
51.968242
0
LINE
8
Layer 1
10
5.518576
20
51.968242
11
6.527890
21
53.143137
0
LINE
8
Layer 1
10
6.527890
20
53.143137
11
7.755020
21
54.224442
0
LINE
8
Layer 1
10
7.755020
20
54.224442
11
8.833293
21
55.187458
0
LINE
8
Layer 1
10
8.833293
20
55.187458
11
9.484723
21
56.077956
0
LINE
8
Layer 1
10
9.484723
20
56.077956
11
9.877520
21
56.717182
0
LINE
8
Layer 1
10
9.877520
20
56.717182
11
10.333972
21
57.076075
0
LINE
8
Layer 1
10
10.333972
20
57.076075
11
10.916380
21
57.517588
0
LINE
8
Layer 1
10
10.916380
20
57.517588
11
11.612004
21
58.355459
0
LINE
8
Layer 1
10
11.612004
20
58.355459
11
12.312445
21
59.204620
0
LINE
8
Layer 1
10
12.312445
20
59.204620
11
12.814408
21
59.486038
0
LINE
8
Layer 1
10
12.814408
20
59.486038
11
13.074612
21
59.199975
0
LINE
8
Layer 1
10
13.074612
20
59.199975
11
13.049777
21
58.346696
0
LINE
8
Layer 1
10
13.049777
20
58.346696
11
12.869259
21
57.217807
0
LINE
8
Layer 1
10
12.869259
20
57.217807
11
16.047595
21
57.213486
0
LINE
8
Layer 1
10
16.047595
20
57.213486
11
18.411312
21
57.135123
0
LINE
8
Layer 1
10
18.411312
20
57.135123
11
19.631095
21
56.952786
0
LINE
8
Layer 1
10
19.631095
20
56.952786
11
19.693174
21
56.544117
0
LINE
8
Layer 1
10
19.693174
20
56.544117
11
19.493327
21
55.492797
0
LINE
8
Layer 1
10
19.493327
20
55.492797
11
18.196246
21
51.115120
0
LINE
8
Layer 1
10
18.196246
20
51.115120
11
11.231306
21
30.830029
0
LINE
8
Layer 1
10
11.231306
20
30.830029
11
6.765004
21
18.130029
0
LINE
8
Layer 1
10
6.765004
20
18.130029
11
1.777135
21
18.052963
0
LINE
8
Layer 1
10
1.777135
20
18.052963
11
-3.210736
21
18.103263
0
LINE
8
Layer 1
10
-3.210736
20
18.103263
11
0.622364
21
29.469221
0
LINE
8
Layer 1
10
0.622364
20
29.469221
11
5.327597
21
43.367509
0
LINE
8
Layer 1
10
5.327597
20
43.367509
11
6.667042
21
47.655234
0
LINE
8
Layer 1
10
6.667042
20
47.655234
11
6.511388
21
47.831259
0
LINE
8
Layer 1
10
6.511388
20
47.831259
11
6.137153
21
47.904473
0
LINE
8
Layer 1
10
6.137153
20
47.904473
11
5.657981
21
48.030919
0
LINE
8
Layer 1
10
5.657981
20
48.030919
11
5.250021
21
48.334927
0
LINE
8
Layer 1
10
5.250021
20
48.334927
11
4.863489
21
48.614138
0
LINE
8
Layer 1
10
4.863489
20
48.614138
11
4.358558
21
48.281917
0
LINE
8
Layer 1
10
4.358558
20
48.281917
11
3.736341
21
47.442595
0
LINE
8
Layer 1
10
3.736341
20
47.442595
11
2.811982
21
45.230419
0
LINE
8
Layer 1
10
2.811982
20
45.230419
11
-1.776268
21
31.746769
0
LINE
8
Layer 1
10
-1.776268
20
31.746769
11
-6.362198
21
17.988918
0
LINE
8
Layer 1
10
-6.362198
20
17.988918
11
-11.277578
21
17.988918
0
LINE
8
Layer 1
10
-11.277578
20
17.988918
11
-15.420162
21
18.066518
0
LINE
8
Layer 1
10
-15.420162
20
18.066518
11
-16.055533
21
18.215125
0
LINE
8
Layer 1
10
-16.055533
20
18.215125
11
-16.189871
21
18.482807
0
LINE
8
Layer 1
10
-16.189871
20
18.482807
11
-11.956537
21
31.517322
0
LINE
8
Layer 1
10
-11.956537
20
31.517322
11
-7.726291
21
44.570100
0
LINE
8
Layer 1
10
-7.726291
20
44.570100
11
-7.805964
21
44.931807
0
LINE
8
Layer 1
10
-7.805964
20
44.931807
11
-7.997518
21
45.082251
0
LINE
8
Layer 1
10
-7.997518
20
45.082251
11
-8.456478
21
45.293307
0
LINE
8
Layer 1
10
-8.456478
20
45.293307
11
-8.919541
21
45.820010
0
LINE
8
Layer 1
10
-8.919541
20
45.820010
11
-9.278200
21
46.502666
0
LINE
8
Layer 1
10
-9.278200
20
46.502666
11
-9.423946
21
47.181578
0
LINE
8
Layer 1
10
-9.423946
20
47.181578
11
-9.485577
21
47.771587
0
LINE
8
Layer 1
10
-9.485577
20
47.771587
11
-9.701847
21
47.622251
0
LINE
8
Layer 1
10
-9.701847
20
47.622251
11
-9.896333
21
46.726751
0
LINE
8
Layer 1
10
-9.896333
20
46.726751
11
-9.979748
21
45.168208
0
LINE
8
Layer 1
10
-9.979748
20
45.168208
11
-10.093649
21
43.376881
0
LINE
8
Layer 1
10
-10.093649
20
43.376881
11
-10.323206
21
43.020496
0
LINE
8
Layer 1
10
-10.323206
20
43.020496
11
-10.749428
21
42.769319
0
LINE
8
Layer 1
10
-10.749428
20
42.769319
11
-11.225400
21
42.369844
0
LINE
8
Layer 1
10
-11.225400
20
42.369844
11
-11.761666
21
41.387620
0
LINE
8
Layer 1
10
-11.761666
20
41.387620
11
-13.737238
21
36.051140
0
LINE
8
Layer 1
10
-13.737238
20
36.051140
11
-18.017149
21
23.915584
0
LINE
8
Layer 1
10
-18.017149
20
23.915584
11
-20.074606
21
18.130029
0
LINE
8
Layer 1
10
-20.074606
20
18.130029
11
-24.886395
21
18.052898
0
LINE
8
Layer 1
10
-24.886395
20
18.052898
11
-28.458978
21
18.071747
0
LINE
8
Layer 1
10
-28.458978
20
18.071747
11
-29.872503
21
18.257822
0
LINE
8
Layer 1
10
-29.872503
20
18.257822
11
-29.872503
21
18.257822
0
LINE
8
Layer 1
10
-19.490479
20
21.163918
11
-15.227829
21
33.483304
0
LINE
8
Layer 1
10
-15.227829
20
33.483304
11
-12.025862
21
42.981510
0
LINE
8
Layer 1
10
-12.025862
20
42.981510
11
-15.847591
21
44.325532
0
LINE
8
Layer 1
10
-15.847591
20
44.325532
11
-19.594447
21
45.597961
0
LINE
8
Layer 1
10
-19.594447
20
45.597961
11
-20.351130
21
44.649644
0
LINE
8
Layer 1
10
-20.351130
20
44.649644
11
-20.932960
21
43.504905
0
LINE
8
Layer 1
10
-20.932960
20
43.504905
11
-21.913808
21
40.977394
0
LINE
8
Layer 1
10
-21.913808
20
40.977394
11
-25.282603
21
31.201239
0
LINE
8
Layer 1
10
-25.282603
20
31.201239
11
-29.457399
21
18.486145
0
LINE
8
Layer 1
10
-29.457399
20
18.486145
11
-28.138299
21
18.334297
0
LINE
8
Layer 1
10
-28.138299
20
18.334297
11
-24.966848
21
18.271140
0
LINE
8
Layer 1
10
-24.966848
20
18.271140
11
-20.476293
21
18.271140
0
LINE
8
Layer 1
10
-20.476293
20
18.271140
11
-19.490479
21
21.163918
0
LINE
8
Layer 1
10
-19.490479
20
21.163918
11
-19.490479
21
21.163918
0
LINE
8
Layer 1
10
-9.022679
20
18.553362
11
-6.696344
21
18.553362
0
LINE
8
Layer 1
10
-6.696344
20
18.553362
11
-3.283456
21
28.925029
0
LINE
8
Layer 1
10
-3.283456
20
28.925029
11
1.207916
21
42.631267
0
LINE
8
Layer 1
10
1.207916
20
42.631267
11
2.286400
21
45.965835
0
LINE
8
Layer 1
10
2.286400
20
45.965835
11
1.695415
21
46.441267
0
LINE
8
Layer 1
10
1.695415
20
46.441267
11
0.924991
21
47.426922
0
LINE
8
Layer 1
10
0.924991
20
47.426922
11
0.802012
21
47.686042
0
LINE
8
Layer 1
10
0.802012
20
47.686042
11
0.627362
21
47.747288
0
LINE
8
Layer 1
10
0.627362
20
47.747288
11
-0.200898
21
47.215256
0
LINE
8
Layer 1
10
-0.200898
20
47.215256
11
-1.107787
21
46.698213
0
LINE
8
Layer 1
10
-1.107787
20
46.698213
11
-1.978166
21
46.494686
0
LINE
8
Layer 1
10
-1.978166
20
46.494686
11
-2.677093
21
46.612082
0
LINE
8
Layer 1
10
-2.677093
20
46.612082
11
-3.069625
21
47.057807
0
LINE
8
Layer 1
10
-3.069625
20
47.057807
11
-3.247538
21
47.468537
0
LINE
8
Layer 1
10
-3.247538
20
47.468537
11
-3.534779
21
47.559074
0
LINE
8
Layer 1
10
-3.534779
20
47.559074
11
-5.090181
21
46.646725
0
LINE
8
Layer 1
10
-5.090181
20
46.646725
11
-5.912369
21
46.047602
0
LINE
8
Layer 1
10
-5.912369
20
46.047602
11
-6.450771
21
45.450148
0
LINE
8
Layer 1
10
-6.450771
20
45.450148
11
-6.883288
21
44.586677
0
LINE
8
Layer 1
10
-6.883288
20
44.586677
11
-7.387822
21
43.189502
0
LINE
8
Layer 1
10
-7.387822
20
43.189502
11
-11.930454
21
29.983362
0
LINE
8
Layer 1
10
-11.930454
20
29.983362
11
-15.626267
21
18.919608
0
LINE
8
Layer 1
10
-15.626267
20
18.919608
11
-15.149525
21
18.684950
0
LINE
8
Layer 1
10
-15.149525
20
18.684950
11
-14.028256
21
18.495556
0
LINE
8
Layer 1
10
-14.028256
20
18.495556
11
-12.730645
21
18.405514
0
LINE
8
Layer 1
10
-12.730645
20
18.405514
11
-11.724875
21
18.468907
0
LINE
8
Layer 1
10
-11.724875
20
18.468907
11
-9.022679
21
18.553362
0
LINE
8
Layer 1
10
-9.022679
20
18.553362
11
-9.022679
21
18.553362
0
LINE
8
Layer 1
10
7.320593
20
21.163918
11
11.600289
21
33.511140
0
LINE
8
Layer 1
10
11.600289
20
33.511140
11
17.033731
21
49.288020
0
LINE
8
Layer 1
10
17.033731
20
49.288020
11
19.367042
21
56.407753
0
LINE
8
Layer 1
10
19.367042
20
56.407753
11
18.341857
21
56.581215
0
LINE
8
Layer 1
10
18.341857
20
56.581215
11
15.877051
21
56.653362
0
LINE
8
Layer 1
10
15.877051
20
56.653362
11
12.387057
21
56.653362
0
LINE
8
Layer 1
10
12.387057
20
56.653362
11
11.528272
21
54.732722
0
LINE
8
Layer 1
10
11.528272
20
54.732722
11
10.407787
21
51.788332
0
LINE
8
Layer 1
10
10.407787
20
51.788332
11
10.146647
21
50.746437
0
LINE
8
Layer 1
10
10.146647
20
50.746437
11
10.161407
21
50.242701
0
LINE
8
Layer 1
10
10.161407
20
50.242701
11
10.486475
21
50.315693
0
LINE
8
Layer 1
10
10.486475
20
50.315693
11
11.064685
21
50.694522
0
LINE
8
Layer 1
10
11.064685
20
50.694522
11
12.038423
21
51.261055
0
LINE
8
Layer 1
10
12.038423
20
51.261055
11
12.248050
21
51.144943
0
LINE
8
Layer 1
10
12.248050
20
51.144943
11
12.311486
21
50.764756
0
LINE
8
Layer 1
10
12.311486
20
50.764756
11
12.209422
21
50.302135
0
LINE
8
Layer 1
10
12.209422
20
50.302135
11
11.932346
21
49.800136
0
LINE
8
Layer 1
10
11.932346
20
49.800136
11
11.027859
21
48.824799
0
LINE
8
Layer 1
10
11.027859
20
48.824799
11
9.947429
21
48.132329
0
LINE
8
Layer 1
10
9.947429
20
48.132329
11
9.450423
21
47.983913
0
LINE
8
Layer 1
10
9.450423
20
47.983913
11
9.040457
21
48.016307
0
LINE
8
Layer 1
10
9.040457
20
48.016307
11
8.755451
21
48.386158
0
LINE
8
Layer 1
10
8.755451
20
48.386158
11
8.642598
21
49.087301
0
LINE
8
Layer 1
10
8.642598
20
49.087301
11
8.585794
21
49.799871
0
LINE
8
Layer 1
10
8.585794
20
49.799871
11
8.224116
21
49.408156
0
LINE
8
Layer 1
10
8.224116
20
49.408156
11
6.825922
21
46.029248
0
LINE
8
Layer 1
10
6.825922
20
46.029248
11
-2.646292
21
18.369085
0
LINE
8
Layer 1
10
-2.646292
20
18.369085
11
1.844262
21
18.271140
0
LINE
8
Layer 1
10
1.844262
20
18.271140
11
6.334819
21
18.271140
0
LINE
8
Layer 1
10
6.334819
20
18.271140
11
7.320593
21
21.163918
0
LINE
8
Layer 1
10
7.320593
20
21.163918
11
7.320593
21
21.163918
0
LINE
8
Layer 1
10
-24.716068
20
40.905362
11
-24.422127
21
41.320269
0
LINE
8
Layer 1
10
-24.422127
20
41.320269
11
-24.409565
21
41.661439
0
LINE
8
Layer 1
10
-24.409565
20
41.661439
11
-24.663144
21
41.892683
0
LINE
8
Layer 1
10
-24.663144
20
41.892683
11
-25.167623
21
41.977807
0
LINE
8
Layer 1
10
-25.167623
20
41.977807
11
-25.815102
21
42.067191
0
LINE
8
Layer 1
10
-25.815102
20
42.067191
11
-26.262132
21
42.282093
0
LINE
8
Layer 1
10
-26.262132
20
42.282093
11
-26.715116
21
42.469788
0
LINE
8
Layer 1
10
-26.715116
20
42.469788
11
-27.376910
21
42.493760
0
LINE
8
Layer 1
10
-27.376910
20
42.493760
11
-28.039788
21
42.266161
0
LINE
8
Layer 1
10
-28.039788
20
42.266161
11
-28.274572
21
41.647107
0
LINE
8
Layer 1
10
-28.274572
20
41.647107
11
-28.241373
21
41.060966
0
LINE
8
Layer 1
10
-28.241373
20
41.060966
11
-27.803692
21
41.039006
0
LINE
8
Layer 1
10
-27.803692
20
41.039006
11
-27.257728
21
41.053788
0
LINE
8
Layer 1
10
-27.257728
20
41.053788
11
-26.728741
21
40.884399
0
LINE
8
Layer 1
10
-26.728741
20
40.884399
11
-26.180041
21
40.659262
0
LINE
8
Layer 1
10
-26.180041
20
40.659262
11
-25.617890
21
40.588167
0
LINE
8
Layer 1
10
-25.617890
20
40.588167
11
-25.107996
21
40.670428
0
LINE
8
Layer 1
10
-25.107996
20
40.670428
11
-24.716068
21
40.905362
0
LINE
8
Layer 1
10
-24.716068
20
40.905362
11
-24.716068
21
40.905362
0
LINE
8
Layer 1
10
-21.498657
20
43.976290
11
-20.451677
21
45.306927
0
LINE
8
Layer 1
10
-20.451677
20
45.306927
11
-19.999663
21
45.656137
0
LINE
8
Layer 1
10
-19.999663
20
45.656137
11
-19.477879
21
45.804822
0
LINE
8
Layer 1
10
-19.477879
20
45.804822
11
-17.872744
21
45.531259
0
LINE
8
Layer 1
10
-17.872744
20
45.531259
11
-14.931755
21
44.547519
0
LINE
8
Layer 1
10
-14.931755
20
44.547519
11
-11.176083
21
43.388918
0
LINE
8
Layer 1
10
-11.176083
20
43.388918
11
-11.008012
21
43.455816
0
LINE
8
Layer 1
10
-11.008012
20
43.455816
11
-10.906095
21
43.667267
0
LINE
8
Layer 1
10
-10.906095
20
43.667267
11
-10.885064
21
44.588362
0
LINE
8
Layer 1
10
-10.885064
20
44.588362
11
-10.971847
21
45.787807
0
LINE
8
Layer 1
10
-10.971847
20
45.787807
11
-12.820668
21
46.381010
0
LINE
8
Layer 1
10
-12.820668
20
46.381010
11
-16.560112
21
47.350008
0
LINE
8
Layer 1
10
-16.560112
20
47.350008
11
-18.092469
21
47.816189
0
LINE
8
Layer 1
10
-18.092469
20
47.816189
11
-18.425221
21
48.071787
0
LINE
8
Layer 1
10
-18.425221
20
48.071787
11
-18.472785
21
48.331995
0
LINE
8
Layer 1
10
-18.472785
20
48.331995
11
-18.237984
21
48.589015
0
LINE
8
Layer 1
10
-18.237984
20
48.589015
11
-17.723640
21
48.835050
0
LINE
8
Layer 1
10
-17.723640
20
48.835050
11
-15.867615
21
49.262978
0
LINE
8
Layer 1
10
-15.867615
20
49.262978
11
-13.849579
21
49.743189
0
LINE
8
Layer 1
10
-13.849579
20
49.743189
11
-11.634282
21
50.492059
0
LINE
8
Layer 1
10
-11.634282
20
50.492059
11
-9.544456
21
51.481560
0
LINE
8
Layer 1
10
-9.544456
20
51.481560
11
-9.052427
21
51.980246
0
LINE
8
Layer 1
10
-9.052427
20
51.980246
11
-8.643514
21
52.691496
0
LINE
8
Layer 1
10
-8.643514
20
52.691496
11
-8.200640
21
53.834269
0
LINE
8
Layer 1
10
-8.200640
20
53.834269
11
-8.026871
21
54.908055
0
LINE
8
Layer 1
10
-8.026871
20
54.908055
11
-8.126145
21
55.808447
0
LINE
8
Layer 1
10
-8.126145
20
55.808447
11
-8.502402
21
56.431039
0
LINE
8
Layer 1
10
-8.502402
20
56.431039
11
-9.370772
21
56.847196
0
LINE
8
Layer 1
10
-9.370772
20
56.847196
11
-10.683228
21
57.055890
0
LINE
8
Layer 1
10
-10.683228
20
57.055890
11
-12.312566
21
57.073396
0
LINE
8
Layer 1
10
-12.312566
20
57.073396
11
-14.131583
21
56.915988
0
LINE
8
Layer 1
10
-14.131583
20
56.915988
11
-16.013074
21
56.599943
0
LINE
8
Layer 1
10
-16.013074
20
56.599943
11
-17.829834
21
56.141534
0
LINE
8
Layer 1
10
-17.829834
20
56.141534
11
-19.454660
21
55.557036
0
LINE
8
Layer 1
10
-19.454660
20
55.557036
11
-20.760347
21
54.862724
0
LINE
8
Layer 1
10
-20.760347
20
54.862724
11
-21.393214
21
54.293310
0
LINE
8
Layer 1
10
-21.393214
20
54.293310
11
-21.877689
21
53.606380
0
LINE
8
Layer 1
10
-21.877689
20
53.606380
11
-22.124149
21
52.964822
0
LINE
8
Layer 1
10
-22.124149
20
52.964822
11
-22.042973
21
52.531526
0
LINE
8
Layer 1
10
-22.042973
20
52.531526
11
-21.032400
21
52.753441
0
LINE
8
Layer 1
10
-21.032400
20
52.753441
11
-18.857929
21
53.542184
0
LINE
8
Layer 1
10
-18.857929
20
53.542184
11
-16.531746
21
54.367176
0
LINE
8
Layer 1
10
-16.531746
20
54.367176
11
-15.882063
21
54.501441
0
LINE
8
Layer 1
10
-15.882063
20
54.501441
11
-15.571211
21
54.451171
0
LINE
8
Layer 1
10
-15.571211
20
54.451171
11
-15.412741
21
54.218701
0
LINE
8
Layer 1
10
-15.412741
20
54.218701
11
-15.550633
21
53.792733
0
LINE
8
Layer 1
10
-15.550633
20
53.792733
11
-17.441010
21
51.034640
0
LINE
8
Layer 1
10
-17.441010
20
51.034640
11
-19.055033
21
49.011685
0
LINE
8
Layer 1
10
-19.055033
20
49.011685
11
-19.716092
21
48.492326
0
LINE
8
Layer 1
10
-19.716092
20
48.492326
11
-20.474899
21
48.113228
0
LINE
8
Layer 1
10
-20.474899
20
48.113228
11
-21.294949
21
47.677848
0
LINE
8
Layer 1
10
-21.294949
20
47.677848
11
-21.771585
21
47.243186
0
LINE
8
Layer 1
10
-21.771585
20
47.243186
11
-21.834670
21
46.909134
0
LINE
8
Layer 1
10
-21.834670
20
46.909134
11
-21.414069
21
46.775584
0
LINE
8
Layer 1
10
-21.414069
20
46.775584
11
-21.078237
21
46.671619
0
LINE
8
Layer 1
10
-21.078237
20
46.671619
11
-21.045239
21
46.324390
0
LINE
8
Layer 1
10
-21.045239
20
46.324390
11
-21.941288
21
44.688131
0
LINE
8
Layer 1
10
-21.941288
20
44.688131
11
-22.998931
21
42.810081
0
LINE
8
Layer 1
10
-22.998931
20
42.810081
11
-23.208895
21
42.205212
0
LINE
8
Layer 1
10
-23.208895
20
42.205212
11
-23.137984
21
41.977807
0
LINE
8
Layer 1
10
-23.137984
20
41.977807
11
-21.498657
21
43.976290
0
LINE
8
Layer 1
10
-21.498657
20
43.976290
11
-21.498657
21
43.976290
0
LINE
8
Layer 1
10
-17.039625
20
49.906761
11
-16.629191
21
50.906227
0
LINE
8
Layer 1
10
-16.629191
20
50.906227
11
-15.685428
21
52.549493
0
LINE
8
Layer 1
10
-15.685428
20
52.549493
11
-14.639640
21
54.136321
0
LINE
8
Layer 1
10
-14.639640
20
54.136321
11
-13.923132
21
54.966478
0
LINE
8
Layer 1
10
-13.923132
20
54.966478
11
-12.862063
21
55.204315
0
LINE
8
Layer 1
10
-12.862063
20
55.204315
11
-11.337111
21
55.250935
0
LINE
8
Layer 1
10
-11.337111
20
55.250935
11
-9.935898
21
55.122721
0
LINE
8
Layer 1
10
-9.935898
20
55.122721
11
-9.246041
21
54.836060
0
LINE
8
Layer 1
10
-9.246041
20
54.836060
11
-9.217377
21
54.073543
0
LINE
8
Layer 1
10
-9.217377
20
54.073543
11
-9.760909
21
53.282380
0
LINE
8
Layer 1
10
-9.760909
20
53.282380
11
-10.937069
21
52.403896
0
LINE
8
Layer 1
10
-10.937069
20
52.403896
11
-12.806291
21
51.379416
0
LINE
8
Layer 1
10
-12.806291
20
51.379416
11
-16.184110
21
49.821687
0
LINE
8
Layer 1
10
-16.184110
20
49.821687
11
-16.851099
21
49.685332
0
LINE
8
Layer 1
10
-16.851099
20
49.685332
11
-17.039625
21
49.906761
0
LINE
8
Layer 1
10
-17.039625
20
49.906761
11
-17.039625
21
49.906761
0
LINE
8
Layer 1
10
-13.229625
20
51.618786
11
-10.673062
21
53.143357
0
LINE
8
Layer 1
10
-10.673062
20
53.143357
11
-9.955810
21
53.774255
0
LINE
8
Layer 1
10
-9.955810
20
53.774255
11
-9.701847
21
54.250954
0
LINE
8
Layer 1
10
-9.701847
20
54.250954
11
-9.916423
21
54.527548
0
LINE
8
Layer 1
10
-9.916423
20
54.527548
11
-10.509234
21
54.706475
0
LINE
8
Layer 1
10
-10.509234
20
54.706475
11
-12.524069
21
54.720504
0
LINE
8
Layer 1
10
-12.524069
20
54.720504
11
-13.252819
21
54.500992
0
LINE
8
Layer 1
10
-13.252819
20
54.500992
11
-13.982751
21
53.919429
0
LINE
8
Layer 1
10
-13.982751
20
53.919429
11
-14.822085
21
52.862847
0
LINE
8
Layer 1
10
-14.822085
20
52.862847
11
-15.879039
21
51.218276
0
LINE
8
Layer 1
10
-15.879039
20
51.218276
11
-16.524070
21
50.157634
0
LINE
8
Layer 1
10
-16.524070
20
50.157634
11
-15.723515
21
50.461006
0
LINE
8
Layer 1
10
-15.723515
20
50.461006
11
-13.229625
21
51.618786
0
LINE
8
Layer 1
10
-13.229625
20
51.618786
11
-13.229625
21
51.618786
0
LINE
8
Layer 1
10
-33.034661
20
44.139062
11
-32.996694
21
44.382492
0
LINE
8
Layer 1
10
-32.996694
20
44.382492
11
-33.166180
21
44.706986
0
LINE
8
Layer 1
10
-33.166180
20
44.706986
11
-33.498281
21
44.936976
0
LINE
8
Layer 1
10
-33.498281
20
44.936976
11
-33.869289
21
44.768953
0
LINE
8
Layer 1
10
-33.869289
20
44.768953
11
-34.255177
21
44.201029
0
LINE
8
Layer 1
10
-34.255177
20
44.201029
11
-34.102987
21
44.031419
0
LINE
8
Layer 1
10
-34.102987
20
44.031419
11
-33.747627
21
43.959416
0
LINE
8
Layer 1
10
-33.747627
20
43.959416
11
-33.034661
21
44.139062
0
LINE
8
Layer 1
10
-33.034661
20
44.139062
11
-33.034661
21
44.139062
0
LINE
8
Layer 1
10
-29.418108
20
45.355084
11
-28.751846
21
45.910139
0
LINE
8
Layer 1
10
-28.751846
20
45.910139
11
-30.092399
21
45.919528
0
LINE
8
Layer 1
10
-30.092399
20
45.919528
11
-31.112805
21
45.836809
0
LINE
8
Layer 1
10
-31.112805
20
45.836809
11
-31.354791
21
45.721437
0
LINE
8
Layer 1
10
-31.354791
20
45.721437
11
-31.432954
21
45.552622
0
LINE
8
Layer 1
10
-31.432954
20
45.552622
11
-31.255880
21
45.022231
0
LINE
8
Layer 1
10
-31.255880
20
45.022231
11
-30.792851
21
44.805825
0
LINE
8
Layer 1
10
-30.792851
20
44.805825
11
-30.146163
21
44.913433
0
LINE
8
Layer 1
10
-30.146163
20
44.913433
11
-29.418108
21
45.355084
0
LINE
8
Layer 1
10
-29.418108
20
45.355084
11
-29.418108
21
45.355084
0
LINE
8
Layer 1
10
-23.495378
20
45.437891
11
-23.366012
21
45.844383
0
LINE
8
Layer 1
10
-23.366012
20
45.844383
11
-23.585666
21
46.039095
0
LINE
8
Layer 1
10
-23.585666
20
46.039095
11
-25.600294
21
46.526911
0
LINE
8
Layer 1
10
-25.600294
20
46.526911
11
-26.585423
21
46.456538
0
LINE
8
Layer 1
10
-26.585423
20
46.456538
11
-27.056795
21
46.174566
0
LINE
8
Layer 1
10
-27.056795
20
46.174566
11
-27.360713
21
45.792734
0
LINE
8
Layer 1
10
-27.360713
20
45.792734
11
-27.446837
21
45.409751
0
LINE
8
Layer 1
10
-27.446837
20
45.409751
11
-27.264828
21
45.124325
0
LINE
8
Layer 1
10
-27.264828
20
45.124325
11
-25.369525
21
44.941140
0
LINE
8
Layer 1
10
-25.369525
20
44.941140
11
-24.051560
21
45.045950
0
LINE
8
Layer 1
10
-24.051560
20
45.045950
11
-23.705662
21
45.198763
0
LINE
8
Layer 1
10
-23.705662
20
45.198763
11
-23.495378
21
45.437891
0
LINE
8
Layer 1
10
-23.495378
20
45.437891
11
-23.495378
21
45.437891
0
LINE
8
Layer 1
10
-5.455537
20
46.943676
11
-3.132879
21
48.375957
0
LINE
8
Layer 1
10
-3.132879
20
48.375957
11
-2.889365
21
48.216584
0
LINE
8
Layer 1
10
-2.889365
20
48.216584
11
-2.611381
21
47.643421
0
LINE
8
Layer 1
10
-2.611381
20
47.643421
11
-2.304418
21
47.022039
0
LINE
8
Layer 1
10
-2.304418
20
47.022039
11
-1.898618
21
46.831287
0
LINE
8
Layer 1
10
-1.898618
20
46.831287
11
-1.293483
21
47.076587
0
LINE
8
Layer 1
10
-1.293483
20
47.076587
11
-0.388514
21
47.763362
0
LINE
8
Layer 1
10
-0.388514
20
47.763362
11
1.031420
21
48.751140
0
LINE
8
Layer 1
10
1.031420
20
48.751140
11
1.225229
21
48.488091
0
LINE
8
Layer 1
10
1.225229
20
48.488091
11
1.357493
21
47.855652
0
LINE
8
Layer 1
10
1.357493
20
47.855652
11
1.511576
21
47.170693
0
LINE
8
Layer 1
10
1.511576
20
47.170693
11
1.803575
21
46.889828
0
LINE
8
Layer 1
10
1.803575
20
46.889828
11
2.241074
21
47.011401
0
LINE
8
Layer 1
10
2.241074
20
47.011401
11
2.831659
21
47.533755
0
LINE
8
Layer 1
10
2.831659
20
47.533755
11
3.520083
21
48.486163
0
LINE
8
Layer 1
10
3.520083
20
48.486163
11
3.382469
21
48.690738
0
LINE
8
Layer 1
10
3.382469
20
48.690738
11
2.930482
21
48.802067
0
LINE
8
Layer 1
10
2.930482
20
48.802067
11
2.439136
21
48.998906
0
LINE
8
Layer 1
10
2.439136
20
48.998906
11
2.233383
21
49.424392
0
LINE
8
Layer 1
10
2.233383
20
49.424392
11
2.310393
21
50.102806
0
LINE
8
Layer 1
10
2.310393
20
50.102806
11
2.667332
21
51.058428
0
LINE
8
Layer 1
10
2.667332
20
51.058428
11
3.411953
21
53.196140
0
LINE
8
Layer 1
10
3.411953
20
53.196140
11
3.469615
21
53.965791
0
LINE
8
Layer 1
10
3.469615
20
53.965791
11
3.296124
21
54.086686
0
LINE
8
Layer 1
10
3.296124
20
54.086686
11
2.946256
21
54.113362
0
LINE
8
Layer 1
10
2.946256
20
54.113362
11
2.051671
21
53.825389
0
LINE
8
Layer 1
10
2.051671
20
53.825389
11
0.829346
21
53.133027
0
LINE
8
Layer 1
10
0.829346
20
53.133027
11
-0.806130
21
51.806580
0
LINE
8
Layer 1
10
-0.806130
20
51.806580
11
-2.854589
21
49.398129
0
LINE
8
Layer 1
10
-2.854589
20
49.398129
11
-3.476940
21
48.758774
0
LINE
8
Layer 1
10
-3.476940
20
48.758774
11
-3.879441
21
48.699073
0
LINE
8
Layer 1
10
-3.879441
20
48.699073
11
-4.079320
21
49.232576
0
LINE
8
Layer 1
10
-4.079320
20
49.232576
11
-4.093806
21
50.372834
0
LINE
8
Layer 1
10
-4.093806
20
50.372834
11
-4.114382
21
51.834762
0
LINE
8
Layer 1
10
-4.114382
20
51.834762
11
-4.248244
21
52.156415
0
LINE
8
Layer 1
10
-4.248244
20
52.156415
11
-4.487853
21
52.320701
0
LINE
8
Layer 1
10
-4.487853
20
52.320701
11
-5.076349
21
52.387317
0
LINE
8
Layer 1
10
-5.076349
20
52.387317
11
-5.730603
21
52.214216
0
LINE
8
Layer 1
10
-5.730603
20
52.214216
11
-6.351603
21
51.843610
0
LINE
8
Layer 1
10
-6.351603
20
51.843610
11
-6.840339
21
51.317714
0
LINE
8
Layer 1
10
-6.840339
20
51.317714
11
-7.145735
21
50.774904
0
LINE
8
Layer 1
10
-7.145735
20
50.774904
11
-6.679583
21
50.964936
0
LINE
8
Layer 1
10
-6.679583
20
50.964936
11
-5.450141
21
51.291140
0
LINE
8
Layer 1
10
-5.450141
20
51.291140
11
-5.129424
21
51.260729
0
LINE
8
Layer 1
10
-5.129424
20
51.260729
11
-4.962968
21
51.133608
0
LINE
8
Layer 1
10
-4.962968
20
51.133608
11
-4.983230
21
50.373918
0
LINE
8
Layer 1
10
-4.983230
20
50.373918
11
-5.302774
21
49.152838
0
LINE
8
Layer 1
10
-5.302774
20
49.152838
11
-5.810950
21
47.952732
0
LINE
8
Layer 1
10
-5.810950
20
47.952732
11
-6.419297
21
46.948265
0
LINE
8
Layer 1
10
-6.419297
20
46.948265
11
-7.039357
21
46.314098
0
LINE
8
Layer 1
10
-7.039357
20
46.314098
11
-7.768080
21
45.970522
0
LINE
8
Layer 1
10
-7.768080
20
45.970522
11
-8.327182
21
46.468290
0
LINE
8
Layer 1
10
-8.327182
20
46.468290
11
-8.700080
21
46.842633
0
LINE
8
Layer 1
10
-8.700080
20
46.842633
11
-8.855180
21
46.827008
0
LINE
8
Layer 1
10
-8.855180
20
46.827008
11
-8.425244
21
46.111628
0
LINE
8
Layer 1
10
-8.425244
20
46.111628
11
-7.763711
21
45.646696
0
LINE
8
Layer 1
10
-7.763711
20
45.646696
11
-5.455537
21
46.943676
0
LINE
8
Layer 1
10
-5.455537
20
46.943676
11
-5.455537
21
46.943676
0
LINE
8
Layer 1
10
-2.081847
20
48.336872
11
-1.680110
21
49.730762
0
LINE
8
Layer 1
10
-1.680110
20
49.730762
11
-0.959492
21
50.693432
0
LINE
8
Layer 1
10
-0.959492
20
50.693432
11
0.219614
21
51.689965
0
LINE
8
Layer 1
10
0.219614
20
51.689965
11
1.444442
21
52.423330
0
LINE
8
Layer 1
10
1.444442
20
52.423330
11
1.945014
21
52.598503
0
LINE
8
Layer 1
10
1.945014
20
52.598503
11
2.302230
21
52.596497
0
LINE
8
Layer 1
10
2.302230
20
52.596497
11
2.519542
21
52.467624
0
LINE
8
Layer 1
10
2.519542
20
52.467624
11
2.567028
21
52.256658
0
LINE
8
Layer 1
10
2.567028
20
52.256658
11
2.105058
21
51.268870
0
LINE
8
Layer 1
10
2.105058
20
51.268870
11
1.247187
21
49.958634
0
LINE
8
Layer 1
10
1.247187
20
49.958634
11
0.314797
21
48.889295
0
LINE
8
Layer 1
10
0.314797
20
48.889295
11
-0.581961
21
48.168644
0
LINE
8
Layer 1
10
-0.581961
20
48.168644
11
-1.332939
21
47.904473
0
LINE
8
Layer 1
10
-1.332939
20
47.904473
11
-1.889090
21
48.015766
0
LINE
8
Layer 1
10
-1.889090
20
48.015766
11
-2.081847
21
48.336872
0
LINE
8
Layer 1
10
-2.081847
20
48.336872
11
-2.081847
21
48.336872
0
LINE
8
Layer 1
10
0.750264
20
50.102587
11
1.869264
21
51.892011
0
LINE
8
Layer 1
10
1.869264
20
51.892011
11
1.555379
21
51.903073
0
LINE
8
Layer 1
10
1.555379
20
51.903073
11
0.809083
21
51.480867
0
LINE
8
Layer 1
10
0.809083
20
51.480867
11
-0.808607
21
50.114632
0
LINE
8
Layer 1
10
-0.808607
20
50.114632
11
-1.309195
21
49.368037
0
LINE
8
Layer 1
10
-1.309195
20
49.368037
11
-1.517403
21
48.755910
0
LINE
8
Layer 1
10
-1.517403
20
48.755910
11
-1.328231
21
48.338034
0
LINE
8
Layer 1
10
-1.328231
20
48.338034
11
-0.823971
21
48.460755
0
LINE
8
Layer 1
10
-0.823971
20
48.460755
11
-0.099511
21
49.067722
0
LINE
8
Layer 1
10
-0.099511
20
49.067722
11
0.750264
21
50.102587
0
LINE
8
Layer 1
10
0.750264
20
50.102587
11
0.750264
21
50.102587
0
LINE
8
Layer 1
10
-28.900890
20
46.876637
11
-28.329224
21
47.227218
0
LINE
8
Layer 1
10
-28.329224
20
47.227218
11
-28.246162
21
47.497240
0
LINE
8
Layer 1
10
-28.246162
20
47.497240
11
-28.629591
21
47.655195
0
LINE
8
Layer 1
10
-28.629591
20
47.655195
11
-29.457399
21
47.669574
0
LINE
8
Layer 1
10
-29.457399
20
47.669574
11
-31.812726
21
47.290216
0
LINE
8
Layer 1
10
-31.812726
20
47.290216
11
-32.642273
21
46.975850
0
LINE
8
Layer 1
10
-32.642273
20
46.975850
11
-33.151801
21
46.603731
0
LINE
8
Layer 1
10
-33.151801
20
46.603731
11
-33.296007
21
46.367324
0
LINE
8
Layer 1
10
-33.296007
20
46.367324
11
-33.150250
21
46.258080
0
LINE
8
Layer 1
10
-33.150250
20
46.258080
11
-31.561899
21
46.354032
0
LINE
8
Layer 1
10
-31.561899
20
46.354032
11
-28.900890
21
46.876637
0
LINE
8
Layer 1
10
-28.900890
20
46.876637
11
-28.900890
21
46.876637
0
LINE
8
Layer 1
10
-10.071313
20
48.318228
11
-9.419625
21
50.331108
0
LINE
8
Layer 1
10
-9.419625
20
50.331108
11
-9.577335
21
50.425425
0
LINE
8
Layer 1
10
-9.577335
20
50.425425
11
-10.047786
21
50.381277
0
LINE
8
Layer 1
10
-10.047786
20
50.381277
11
-11.910834
21
49.880497
0
LINE
8
Layer 1
10
-11.910834
20
49.880497
11
-15.650279
21
48.893524
0
LINE
8
Layer 1
10
-15.650279
20
48.893524
11
-16.864014
21
48.643750
0
LINE
8
Layer 1
10
-16.864014
20
48.643750
11
-17.347790
21
48.397194
0
LINE
8
Layer 1
10
-17.347790
20
48.397194
11
-17.115967
21
48.124239
0
LINE
8
Layer 1
10
-17.115967
20
48.124239
11
-16.182911
21
47.795267
0
LINE
8
Layer 1
10
-16.182911
20
47.795267
11
-12.600022
21
46.821965
0
LINE
8
Layer 1
10
-12.600022
20
46.821965
11
-11.129646
21
46.579892
0
LINE
8
Layer 1
10
-11.129646
20
46.579892
11
-10.651019
21
47.113581
0
LINE
8
Layer 1
10
-10.651019
20
47.113581
11
-10.071313
21
48.318228
0
LINE
8
Layer 1
10
-10.071313
20
48.318228
11
-10.071313
21
48.318228
0
LINE
8
Layer 1
10
-6.714285
20
47.833918
11
-6.115653
21
49.369736
0
LINE
8
Layer 1
10
-6.115653
20
49.369736
11
-5.930017
21
50.221389
0
LINE
8
Layer 1
10
-5.930017
20
50.221389
11
-5.991871
21
50.385753
0
LINE
8
Layer 1
10
-5.991871
20
50.385753
11
-6.156733
21
50.373195
0
LINE
8
Layer 1
10
-6.156733
20
50.373195
11
-6.795161
21
49.809473
0
LINE
8
Layer 1
10
-6.795161
20
49.809473
11
-7.691021
21
48.533165
0
LINE
8
Layer 1
10
-7.691021
20
48.533165
11
-8.008514
21
47.358582
0
LINE
8
Layer 1
10
-8.008514
20
47.358582
11
-7.875167
21
46.868103
0
LINE
8
Layer 1
10
-7.875167
20
46.868103
11
-7.545071
21
46.809521
0
LINE
8
Layer 1
10
-7.545071
20
46.809521
11
-7.123139
21
47.144303
0
LINE
8
Layer 1
10
-7.123139
20
47.144303
11
-6.714285
21
47.833918
0
LINE
8
Layer 1
10
-6.714285
20
47.833918
11
-6.714285
21
47.833918
0
LINE
8
Layer 1
10
-8.142913
20
49.103918
11
-7.698371
21
50.021140
0
LINE
8
Layer 1
10
-7.698371
20
50.021140
11
-8.276777
21
49.354875
0
LINE
8
Layer 1
10
-8.276777
20
49.354875
11
-8.855180
21
48.437653
0
LINE
8
Layer 1
10
-8.855180
20
48.437653
11
-8.805403
21
48.206691
0
LINE
8
Layer 1
10
-8.805403
20
48.206691
11
-8.663084
21
48.247308
0
LINE
8
Layer 1
10
-8.663084
20
48.247308
11
-8.142913
21
49.103918
0
LINE
8
Layer 1
10
-8.142913
20
49.103918
11
-8.142913
21
49.103918
0
LINE
8
Layer 1
10
-22.083624
20
48.938146
11
-21.866820
21
49.318940
0
LINE
8
Layer 1
10
-21.866820
20
49.318940
11
-22.009948
21
49.513069
0
LINE
8
Layer 1
10
-22.009948
20
49.513069
11
-23.418574
21
50.177011
0
LINE
8
Layer 1
10
-23.418574
20
50.177011
11
-24.458572
21
50.589436
0
LINE
8
Layer 1
10
-24.458572
20
50.589436
11
-24.791595
21
50.500583
0
LINE
8
Layer 1
10
-24.791595
20
50.500583
11
-25.203790
21
50.219918
0
LINE
8
Layer 1
10
-25.203790
20
50.219918
11
-25.819218
21
49.681839
0
LINE
8
Layer 1
10
-25.819218
20
49.681839
11
-26.020606
21
49.311868
0
LINE
8
Layer 1
10
-26.020606
20
49.311868
11
-25.808425
21
49.133910
0
LINE
8
Layer 1
10
-25.808425
20
49.133910
11
-25.183146
21
49.171871
0
LINE
8
Layer 1
10
-25.183146
20
49.171871
11
-24.330442
21
49.198046
0
LINE
8
Layer 1
10
-24.330442
20
49.198046
11
-23.671846
21
48.916974
0
LINE
8
Layer 1
10
-23.671846
20
48.916974
11
-23.180880
21
48.603477
0
LINE
8
Layer 1
10
-23.180880
20
48.603477
11
-22.780630
21
48.502132
0
LINE
8
Layer 1
10
-22.780630
20
48.502132
11
-22.428932
21
48.613501
0
LINE
8
Layer 1
10
-22.428932
20
48.613501
11
-22.083624
21
48.938146
0
LINE
8
Layer 1
10
-22.083624
20
48.938146
11
-22.083624
21
48.938146
0
LINE
8
Layer 1
10
6.667042
20
48.751140
11
6.548274
21
48.950459
0
LINE
8
Layer 1
10
6.548274
20
48.950459
11
6.262728
21
49.033362
0
LINE
8
Layer 1
10
6.262728
20
49.033362
11
5.921906
21
49.207513
0
LINE
8
Layer 1
10
5.921906
20
49.207513
11
5.670247
21
49.626215
0
LINE
8
Layer 1
10
5.670247
20
49.626215
11
5.459157
21
49.998448
0
LINE
8
Layer 1
10
5.459157
20
49.998448
11
5.203347
21
49.940334
0
LINE
8
Layer 1
10
5.203347
20
49.940334
11
5.124416
21
49.581205
0
LINE
8
Layer 1
10
5.124416
20
49.581205
11
5.435216
21
49.065259
0
LINE
8
Layer 1
10
5.435216
20
49.065259
11
5.852474
21
48.685244
0
LINE
8
Layer 1
10
5.852474
20
48.685244
11
6.250938
21
48.492430
0
LINE
8
Layer 1
10
6.250938
20
48.492430
11
6.549498
21
48.507501
0
LINE
8
Layer 1
10
6.549498
20
48.507501
11
6.667042
21
48.751140
0
LINE
8
Layer 1
10
6.667042
20
48.751140
11
6.667042
21
48.751140
0
LINE
8
Layer 1
10
10.833966
20
49.476894
11
11.502966
21
50.172159
0
LINE
8
Layer 1
10
11.502966
20
50.172159
11
11.124454
21
50.017011
0
LINE
8
Layer 1
10
11.124454
20
50.017011
11
10.488321
21
49.746393
0
LINE
8
Layer 1
10
10.488321
20
49.746393
11
10.031328
21
49.752750
0
LINE
8
Layer 1
10
10.031328
20
49.752750
11
9.800862
21
50.348939
0
LINE
8
Layer 1
10
9.800862
20
50.348939
11
9.913924
21
51.518446
0
LINE
8
Layer 1
10
9.913924
20
51.518446
11
10.338611
21
53.098170
0
LINE
8
Layer 1
10
10.338611
20
53.098170
11
11.043022
21
54.925014
0
LINE
8
Layer 1
10
11.043022
20
54.925014
11
11.921479
21
57.314314
0
LINE
8
Layer 1
10
11.921479
20
57.314314
11
11.860580
21
57.351186
0
LINE
8
Layer 1
10
11.860580
20
57.351186
11
11.688120
21
57.143868
0
LINE
8
Layer 1
10
11.688120
20
57.143868
11
11.009804
21
55.956643
0
LINE
8
Layer 1
10
11.009804
20
55.956643
11
10.245217
21
54.750327
0
LINE
8
Layer 1
10
10.245217
20
54.750327
11
9.920810
21
54.480408
0
LINE
8
Layer 1
10
9.920810
20
54.480408
11
9.602164
21
54.396256
0
LINE
8
Layer 1
10
9.602164
20
54.396256
11
8.860378
21
54.166015
0
LINE
8
Layer 1
10
8.860378
20
54.166015
11
7.909277
21
53.584361
0
LINE
8
Layer 1
10
7.909277
20
53.584361
11
6.974261
21
52.812990
0
LINE
8
Layer 1
10
6.974261
20
52.812990
11
6.280734
21
52.013595
0
LINE
8
Layer 1
10
6.280734
20
52.013595
11
5.876459
21
51.140984
0
LINE
8
Layer 1
10
5.876459
20
51.140984
11
6.524579
21
51.853575
0
LINE
8
Layer 1
10
6.524579
20
51.853575
11
7.054879
21
52.482649
0
LINE
8
Layer 1
10
7.054879
20
52.482649
11
7.648375
21
52.906711
0
LINE
8
Layer 1
10
7.648375
20
52.906711
11
8.272932
21
53.109230
0
LINE
8
Layer 1
10
8.272932
20
53.109230
11
8.896414
21
53.073675
0
LINE
8
Layer 1
10
8.896414
20
53.073675
11
9.335860
21
52.853230
0
LINE
8
Layer 1
10
9.335860
20
52.853230
11
9.452358
21
52.489137
0
LINE
8
Layer 1
10
9.452358
20
52.489137
11
9.243336
21
51.956495
0
LINE
8
Layer 1
10
9.243336
20
51.956495
11
8.706227
21
51.230406
0
LINE
8
Layer 1
10
8.706227
20
51.230406
11
7.515323
21
49.738918
0
LINE
8
Layer 1
10
7.515323
20
49.738918
11
7.270881
21
49.345676
0
LINE
8
Layer 1
10
7.270881
20
49.345676
11
7.804471
21
49.767490
0
LINE
8
Layer 1
10
7.804471
20
49.767490
11
8.604411
21
50.411964
0
LINE
8
Layer 1
10
8.604411
20
50.411964
11
9.027016
21
50.610305
0
LINE
8
Layer 1
10
9.027016
20
50.610305
11
9.155222
21
50.353747
0
LINE
8
Layer 1
10
9.155222
20
50.353747
11
9.071965
21
49.633525
0
LINE
8
Layer 1
10
9.071965
20
49.633525
11
9.033088
21
48.773961
0
LINE
8
Layer 1
10
9.033088
20
48.773961
11
9.130148
21
48.549578
0
LINE
8
Layer 1
10
9.130148
20
48.549578
11
9.306658
21
48.461969
0
LINE
8
Layer 1
10
9.306658
20
48.461969
11
9.903381
21
48.696598
0
LINE
8
Layer 1
10
9.903381
20
48.696598
11
10.833966
21
49.476894
0
LINE
8
Layer 1
10
10.833966
20
49.476894
11
10.833966
21
49.476894
0
LINE
8
Layer 1
10
-28.328513
20
49.028392
11
-28.093879
21
49.362156
0
LINE
8
Layer 1
10
-28.093879
20
49.362156
11
-28.536474
21
49.929748
0
LINE
8
Layer 1
10
-28.536474
20
49.929748
11
-29.140077
21
50.408539
0
LINE
8
Layer 1
10
-29.140077
20
50.408539
11
-29.585827
21
50.009594
0
LINE
8
Layer 1
10
-29.585827
20
50.009594
11
-30.012869
21
49.103918
0
LINE
8
Layer 1
10
-30.012869
20
49.103918
11
-29.839927
21
48.863021
0
LINE
8
Layer 1
10
-29.839927
20
48.863021
11
-29.403429
21
48.765736
0
LINE
8
Layer 1
10
-29.403429
20
48.765736
11
-28.850561
21
48.818660
0
LINE
8
Layer 1
10
-28.850561
20
48.818660
11
-28.328513
21
49.028392
0
LINE
8
Layer 1
10
-28.328513
20
49.028392
11
-28.328513
21
49.028392
0
LINE
8
Layer 1
10
-2.654530
20
50.473983
11
-1.606514
21
51.743967
0
LINE
8
Layer 1
10
-1.606514
20
51.743967
11
-0.211628
21
52.998328
0
LINE
8
Layer 1
10
-0.211628
20
52.998328
11
1.241875
21
54.007953
0
LINE
8
Layer 1
10
1.241875
20
54.007953
11
2.465744
21
54.543731
0
LINE
8
Layer 1
10
2.465744
20
54.543731
11
3.239008
21
54.588322
0
LINE
8
Layer 1
10
3.239008
20
54.588322
11
3.779011
21
54.300126
0
LINE
8
Layer 1
10
3.779011
20
54.300126
11
3.987236
21
54.001336
0
LINE
8
Layer 1
10
3.987236
20
54.001336
11
4.001973
21
53.578970
0
LINE
8
Layer 1
10
4.001973
20
53.578970
11
3.332844
21
51.666038
0
LINE
8
Layer 1
10
3.332844
20
51.666038
11
2.866429
21
50.327868
0
LINE
8
Layer 1
10
2.866429
20
50.327868
11
2.689757
21
49.426245
0
LINE
8
Layer 1
10
2.689757
20
49.426245
11
2.808178
21
49.076118
0
LINE
8
Layer 1
10
2.808178
20
49.076118
11
3.227041
21
49.392434
0
LINE
8
Layer 1
10
3.227041
20
49.392434
11
4.679386
21
52.647501
0
LINE
8
Layer 1
10
4.679386
20
52.647501
11
5.820376
21
55.938124
0
LINE
8
Layer 1
10
5.820376
20
55.938124
11
5.614557
21
56.320113
0
LINE
8
Layer 1
10
5.614557
20
56.320113
11
4.837368
21
56.536565
0
LINE
8
Layer 1
10
4.837368
20
56.536565
11
0.610468
21
56.593393
0
LINE
8
Layer 1
10
0.610468
20
56.593393
11
-3.329442
21
56.512251
0
LINE
8
Layer 1
10
-3.329442
20
56.512251
11
-3.819238
21
54.902176
0
LINE
8
Layer 1
10
-3.819238
20
54.902176
11
-4.163028
21
53.405653
0
LINE
8
Layer 1
10
-4.163028
20
53.405653
11
-4.093406
21
52.931197
0
LINE
8
Layer 1
10
-4.093406
20
52.931197
11
-3.867250
21
52.406516
0
LINE
8
Layer 1
10
-3.867250
20
52.406516
11
-3.573641
21
51.429729
0
LINE
8
Layer 1
10
-3.573641
20
51.429729
11
-3.565653
21
50.277147
0
LINE
8
Layer 1
10
-3.565653
20
50.277147
11
-3.646933
21
49.033362
0
LINE
8
Layer 1
10
-3.646933
20
49.033362
11
-2.654530
21
50.473983
0
LINE
8
Layer 1
10
-2.654530
20
50.473983
11
-2.654530
21
50.473983
0
LINE
8
Layer 1
10
7.519923
20
50.923060
11
8.360375
21
52.528083
0
LINE
8
Layer 1
10
8.360375
20
52.528083
11
8.288468
21
52.616893
0
LINE
8
Layer 1
10
8.288468
20
52.616893
11
8.096451
21
52.526951
0
LINE
8
Layer 1
10
8.096451
20
52.526951
11
7.494323
21
51.965913
0
LINE
8
Layer 1
10
7.494323
20
51.965913
11
6.838456
21
51.155167
0
LINE
8
Layer 1
10
6.838456
20
51.155167
11
6.413316
21
50.404909
0
LINE
8
Layer 1
10
6.413316
20
50.404909
11
6.267180
21
49.743421
0
LINE
8
Layer 1
10
6.267180
20
49.743421
11
6.319666
21
49.619731
0
LINE
8
Layer 1
10
6.319666
20
49.619731
11
6.445265
21
49.629119
0
LINE
8
Layer 1
10
6.445265
20
49.629119
11
6.884027
21
50.032249
0
LINE
8
Layer 1
10
6.884027
20
50.032249
11
7.519923
21
50.923060
0
LINE
8
Layer 1
10
7.519923
20
50.923060
11
7.519923
21
50.923060
0
LINE
8
Layer 1
10
-16.804381
20
52.820147
11
-16.279282
21
53.644969
0
LINE
8
Layer 1
10
-16.279282
20
53.644969
11
-16.138498
21
54.069416
0
LINE
8
Layer 1
10
-16.138498
20
54.069416
11
-16.368350
21
54.033782
0
LINE
8
Layer 1
10
-16.368350
20
54.033782
11
-16.955161
21
53.478362
0
LINE
8
Layer 1
10
-16.955161
20
53.478362
11
-17.777367
21
52.346109
0
LINE
8
Layer 1
10
-17.777367
20
52.346109
11
-18.168514
21
51.434151
0
LINE
8
Layer 1
10
-18.168514
20
51.434151
11
-18.084181
21
51.325869
0
LINE
8
Layer 1
10
-18.084181
20
51.325869
11
-17.829949
21
51.519521
0
LINE
8
Layer 1
10
-17.829949
20
51.519521
11
-16.804381
21
52.820147
0
LINE
8
Layer 1
10
-16.804381
20
52.820147
11
-16.804381
21
52.820147
0
LINE
8
Layer 1
10
-22.625265
20
52.936247
11
-22.557590
21
53.192246
0
LINE
8
Layer 1
10
-22.557590
20
53.192246
11
-22.675611
21
53.535230
0
LINE
8
Layer 1
10
-22.675611
20
53.535230
11
-23.019425
21
53.795430
0
LINE
8
Layer 1
10
-23.019425
20
53.795430
11
-23.651636
21
53.609477
0
LINE
8
Layer 1
10
-23.651636
20
53.609477
11
-24.223588
21
53.210300
0
LINE
8
Layer 1
10
-24.223588
20
53.210300
11
-24.401444
21
52.808140
0
LINE
8
Layer 1
10
-24.401444
20
52.808140
11
-24.191810
21
52.541908
0
LINE
8
Layer 1
10
-24.191810
20
52.541908
11
-23.601290
21
52.550517
0
LINE
8
Layer 1
10
-23.601290
20
52.550517
11
-22.625265
21
52.936247
0
LINE
8
Layer 1
10
-22.625265
20
52.936247
11
-22.625265
21
52.936247
0
LINE
8
Layer 1
10
-20.117611
20
55.820855
11
-19.728227
21
56.139839
0
LINE
8
Layer 1
10
-19.728227
20
56.139839
11
-19.790740
21
56.405024
0
LINE
8
Layer 1
10
-19.790740
20
56.405024
11
-20.268641
21
56.586251
0
LINE
8
Layer 1
10
-20.268641
20
56.586251
11
-21.125421
21
56.653362
0
LINE
8
Layer 1
10
-21.125421
20
56.653362
11
-22.444969
21
56.540168
0
LINE
8
Layer 1
10
-22.444969
20
56.540168
11
-23.182118
21
56.274450
0
LINE
8
Layer 1
10
-23.182118
20
56.274450
11
-23.287143
21
56.119019
0
LINE
8
Layer 1
10
-23.287143
20
56.119019
11
-23.192386
21
55.967006
0
LINE
8
Layer 1
10
-23.192386
20
55.967006
11
-22.331291
21
55.728633
0
LINE
8
Layer 1
10
-22.331291
20
55.728633
11
-21.042738
21
55.569640
0
LINE
8
Layer 1
10
-21.042738
20
55.569640
11
-20.117611
21
55.820855
0
LINE
8
Layer 1
10
-20.117611
20
55.820855
11
-20.117611
21
55.820855
0
LINE
8
Layer 1
10
10.618153
20
56.387797
11
10.535250
21
56.547643
0
LINE
8
Layer 1
10
10.535250
20
56.547643
11
10.335931
21
56.512251
0
LINE
8
Layer 1
10
10.335931
20
56.512251
11
10.053709
21
56.213372
0
LINE
8
Layer 1
10
10.053709
20
56.213372
11
10.335931
21
56.088918
0
LINE
8
Layer 1
10
10.335931
20
56.088918
11
10.535250
21
56.176714
0
LINE
8
Layer 1
10
10.535250
20
56.176714
11
10.618153
21
56.387797
0
LINE
8
Layer 1
10
10.618153
20
56.387797
11
10.618153
21
56.387797
0
LINE
8
Layer 1
10
10.275961
20
18.142960
11
10.453683
21
19.166077
0
LINE
8
Layer 1
10
10.453683
20
19.166077
11
11.423717
21
22.301024
0
LINE
8
Layer 1
10
11.423717
20
22.301024
11
16.481901
21
37.180029
0
LINE
8
Layer 1
10
16.481901
20
37.180029
11
20.718463
21
49.456696
0
LINE
8
Layer 1
10
20.718463
20
49.456696
11
23.076641
21
49.640352
0
LINE
8
Layer 1
10
23.076641
20
49.640352
11
28.654382
21
49.856336
0
LINE
8
Layer 1
10
28.654382
20
49.856336
11
30.327414
21
49.747874
0
LINE
8
Layer 1
10
30.327414
20
49.747874
11
30.938157
21
49.500762
0
LINE
8
Layer 1
10
30.938157
20
49.500762
11
30.055107
21
46.655256
0
LINE
8
Layer 1
10
30.055107
20
46.655256
11
26.612897
21
36.897807
0
LINE
8
Layer 1
10
26.612897
20
36.897807
11
22.744601
21
26.032251
0
LINE
8
Layer 1
10
22.744601
20
26.032251
11
20.155399
21
18.765029
0
LINE
8
Layer 1
10
20.155399
20
18.765029
11
19.876270
21
17.988918
0
LINE
8
Layer 1
10
19.876270
20
17.988918
11
15.153137
21
17.988918
0
LINE
8
Layer 1
10
15.153137
20
17.988918
11
10.275961
21
18.142960
0
LINE
8
Layer 1
10
10.275961
20
18.142960
11
10.275961
21
18.142960
0
LINE
8
Layer 1
10
21.693959
20
24.621140
11
30.309402
21
48.969955
0
LINE
8
Layer 1
10
30.309402
20
48.969955
11
30.164611
21
49.142656
0
LINE
8
Layer 1
10
30.164611
20
49.142656
11
29.472076
21
49.240729
0
LINE
8
Layer 1
10
29.472076
20
49.240729
11
25.820536
21
49.252178
0
LINE
8
Layer 1
10
25.820536
20
49.252178
11
21.201486
21
49.174473
0
LINE
8
Layer 1
10
21.201486
20
49.174473
11
15.930061
21
33.934473
0
LINE
8
Layer 1
10
15.930061
20
33.934473
11
10.638394
21
18.475641
0
LINE
8
Layer 1
10
10.638394
20
18.475641
11
11.929595
21
18.343920
0
LINE
8
Layer 1
10
11.929595
20
18.343920
11
15.062397
21
18.334530
0
LINE
8
Layer 1
10
15.062397
20
18.334530
11
19.506638
21
18.412251
0
LINE
8
Layer 1
10
19.506638
20
18.412251
11
21.693959
21
24.621140
0
LINE
8
Layer 1
10
21.693959
20
24.621140
11
21.693959
21
24.621140
0
LINE
8
Layer 1
10
23.882598
20
18.166800
11
30.823210
21
39.748045
0
LINE
8
Layer 1
10
30.823210
20
39.748045
11
34.054011
21
49.512728
0
LINE
8
Layer 1
10
34.054011
20
49.512728
11
37.055544
21
49.696378
0
LINE
8
Layer 1
10
37.055544
20
49.696378
11
42.021627
21
49.880029
0
LINE
8
Layer 1
10
42.021627
20
49.880029
11
43.715251
21
49.788978
0
LINE
8
Layer 1
10
43.715251
20
49.788978
11
43.894986
21
49.579159
0
LINE
8
Layer 1
10
43.894986
20
49.579159
11
43.851305
21
49.174473
0
LINE
8
Layer 1
10
43.851305
20
49.174473
11
43.814001
21
48.668512
0
LINE
8
Layer 1
10
43.814001
20
48.668512
11
44.059553
21
48.525535
0
LINE
8
Layer 1
10
44.059553
20
48.525535
11
45.978050
21
49.386140
0
LINE
8
Layer 1
10
45.978050
20
49.386140
11
47.765050
21
50.084166
0
LINE
8
Layer 1
10
47.765050
20
50.084166
11
49.594622
21
50.353551
0
LINE
8
Layer 1
10
49.594622
20
50.353551
11
51.394545
21
50.192148
0
LINE
8
Layer 1
10
51.394545
20
50.192148
11
53.092601
21
49.597807
0
LINE
8
Layer 1
10
53.092601
20
49.597807
11
53.940871
21
49.104308
0
LINE
8
Layer 1
10
53.940871
20
49.104308
11
54.491879
21
48.455244
0
LINE
8
Layer 1
10
54.491879
20
48.455244
11
54.703571
21
47.423442
0
LINE
8
Layer 1
10
54.703571
20
47.423442
11
54.533893
21
45.781726
0
LINE
8
Layer 1
10
54.533893
20
45.781726
11
53.940793
21
43.302924
0
LINE
8
Layer 1
10
53.940793
20
43.302924
11
52.882216
21
39.759860
0
LINE
8
Layer 1
10
52.882216
20
39.759860
11
49.200415
21
28.572251
0
LINE
8
Layer 1
10
49.200415
20
28.572251
11
45.707393
21
18.130029
0
LINE
8
Layer 1
10
45.707393
20
18.130029
11
41.003886
21
18.052649
0
LINE
8
Layer 1
10
41.003886
20
18.052649
11
37.278664
21
18.066138
0
LINE
8
Layer 1
10
37.278664
20
18.066138
11
36.520719
21
18.164148
0
LINE
8
Layer 1
10
36.520719
20
18.164148
11
36.301449
21
18.334871
0
LINE
8
Layer 1
10
36.301449
20
18.334871
11
37.425100
21
22.302475
0
LINE
8
Layer 1
10
37.425100
20
22.302475
11
41.344850
21
34.673469
0
LINE
8
Layer 1
10
41.344850
20
34.673469
11
44.202601
21
43.934129
0
LINE
8
Layer 1
10
44.202601
20
43.934129
11
43.960127
21
44.157944
0
LINE
8
Layer 1
10
43.960127
20
44.157944
11
43.292480
21
44.182911
0
LINE
8
Layer 1
10
43.292480
20
44.182911
11
42.938544
21
44.165672
0
LINE
8
Layer 1
10
42.938544
20
44.165672
11
42.645566
21
44.054674
0
LINE
8
Layer 1
10
42.645566
20
44.054674
11
42.328375
21
43.640657
0
LINE
8
Layer 1
10
42.328375
20
43.640657
11
41.901797
21
42.714359
0
LINE
8
Layer 1
10
41.901797
20
42.714359
11
37.398173
21
29.701140
0
LINE
8
Layer 1
10
37.398173
20
29.701140
11
33.477841
21
18.130029
0
LINE
8
Layer 1
10
33.477841
20
18.130029
11
28.680221
21
18.052810
0
LINE
8
Layer 1
10
28.680221
20
18.052810
11
25.291899
21
18.054441
0
LINE
8
Layer 1
10
25.291899
20
18.054441
11
23.882598
21
18.166800
0
LINE
8
Layer 1
10
23.882598
20
18.166800
11
23.882598
21
18.166800
0
LINE
8
Layer 1
10
37.155828
20
30.622830
11
41.786381
21
43.816719
0
LINE
8
Layer 1
10
41.786381
20
43.816719
11
42.106210
21
44.344766
0
LINE
8
Layer 1
10
42.106210
20
44.344766
11
42.425676
21
44.641178
0
LINE
8
Layer 1
10
42.425676
20
44.641178
11
43.524830
21
44.800029
0
LINE
8
Layer 1
10
43.524830
20
44.800029
11
44.425386
21
44.724357
0
LINE
8
Layer 1
10
44.425386
20
44.724357
11
44.892942
21
44.542422
0
LINE
8
Layer 1
10
44.892942
20
44.542422
11
44.461414
21
42.674475
0
LINE
8
Layer 1
10
44.461414
20
42.674475
11
43.200337
21
38.545200
0
LINE
8
Layer 1
10
43.200337
20
38.545200
11
36.653529
21
18.623918
0
LINE
8
Layer 1
10
36.653529
20
18.623918
11
36.831044
21
18.384445
0
LINE
8
Layer 1
10
36.831044
20
18.384445
11
37.714089
21
18.280049
0
LINE
8
Layer 1
10
37.714089
20
18.280049
11
42.320365
21
18.454901
0
LINE
8
Layer 1
10
42.320365
20
18.454901
11
45.323715
21
18.638664
0
LINE
8
Layer 1
10
45.323715
20
18.638664
11
49.540849
21
31.366567
0
LINE
8
Layer 1
10
49.540849
20
31.366567
11
52.619915
21
40.879520
0
LINE
8
Layer 1
10
52.619915
20
40.879520
11
54.100846
21
45.877853
0
LINE
8
Layer 1
10
54.100846
20
45.877853
11
54.304068
21
47.503279
0
LINE
8
Layer 1
10
54.304068
20
47.503279
11
54.178022
21
47.957827
0
LINE
8
Layer 1
10
54.178022
20
47.957827
11
53.878858
21
48.417853
0
LINE
8
Layer 1
10
53.878858
20
48.417853
11
53.086131
21
49.048293
0
LINE
8
Layer 1
10
53.086131
20
49.048293
11
51.873647
21
49.511223
0
LINE
8
Layer 1
10
51.873647
20
49.511223
11
50.427449
21
49.757048
0
LINE
8
Layer 1
10
50.427449
20
49.757048
11
48.933577
21
49.736172
0
LINE
8
Layer 1
10
48.933577
20
49.736172
11
47.387312
21
49.336188
0
LINE
8
Layer 1
10
47.387312
20
49.336188
11
45.546910
21
48.594727
0
LINE
8
Layer 1
10
45.546910
20
48.594727
11
43.497046
21
47.610090
0
LINE
8
Layer 1
10
43.497046
20
47.610090
11
43.408081
21
48.469911
0
LINE
8
Layer 1
10
43.408081
20
48.469911
11
43.319116
21
49.329729
0
LINE
8
Layer 1
10
43.319116
20
49.329729
11
38.916074
21
49.252101
0
LINE
8
Layer 1
10
38.916074
20
49.252101
11
34.513029
21
49.174473
0
LINE
8
Layer 1
10
34.513029
20
49.174473
11
29.668504
21
34.640029
0
LINE
8
Layer 1
10
29.668504
20
34.640029
11
24.635335
21
19.350200
0
LINE
8
Layer 1
10
24.635335
20
19.350200
11
24.586208
21
18.782557
0
LINE
8
Layer 1
10
24.586208
20
18.782557
11
24.736976
21
18.606487
0
LINE
8
Layer 1
10
24.736976
20
18.606487
11
25.071323
21
18.488280
0
LINE
8
Layer 1
10
25.071323
20
18.488280
11
26.490816
21
18.383541
0
LINE
8
Layer 1
10
26.490816
20
18.383541
11
29.244823
21
18.384512
0
LINE
8
Layer 1
10
29.244823
20
18.384512
11
33.054823
21
18.412251
0
LINE
8
Layer 1
10
33.054823
20
18.412251
11
37.155828
21
30.622830
0
LINE
8
Layer 1
10
37.155828
20
30.622830
11
37.155828
21
30.622830
0
LINE
8
Layer 1
10
49.395467
20
19.188362
11
54.445978
21
34.922251
0
LINE
8
Layer 1
10
54.445978
20
34.922251
11
59.320808
21
49.738918
0
LINE
8
Layer 1
10
59.320808
20
49.738918
11
63.854333
21
49.816258
0
LINE
8
Layer 1
10
63.854333
20
49.816258
11
67.231282
21
49.806091
0
LINE
8
Layer 1
10
67.231282
20
49.806091
11
68.984103
21
49.673036
0
LINE
8
Layer 1
10
68.984103
20
49.673036
11
69.286511
21
49.438507
0
LINE
8
Layer 1
10
69.286511
20
49.438507
11
69.242304
21
48.708893
0
LINE
8
Layer 1
10
69.242304
20
48.708893
11
67.647617
21
43.669029
0
LINE
8
Layer 1
10
67.647617
20
43.669029
11
59.195027
21
19.047251
0
LINE
8
Layer 1
10
59.195027
20
19.047251
11
58.892127
21
18.271140
0
LINE
8
Layer 1
10
58.892127
20
18.271140
11
54.055955
21
18.271140
0
LINE
8
Layer 1
10
54.055955
20
18.271140
11
49.219784
21
18.271140
0
LINE
8
Layer 1
10
49.219784
20
18.271140
11
49.395467
21
19.188362
0
LINE
8
Layer 1
10
49.395467
20
19.188362
11
49.395467
21
19.188362
0
LINE
8
Layer 1
10
62.259518
20
29.489473
11
67.520828
21
44.770576
0
LINE
8
Layer 1
10
67.520828
20
44.770576
11
69.038157
21
49.222400
0
LINE
8
Layer 1
10
69.038157
20
49.222400
11
64.361054
21
49.251853
0
LINE
8
Layer 1
10
64.361054
20
49.251853
11
59.683949
21
49.174473
0
LINE
8
Layer 1
10
59.683949
20
49.174473
11
55.631873
21
36.897807
0
LINE
8
Layer 1
10
55.631873
20
36.897807
11
50.601855
21
21.587251
0
LINE
8
Layer 1
10
50.601855
20
21.587251
11
49.623909
21
18.553362
0
LINE
8
Layer 1
10
49.623909
20
18.553362
11
54.069722
21
18.553362
0
LINE
8
Layer 1
10
54.069722
20
18.553362
11
58.515535
21
18.553362
0
LINE
8
Layer 1
10
58.515535
20
18.553362
11
62.259518
21
29.489473
0
LINE
8
Layer 1
10
62.259518
20
29.489473
11
62.259518
21
29.489473
0
LINE
8
Layer 1
10
-31.798424
20
21.270682
11
-33.468237
21
21.937094
0
LINE
8
Layer 1
10
-33.468237
20
21.937094
11
-34.688523
21
22.457830
0
LINE
8
Layer 1
10
-34.688523
20
22.457830
11
-34.864581
21
22.729396
0
LINE
8
Layer 1
10
-34.864581
20
22.729396
11
-34.861311
21
23.100329
0
LINE
8
Layer 1
10
-34.861311
20
23.100329
11
-34.577981
21
24.137252
0
LINE
8
Layer 1
10
-34.577981
20
24.137252
11
-34.341875
21
24.456562
0
LINE
8
Layer 1
10
-34.341875
20
24.456562
11
-34.018383
21
24.651985
0
LINE
8
Layer 1
10
-34.018383
20
24.651985
11
-33.035967
21
24.697805
0
LINE
8
Layer 1
10
-33.035967
20
24.697805
11
-31.484178
21
24.327985
0
LINE
8
Layer 1
10
-31.484178
20
24.327985
11
-30.296212
21
23.852010
0
LINE
8
Layer 1
10
-30.296212
20
23.852010
11
-30.079033
21
23.587459
0
LINE
8
Layer 1
10
-30.079033
20
23.587459
11
-30.021843
21
23.237156
0
LINE
8
Layer 1
10
-30.021843
20
23.237156
11
-30.193666
21
22.555022
0
LINE
8
Layer 1
10
-30.193666
20
22.555022
11
-30.606771
21
21.836978
0
LINE
8
Layer 1
10
-30.606771
20
21.836978
11
-31.304998
21
21.151023
0
LINE
8
Layer 1
10
-31.304998
20
21.151023
11
-31.560605
21
21.118090
0
LINE
8
Layer 1
10
-31.560605
20
21.118090
11
-31.798424
21
21.270682
0
LINE
8
Layer 1
10
-31.798424
20
21.270682
11
-31.798424
21
21.270682
0
LINE
8
Layer 1
10
-30.924954
20
22.278696
11
-30.597704
21
22.766611
0
LINE
8
Layer 1
10
-30.597704
20
22.766611
11
-30.646282
21
23.195285
0
LINE
8
Layer 1
10
-30.646282
20
23.195285
11
-31.068042
21
23.560254
0
LINE
8
Layer 1
10
-31.068042
20
23.560254
11
-31.860338
21
23.857052
0
LINE
8
Layer 1
10
-31.860338
20
23.857052
11
-33.095107
21
24.145493
0
LINE
8
Layer 1
10
-33.095107
20
24.145493
11
-33.822713
21
24.174881
0
LINE
8
Layer 1
10
-33.822713
20
24.174881
11
-34.167841
21
23.918877
0
LINE
8
Layer 1
10
-34.167841
20
23.918877
11
-34.255177
21
23.351140
0
LINE
8
Layer 1
10
-34.255177
20
23.351140
11
-34.119585
21
22.651636
0
LINE
8
Layer 1
10
-34.119585
20
22.651636
11
-33.479065
21
22.500153
0
LINE
8
Layer 1
10
-33.479065
20
22.500153
11
-32.279621
21
22.222251
0
LINE
8
Layer 1
10
-32.279621
20
22.222251
11
-31.542281
21
21.960391
0
LINE
8
Layer 1
10
-31.542281
20
21.960391
11
-30.924954
21
22.278696
0
LINE
8
Layer 1
10
-30.924954
20
22.278696
11
-30.924954
21
22.278696
0
LINE
8
Layer 1
10
-41.492274
20
21.802511
11
-41.509274
21
22.258244
0
LINE
8
Layer 1
10
-41.509274
20
22.258244
11
-41.270126
21
22.669492
0
LINE
8
Layer 1
10
-41.270126
20
22.669492
11
-40.856617
21
22.949617
0
LINE
8
Layer 1
10
-40.856617
20
22.949617
11
-40.350533
21
23.011982
0
LINE
8
Layer 1
10
-40.350533
20
23.011982
11
-39.919984
21
22.803111
0
LINE
8
Layer 1
10
-39.919984
20
22.803111
11
-39.682199
21
22.413215
0
LINE
8
Layer 1
10
-39.682199
20
22.413215
11
-39.676550
21
21.976054
0
LINE
8
Layer 1
10
-39.676550
20
21.976054
11
-39.942409
21
21.625391
0
LINE
8
Layer 1
10
-39.942409
20
21.625391
11
-40.411610
21
21.427401
0
LINE
8
Layer 1
10
-40.411610
20
21.427401
11
-40.874270
21
21.396404
0
LINE
8
Layer 1
10
-40.874270
20
21.396404
11
-41.258466
21
21.524180
0
LINE
8
Layer 1
10
-41.258466
20
21.524180
11
-41.492274
21
21.802511
0
LINE
8
Layer 1
10
-41.492274
20
21.802511
11
-41.492274
21
21.802511
0
LINE
8
Layer 1
10
-40.252399
20
22.292807
11
-40.402524
21
22.510266
0
LINE
8
Layer 1
10
-40.402524
20
22.510266
11
-40.613606
21
22.567168
0
LINE
8
Layer 1
10
-40.613606
20
22.567168
11
-40.826352
21
22.469250
0
LINE
8
Layer 1
10
-40.826352
20
22.469250
11
-40.981472
21
22.222251
0
LINE
8
Layer 1
10
-40.981472
20
22.222251
11
-40.909742
21
22.022932
0
LINE
8
Layer 1
10
-40.909742
20
22.022932
11
-40.605177
21
21.940029
0
LINE
8
Layer 1
10
-40.605177
20
21.940029
11
-40.307520
21
22.043657
0
LINE
8
Layer 1
10
-40.307520
20
22.043657
11
-40.252399
21
22.292807
0
LINE
8
Layer 1
10
-40.252399
20
22.292807
11
-40.252399
21
22.292807
0
LINE
8
Layer 1
10
-38.922291
20
22.304508
11
-38.974502
21
22.946959
0
LINE
8
Layer 1
10
-38.974502
20
22.946959
11
-38.800843
21
23.530826
0
LINE
8
Layer 1
10
-38.800843
20
23.530826
11
-38.408282
21
24.042627
0
LINE
8
Layer 1
10
-38.408282
20
24.042627
11
-37.803785
21
24.468881
0
LINE
8
Layer 1
10
-37.803785
20
24.468881
11
-37.079155
21
24.691545
0
LINE
8
Layer 1
10
-37.079155
20
24.691545
11
-36.370822
21
24.196847
0
LINE
8
Layer 1
10
-36.370822
20
24.196847
11
-35.873244
21
23.621407
0
LINE
8
Layer 1
10
-35.873244
20
23.621407
11
-35.666288
21
23.167340
0
LINE
8
Layer 1
10
-35.666288
20
23.167340
11
-35.852365
21
22.775300
0
LINE
8
Layer 1
10
-35.852365
20
22.775300
11
-36.344862
21
22.369848
0
LINE
8
Layer 1
10
-36.344862
20
22.369848
11
-37.045178
21
22.013921
0
LINE
8
Layer 1
10
-37.045178
20
22.013921
11
-37.854712
21
21.770456
0
LINE
8
Layer 1
10
-37.854712
20
21.770456
11
-38.622849
21
21.743953
0
LINE
8
Layer 1
10
-38.622849
20
21.743953
11
-38.922291
21
22.304508
0
LINE
8
Layer 1
10
-38.922291
20
22.304508
11
-38.922291
21
22.304508
0
LINE
8
Layer 1
10
-36.512954
20
22.975344
11
-36.248185
21
23.382111
0
LINE
8
Layer 1
10
-36.248185
20
23.382111
11
-36.614368
21
23.774843
0
LINE
8
Layer 1
10
-36.614368
20
23.774843
11
-37.085540
21
23.957334
0
LINE
8
Layer 1
10
-37.085540
20
23.957334
11
-37.585332
21
23.888334
0
LINE
8
Layer 1
10
-37.585332
20
23.888334
11
-38.031766
21
23.598896
0
LINE
8
Layer 1
10
-38.031766
20
23.598896
11
-38.342864
21
23.120076
0
LINE
8
Layer 1
10
-38.342864
20
23.120076
11
-38.346207
21
22.561704
0
LINE
8
Layer 1
10
-38.346207
20
22.561704
11
-37.921881
21
22.341931
0
LINE
8
Layer 1
10
-37.921881
20
22.341931
11
-37.250569
21
22.475047
0
LINE
8
Layer 1
10
-37.250569
20
22.475047
11
-36.512954
21
22.975344
0
LINE
8
Layer 1
10
-36.512954
20
22.975344
11
-36.512954
21
22.975344
0
LINE
8
Layer 1
10
-31.010555
20
25.433590
11
-31.682982
21
25.681468
0
LINE
8
Layer 1
10
-31.682982
20
25.681468
11
-32.602495
21
25.680560
0
LINE
8
Layer 1
10
-32.602495
20
25.680560
11
-33.518515
21
25.678298
0
LINE
8
Layer 1
10
-33.518515
20
25.678298
11
-33.713888
21
25.874892
0
LINE
8
Layer 1
10
-33.713888
20
25.874892
11
-33.841617
21
26.252935
0
LINE
8
Layer 1
10
-33.841617
20
26.252935
11
-33.894297
21
26.896391
0
LINE
8
Layer 1
10
-33.894297
20
26.896391
11
-33.721431
21
27.480793
0
LINE
8
Layer 1
10
-33.721431
20
27.480793
11
-33.329984
21
27.992611
0
LINE
8
Layer 1
10
-33.329984
20
27.992611
11
-32.726921
21
28.418313
0
LINE
8
Layer 1
10
-32.726921
20
28.418313
11
-32.294526
21
28.603957
0
LINE
8
Layer 1
10
-32.294526
20
28.603957
11
-31.858153
21
28.647868
0
LINE
8
Layer 1
10
-31.858153
20
28.647868
11
-30.447290
21
28.278142
0
LINE
8
Layer 1
10
-30.447290
20
28.278142
11
-29.445551
21
27.863097
0
LINE
8
Layer 1
10
-29.445551
20
27.863097
11
-28.962673
21
27.406471
0
LINE
8
Layer 1
10
-28.962673
20
27.406471
11
-28.941165
21
26.785426
0
LINE
8
Layer 1
10
-28.941165
20
26.785426
11
-29.323535
21
25.877125
0
LINE
8
Layer 1
10
-29.323535
20
25.877125
11
-29.675381
21
25.337543
0
LINE
8
Layer 1
10
-29.675381
20
25.337543
11
-30.045613
21
25.091179
0
LINE
8
Layer 1
10
-30.045613
20
25.091179
11
-30.476561
21
25.126904
0
LINE
8
Layer 1
10
-30.476561
20
25.126904
11
-31.010555
21
25.433590
0
LINE
8
Layer 1
10
-31.010555
20
25.433590
11
-31.010555
21
25.433590
0
LINE
8
Layer 1
10
-32.275791
20
26.241251
11
-31.715177
21
26.450248
0
LINE
8
Layer 1
10
-31.715177
20
26.450248
11
-31.154562
21
26.241251
0
LINE
8
Layer 1
10
-31.154562
20
26.241251
11
-30.594188
21
25.968677
0
LINE
8
Layer 1
10
-30.594188
20
25.968677
11
-30.144623
21
25.918575
0
LINE
8
Layer 1
10
-30.144623
20
25.918575
11
-29.808761
21
26.090496
0
LINE
8
Layer 1
10
-29.808761
20
26.090496
11
-29.589493
21
26.483993
0
LINE
8
Layer 1
10
-29.589493
20
26.483993
11
-29.511550
21
26.939847
0
LINE
8
Layer 1
10
-29.511550
20
26.939847
11
-29.664062
21
27.274326
0
LINE
8
Layer 1
10
-29.664062
20
27.274326
11
-30.925245
21
27.849929
0
LINE
8
Layer 1
10
-30.925245
20
27.849929
11
-31.991080
21
27.982854
0
LINE
8
Layer 1
10
-31.991080
20
27.982854
11
-32.818883
21
27.712135
0
LINE
8
Layer 1
10
-32.818883
20
27.712135
11
-33.275642
21
27.126449
0
LINE
8
Layer 1
10
-33.275642
20
27.126449
11
-33.228348
21
26.314473
0
LINE
8
Layer 1
10
-33.228348
20
26.314473
11
-32.944309
21
25.919488
0
LINE
8
Layer 1
10
-32.944309
20
25.919488
11
-32.275791
21
26.241251
0
LINE
8
Layer 1
10
-32.275791
20
26.241251
11
-32.275791
21
26.241251
0
LINE
8
Layer 1
10
-40.746288
20
25.868726
11
-40.567244
21
26.293368
0
LINE
8
Layer 1
10
-40.567244
20
26.293368
11
-40.114282
21
26.595915
0
LINE
8
Layer 1
10
-40.114282
20
26.595915
11
-39.513655
21
26.724682
0
LINE
8
Layer 1
10
-39.513655
20
26.724682
11
-38.891616
21
26.627986
0
LINE
8
Layer 1
10
-38.891616
20
26.627986
11
-38.497515
21
26.307719
0
LINE
8
Layer 1
10
-38.497515
20
26.307719
11
-38.548522
21
25.916045
0
LINE
8
Layer 1
10
-38.548522
20
25.916045
11
-38.970747
21
25.568398
0
LINE
8
Layer 1
10
-38.970747
20
25.568398
11
-39.690302
21
25.380213
0
LINE
8
Layer 1
10
-39.690302
20
25.380213
11
-40.557133
21
25.411509
0
LINE
8
Layer 1
10
-40.557133
20
25.411509
11
-40.708354
21
25.573894
0
LINE
8
Layer 1
10
-40.708354
20
25.573894
11
-40.746288
21
25.868726
0
LINE
8
Layer 1
10
-40.746288
20
25.868726
11
-40.746288
21
25.868726
0
LINE
8
Layer 1
10
-39.182461
20
25.909916
11
-39.125412
21
26.339893
0
LINE
8
Layer 1
10
-39.125412
20
26.339893
11
-39.373522
21
26.388332
0
LINE
8
Layer 1
10
-39.373522
20
26.388332
11
-39.727443
21
26.281518
0
LINE
8
Layer 1
10
-39.727443
20
26.281518
11
-40.044457
21
26.084154
0
LINE
8
Layer 1
10
-40.044457
20
26.084154
11
-40.181843
21
25.860945
0
LINE
8
Layer 1
10
-40.181843
20
25.860945
11
-40.057353
21
25.668324
0
LINE
8
Layer 1
10
-40.057353
20
25.668324
11
-39.766587
21
25.616331
0
LINE
8
Layer 1
10
-39.766587
20
25.616331
11
-39.433603
21
25.698889
0
LINE
8
Layer 1
10
-39.433603
20
25.698889
11
-39.182461
21
25.909916
0
LINE
8
Layer 1
10
-39.182461
20
25.909916
11
-39.182461
21
25.909916
0
LINE
8
Layer 1
10
-37.648828
20
26.050624
11
-37.897317
21
27.046247
0
LINE
8
Layer 1
10
-37.897317
20
27.046247
11
-37.777583
21
27.363957
0
LINE
8
Layer 1
10
-37.777583
20
27.363957
11
-37.480573
21
27.705425
0
LINE
8
Layer 1
10
-37.480573
20
27.705425
11
-36.948731
21
28.024625
0
LINE
8
Layer 1
10
-36.948731
20
28.024625
11
-36.270953
21
28.131691
0
LINE
8
Layer 1
10
-36.270953
20
28.131691
11
-35.548198
21
28.026489
0
LINE
8
Layer 1
10
-35.548198
20
28.026489
11
-34.881425
21
27.708885
0
LINE
8
Layer 1
10
-34.881425
20
27.708885
11
-34.500449
21
27.264994
0
LINE
8
Layer 1
10
-34.500449
20
27.264994
11
-34.511918
21
26.769473
0
LINE
8
Layer 1
10
-34.511918
20
26.769473
11
-34.902944
21
26.254674
0
LINE
8
Layer 1
10
-34.902944
20
26.254674
11
-35.660638
21
25.752950
0
LINE
8
Layer 1
10
-35.660638
20
25.752950
11
-36.421455
21
25.427215
0
LINE
8
Layer 1
10
-36.421455
20
25.427215
11
-36.976103
21
25.363709
0
LINE
8
Layer 1
10
-36.976103
20
25.363709
11
-37.370067
21
25.569242
0
LINE
8
Layer 1
10
-37.370067
20
25.569242
11
-37.648828
21
26.050624
0
LINE
8
Layer 1
10
-37.648828
20
26.050624
11
-37.648828
21
26.050624
0
LINE
8
Layer 1
10
-35.522459
20
26.508143
11
-34.940689
21
27.062600
0
LINE
8
Layer 1
10
-34.940689
20
27.062600
11
-35.001511
21
27.204161
0
LINE
8
Layer 1
10
-35.001511
20
27.204161
11
-35.272734
21
27.334975
0
LINE
8
Layer 1
10
-35.272734
20
27.334975
11
-36.231402
21
27.556801
0
LINE
8
Layer 1
10
-36.231402
20
27.556801
11
-36.943436
21
27.428950
0
LINE
8
Layer 1
10
-36.943436
20
27.428950
11
-37.316326
21
26.998986
0
LINE
8
Layer 1
10
-37.316326
20
26.998986
11
-37.257561
21
26.314473
0
LINE
8
Layer 1
10
-37.257561
20
26.314473
11
-37.019301
21
25.993086
0
LINE
8
Layer 1
10
-37.019301
20
25.993086
11
-36.648341
21
25.918497
0
LINE
8
Layer 1
10
-36.648341
20
25.918497
11
-36.148214
21
26.090314
0
LINE
8
Layer 1
10
-36.148214
20
26.090314
11
-35.522459
21
26.508143
0
LINE
8
Layer 1
10
-35.522459
20
26.508143
11
-35.522459
21
26.508143
0
LINE
8
Layer 1
10
-38.952274
20
29.140288
11
-38.969274
21
29.596022
0
LINE
8
Layer 1
10
-38.969274
20
29.596022
11
-38.730126
21
30.007270
0
LINE
8
Layer 1
10
-38.730126
20
30.007270
11
-38.316617
21
30.287395
0
LINE
8
Layer 1
10
-38.316617
20
30.287395
11
-37.810533
21
30.349760
0
LINE
8
Layer 1
10
-37.810533
20
30.349760
11
-37.379984
21
30.140889
0
LINE
8
Layer 1
10
-37.379984
20
30.140889
11
-37.142199
21
29.750992
0
LINE
8
Layer 1
10
-37.142199
20
29.750992
11
-37.136550
21
29.313832
0
LINE
8
Layer 1
10
-37.136550
20
29.313832
11
-37.402409
21
28.963168
0
LINE
8
Layer 1
10
-37.402409
20
28.963168
11
-37.871610
21
28.765179
0
LINE
8
Layer 1
10
-37.871610
20
28.765179
11
-38.334270
21
28.734182
0
LINE
8
Layer 1
10
-38.334270
20
28.734182
11
-38.718466
21
28.861958
0
LINE
8
Layer 1
10
-38.718466
20
28.861958
11
-38.952274
21
29.140288
0
LINE
8
Layer 1
10
-38.952274
20
29.140288
11
-38.952274
21
29.140288
0
LINE
8
Layer 1
10
-37.867621
20
29.616473
11
-38.206288
21
29.814028
0
LINE
8
Layer 1
10
-38.206288
20
29.814028
11
-38.544954
21
29.616473
0
LINE
8
Layer 1
10
-38.544954
20
29.616473
11
-38.671954
21
29.348363
0
LINE
8
Layer 1
10
-38.671954
20
29.348363
11
-38.206288
21
29.277807
0
LINE
8
Layer 1
10
-38.206288
20
29.277807
11
-37.740621
21
29.348363
0
LINE
8
Layer 1
10
-37.740621
20
29.348363
11
-37.867621
21
29.616473
0
LINE
8
Layer 1
10
-37.867621
20
29.616473
11
-37.867621
21
29.616473
0
LINE
8
Layer 1
10
-30.445177
20
29.277807
11
-31.766713
21
29.540192
0
LINE
8
Layer 1
10
-31.766713
20
29.540192
11
-32.353571
21
29.709365
0
LINE
8
Layer 1
10
-32.353571
20
29.709365
11
-32.698146
21
30.130994
0
LINE
8
Layer 1
10
-32.698146
20
30.130994
11
-32.770269
21
30.731103
0
LINE
8
Layer 1
10
-32.770269
20
30.731103
11
-32.539771
21
31.435717
0
LINE
8
Layer 1
10
-32.539771
20
31.435717
11
-32.090094
21
31.968905
0
LINE
8
Layer 1
10
-32.090094
20
31.968905
11
-31.466262
21
32.268574
0
LINE
8
Layer 1
10
-31.466262
20
32.268574
11
-30.719621
21
32.321515
0
LINE
8
Layer 1
10
-30.719621
20
32.321515
11
-29.901515
21
32.114518
0
LINE
8
Layer 1
10
-29.901515
20
32.114518
11
-28.399068
21
31.615197
0
LINE
8
Layer 1
10
-28.399068
20
31.615197
11
-27.977639
21
31.358788
0
LINE
8
Layer 1
10
-27.977639
20
31.358788
11
-27.771956
21
30.878915
0
LINE
8
Layer 1
10
-27.771956
20
30.878915
11
-27.794116
21
30.248754
0
LINE
8
Layer 1
10
-27.794116
20
30.248754
11
-28.056219
21
29.541476
0
LINE
8
Layer 1
10
-28.056219
20
29.541476
11
-28.418358
21
29.194784
0
LINE
8
Layer 1
10
-28.418358
20
29.194784
11
-28.988393
21
29.029629
0
LINE
8
Layer 1
10
-28.988393
20
29.029629
11
-29.689580
21
29.054479
0
LINE
8
Layer 1
10
-29.689580
20
29.054479
11
-30.445177
21
29.277807
0
LINE
8
Layer 1
10
-30.445177
20
29.277807
11
-30.445177
21
29.277807
0
LINE
8
Layer 1
10
-28.328513
20
30.360389
11
-28.672928
21
30.894154
0
LINE
8
Layer 1
10
-28.672928
20
30.894154
11
-29.630170
21
31.491061
0
LINE
8
Layer 1
10
-29.630170
20
31.491061
11
-30.840687
21
31.961425
0
LINE
8
Layer 1
10
-30.840687
20
31.961425
11
-31.210121
21
31.904373
0
LINE
8
Layer 1
10
-31.210121
20
31.904373
11
-31.623017
21
31.670574
0
LINE
8
Layer 1
10
-31.623017
20
31.670574
11
-32.115514
21
31.154229
0
LINE
8
Layer 1
10
-32.115514
20
31.154229
11
-32.254249
21
30.601317
0
LINE
8
Layer 1
10
-32.254249
20
30.601317
11
-32.050638
21
30.182772
0
LINE
8
Layer 1
10
-32.050638
20
30.182772
11
-31.516097
21
30.069525
0
LINE
8
Layer 1
10
-31.516097
20
30.069525
11
-30.845427
21
30.009298
0
LINE
8
Layer 1
10
-30.845427
20
30.009298
11
-30.106995
21
29.743502
0
LINE
8
Layer 1
10
-30.106995
20
29.743502
11
-29.445596
21
29.527628
0
LINE
8
Layer 1
10
-29.445596
20
29.527628
11
-28.876855
21
29.576473
0
LINE
8
Layer 1
10
-28.876855
20
29.576473
11
-28.478564
21
29.863054
0
LINE
8
Layer 1
10
-28.478564
20
29.863054
11
-28.328513
21
30.360389
0
LINE
8
Layer 1
10
-28.328513
20
30.360389
11
-28.328513
21
30.360389
0
LINE
8
Layer 1
10
-36.174288
20
29.616473
11
-36.421751
21
30.041647
0
LINE
8
Layer 1
10
-36.421751
20
30.041647
11
-36.500952
21
30.573494
0
LINE
8
Layer 1
10
-36.500952
20
30.573494
11
-36.412898
21
31.092297
0
LINE
8
Layer 1
10
-36.412898
20
31.092297
11
-36.158599
21
31.478339
0
LINE
8
Layer 1
10
-36.158599
20
31.478339
11
-35.061545
21
31.958833
0
LINE
8
Layer 1
10
-35.061545
20
31.958833
11
-34.386304
21
31.977680
0
LINE
8
Layer 1
10
-34.386304
20
31.977680
11
-33.894875
21
31.539931
0
LINE
8
Layer 1
10
-33.894875
20
31.539931
11
-33.624810
21
30.961948
0
LINE
8
Layer 1
10
-33.624810
20
30.961948
11
-33.630578
21
30.423291
0
LINE
8
Layer 1
10
-33.630578
20
30.423291
11
-33.903147
21
29.956579
0
LINE
8
Layer 1
10
-33.903147
20
29.956579
11
-34.433487
21
29.594432
0
LINE
8
Layer 1
10
-34.433487
20
29.594432
11
-35.479217
21
29.295307
0
LINE
8
Layer 1
10
-35.479217
20
29.295307
11
-35.849397
21
29.378085
0
LINE
8
Layer 1
10
-35.849397
20
29.378085
11
-36.174288
21
29.616473
0
LINE
8
Layer 1
10
-36.174288
20
29.616473
11
-36.174288
21
29.616473
0
LINE
8
Layer 1
10
-34.518846
20
30.134402
11
-34.139038
21
30.442280
0
LINE
8
Layer 1
10
-34.139038
20
30.442280
11
-33.991797
21
30.793282
0
LINE
8
Layer 1
10
-33.991797
20
30.793282
11
-34.082551
21
31.122061
0
LINE
8
Layer 1
10
-34.082551
20
31.122061
11
-34.416732
21
31.363268
0
LINE
8
Layer 1
10
-34.416732
20
31.363268
11
-34.925662
21
31.406888
0
LINE
8
Layer 1
10
-34.925662
20
31.406888
11
-35.422256
21
31.215132
0
LINE
8
Layer 1
10
-35.422256
20
31.215132
11
-35.799033
21
30.855820
0
LINE
8
Layer 1
10
-35.799033
20
30.855820
11
-35.948510
21
30.396767
0
LINE
8
Layer 1
10
-35.948510
20
30.396767
11
-35.844884
21
30.033466
0
LINE
8
Layer 1
10
-35.844884
20
30.033466
11
-35.553036
21
29.865146
0
LINE
8
Layer 1
10
-35.553036
20
29.865146
11
-35.101509
21
29.897045
0
LINE
8
Layer 1
10
-35.101509
20
29.897045
11
-34.518846
21
30.134402
0
LINE
8
Layer 1
10
-34.518846
20
30.134402
11
-34.518846
21
30.134402
0
LINE
8
Layer 1
10
-53.595897
20
31.378802
11
-54.180172
21
31.716632
0
LINE
8
Layer 1
10
-54.180172
20
31.716632
11
-54.622347
21
32.176982
0
LINE
8
Layer 1
10
-54.622347
20
32.176982
11
-54.922057
21
32.756616
0
LINE
8
Layer 1
10
-54.922057
20
32.756616
11
-55.078933
21
33.452298
0
LINE
8
Layer 1
10
-55.078933
20
33.452298
11
-54.962720
21
35.178862
0
LINE
8
Layer 1
10
-54.962720
20
35.178862
11
-54.270772
21
37.330786
0
LINE
8
Layer 1
10
-54.270772
20
37.330786
11
-53.697202
21
38.978503
0
LINE
8
Layer 1
10
-53.697202
20
38.978503
11
-53.573155
21
39.957369
0
LINE
8
Layer 1
10
-53.573155
20
39.957369
11
-53.558900
21
40.319417
0
LINE
8
Layer 1
10
-53.558900
20
40.319417
11
-53.315957
21
40.848960
0
LINE
8
Layer 1
10
-53.315957
20
40.848960
11
-52.052641
21
42.567369
0
LINE
8
Layer 1
10
-52.052641
20
42.567369
11
-50.314407
21
45.082677
0
LINE
8
Layer 1
10
-50.314407
20
45.082677
11
-48.501004
21
48.317277
0
LINE
8
Layer 1
10
-48.501004
20
48.317277
11
-47.274622
21
50.604750
0
LINE
8
Layer 1
10
-47.274622
20
50.604750
11
-46.272330
21
52.165007
0
LINE
8
Layer 1
10
-46.272330
20
52.165007
11
-45.478628
21
53.018881
0
LINE
8
Layer 1
10
-45.478628
20
53.018881
11
-45.155155
21
53.187435
0
LINE
8
Layer 1
10
-45.155155
20
53.187435
11
-44.878018
21
53.187205
0
LINE
8
Layer 1
10
-44.878018
20
53.187205
11
-44.624164
21
53.031829
0
LINE
8
Layer 1
10
-44.624164
20
53.031829
11
-44.499321
21
52.756933
0
LINE
8
Layer 1
10
-44.499321
20
52.756933
11
-44.670499
21
51.750420
0
LINE
8
Layer 1
10
-44.670499
20
51.750420
11
-45.459201
21
49.971344
0
LINE
8
Layer 1
10
-45.459201
20
49.971344
11
-46.933079
21
47.223384
0
LINE
8
Layer 1
10
-46.933079
20
47.223384
11
-48.742561
21
43.854276
0
LINE
8
Layer 1
10
-48.742561
20
43.854276
11
-49.495177
21
42.205964
0
LINE
8
Layer 1
10
-49.495177
20
42.205964
11
-49.111484
21
41.482436
0
LINE
8
Layer 1
10
-49.111484
20
41.482436
11
-48.163988
21
40.739867
0
LINE
8
Layer 1
10
-48.163988
20
40.739867
11
-47.445856
21
41.015879
0
LINE
8
Layer 1
10
-47.445856
20
41.015879
11
-46.134421
21
42.037497
0
LINE
8
Layer 1
10
-46.134421
20
42.037497
11
-43.618523
21
44.158775
0
LINE
8
Layer 1
10
-43.618523
20
44.158775
11
-42.699171
21
45.315261
0
LINE
8
Layer 1
10
-42.699171
20
45.315261
11
-41.597498
21
47.545442
0
LINE
8
Layer 1
10
-41.597498
20
47.545442
11
-39.788002
21
51.651385
0
LINE
8
Layer 1
10
-39.788002
20
51.651385
11
-38.663454
21
53.817117
0
LINE
8
Layer 1
10
-38.663454
20
53.817117
11
-38.245875
21
54.343875
0
LINE
8
Layer 1
10
-38.245875
20
54.343875
11
-37.864939
21
54.591345
0
LINE
8
Layer 1
10
-37.864939
20
54.591345
11
-37.475783
21
54.628116
0
LINE
8
Layer 1
10
-37.475783
20
54.628116
11
-37.033541
21
54.522776
0
LINE
8
Layer 1
10
-37.033541
20
54.522776
11
-36.738571
21
54.387476
0
LINE
8
Layer 1
10
-36.738571
20
54.387476
11
-36.580741
21
54.175980
0
LINE
8
Layer 1
10
-36.580741
20
54.175980
11
-36.588494
21
53.278298
0
LINE
8
Layer 1
10
-36.588494
20
53.278298
11
-37.013672
21
52.074096
0
LINE
8
Layer 1
10
-37.013672
20
52.074096
11
-37.995085
21
50.094751
0
LINE
8
Layer 1
10
-37.995085
20
50.094751
11
-41.024528
21
44.942077
0
LINE
8
Layer 1
10
-41.024528
20
44.942077
11
-41.563191
21
43.995326
0
LINE
8
Layer 1
10
-41.563191
20
43.995326
11
-41.697829
21
43.346498
0
LINE
8
Layer 1
10
-41.697829
20
43.346498
11
-41.407246
21
42.838324
0
LINE
8
Layer 1
10
-41.407246
20
42.838324
11
-40.670243
21
42.313535
0
LINE
8
Layer 1
10
-40.670243
20
42.313535
11
-40.208346
21
42.059537
0
LINE
8
Layer 1
10
-40.208346
20
42.059537
11
-39.878967
21
42.022257
0
LINE
8
Layer 1
10
-39.878967
20
42.022257
11
-39.033162
21
42.755775
0
LINE
8
Layer 1
10
-39.033162
20
42.755775
11
-38.042148
21
43.607014
0
LINE
8
Layer 1
10
-38.042148
20
43.607014
11
-37.739731
21
43.626173
0
LINE
8
Layer 1
10
-37.739731
20
43.626173
11
-37.507093
21
43.399213
0
LINE
8
Layer 1
10
-37.507093
20
43.399213
11
-37.565635
21
43.059104
0
LINE
8
Layer 1
10
-37.565635
20
43.059104
11
-37.893841
21
42.583608
0
LINE
8
Layer 1
10
-37.893841
20
42.583608
11
-38.331591
21
42.160563
0
LINE
8
Layer 1
10
-38.331591
20
42.160563
11
-38.718764
21
41.977807
0
LINE
8
Layer 1
10
-38.718764
20
41.977807
11
-39.119741
21
41.620170
0
LINE
8
Layer 1
10
-39.119741
20
41.620170
11
-39.627009
21
40.685710
0
LINE
8
Layer 1
10
-39.627009
20
40.685710
11
-40.579723
21
37.917027
0
LINE
8
Layer 1
10
-40.579723
20
37.917027
11
-41.013442
21
36.347757
0
LINE
8
Layer 1
10
-41.013442
20
36.347757
11
-41.476452
21
35.219857
0
LINE
8
Layer 1
10
-41.476452
20
35.219857
11
-42.069609
21
34.341770
0
LINE
8
Layer 1
10
-42.069609
20
34.341770
11
-42.893770
21
33.521941
0
LINE
8
Layer 1
10
-42.893770
20
33.521941
11
-43.949580
21
32.791283
0
LINE
8
Layer 1
10
-43.949580
20
32.791283
11
-45.035922
21
32.749120
0
LINE
8
Layer 1
10
-45.035922
20
32.749120
11
-46.299048
21
33.116270
0
LINE
8
Layer 1
10
-46.299048
20
33.116270
11
-46.657206
21
33.462402
0
LINE
8
Layer 1
10
-46.657206
20
33.462402
11
-46.840809
21
33.963213
0
LINE
8
Layer 1
10
-46.840809
20
33.963213
11
-46.707497
21
35.567800
0
LINE
8
Layer 1
10
-46.707497
20
35.567800
11
-45.945405
21
38.207879
0
LINE
8
Layer 1
10
-45.945405
20
38.207879
11
-45.261843
21
40.555548
0
LINE
8
Layer 1
10
-45.261843
20
40.555548
11
-45.625792
21
40.531263
0
LINE
8
Layer 1
10
-45.625792
20
40.531263
11
-46.500816
21
40.116709
0
LINE
8
Layer 1
10
-46.500816
20
40.116709
11
-47.171480
21
39.706027
0
LINE
8
Layer 1
10
-47.171480
20
39.706027
11
-47.571383
21
39.321457
0
LINE
8
Layer 1
10
-47.571383
20
39.321457
11
-47.795500
21
38.829608
0
LINE
8
Layer 1
10
-47.795500
20
38.829608
11
-47.938809
21
38.097087
0
LINE
8
Layer 1
10
-47.938809
20
38.097087
11
-48.483551
21
36.249275
0
LINE
8
Layer 1
10
-48.483551
20
36.249275
11
-49.472961
21
34.299921
0
LINE
8
Layer 1
10
-49.472961
20
34.299921
11
-50.696030
21
32.597322
0
LINE
8
Layer 1
10
-50.696030
20
32.597322
11
-51.941747
21
31.489771
0
LINE
8
Layer 1
10
-51.941747
20
31.489771
11
-52.753030
21
31.170602
0
LINE
8
Layer 1
10
-52.753030
20
31.170602
11
-53.595897
21
31.378802
0
LINE
8
Layer 1
10
-53.595897
20
31.378802
11
-53.595897
21
31.378802
0
LINE
8
Layer 1
10
-51.737881
20
32.337705
11
-51.095834
21
32.857604
0
LINE
8
Layer 1
10
-51.095834
20
32.857604
11
-52.032495
21
33.044937
0
LINE
8
Layer 1
10
-52.032495
20
33.044937
11
-53.348834
21
33.547372
0
LINE
8
Layer 1
10
-53.348834
20
33.547372
11
-53.662784
21
34.102383
0
LINE
8
Layer 1
10
-53.662784
20
34.102383
11
-53.687034
21
34.911371
0
LINE
8
Layer 1
10
-53.687034
20
34.911371
11
-53.470589
21
35.873245
0
LINE
8
Layer 1
10
-53.470589
20
35.873245
11
-53.062458
21
36.886917
0
LINE
8
Layer 1
10
-53.062458
20
36.886917
11
-52.511648
21
37.851298
0
LINE
8
Layer 1
10
-52.511648
20
37.851298
11
-51.867164
21
38.665299
0
LINE
8
Layer 1
10
-51.867164
20
38.665299
11
-51.178015
21
39.227832
0
LINE
8
Layer 1
10
-51.178015
20
39.227832
11
-50.493208
21
39.437807
0
LINE
8
Layer 1
10
-50.493208
20
39.437807
11
-49.901168
21
39.273956
0
LINE
8
Layer 1
10
-49.901168
20
39.273956
11
-49.360088
21
38.880017
0
LINE
8
Layer 1
10
-49.360088
20
38.880017
11
-48.931756
21
38.530468
0
LINE
8
Layer 1
10
-48.931756
20
38.530468
11
-48.610791
21
38.473340
0
LINE
8
Layer 1
10
-48.610791
20
38.473340
11
-48.388313
21
38.767523
0
LINE
8
Layer 1
10
-48.388313
20
38.767523
11
-48.437819
21
39.207694
0
LINE
8
Layer 1
10
-48.437819
20
39.207694
11
-49.354065
21
40.529533
0
LINE
8
Layer 1
10
-49.354065
20
40.529533
11
-50.051684
21
41.450506
0
LINE
8
Layer 1
10
-50.051684
20
41.450506
11
-50.341843
21
42.129414
0
LINE
8
Layer 1
10
-50.341843
20
42.129414
11
-49.722532
21
43.538512
0
LINE
8
Layer 1
10
-49.722532
20
43.538512
11
-48.233553
21
46.215049
0
LINE
8
Layer 1
10
-48.233553
20
46.215049
11
-45.919873
21
50.397132
0
LINE
8
Layer 1
10
-45.919873
20
50.397132
11
-44.979621
21
52.619094
0
LINE
8
Layer 1
10
-44.979621
20
52.619094
11
-45.109360
21
52.677301
0
LINE
8
Layer 1
10
-45.109360
20
52.677301
11
-45.455933
21
52.298237
0
LINE
8
Layer 1
10
-45.455933
20
52.298237
11
-46.543719
21
50.652185
0
LINE
8
Layer 1
10
-46.543719
20
50.652185
11
-47.731255
21
48.528709
0
LINE
8
Layer 1
10
-47.731255
20
48.528709
11
-48.506817
21
46.775584
0
LINE
8
Layer 1
10
-48.506817
20
46.775584
11
-49.600770
21
44.792795
0
LINE
8
Layer 1
10
-49.600770
20
44.792795
11
-51.694529
21
42.051664
0
LINE
8
Layer 1
10
-51.694529
20
42.051664
11
-52.587341
21
40.825662
0
LINE
8
Layer 1
10
-52.587341
20
40.825662
11
-52.764927
21
40.104641
0
LINE
8
Layer 1
10
-52.764927
20
40.104641
11
-52.931328
21
39.084524
0
LINE
8
Layer 1
10
-52.931328
20
39.084524
11
-53.611661
21
37.245866
0
LINE
8
Layer 1
10
-53.611661
20
37.245866
11
-54.262558
21
35.471488
0
LINE
8
Layer 1
10
-54.262558
20
35.471488
11
-54.494266
21
34.107549
0
LINE
8
Layer 1
10
-54.494266
20
34.107549
11
-54.308213
21
33.079226
0
LINE
8
Layer 1
10
-54.308213
20
33.079226
11
-53.705828
21
32.311696
0
LINE
8
Layer 1
10
-53.705828
20
32.311696
11
-53.187136
21
31.960093
0
LINE
8
Layer 1
10
-53.187136
20
31.960093
11
-52.734131
21
31.846594
0
LINE
8
Layer 1
10
-52.734131
20
31.846594
11
-52.274988
21
31.972148
0
LINE
8
Layer 1
10
-52.274988
20
31.972148
11
-51.737881
21
32.337705
0
LINE
8
Layer 1
10
-51.737881
20
32.337705
11
-51.737881
21
32.337705
0
LINE
8
Layer 1
10
-43.939660
20
33.537943
11
-43.145177
21
33.846968
0
LINE
8
Layer 1
10
-43.145177
20
33.846968
11
-44.125597
21
34.172943
0
LINE
8
Layer 1
10
-44.125597
20
34.172943
11
-44.911459
21
34.591163
0
LINE
8
Layer 1
10
-44.911459
20
34.591163
11
-45.424113
21
35.138916
0
LINE
8
Layer 1
10
-45.424113
20
35.138916
11
-45.762471
21
35.747102
0
LINE
8
Layer 1
10
-45.762471
20
35.747102
11
-45.972020
21
35.908823
0
LINE
8
Layer 1
10
-45.972020
20
35.908823
11
-46.108510
21
34.848871
0
LINE
8
Layer 1
10
-46.108510
20
34.848871
11
-46.075095
21
34.093964
0
LINE
8
Layer 1
10
-46.075095
20
34.093964
11
-45.920981
21
33.650186
0
LINE
8
Layer 1
10
-45.920981
20
33.650186
11
-45.565363
21
33.408947
0
LINE
8
Layer 1
10
-45.565363
20
33.408947
11
-44.927438
21
33.261656
0
LINE
8
Layer 1
10
-44.927438
20
33.261656
11
-43.939660
21
33.537943
0
LINE
8
Layer 1
10
-43.939660
20
33.537943
11
-43.939660
21
33.537943
0
LINE
8
Layer 1
10
-50.988496
20
34.146140
11
-49.949690
21
35.709937
0
LINE
8
Layer 1
10
-49.949690
20
35.709937
11
-49.618953
21
36.520342
0
LINE
8
Layer 1
10
-49.618953
20
36.520342
11
-49.495177
21
37.184567
0
LINE
8
Layer 1
10
-49.495177
20
37.184567
11
-49.580843
21
37.791916
0
LINE
8
Layer 1
10
-49.580843
20
37.791916
11
-49.804326
21
38.334276
0
LINE
8
Layer 1
10
-49.804326
20
38.334276
11
-50.115352
21
38.723980
0
LINE
8
Layer 1
10
-50.115352
20
38.723980
11
-50.463648
21
38.873362
0
LINE
8
Layer 1
10
-50.463648
20
38.873362
11
-51.047046
21
38.565293
0
LINE
8
Layer 1
10
-51.047046
20
38.565293
11
-51.772070
21
37.796999
0
LINE
8
Layer 1
10
-51.772070
20
37.796999
11
-52.452300
21
36.802350
0
LINE
8
Layer 1
10
-52.452300
20
36.802350
11
-52.901317
21
35.815216
0
LINE
8
Layer 1
10
-52.901317
20
35.815216
11
-53.029030
21
34.529291
0
LINE
8
Layer 1
10
-53.029030
20
34.529291
11
-52.888514
21
34.057339
0
LINE
8
Layer 1
10
-52.888514
20
34.057339
11
-52.639959
21
33.724010
0
LINE
8
Layer 1
10
-52.639959
20
33.724010
11
-52.304523
21
33.547764
0
LINE
8
Layer 1
10
-52.304523
20
33.547764
11
-51.903362
21
33.547063
0
LINE
8
Layer 1
10
-51.903362
20
33.547063
11
-51.457634
21
33.740368
0
LINE
8
Layer 1
10
-51.457634
20
33.740368
11
-50.988496
21
34.146140
0
LINE
8
Layer 1
10
-50.988496
20
34.146140
11
-50.988496
21
34.146140
0
LINE
8
Layer 1
10
-42.834746
20
35.639705
11
-42.227341
21
36.759144
0
LINE
8
Layer 1
10
-42.227341
20
36.759144
11
-41.918775
21
38.008561
0
LINE
8
Layer 1
10
-41.918775
20
38.008561
11
-41.935906
21
39.166143
0
LINE
8
Layer 1
10
-41.935906
20
39.166143
11
-42.305591
21
40.010077
0
LINE
8
Layer 1
10
-42.305591
20
40.010077
11
-43.042098
21
40.566696
0
LINE
8
Layer 1
10
-43.042098
20
40.566696
11
-43.456100
21
40.131456
0
LINE
8
Layer 1
10
-43.456100
20
40.131456
11
-44.124598
21
39.085029
0
LINE
8
Layer 1
10
-44.124598
20
39.085029
11
-44.716058
21
37.768988
0
LINE
8
Layer 1
10
-44.716058
20
37.768988
11
-44.982359
21
36.537579
0
LINE
8
Layer 1
10
-44.982359
20
36.537579
11
-44.910063
21
35.544852
0
LINE
8
Layer 1
10
-44.910063
20
35.544852
11
-44.485732
21
34.944857
0
LINE
8
Layer 1
10
-44.485732
20
34.944857
11
-44.034143
21
34.720030
0
LINE
8
Layer 1
10
-44.034143
20
34.720030
11
-43.695268
21
34.724356
0
LINE
8
Layer 1
10
-43.695268
20
34.724356
11
-42.834746
21
35.639705
0
LINE
8
Layer 1
10
-42.834746
20
35.639705
11
-42.834746
21
35.639705
0
LINE
8
Layer 1
10
-40.615534
20
39.962991
11
-40.375144
21
41.191040
0
LINE
8
Layer 1
10
-40.375144
20
41.191040
11
-40.472465
21
41.423888
0
LINE
8
Layer 1
10
-40.472465
20
41.423888
11
-40.724799
21
41.547652
0
LINE
8
Layer 1
10
-40.724799
20
41.547652
11
-41.948419
21
42.474944
0
LINE
8
Layer 1
10
-41.948419
20
42.474944
11
-42.685485
21
43.247807
0
LINE
8
Layer 1
10
-42.685485
20
43.247807
11
-40.011246
21
47.900392
0
LINE
8
Layer 1
10
-40.011246
20
47.900392
11
-37.479672
21
52.549973
0
LINE
8
Layer 1
10
-37.479672
20
52.549973
11
-37.110049
21
53.571256
0
LINE
8
Layer 1
10
-37.110049
20
53.571256
11
-37.192455
21
54.040272
0
LINE
8
Layer 1
10
-37.192455
20
54.040272
11
-37.374197
21
54.104062
0
LINE
8
Layer 1
10
-37.374197
20
54.104062
11
-37.607135
21
53.984037
0
LINE
8
Layer 1
10
-37.607135
20
53.984037
11
-38.224555
21
53.195839
0
LINE
8
Layer 1
10
-38.224555
20
53.195839
11
-40.051208
21
49.449894
0
LINE
8
Layer 1
10
-40.051208
20
49.449894
11
-41.417976
21
46.318659
0
LINE
8
Layer 1
10
-41.417976
20
46.318659
11
-42.344709
21
44.546107
0
LINE
8
Layer 1
10
-42.344709
20
44.546107
11
-43.198044
21
43.565088
0
LINE
8
Layer 1
10
-43.198044
20
43.565088
11
-44.344621
21
42.808452
0
LINE
8
Layer 1
10
-44.344621
20
42.808452
11
-44.894577
21
42.377102
0
LINE
8
Layer 1
10
-44.894577
20
42.377102
11
-45.219940
21
41.921247
0
LINE
8
Layer 1
10
-45.219940
20
41.921247
11
-45.266394
21
41.560223
0
LINE
8
Layer 1
10
-45.266394
20
41.560223
11
-44.979621
21
41.413362
0
LINE
8
Layer 1
10
-44.979621
20
41.413362
11
-44.780302
21
41.191654
0
LINE
8
Layer 1
10
-44.780302
20
41.191654
11
-44.697399
21
40.658613
0
LINE
8
Layer 1
10
-44.697399
20
40.658613
11
-44.697399
21
39.903860
0
LINE
8
Layer 1
10
-44.697399
20
39.903860
11
-44.044210
21
40.517501
0
LINE
8
Layer 1
10
-44.044210
20
40.517501
11
-43.367315
21
40.991456
0
LINE
8
Layer 1
10
-43.367315
20
40.991456
11
-42.741048
21
41.111339
0
LINE
8
Layer 1
10
-42.741048
20
41.111339
11
-42.190638
21
40.879550
0
LINE
8
Layer 1
10
-42.190638
20
40.879550
11
-41.741313
21
40.298489
0
LINE
8
Layer 1
10
-41.741313
20
40.298489
11
-41.310732
21
38.840339
0
LINE
8
Layer 1
10
-41.310732
20
38.840339
11
-41.261994
21
38.397802
0
LINE
8
Layer 1
10
-41.261994
20
38.397802
11
-41.122830
21
38.448784
0
LINE
8
Layer 1
10
-41.122830
20
38.448784
11
-40.615534
21
39.962991
0
LINE
8
Layer 1
10
-40.615534
20
39.962991
11
-40.615534
21
39.962991
0
LINE
8
Layer 1
10
-37.735916
20
32.570400
11
-37.905934
21
32.901620
0
LINE
8
Layer 1
10
-37.905934
20
32.901620
11
-37.906342
21
33.303302
0
LINE
8
Layer 1
10
-37.906342
20
33.303302
11
-37.757135
21
33.671940
0
LINE
8
Layer 1
10
-37.757135
20
33.671940
11
-37.478307
21
33.904027
0
LINE
8
Layer 1
10
-37.478307
20
33.904027
11
-36.922072
21
33.984961
0
LINE
8
Layer 1
10
-36.922072
20
33.984961
11
-36.329536
21
33.887317
0
LINE
8
Layer 1
10
-36.329536
20
33.887317
11
-35.858380
21
33.659363
0
LINE
8
Layer 1
10
-35.858380
20
33.659363
11
-35.666288
21
33.349365
0
LINE
8
Layer 1
10
-35.666288
20
33.349365
11
-35.922155
21
32.881369
0
LINE
8
Layer 1
10
-35.922155
20
32.881369
11
-36.521069
21
32.532053
0
LINE
8
Layer 1
10
-36.521069
20
32.532053
11
-37.210000
21
32.396652
0
LINE
8
Layer 1
10
-37.210000
20
32.396652
11
-37.735916
21
32.570400
0
LINE
8
Layer 1
10
-37.735916
20
32.570400
11
-37.735916
21
32.570400
0
LINE
8
Layer 1
10
-36.512954
20
33.228918
11
-36.678760
21
33.428237
0
LINE
8
Layer 1
10
-36.678760
20
33.428237
11
-37.077399
21
33.511140
0
LINE
8
Layer 1
10
-37.077399
20
33.511140
11
-37.476038
21
33.428237
0
LINE
8
Layer 1
10
-37.476038
20
33.428237
11
-37.641843
21
33.228918
0
LINE
8
Layer 1
10
-37.641843
20
33.228918
11
-37.476038
21
33.029598
0
LINE
8
Layer 1
10
-37.476038
20
33.029598
11
-37.077399
21
32.946696
0
LINE
8
Layer 1
10
-37.077399
20
32.946696
11
-36.678760
21
33.029598
0
LINE
8
Layer 1
10
-36.678760
20
33.029598
11
-36.512954
21
33.228918
0
LINE
8
Layer 1
10
-36.512954
20
33.228918
11
-36.512954
21
33.228918
0
LINE
8
Layer 1
10
-28.469624
20
32.931171
11
-29.117933
21
33.052800
0
LINE
8
Layer 1
10
-29.117933
20
33.052800
11
-29.884009
21
33.026435
0
LINE
8
Layer 1
10
-29.884009
20
33.026435
11
-30.709455
21
33.080487
0
LINE
8
Layer 1
10
-30.709455
20
33.080487
11
-31.309168
21
33.458922
0
LINE
8
Layer 1
10
-31.309168
20
33.458922
11
-31.594684
21
34.063503
0
LINE
8
Layer 1
10
-31.594684
20
34.063503
11
-31.477540
21
34.795993
0
LINE
8
Layer 1
10
-31.477540
20
34.795993
11
-30.978706
21
35.415741
0
LINE
8
Layer 1
10
-30.978706
20
35.415741
11
-30.238852
21
35.897360
0
LINE
8
Layer 1
10
-30.238852
20
35.897360
11
-29.353554
21
36.138563
0
LINE
8
Layer 1
10
-29.353554
20
36.138563
11
-28.559732
21
35.883655
0
LINE
8
Layer 1
10
-28.559732
20
35.883655
11
-27.213638
21
35.486696
0
LINE
8
Layer 1
10
-27.213638
20
35.486696
11
-26.815970
21
35.322440
0
LINE
8
Layer 1
10
-26.815970
20
35.322440
11
-26.636375
21
34.873399
0
LINE
8
Layer 1
10
-26.636375
20
34.873399
11
-26.682678
21
34.205159
0
LINE
8
Layer 1
10
-26.682678
20
34.205159
11
-26.962703
21
33.383307
0
LINE
8
Layer 1
10
-26.962703
20
33.383307
11
-27.212749
21
32.942069
0
LINE
8
Layer 1
10
-27.212749
20
32.942069
11
-27.497359
21
32.734603
0
LINE
8
Layer 1
10
-27.497359
20
32.734603
11
-27.891372
21
32.738455
0
LINE
8
Layer 1
10
-27.891372
20
32.738455
11
-28.469624
21
32.931171
0
LINE
8
Layer 1
10
-28.469624
20
32.931171
11
-28.469624
21
32.931171
0
LINE
8
Layer 1
10
-27.250550
20
34.287251
11
-27.303589
21
34.783950
0
LINE
8
Layer 1
10
-27.303589
20
34.783950
11
-27.727782
21
34.922251
0
LINE
8
Layer 1
10
-27.727782
20
34.922251
11
-28.179759
21
35.005154
0
LINE
8
Layer 1
10
-28.179759
20
35.005154
11
-28.469624
21
35.204473
0
LINE
8
Layer 1
10
-28.469624
20
35.204473
11
-28.872586
21
35.447240
0
LINE
8
Layer 1
10
-28.872586
20
35.447240
11
-29.508056
21
35.467597
0
LINE
8
Layer 1
10
-29.508056
20
35.467597
11
-30.186375
21
35.288464
0
LINE
8
Layer 1
10
-30.186375
20
35.288464
11
-30.717885
21
34.932764
0
LINE
8
Layer 1
10
-30.717885
20
34.932764
11
-31.125388
21
34.292626
0
LINE
8
Layer 1
10
-31.125388
20
34.292626
11
-30.997522
21
33.857409
0
LINE
8
Layer 1
10
-30.997522
20
33.857409
11
-30.328929
21
33.622608
0
LINE
8
Layer 1
10
-30.328929
20
33.622608
11
-29.114253
21
33.583716
0
LINE
8
Layer 1
10
-29.114253
20
33.583716
11
-27.612973
21
33.743863
0
LINE
8
Layer 1
10
-27.612973
20
33.743863
11
-27.351099
21
33.944363
0
LINE
8
Layer 1
10
-27.351099
20
33.944363
11
-27.250550
21
34.287251
0
LINE
8
Layer 1
10
-27.250550
20
34.287251
11
-27.250550
21
34.287251
0
LINE
8
Layer 1
10
-35.195916
20
33.134845
11
-35.385261
21
33.550870
0
LINE
8
Layer 1
10
-35.385261
20
33.550870
11
-35.332521
21
34.105516
0
LINE
8
Layer 1
10
-35.332521
20
34.105516
11
-35.061438
21
34.713532
0
LINE
8
Layer 1
10
-35.061438
20
34.713532
11
-34.595757
21
35.289673
0
LINE
8
Layer 1
10
-34.595757
20
35.289673
11
-33.832261
21
35.866299
0
LINE
8
Layer 1
10
-33.832261
20
35.866299
11
-33.546928
21
35.829802
0
LINE
8
Layer 1
10
-33.546928
20
35.829802
11
-33.184646
21
35.608695
0
LINE
8
Layer 1
10
-33.184646
20
35.608695
11
-32.744791
21
35.153955
0
LINE
8
Layer 1
10
-32.744791
20
35.153955
11
-32.561843
21
34.673221
0
LINE
8
Layer 1
10
-32.561843
20
34.673221
11
-32.881572
21
33.904544
0
LINE
8
Layer 1
10
-32.881572
20
33.904544
11
-33.633958
21
33.271146
0
LINE
8
Layer 1
10
-33.633958
20
33.271146
11
-34.508806
21
32.954192
0
LINE
8
Layer 1
10
-34.508806
20
32.954192
11
-34.895215
21
32.970994
0
LINE
8
Layer 1
10
-34.895215
20
32.970994
11
-35.195916
21
33.134845
0
LINE
8
Layer 1
10
-35.195916
20
33.134845
11
-35.195916
21
33.134845
0
LINE
8
Layer 1
10
-33.494802
20
34.196009
11
-32.916376
21
34.800390
0
LINE
8
Layer 1
10
-32.916376
20
34.800390
11
-32.962391
21
34.951434
0
LINE
8
Layer 1
10
-32.962391
20
34.951434
11
-33.207356
21
35.076903
0
LINE
8
Layer 1
10
-33.207356
20
35.076903
11
-33.695232
21
35.071700
0
LINE
8
Layer 1
10
-33.695232
20
35.071700
11
-34.223230
21
34.801155
0
LINE
8
Layer 1
10
-34.223230
20
34.801155
11
-34.646358
21
34.371941
0
LINE
8
Layer 1
10
-34.646358
20
34.371941
11
-34.819621
21
33.890732
0
LINE
8
Layer 1
10
-34.819621
20
33.890732
11
-34.737517
21
33.592675
0
LINE
8
Layer 1
10
-34.737517
20
33.592675
11
-34.490274
21
33.543987
0
LINE
8
Layer 1
10
-34.490274
20
33.543987
11
-33.494802
21
34.196009
0
LINE
8
Layer 1
10
-33.494802
20
34.196009
11
-33.494802
21
34.196009
0
LINE
8
Layer 1
10
-68.869281
20
34.666120
11
-69.764233
21
35.152485
0
LINE
8
Layer 1
10
-69.764233
20
35.152485
11
-70.668179
21
35.960363
0
LINE
8
Layer 1
10
-70.668179
20
35.960363
11
-71.171269
21
36.575201
0
LINE
8
Layer 1
10
-71.171269
20
36.575201
11
-71.422804
21
37.085132
0
LINE
8
Layer 1
10
-71.422804
20
37.085132
11
-71.481547
21
37.703930
0
LINE
8
Layer 1
10
-71.481547
20
37.703930
11
-71.406264
21
38.645363
0
LINE
8
Layer 1
10
-71.406264
20
38.645363
11
-70.998476
21
40.701703
0
LINE
8
Layer 1
10
-70.998476
20
40.701703
11
-70.230679
21
42.800568
0
LINE
8
Layer 1
10
-70.230679
20
42.800568
11
-69.161900
21
44.809918
0
LINE
8
Layer 1
10
-69.161900
20
44.809918
11
-67.851170
21
46.597711
0
LINE
8
Layer 1
10
-67.851170
20
46.597711
11
-64.924583
21
49.462029
0
LINE
8
Layer 1
10
-64.924583
20
49.462029
11
-63.552372
21
50.566685
0
LINE
8
Layer 1
10
-63.552372
20
50.566685
11
-62.754025
21
51.008918
0
LINE
8
Layer 1
10
-62.754025
20
51.008918
11
-61.066288
21
51.996696
0
LINE
8
Layer 1
10
-61.066288
20
51.996696
11
-59.611536
21
52.790278
0
LINE
8
Layer 1
10
-59.611536
20
52.790278
11
-58.197152
21
52.984473
0
LINE
8
Layer 1
10
-58.197152
20
52.984473
11
-57.069029
21
52.911187
0
LINE
8
Layer 1
10
-57.069029
20
52.911187
11
-56.294095
21
52.682831
0
LINE
8
Layer 1
10
-56.294095
20
52.682831
11
-55.847418
21
52.286658
0
LINE
8
Layer 1
10
-55.847418
20
52.286658
11
-55.704065
21
51.709921
0
LINE
8
Layer 1
10
-55.704065
20
51.709921
11
-55.870985
21
51.132289
0
LINE
8
Layer 1
10
-55.870985
20
51.132289
11
-56.480177
21
50.853052
0
LINE
8
Layer 1
10
-56.480177
20
50.853052
11
-57.863815
21
50.417577
0
LINE
8
Layer 1
10
-57.863815
20
50.417577
11
-57.829728
21
50.309277
0
LINE
8
Layer 1
10
-57.829728
20
50.309277
11
-57.205770
21
50.347713
0
LINE
8
Layer 1
10
-57.205770
20
50.347713
11
-56.107527
21
50.351375
0
LINE
8
Layer 1
10
-56.107527
20
50.351375
11
-55.300770
21
49.784612
0
LINE
8
Layer 1
10
-55.300770
20
49.784612
11
-54.712673
21
48.906670
0
LINE
8
Layer 1
10
-54.712673
20
48.906670
11
-54.575177
21
47.529451
0
LINE
8
Layer 1
10
-54.575177
20
47.529451
11
-54.677336
21
46.166460
0
LINE
8
Layer 1
10
-54.677336
20
46.166460
11
-55.004606
21
44.857820
0
LINE
8
Layer 1
10
-55.004606
20
44.857820
11
-55.588175
21
43.512660
0
LINE
8
Layer 1
10
-55.588175
20
43.512660
11
-56.459230
21
42.040107
0
LINE
8
Layer 1
10
-56.459230
20
42.040107
11
-58.531311
21
39.423134
0
LINE
8
Layer 1
10
-58.531311
20
39.423134
11
-60.987220
21
37.190963
0
LINE
8
Layer 1
10
-60.987220
20
37.190963
11
-63.575188
21
35.537548
0
LINE
8
Layer 1
10
-63.575188
20
35.537548
11
-64.840018
21
34.988484
0
LINE
8
Layer 1
10
-64.840018
20
34.988484
11
-66.043449
21
34.656841
0
LINE
8
Layer 1
10
-66.043449
20
34.656841
11
-67.690269
21
34.405714
0
LINE
8
Layer 1
10
-67.690269
20
34.405714
11
-68.869281
21
34.666120
0
LINE
8
Layer 1
10
-68.869281
20
34.666120
11
-68.869281
21
34.666120
0
LINE
8
Layer 1
10
-64.155221
20
35.816227
11
-62.318859
21
36.999241
0
LINE
8
Layer 1
10
-62.318859
20
36.999241
11
-60.147252
21
38.867265
0
LINE
8
Layer 1
10
-60.147252
20
38.867265
11
-58.111710
21
40.974917
0
LINE
8
Layer 1
10
-58.111710
20
40.974917
11
-56.683549
21
42.876814
0
LINE
8
Layer 1
10
-56.683549
20
42.876814
11
-55.878544
21
44.414146
0
LINE
8
Layer 1
10
-55.878544
20
44.414146
11
-55.290165
21
45.869842
0
LINE
8
Layer 1
10
-55.290165
20
45.869842
11
-54.966300
21
47.102760
0
LINE
8
Layer 1
10
-54.966300
20
47.102760
11
-54.954839
21
47.971761
0
LINE
8
Layer 1
10
-54.954839
20
47.971761
11
-55.261207
21
48.828374
0
LINE
8
Layer 1
10
-55.261207
20
48.828374
11
-55.720802
21
49.347867
0
LINE
8
Layer 1
10
-55.720802
20
49.347867
11
-56.432956
21
49.595249
0
LINE
8
Layer 1
10
-56.432956
20
49.595249
11
-57.497001
21
49.635529
0
LINE
8
Layer 1
10
-57.497001
20
49.635529
11
-58.745469
21
49.680511
0
LINE
8
Layer 1
10
-58.745469
20
49.680511
11
-59.011063
21
49.793917
0
LINE
8
Layer 1
10
-59.011063
20
49.793917
11
-59.090732
21
49.979405
0
LINE
8
Layer 1
10
-59.090732
20
49.979405
11
-58.983980
21
50.375014
0
LINE
8
Layer 1
10
-58.983980
20
50.375014
11
-58.659069
21
50.699908
0
LINE
8
Layer 1
10
-58.659069
20
50.699908
11
-57.326843
21
51.156184
0
LINE
8
Layer 1
10
-57.326843
20
51.156184
11
-56.636355
21
51.381209
0
LINE
8
Layer 1
10
-56.636355
20
51.381209
11
-56.306507
21
51.689204
0
LINE
8
Layer 1
10
-56.306507
20
51.689204
11
-56.366331
21
52.012317
0
LINE
8
Layer 1
10
-56.366331
20
52.012317
11
-56.844859
21
52.282697
0
LINE
8
Layer 1
10
-56.844859
20
52.282697
11
-57.767119
21
52.376457
0
LINE
8
Layer 1
10
-57.767119
20
52.376457
11
-58.923754
21
52.137920
0
LINE
8
Layer 1
10
-58.923754
20
52.137920
11
-60.335494
21
51.560499
0
LINE
8
Layer 1
10
-60.335494
20
51.560499
11
-62.023075
21
50.637607
0
LINE
8
Layer 1
10
-62.023075
20
50.637607
11
-63.654641
21
49.576070
0
LINE
8
Layer 1
10
-63.654641
20
49.576070
11
-65.119213
21
48.446260
0
LINE
8
Layer 1
10
-65.119213
20
48.446260
11
-66.417345
21
47.247487
0
LINE
8
Layer 1
10
-66.417345
20
47.247487
11
-67.549593
21
45.979062
0
LINE
8
Layer 1
10
-67.549593
20
45.979062
11
-68.516512
21
44.640296
0
LINE
8
Layer 1
10
-68.516512
20
44.640296
11
-69.318656
21
43.230499
0
LINE
8
Layer 1
10
-69.318656
20
43.230499
11
-69.956581
21
41.748982
0
LINE
8
Layer 1
10
-69.956581
20
41.748982
11
-70.430842
21
40.195057
0
LINE
8
Layer 1
10
-70.430842
20
40.195057
11
-70.861991
21
38.028133
0
LINE
8
Layer 1
10
-70.861991
20
38.028133
11
-70.789213
21
37.442374
0
LINE
8
Layer 1
10
-70.789213
20
37.442374
11
-70.535408
21
36.827480
0
LINE
8
Layer 1
10
-70.535408
20
36.827480
11
-70.111690
21
36.152726
0
LINE
8
Layer 1
10
-70.111690
20
36.152726
11
-69.560161
21
35.631312
0
LINE
8
Layer 1
10
-69.560161
20
35.631312
11
-68.891327
21
35.264905
0
LINE
8
Layer 1
10
-68.891327
20
35.264905
11
-68.115691
21
35.055168
0
LINE
8
Layer 1
10
-68.115691
20
35.055168
11
-67.243758
21
35.003767
0
LINE
8
Layer 1
10
-67.243758
20
35.003767
11
-66.286033
21
35.112366
0
LINE
8
Layer 1
10
-66.286033
20
35.112366
11
-64.155221
21
35.816227
0
LINE
8
Layer 1
10
-64.155221
20
35.816227
11
-64.155221
21
35.816227
0
LINE
8
Layer 1
10
-68.349458
20
35.688851
11
-69.014741
21
36.002260
0
LINE
8
Layer 1
10
-69.014741
20
36.002260
11
-69.367351
21
36.628936
0
LINE
8
Layer 1
10
-69.367351
20
36.628936
11
-69.406586
21
37.566082
0
LINE
8
Layer 1
10
-69.406586
20
37.566082
11
-69.131744
21
38.810901
0
LINE
8
Layer 1
10
-69.131744
20
38.810901
11
-68.550689
21
40.338429
0
LINE
8
Layer 1
10
-68.550689
20
40.338429
11
-67.744143
21
42.006327
0
LINE
8
Layer 1
10
-67.744143
20
42.006327
11
-66.840378
21
43.572070
0
LINE
8
Layer 1
10
-66.840378
20
43.572070
11
-65.967669
21
44.793134
0
LINE
8
Layer 1
10
-65.967669
20
44.793134
11
-65.273520
21
45.426775
0
LINE
8
Layer 1
10
-65.273520
20
45.426775
11
-64.673178
21
45.485908
0
LINE
8
Layer 1
10
-64.673178
20
45.485908
11
-64.004182
21
45.574287
0
LINE
8
Layer 1
10
-64.004182
20
45.574287
11
-63.082830
21
46.289056
0
LINE
8
Layer 1
10
-63.082830
20
46.289056
11
-61.170967
21
47.908083
0
LINE
8
Layer 1
10
-61.170967
20
47.908083
11
-59.503196
21
48.891040
0
LINE
8
Layer 1
10
-59.503196
20
48.891040
11
-58.097739
21
49.230089
0
LINE
8
Layer 1
10
-58.097739
20
49.230089
11
-57.499074
21
49.155697
0
LINE
8
Layer 1
10
-57.499074
20
49.155697
11
-56.972821
21
48.917389
0
LINE
8
Layer 1
10
-56.972821
20
48.917389
11
-56.565229
21
48.548641
0
LINE
8
Layer 1
10
-56.565229
20
48.548641
11
-56.325526
21
48.076898
0
LINE
8
Layer 1
10
-56.325526
20
48.076898
11
-56.256783
21
47.489721
0
LINE
8
Layer 1
10
-56.256783
20
47.489721
11
-56.362071
21
46.774672
0
LINE
8
Layer 1
10
-56.362071
20
46.774672
11
-57.107022
21
44.911201
0
LINE
8
Layer 1
10
-57.107022
20
44.911201
11
-58.584945
21
42.386972
0
LINE
8
Layer 1
10
-58.584945
20
42.386972
11
-59.813761
21
40.748570
0
LINE
8
Layer 1
10
-59.813761
20
40.748570
11
-61.363711
21
39.083506
0
LINE
8
Layer 1
10
-61.363711
20
39.083506
11
-63.026557
21
37.596105
0
LINE
8
Layer 1
10
-63.026557
20
37.596105
11
-64.594065
21
36.490693
0
LINE
8
Layer 1
10
-64.594065
20
36.490693
11
-65.528836
21
36.043812
0
LINE
8
Layer 1
10
-65.528836
20
36.043812
11
-66.508531
21
35.752200
0
LINE
8
Layer 1
10
-66.508531
20
35.752200
11
-67.469841
21
35.629374
0
LINE
8
Layer 1
10
-67.469841
20
35.629374
11
-68.349458
21
35.688851
0
LINE
8
Layer 1
10
-68.349458
20
35.688851
11
-68.349458
21
35.688851
0
LINE
8
Layer 1
10
-64.822544
20
37.061987
11
-62.973276
21
38.485146
0
LINE
8
Layer 1
10
-62.973276
20
38.485146
11
-60.921411
21
40.602401
0
LINE
8
Layer 1
10
-60.921411
20
40.602401
11
-58.993192
21
43.040364
0
LINE
8
Layer 1
10
-58.993192
20
43.040364
11
-57.514863
21
45.425648
0
LINE
8
Layer 1
10
-57.514863
20
45.425648
11
-57.015443
21
46.582048
0
LINE
8
Layer 1
10
-57.015443
20
46.582048
11
-56.849330
21
47.466201
0
LINE
8
Layer 1
10
-56.849330
20
47.466201
11
-57.016542
21
48.101293
0
LINE
8
Layer 1
10
-57.016542
20
48.101293
11
-57.517095
21
48.510512
0
LINE
8
Layer 1
10
-57.517095
20
48.510512
11
-58.451665
21
48.583477
0
LINE
8
Layer 1
10
-58.451665
20
48.583477
11
-59.675716
21
48.090672
0
LINE
8
Layer 1
10
-59.675716
20
48.090672
11
-61.177450
21
47.038784
0
LINE
8
Layer 1
10
-61.177450
20
47.038784
11
-62.945069
21
45.434498
0
LINE
8
Layer 1
10
-62.945069
20
45.434498
11
-64.801964
21
43.731821
0
LINE
8
Layer 1
10
-64.801964
20
43.731821
11
-65.197664
21
43.588586
0
LINE
8
Layer 1
10
-65.197664
20
43.588586
11
-65.450051
21
43.777264
0
LINE
8
Layer 1
10
-65.450051
20
43.777264
11
-65.662248
21
43.981200
0
LINE
8
Layer 1
10
-65.662248
20
43.981200
11
-65.885124
21
43.917786
0
LINE
8
Layer 1
10
-65.885124
20
43.917786
11
-66.657189
21
42.734778
0
LINE
8
Layer 1
10
-66.657189
20
42.734778
11
-68.198247
21
39.574425
0
LINE
8
Layer 1
10
-68.198247
20
39.574425
11
-68.968510
21
37.349803
0
LINE
8
Layer 1
10
-68.968510
20
37.349803
11
-68.831401
21
36.921945
0
LINE
8
Layer 1
10
-68.831401
20
36.921945
11
-68.501757
21
36.471369
0
LINE
8
Layer 1
10
-68.501757
20
36.471369
11
-67.907020
21
36.177826
0
LINE
8
Layer 1
10
-67.907020
20
36.177826
11
-67.056132
21
36.184746
0
LINE
8
Layer 1
10
-67.056132
20
36.184746
11
-66.008253
21
36.482632
0
LINE
8
Layer 1
10
-66.008253
20
36.482632
11
-64.822544
21
37.061987
0
LINE
8
Layer 1
10
-64.822544
20
37.061987
11
-64.822544
21
37.061987
0
LINE
8
Layer 1
10
-36.324644
20
36.351619
11
-36.569525
21
36.928993
0
LINE
8
Layer 1
10
-36.569525
20
36.928993
11
-36.585150
21
37.498884
0
LINE
8
Layer 1
10
-36.585150
20
37.498884
11
-36.275660
21
37.931555
0
LINE
8
Layer 1
10
-36.275660
20
37.931555
11
-35.497683
21
37.982471
0
LINE
8
Layer 1
10
-35.497683
20
37.982471
11
-34.587916
21
38.086427
0
LINE
8
Layer 1
10
-34.587916
20
38.086427
11
-33.756069
21
38.669654
0
LINE
8
Layer 1
10
-33.756069
20
38.669654
11
-33.118937
21
39.159955
0
LINE
8
Layer 1
10
-33.118937
20
39.159955
11
-32.509301
21
39.398660
0
LINE
8
Layer 1
10
-32.509301
20
39.398660
11
-31.956381
21
39.380234
0
LINE
8
Layer 1
10
-31.956381
20
39.380234
11
-31.489399
21
39.099140
0
LINE
8
Layer 1
10
-31.489399
20
39.099140
11
-31.210242
21
38.667532
0
LINE
8
Layer 1
10
-31.210242
20
38.667532
11
-31.197174
21
38.189507
0
LINE
8
Layer 1
10
-31.197174
20
38.189507
11
-31.452398
21
37.655861
0
LINE
8
Layer 1
10
-31.452398
20
37.655861
11
-31.978117
21
37.057389
0
LINE
8
Layer 1
10
-31.978117
20
37.057389
11
-32.808093
21
36.447191
0
LINE
8
Layer 1
10
-32.808093
20
36.447191
11
-33.648300
21
36.558502
0
LINE
8
Layer 1
10
-33.648300
20
36.558502
11
-34.425615
21
36.697128
0
LINE
8
Layer 1
10
-34.425615
20
36.697128
11
-34.981323
21
36.310610
0
LINE
8
Layer 1
10
-34.981323
20
36.310610
11
-35.382439
21
35.925766
0
LINE
8
Layer 1
10
-35.382439
20
35.925766
11
-35.696643
21
35.802994
0
LINE
8
Layer 1
10
-35.696643
20
35.802994
11
-35.989018
21
35.944283
0
LINE
8
Layer 1
10
-35.989018
20
35.944283
11
-36.324644
21
36.351619
0
LINE
8
Layer 1
10
-36.324644
20
36.351619
11
-36.324644
21
36.351619
0
LINE
8
Layer 1
10
-35.209088
20
36.743180
11
-35.243070
21
37.462440
0
LINE
8
Layer 1
10
-35.243070
20
37.462440
11
-35.512251
21
37.609886
0
LINE
8
Layer 1
10
-35.512251
20
37.609886
11
-35.820651
21
37.460381
0
LINE
8
Layer 1
10
-35.820651
20
37.460381
11
-36.040156
21
37.130311
0
LINE
8
Layer 1
10
-36.040156
20
37.130311
11
-36.042651
21
36.736062
0
LINE
8
Layer 1
10
-36.042651
20
36.736062
11
-35.856453
21
36.444106
0
LINE
8
Layer 1
10
-35.856453
20
36.444106
11
-35.626361
21
36.348223
0
LINE
8
Layer 1
10
-35.626361
20
36.348223
11
-35.396024
21
36.448039
0
LINE
8
Layer 1
10
-35.396024
20
36.448039
11
-35.209088
21
36.743180
0
LINE
8
Layer 1
10
-35.209088
20
36.743180
11
-35.209088
21
36.743180
0
LINE
8
Layer 1
10
-31.771065
20
38.254686
11
-32.030794
21
38.671252
0
LINE
8
Layer 1
10
-32.030794
20
38.671252
11
-32.503625
21
38.814311
0
LINE
8
Layer 1
10
-32.503625
20
38.814311
11
-33.045994
21
38.682299
0
LINE
8
Layer 1
10
-33.045994
20
38.682299
11
-33.514335
21
38.273654
0
LINE
8
Layer 1
10
-33.514335
20
38.273654
11
-33.787407
21
37.702613
0
LINE
8
Layer 1
10
-33.787407
20
37.702613
11
-33.654309
21
37.277252
0
LINE
8
Layer 1
10
-33.654309
20
37.277252
11
-33.161565
21
37.118094
0
LINE
8
Layer 1
10
-33.161565
20
37.118094
11
-32.504283
21
37.320934
0
LINE
8
Layer 1
10
-32.504283
20
37.320934
11
-31.951202
21
37.746292
0
LINE
8
Layer 1
10
-31.951202
20
37.746292
11
-31.771065
21
38.254686
0
LINE
8
Layer 1
10
-31.771065
20
38.254686
11
-31.771065
21
38.254686
0
LINE
8
Layer 1
10
-27.815997
20
36.627765
11
-28.426506
21
36.801784
0
LINE
8
Layer 1
10
-28.426506
20
36.801784
11
-29.226933
21
36.830852
0
LINE
8
Layer 1
10
-29.226933
20
36.830852
11
-30.011443
21
36.891929
0
LINE
8
Layer 1
10
-30.011443
20
36.891929
11
-30.258487
21
37.433814
0
LINE
8
Layer 1
10
-30.258487
20
37.433814
11
-30.233744
21
38.100064
0
LINE
8
Layer 1
10
-30.233744
20
38.100064
11
-29.998885
21
38.739874
0
LINE
8
Layer 1
10
-29.998885
20
38.739874
11
-29.591716
21
39.283549
0
LINE
8
Layer 1
10
-29.591716
20
39.283549
11
-29.050048
21
39.661394
0
LINE
8
Layer 1
10
-29.050048
20
39.661394
11
-28.079890
21
39.745789
0
LINE
8
Layer 1
10
-28.079890
20
39.745789
11
-26.854728
21
39.452242
0
LINE
8
Layer 1
10
-26.854728
20
39.452242
11
-25.782929
21
38.926426
0
LINE
8
Layer 1
10
-25.782929
20
38.926426
11
-25.432154
21
38.621938
0
LINE
8
Layer 1
10
-25.432154
20
38.621938
11
-25.272856
21
38.314009
0
LINE
8
Layer 1
10
-25.272856
20
38.314009
11
-25.268223
21
37.804123
0
LINE
8
Layer 1
10
-25.268223
20
37.804123
11
-25.402058
21
37.348985
0
LINE
8
Layer 1
10
-25.402058
20
37.348985
11
-25.992495
21
36.664374
0
LINE
8
Layer 1
10
-25.992495
20
36.664374
11
-26.858897
21
36.383019
0
LINE
8
Layer 1
10
-26.858897
20
36.383019
11
-27.815997
21
36.627765
0
LINE
8
Layer 1
10
-27.815997
20
36.627765
11
-27.815997
21
36.627765
0
LINE
8
Layer 1
10
-26.080663
20
37.443698
11
-25.806810
21
38.301907
0
LINE
8
Layer 1
10
-25.806810
20
38.301907
11
-25.920970
21
38.518535
0
LINE
8
Layer 1
10
-25.920970
20
38.518535
11
-26.202270
21
38.591140
0
LINE
8
Layer 1
10
-26.202270
20
38.591140
11
-27.642052
21
39.080417
0
LINE
8
Layer 1
10
-27.642052
20
39.080417
11
-28.604331
21
39.420043
0
LINE
8
Layer 1
10
-28.604331
20
39.420043
11
-28.879169
21
39.278250
0
LINE
8
Layer 1
10
-28.879169
20
39.278250
11
-29.203848
21
38.908039
0
LINE
8
Layer 1
10
-29.203848
20
38.908039
11
-29.648128
21
38.220420
0
LINE
8
Layer 1
10
-29.648128
20
38.220420
11
-29.744042
21
37.715193
0
LINE
8
Layer 1
10
-29.744042
20
37.715193
11
-29.498509
21
37.428956
0
LINE
8
Layer 1
10
-29.498509
20
37.428956
11
-28.918448
21
37.398308
0
LINE
8
Layer 1
10
-28.918448
20
37.398308
11
-28.185927
21
37.394736
0
LINE
8
Layer 1
10
-28.185927
20
37.394736
11
-27.577894
21
37.216901
0
LINE
8
Layer 1
10
-27.577894
20
37.216901
11
-27.066623
21
36.978435
0
LINE
8
Layer 1
10
-27.066623
20
36.978435
11
-26.664536
21
36.934037
0
LINE
8
Layer 1
10
-26.664536
20
36.934037
11
-26.344821
21
37.087771
0
LINE
8
Layer 1
10
-26.344821
20
37.087771
11
-26.080663
21
37.443698
0
LINE
8
Layer 1
10
-26.080663
20
37.443698
11
-26.080663
21
37.443698
0
LINE
8
Layer 1
10
-35.825537
20
40.313822
11
-35.749677
21
40.745722
0
LINE
8
Layer 1
10
-35.749677
20
40.745722
11
-35.296890
21
41.346600
0
LINE
8
Layer 1
10
-35.296890
20
41.346600
11
-34.575199
21
41.902735
0
LINE
8
Layer 1
10
-34.575199
20
41.902735
11
-34.274127
21
41.845743
0
LINE
8
Layer 1
10
-34.274127
20
41.845743
11
-33.850984
21
41.592968
0
LINE
8
Layer 1
10
-33.850984
20
41.592968
11
-33.368469
21
41.180546
0
LINE
8
Layer 1
10
-33.368469
20
41.180546
11
-33.155568
21
40.777515
0
LINE
8
Layer 1
10
-33.155568
20
40.777515
11
-33.220804
21
40.427358
0
LINE
8
Layer 1
10
-33.220804
20
40.427358
11
-33.572704
21
40.173557
0
LINE
8
Layer 1
10
-33.572704
20
40.173557
11
-34.893022
21
40.013293
0
LINE
8
Layer 1
10
-34.893022
20
40.013293
11
-35.487800
21
40.110943
0
LINE
8
Layer 1
10
-35.487800
20
40.110943
11
-35.825537
21
40.313822
0
LINE
8
Layer 1
10
-35.825537
20
40.313822
11
-35.825537
21
40.313822
0
LINE
8
Layer 1
10
-33.843897
20
40.829416
11
-33.805995
21
41.062413
0
LINE
8
Layer 1
10
-33.805995
20
41.062413
11
-33.942884
21
41.253667
0
LINE
8
Layer 1
10
-33.942884
20
41.253667
11
-34.264733
21
41.319310
0
LINE
8
Layer 1
10
-34.264733
20
41.319310
11
-34.647485
21
41.237811
0
LINE
8
Layer 1
10
-34.647485
20
41.237811
11
-34.967676
21
41.055504
0
LINE
8
Layer 1
10
-34.967676
20
41.055504
11
-35.101843
21
40.818723
0
LINE
8
Layer 1
10
-35.101843
20
40.818723
11
-34.934472
21
40.632265
0
LINE
8
Layer 1
10
-34.934472
20
40.632265
11
-34.550690
21
40.572901
0
LINE
8
Layer 1
10
-34.550690
20
40.572901
11
-34.127999
21
40.639121
0
LINE
8
Layer 1
10
-34.127999
20
40.639121
11
-33.843897
21
40.829416
0
LINE
8
Layer 1
10
-33.843897
20
40.829416
11
-33.843897
21
40.829416
0
LINE
8
Layer 1
10
-32.672759
20
40.448667
11
-32.844999
21
41.328592
0
LINE
8
Layer 1
10
-32.844999
20
41.328592
11
-32.674812
21
42.108986
0
LINE
8
Layer 1
10
-32.674812
20
42.108986
11
-32.184108
21
42.742958
0
LINE
8
Layer 1
10
-32.184108
20
42.742958
11
-31.394798
21
43.183618
0
LINE
8
Layer 1
10
-31.394798
20
43.183618
11
-30.853811
21
43.182948
0
LINE
8
Layer 1
10
-30.853811
20
43.182948
11
-30.316218
21
42.892963
0
LINE
8
Layer 1
10
-30.316218
20
42.892963
11
-29.904121
21
42.412695
0
LINE
8
Layer 1
10
-29.904121
20
42.412695
11
-29.739621
21
41.841177
0
LINE
8
Layer 1
10
-29.739621
20
41.841177
11
-29.848386
21
41.363952
0
LINE
8
Layer 1
10
-29.848386
20
41.363952
11
-30.138719
21
40.922124
0
LINE
8
Layer 1
10
-30.138719
20
40.922124
11
-31.048309
21
40.247101
0
LINE
8
Layer 1
10
-31.048309
20
40.247101
11
-32.036840
21
40.020989
0
LINE
8
Layer 1
10
-32.036840
20
40.020989
11
-32.425848
21
40.140299
0
LINE
8
Layer 1
10
-32.425848
20
40.140299
11
-32.672759
21
40.448667
0
LINE
8
Layer 1
10
-32.672759
20
40.448667
11
-32.672759
21
40.448667
0
LINE
8
Layer 1
10
-30.719691
20
41.207292
11
-30.146632
21
41.826664
0
LINE
8
Layer 1
10
-30.146632
20
41.826664
11
-30.219761
21
42.044296
0
LINE
8
Layer 1
10
-30.219761
20
42.044296
11
-30.508200
21
42.330472
0
LINE
8
Layer 1
10
-30.508200
20
42.330472
11
-31.055173
21
42.666529
0
LINE
8
Layer 1
10
-31.055173
20
42.666529
11
-31.660533
21
42.379426
0
LINE
8
Layer 1
10
-31.660533
20
42.379426
11
-32.079745
21
41.889095
0
LINE
8
Layer 1
10
-32.079745
20
41.889095
11
-32.270429
21
41.288980
0
LINE
8
Layer 1
10
-32.270429
20
41.288980
11
-32.209038
21
40.780904
0
LINE
8
Layer 1
10
-32.209038
20
40.780904
11
-31.872024
21
40.566696
0
LINE
8
Layer 1
10
-31.872024
20
40.566696
11
-31.365394
21
40.754871
0
LINE
8
Layer 1
10
-31.365394
20
40.754871
11
-30.719691
21
41.207292
0
LINE
8
Layer 1
10
-30.719691
20
41.207292
11
-30.719691
21
41.207292
0
LINE
8
Layer 1
10
-32.561843
20
51.412092
11
-32.417744
21
51.894622
0
LINE
8
Layer 1
10
-32.417744
20
51.894622
11
-32.034050
21
52.306898
0
LINE
8
Layer 1
10
-32.034050
20
52.306898
11
-31.483666
21
52.594311
0
LINE
8
Layer 1
10
-31.483666
20
52.594311
11
-30.839495
21
52.702251
0
LINE
8
Layer 1
10
-30.839495
20
52.702251
11
-30.238861
21
52.593607
0
LINE
8
Layer 1
10
-30.238861
20
52.593607
11
-29.878101
21
52.306401
0
LINE
8
Layer 1
10
-29.878101
20
52.306401
11
-29.794370
21
51.898722
0
LINE
8
Layer 1
10
-29.794370
20
51.898722
11
-30.024826
21
51.428658
0
LINE
8
Layer 1
10
-30.024826
20
51.428658
11
-30.616866
21
51.112201
0
LINE
8
Layer 1
10
-30.616866
20
51.112201
11
-31.467229
21
51.002452
0
LINE
8
Layer 1
10
-31.467229
20
51.002452
11
-32.230645
21
51.101664
0
LINE
8
Layer 1
10
-32.230645
20
51.101664
11
-32.471850
21
51.230335
0
LINE
8
Layer 1
10
-32.471850
20
51.230335
11
-32.561843
21
51.412092
0
LINE
8
Layer 1
10
-32.561843
20
51.412092
11
-32.561843
21
51.412092
0
LINE
8
Layer 1
10
-30.454400
20
52.152731
11
-30.724155
21
52.270836
0
LINE
8
Layer 1
10
-30.724155
20
52.270836
11
-31.175765
21
52.124410
0
LINE
8
Layer 1
10
-31.175765
20
52.124410
11
-31.519084
21
51.835584
0
LINE
8
Layer 1
10
-31.519084
20
51.835584
11
-31.564842
21
51.558438
0
LINE
8
Layer 1
10
-31.564842
20
51.558438
11
-31.295087
21
51.440333
0
LINE
8
Layer 1
10
-31.295087
20
51.440333
11
-30.843477
21
51.586759
0
LINE
8
Layer 1
10
-30.843477
20
51.586759
11
-30.500158
21
51.875586
0
LINE
8
Layer 1
10
-30.500158
20
51.875586
11
-30.454400
21
52.152731
0
LINE
8
Layer 1
10
-30.454400
20
52.152731
11
-30.454400
21
52.152731
0
LINE
8
Layer 1
10
-28.876131
20
51.694201
11
-29.053149
21
52.183370
0
LINE
8
Layer 1
10
-29.053149
20
52.183370
11
-28.788185
21
52.914200
0
LINE
8
Layer 1
10
-28.788185
20
52.914200
11
-28.306129
21
53.706064
0
LINE
8
Layer 1
10
-28.306129
20
53.706064
11
-27.834984
21
54.161605
0
LINE
8
Layer 1
10
-27.834984
20
54.161605
11
-27.335376
21
54.305120
0
LINE
8
Layer 1
10
-27.335376
20
54.305120
11
-26.767933
21
54.160905
0
LINE
8
Layer 1
10
-26.767933
20
54.160905
11
-26.248061
21
53.769253
0
LINE
8
Layer 1
10
-26.248061
20
53.769253
11
-26.104959
21
53.261323
0
LINE
8
Layer 1
10
-26.104959
20
53.261323
11
-26.336125
21
52.668404
0
LINE
8
Layer 1
10
-26.336125
20
52.668404
11
-26.939056
21
52.021785
0
LINE
8
Layer 1
10
-26.939056
20
52.021785
11
-27.589343
21
51.539458
0
LINE
8
Layer 1
10
-27.589343
20
51.539458
11
-28.096147
21
51.329633
0
LINE
8
Layer 1
10
-28.096147
20
51.329633
11
-28.508674
21
51.383988
0
LINE
8
Layer 1
10
-28.508674
20
51.383988
11
-28.876131
21
51.694201
0
LINE
8
Layer 1
10
-28.876131
20
51.694201
11
-28.876131
21
51.694201
0
LINE
8
Layer 1
10
-27.020359
20
52.522368
11
-26.245176
21
53.189155
0
LINE
8
Layer 1
10
-26.245176
20
53.189155
11
-26.911726
21
53.545881
0
LINE
8
Layer 1
10
-26.911726
20
53.545881
11
-27.526498
21
53.748092
0
LINE
8
Layer 1
10
-27.526498
20
53.748092
11
-27.953391
21
53.389598
0
LINE
8
Layer 1
10
-27.953391
20
53.389598
11
-28.208153
21
52.899963
0
LINE
8
Layer 1
10
-28.208153
20
52.899963
11
-28.316892
21
52.400417
0
LINE
8
Layer 1
10
-28.316892
20
52.400417
11
-28.271039
21
52.011959
0
LINE
8
Layer 1
10
-28.271039
20
52.011959
11
-28.062027
21
51.855584
0
LINE
8
Layer 1
10
-28.062027
20
51.855584
11
-27.020359
21
52.522368
0
LINE
8
Layer 1
10
-27.020359
20
52.522368
11
-27.020359
21
52.522368
0
LINE
8
Layer 1
10
22.400931
20
51.775507
11
21.852802
21
51.931657
0
LINE
8
Layer 1
10
21.852802
20
51.931657
11
21.624820
21
52.141984
0
LINE
8
Layer 1
10
21.624820
20
52.141984
11
22.331022
21
54.626417
0
LINE
8
Layer 1
10
22.331022
20
54.626417
11
23.083416
21
56.591124
0
LINE
8
Layer 1
10
23.083416
20
56.591124
11
23.478341
21
56.896648
0
LINE
8
Layer 1
10
23.478341
20
56.896648
11
24.094910
21
57.036770
0
LINE
8
Layer 1
10
24.094910
20
57.036770
11
28.382805
21
57.206087
0
LINE
8
Layer 1
10
28.382805
20
57.206087
11
32.278712
21
57.039928
0
LINE
8
Layer 1
10
32.278712
20
57.039928
11
32.729673
21
56.782376
0
LINE
8
Layer 1
10
32.729673
20
56.782376
11
32.878594
21
56.247013
0
LINE
8
Layer 1
10
32.878594
20
56.247013
11
32.725076
21
55.305911
0
LINE
8
Layer 1
10
32.725076
20
55.305911
11
32.268722
21
53.831140
0
LINE
8
Layer 1
10
32.268722
20
53.831140
11
31.887573
21
52.767871
0
LINE
8
Layer 1
10
31.887573
20
52.767871
11
31.563008
21
52.202364
0
LINE
8
Layer 1
10
31.563008
20
52.202364
11
31.117548
21
51.944947
0
LINE
8
Layer 1
10
31.117548
20
51.944947
11
30.373712
21
51.805947
0
LINE
8
Layer 1
10
30.373712
20
51.805947
11
26.357984
21
51.641232
0
LINE
8
Layer 1
10
26.357984
20
51.641232
11
22.400931
21
51.775507
0
LINE
8
Layer 1
10
22.400931
20
51.775507
11
22.400931
21
51.775507
0
LINE
8
Layer 1
10
31.056255
20
52.578446
11
31.495076
21
53.344259
0
LINE
8
Layer 1
10
31.495076
20
53.344259
11
31.932092
21
54.541957
0
LINE
8
Layer 1
10
31.932092
20
54.541957
11
32.219879
21
55.693666
0
LINE
8
Layer 1
10
32.219879
20
55.693666
11
32.211010
21
56.321511
0
LINE
8
Layer 1
10
32.211010
20
56.321511
11
30.950276
21
56.492693
0
LINE
8
Layer 1
10
30.950276
20
56.492693
11
28.355471
21
56.607286
0
LINE
8
Layer 1
10
28.355471
20
56.607286
11
25.642197
21
56.633129
0
LINE
8
Layer 1
10
25.642197
20
56.633129
11
24.026057
21
56.538060
0
LINE
8
Layer 1
10
24.026057
20
56.538060
11
23.660142
21
56.372940
0
LINE
8
Layer 1
10
23.660142
20
56.372940
11
23.361214
21
56.032684
0
LINE
8
Layer 1
10
23.361214
20
56.032684
11
22.764202
21
54.504226
0
LINE
8
Layer 1
10
22.764202
20
54.504226
11
22.189264
21
52.390302
0
LINE
8
Layer 1
10
22.189264
20
52.390302
11
23.426884
21
52.211977
0
LINE
8
Layer 1
10
23.426884
20
52.211977
11
26.402438
21
52.137807
0
LINE
8
Layer 1
10
26.402438
20
52.137807
11
29.885202
21
52.223121
0
LINE
8
Layer 1
10
29.885202
20
52.223121
11
30.661288
21
52.357715
0
LINE
8
Layer 1
10
30.661288
20
52.357715
11
31.056255
21
52.578446
0
LINE
8
Layer 1
10
31.056255
20
52.578446
11
31.056255
21
52.578446
0
LINE
8
Layer 1
10
61.334244
20
51.779749
11
60.509686
21
51.966333
0
LINE
8
Layer 1
10
60.509686
20
51.966333
11
60.377611
21
52.130318
0
LINE
8
Layer 1
10
60.377611
20
52.130318
11
60.390786
21
52.367307
0
LINE
8
Layer 1
10
60.390786
20
52.367307
11
61.108785
21
54.859716
0
LINE
8
Layer 1
10
61.108785
20
54.859716
11
61.698550
21
56.876072
0
LINE
8
Layer 1
10
61.698550
20
56.876072
11
66.032256
21
57.079176
0
LINE
8
Layer 1
10
66.032256
20
57.079176
11
69.270977
21
57.166112
0
LINE
8
Layer 1
10
69.270977
20
57.166112
11
70.972059
21
57.089915
0
LINE
8
Layer 1
10
70.972059
20
57.089915
11
71.410496
21
56.783469
0
LINE
8
Layer 1
10
71.410496
20
56.783469
11
71.558709
21
56.160671
0
LINE
8
Layer 1
10
71.558709
20
56.160671
11
71.417138
21
55.110560
0
LINE
8
Layer 1
10
71.417138
20
55.110560
11
70.986224
21
53.522174
0
LINE
8
Layer 1
10
70.986224
20
53.522174
11
70.394291
21
51.573362
0
LINE
8
Layer 1
10
70.394291
20
51.573362
11
66.400113
21
51.620804
0
LINE
8
Layer 1
10
66.400113
20
51.620804
11
61.334244
21
51.779749
0
LINE
8
Layer 1
10
61.334244
20
51.779749
11
61.334244
21
51.779749
0
LINE
8
Layer 1
10
69.501879
20
52.307798
11
69.809423
21
52.467710
0
LINE
8
Layer 1
10
69.809423
20
52.467710
11
70.073203
21
52.792024
0
LINE
8
Layer 1
10
70.073203
20
52.792024
11
70.560212
21
54.086348
0
LINE
8
Layer 1
10
70.560212
20
54.086348
11
70.969914
21
55.641412
0
LINE
8
Layer 1
10
70.969914
20
55.641412
11
70.978263
21
56.100539
0
LINE
8
Layer 1
10
70.978263
20
56.100539
11
70.791550
21
56.395310
0
LINE
8
Layer 1
10
70.791550
20
56.395310
11
70.361728
21
56.561658
0
LINE
8
Layer 1
10
70.361728
20
56.561658
11
69.640753
21
56.635518
0
LINE
8
Layer 1
10
69.640753
20
56.635518
11
67.133157
21
56.649510
0
LINE
8
Layer 1
10
67.133157
20
56.649510
11
62.637594
21
56.480710
0
LINE
8
Layer 1
10
62.637594
20
56.480710
11
62.316499
21
56.309948
0
LINE
8
Layer 1
10
62.316499
20
56.309948
11
62.032738
21
55.950420
0
LINE
8
Layer 1
10
62.032738
20
55.950420
11
61.454699
21
54.455277
0
LINE
8
Layer 1
10
61.454699
20
54.455277
11
61.095113
21
53.074190
0
LINE
8
Layer 1
10
61.095113
20
53.074190
11
61.028030
21
52.366299
0
LINE
8
Layer 1
10
61.028030
20
52.366299
11
62.288081
21
52.213114
0
LINE
8
Layer 1
10
62.288081
20
52.213114
11
64.974747
21
52.146404
0
LINE
8
Layer 1
10
64.974747
20
52.146404
11
67.806516
21
52.175016
0
LINE
8
Layer 1
10
67.806516
20
52.175016
11
69.501879
21
52.307798
0
LINE
8
Layer 1
10
69.501879
20
52.307798
11
69.501879
21
52.307798
0
LINE
8
Layer 1
10
-31.063393
20
54.857277
11
-31.120308
21
55.388369
0
LINE
8
Layer 1
10
-31.120308
20
55.388369
11
-30.888871
21
55.825075
0
LINE
8
Layer 1
10
-30.888871
20
55.825075
11
-30.413751
21
56.121070
0
LINE
8
Layer 1
10
-30.413751
20
56.121070
11
-29.739621
21
56.230029
0
LINE
8
Layer 1
10
-29.739621
20
56.230029
11
-28.954987
21
56.090684
0
LINE
8
Layer 1
10
-28.954987
20
56.090684
11
-28.479032
21
55.739471
0
LINE
8
Layer 1
10
-28.479032
20
55.739471
11
-28.382274
21
55.276628
0
LINE
8
Layer 1
10
-28.382274
20
55.276628
11
-28.735232
21
54.802388
0
LINE
8
Layer 1
10
-28.735232
20
54.802388
11
-29.383203
21
54.495488
0
LINE
8
Layer 1
10
-29.383203
20
54.495488
11
-30.096482
21
54.404912
0
LINE
8
Layer 1
10
-30.096482
20
54.404912
11
-30.711176
21
54.526796
0
LINE
8
Layer 1
10
-30.711176
20
54.526796
11
-31.063393
21
54.857277
0
LINE
8
Layer 1
10
-31.063393
20
54.857277
11
-31.063393
21
54.857277
0
LINE
8
Layer 1
10
-28.973345
20
55.419145
11
-29.036853
21
55.723824
0
LINE
8
Layer 1
10
-29.036853
20
55.723824
11
-29.358950
21
55.913268
0
LINE
8
Layer 1
10
-29.358950
20
55.913268
11
-29.794590
21
55.945116
0
LINE
8
Layer 1
10
-29.794590
20
55.945116
11
-30.198726
21
55.777009
0
LINE
8
Layer 1
10
-30.198726
20
55.777009
11
-30.586288
21
55.188948
0
LINE
8
Layer 1
10
-30.586288
20
55.188948
11
-30.352236
21
55.013335
0
LINE
8
Layer 1
10
-30.352236
20
55.013335
11
-29.827739
21
55.018518
0
LINE
8
Layer 1
10
-29.827739
20
55.018518
11
-29.279280
21
55.166465
0
LINE
8
Layer 1
10
-29.279280
20
55.166465
11
-28.973345
21
55.419145
0
LINE
8
Layer 1
10
-28.973345
20
55.419145
11
-28.973345
21
55.419145
0
LINE
8
Layer 1
10
-27.881139
20
55.858018
11
-28.147061
21
56.419312
0
LINE
8
Layer 1
10
-28.147061
20
56.419312
11
-28.003697
21
56.845795
0
LINE
8
Layer 1
10
-28.003697
20
56.845795
11
-27.445036
21
57.133568
0
LINE
8
Layer 1
10
-27.445036
20
57.133568
11
-26.608800
21
57.210113
0
LINE
8
Layer 1
10
-26.608800
20
57.210113
11
-25.768393
21
57.083583
0
LINE
8
Layer 1
10
-25.768393
20
57.083583
11
-25.197223
21
56.762128
0
LINE
8
Layer 1
10
-25.197223
20
56.762128
11
-25.003852
21
56.292806
0
LINE
8
Layer 1
10
-25.003852
20
56.292806
11
-25.476154
21
55.774350
0
LINE
8
Layer 1
10
-25.476154
20
55.774350
11
-26.146237
21
55.382315
0
LINE
8
Layer 1
10
-26.146237
20
55.382315
11
-26.807723
21
55.266879
0
LINE
8
Layer 1
10
-26.807723
20
55.266879
11
-27.404672
21
55.426095
0
LINE
8
Layer 1
10
-27.404672
20
55.426095
11
-27.881139
21
55.858018
0
LINE
8
Layer 1
10
-27.881139
20
55.858018
11
-27.881139
21
55.858018
0
LINE
8
Layer 1
10
-25.929623
20
56.088918
11
-25.621623
21
56.579139
0
LINE
8
Layer 1
10
-25.621623
20
56.579139
11
-26.450326
21
56.653362
0
LINE
8
Layer 1
10
-26.450326
20
56.653362
11
-27.217880
21
56.557068
0
LINE
8
Layer 1
10
-27.217880
20
56.557068
11
-27.481846
21
56.277067
0
LINE
8
Layer 1
10
-27.481846
20
56.277067
11
-27.342355
21
55.754748
0
LINE
8
Layer 1
10
-27.342355
20
55.754748
11
-26.980519
21
55.542419
0
LINE
8
Layer 1
10
-26.980519
20
55.542419
11
-26.481291
21
55.650377
0
LINE
8
Layer 1
10
-26.481291
20
55.650377
11
-25.929623
21
56.088918
0
LINE
8
Layer 1
10
-25.929623
20
56.088918
11
-25.929623
21
56.088918
 0 
ENDSEC
 0 
EOF
