  0
SECTION
  2
HEADER
  9
$ACADVER
  1
AC1009
  9
$EXTMAX
 10
-8.758002281189
 20
26.9477462768555
 30
0.0
  9
$EXTMIN
 10
-23.0682067871094
 20
19.1488647460938
 30
0.0
  9
$INSUNITS
 70
     4
  9
$LUNITS
 70
     2
  9
$LUPREC
 70
     4
  9
$MEASUREMENT
 70
     1
  0
ENDSEC
  0
SECTION
  2
TABLES
  0
TABLE
  2
LAYER
 70
     1
  0
LAYER
  2
0
 70
     0
 62
     7
  6
Continuous
  0
LAYER
  2
LINE_TEXTURE
 70
     0
 62
     7
  6
Continuous
  0
ENDTAB
  0
TABLE
  2
APPID
 70
     1
  0
APPID
  2
ACAD
 70
     0
  0
ENDTAB
  0
ENDSEC
  0
SECTION
  2
ENTITIES
  0
POLYLINE
  8
0
 66
     1
 10
0.0
 20
0.0
 30
0.0
 70
     1
  0
VERTEX
  8
0
 10
-12.2939132588116
 20
21.8362880344466
 42
0.0
  0
VERTEX
  8
0
 10
-12.1129766838757
 20
21.9041392202452
 42
0.0
  0
VERTEX
  8
0
 10
-12.0677424805371
 20
22.0624586935118
 42
0.0
  0
VERTEX
  8
0
 10
-11.9772743122784
 20
22.2433952684478
 42
0.0
  0
VERTEX
  8
0
 10
-11.8868059056012
 20
22.3112464542464
 42
0.0
  0
VERTEX
  8
0
 10
-11.7737206356732
 20
22.2433952684478
 42
0.0
  0
VERTEX
  8
0
 10
-11.6154011624066
 20
21.9041392202452
 42
0.0
  0
VERTEX
  8
0
 10
-11.2987622158734
 20
21.1125416154937
 42
0.0
  0
VERTEX
  8
0
 10
-11.2987622158734
 20
20.8863710756377
 42
0.0
  0
VERTEX
  8
0
 10
-11.4118474858014
 20
20.6375831956939
 42
0.0
  0
VERTEX
  8
0
 10
-11.6832524674145
 20
20.34356135083
 42
0.0
  0
VERTEX
  8
0
 10
-12.0903595822064
 20
20.2078589792327
 42
0.0
  0
VERTEX
  8
0
 10
-13.4247666733471
 20
20.1173905725554
 42
0.0
  0
VERTEX
  8
0
 10
-13.4700008766858
 20
20.1173905725554
 42
0.0
  0
VERTEX
  8
0
 10
-13.4473837750165
 20
20.2530929441527
 42
0.0
  0
VERTEX
  8
0
 10
-13.2212129967419
 20
20.3661784524993
 42
0.0
  0
VERTEX
  8
0
 10
-12.7914887802807
 20
20.6149660940245
 42
0.0
  0
VERTEX
  8
0
 10
-12.4522327320782
 20
20.9542221422271
 42
0.0
  0
VERTEX
  8
0
 10
-12.3165303604809
 20
21.2482442255095
 42
0.0
  0
VERTEX
  8
0
 10
-12.3165303604809
 20
21.4517976636962
 42
0.0
  0
VERTEX
  8
0
 10
-12.3165303604809
 20
21.6101171369628
 42
0.0
  0
SEQEND
  0
POLYLINE
  8
0
 66
     1
 10
0.0
 20
0.0
 30
0.0
 70
     1
  0
VERTEX
  8
0
 10
-17.5410729782788
 20
24.6634217495993
 42
0.0
  0
VERTEX
  8
0
 10
-17.631541384956
 20
24.8217412824706
 42
0.0
  0
VERTEX
  8
0
 10
-17.8803290264813
 20
25.1157631273345
 42
0.0
  0
VERTEX
  8
0
 10
-18.1064998047558
 20
25.2740826006011
 42
0.0
  0
VERTEX
  8
0
 10
-18.4457558529583
 20
25.5454874630049
 42
0.0
  0
VERTEX
  8
0
 10
-18.536224021217
 20
25.6585728521422
 42
0.0
  0
VERTEX
  8
0
 10
-18.1064998047558
 20
25.5454874630049
 42
0.0
  0
VERTEX
  8
0
 10
-17.8803290264813
 20
25.364550888069
 42
0.0
  0
VERTEX
  8
0
 10
-17.744626654884
 20
25.1609973306731
 42
0.0
  0
VERTEX
  8
0
 10
-17.4279877083508
 20
24.776507079132
 42
0.0
  0
VERTEX
  8
0
 10
-17.2922852175442
 20
24.6634217495993
 42
0.0
  0
VERTEX
  8
0
 10
-17.2018169300763
 20
24.6634217495993
 42
0.0
  0
VERTEX
  8
0
 10
-17.2018169300763
 20
24.9122094507293
 42
0.0
  0
VERTEX
  8
0
 10
-17.2018169300763
 20
25.8168923254088
 42
0.0
  0
VERTEX
  8
0
 10
-17.3375194208828
 20
26.0204457635955
 42
0.0
  0
VERTEX
  8
0
 10
-17.3375194208828
 20
26.2013823385314
 42
0.0
  0
VERTEX
  8
0
 10
-17.3375194208828
 20
26.4501702184752
 42
0.0
  0
VERTEX
  8
0
 10
-17.3149023192135
 20
26.6084896917418
 42
0.0
  0
VERTEX
  8
0
 10
-17.2018169300763
 20
26.6989578600005
 42
0.0
  0
VERTEX
  8
0
 10
-17.1791999476162
 20
26.9477457399443
 42
0.0
  0
VERTEX
  8
0
 10
-17.1791999476162
 20
26.7215749616698
 42
0.0
  0
VERTEX
  8
0
 10
-17.0887316601483
 20
26.6311067934111
 42
0.0
  0
VERTEX
  8
0
 10
-17.0208804743496
 20
26.4275531168059
 42
0.0
  0
VERTEX
  8
0
 10
-17.0208804743496
 20
26.3144678468779
 42
0.0
  0
VERTEX
  8
0
 10
-17.0208804743496
 20
26.133531271942
 42
0.0
  0
VERTEX
  8
0
 10
-17.0208804743496
 20
25.9299775953368
 42
0.0
  0
VERTEX
  8
0
 10
-17.1339657442776
 20
25.8168923254088
 42
0.0
  0
VERTEX
  8
0
 10
-17.1791999476162
 20
24.8669753665999
 42
0.0
  0
VERTEX
  8
0
 10
-17.1791999476162
 20
24.6408047075347
 42
0.0
  0
VERTEX
  8
0
 10
-17.0887316601483
 20
24.5955705638007
 42
0.0
  0
VERTEX
  8
0
 10
-16.9077950852124
 20
24.8443582649306
 42
0.0
  0
VERTEX
  8
0
 10
-16.7947096960751
 20
25.1609973306731
 42
0.0
  0
VERTEX
  8
0
 10
-16.7042415278164
 20
25.5454874630049
 42
0.0
  0
VERTEX
  8
0
 10
-16.5911561386792
 20
25.7490410204009
 42
0.0
  0
VERTEX
  8
0
 10
-16.3649854200093
 20
25.7716581220702
 42
0.0
  0
VERTEX
  8
0
 10
-16.4554537074772
 20
25.6133386488036
 42
0.0
  0
VERTEX
  8
0
 10
-16.5459219949452
 20
25.2740826006011
 42
0.0
  0
VERTEX
  8
0
 10
-16.6363902228085
 20
24.9122094507293
 42
0.0
  0
VERTEX
  8
0
 10
-16.862561001083
 20
24.6181876058654
 42
0.0
  0
VERTEX
  8
0
 10
-17.0887316601483
 20
24.4824852342681
 42
0.0
  0
VERTEX
  8
0
 10
-17.2696682350842
 20
24.4824852342681
 42
0.0
  0
VERTEX
  8
0
 10
-17.4053706066815
 20
24.5051022763327
 42
0.0
  0
SEQEND
  0
POLYLINE
  8
0
 66
     1
 10
0.0
 20
0.0
 30
0.0
 70
     0
  0
VERTEX
  8
0
 10
-13.3342982666699
 20
23.6908877859787
 42
0.0
  0
VERTEX
  8
0
 10
-13.2664472000805
 20
22.8314390773848
 42
0.0
  0
SEQEND
  0
POLYLINE
  8
0
 66
     1
 10
0.0
 20
0.0
 30
0.0
 70
     0
  0
VERTEX
  8
0
 10
-14.6460882561413
 20
21.7458197469786
 42
0.0
  0
VERTEX
  8
0
 10
-14.9627272026745
 20
21.7684367294387
 42
0.0
  0
SEQEND
  0
POLYLINE
  8
0
 66
     1
 10
0.0
 20
0.0
 30
0.0
 70
     0
  0
VERTEX
  8
0
 10
-14.9174930589406
 20
21.3613294954375
 42
0.0
  0
VERTEX
  8
0
 10
-15.2567490773407
 20
21.3839465971068
 42
0.0
  0
SEQEND
  0
POLYLINE
  8
0
 66
     1
 10
0.0
 20
0.0
 30
0.0
 70
     0
  0
VERTEX
  8
0
 10
-15.7317074971406
 20
21.6779684419707
 42
0.0
  0
VERTEX
  8
0
 10
-16.0709635155407
 20
21.6779684419707
 42
0.0
  0
SEQEND
  0
POLYLINE
  8
0
 66
     1
 10
0.0
 20
0.0
 30
0.0
 70
     0
  0
VERTEX
  8
0
 10
-16.5685390370099
 20
21.9267563219146
 42
0.0
  0
VERTEX
  8
0
 10
-16.8851779835431
 20
21.9493733043746
 42
0.0
  0
SEQEND
  0
POLYLINE
  8
0
 66
     1
 10
0.0
 20
0.0
 30
0.0
 70
     0
  0
VERTEX
  8
0
 10
-16.2292829888073
 20
21.3160952920989
 42
0.0
  0
VERTEX
  8
0
 10
-16.5459219949452
 20
21.3160952920989
 42
0.0
  0
SEQEND
  0
POLYLINE
  8
0
 66
     1
 10
0.0
 20
0.0
 30
0.0
 70
     0
  0
VERTEX
  8
0
 10
-17.3149023192135
 20
21.6327342386321
 42
0.0
  0
VERTEX
  8
0
 10
-17.6089242832867
 20
21.6327342386321
 42
0.0
  0
SEQEND
  0
POLYLINE
  8
0
 66
     1
 10
0.0
 20
0.0
 30
0.0
 70
     0
  0
VERTEX
  8
0
 10
-17.1339657442776
 20
21.135158717163
 42
0.0
  0
VERTEX
  8
0
 10
-17.4279877083508
 20
21.135158717163
 42
0.0
  0
SEQEND
  0
POLYLINE
  8
0
 66
     1
 10
0.0
 20
0.0
 30
0.0
 70
     0
  0
VERTEX
  8
0
 10
-15.5281538726894
 20
21.0446905489043
 42
0.0
  0
VERTEX
  8
0
 10
-15.7090904252736
 20
21.0446905489043
 42
0.0
  0
VERTEX
  8
0
 10
-15.8900269704072
 20
21.0446905489043
 42
0.0
  0
SEQEND
  0
CIRCLE
  8
0
 10
-11.6001734367506
 20
25.470163484258
 30
0.0
 40
0.2107088565826
  0
POLYLINE
  8
0
 66
     1
 10
0.0
 20
0.0
 30
0.0
 70
     0
  0
VERTEX
  8
0
 10
-12.7210984230042
 20
23.5620865225792
 42
0.0
  0
VERTEX
  8
0
 10
-12.6947135925293
 20
23.0343905389309
 42
0.0
  0
SEQEND
  0
POLYLINE
  8
0
 66
     1
 10
0.0
 20
0.0
 30
0.0
 70
     0
  0
VERTEX
  8
0
 10
-12.2461720705032
 20
23.4301625490189
 42
0.0
  0
VERTEX
  8
0
 10
-12.2461720705032
 20
23.2190841436386
 42
0.0
  0
SEQEND
  0
POLYLINE
  8
0
 66
     1
 10
0.0
 20
0.0
 30
0.0
 70
     0
  0
VERTEX
  8
0
 10
-13.3015639781952
 20
23.9578585624695
 42
0.0
  0
VERTEX
  8
0
 10
-12.2989416122437
 20
23.7467801570892
 42
0.0
  0
SEQEND
  0
POLYLINE
  8
0
 66
     1
 10
0.0
 20
0.0
 30
0.0
 70
     0
  0
VERTEX
  8
0
 10
-13.1696400642395
 20
22.5066944956779
 42
0.0
  0
VERTEX
  8
0
 10
-12.2197872400284
 20
22.8760817348957
 42
0.0
  0
SEQEND
  0
POLYLINE
  8
0
 66
     1
 10
0.0
 20
0.0
 30
0.0
 70
     1
  0
VERTEX
  8
0
 10
-21.1795496940613
 20
21.2372838258743
 42
0.0
  0
VERTEX
  8
0
 10
-20.9979476928711
 20
21.1646431684494
 42
0.0
  0
VERTEX
  8
0
 10
-20.634744644165
 20
21.0193618535995
 42
0.0
  0
VERTEX
  8
0
 10
-20.3260221481323
 20
20.8922407627106
 42
0.0
  0
VERTEX
  8
0
 10
-20.1081004142761
 20
20.6924790143967
 42
0.0
  0
VERTEX
  8
0
 10
-19.7085766792297
 20
20.2384750843048
 42
0.0
  0
VERTEX
  8
0
 10
-19.6722564697266
 20
20.0750336647034
 42
0.0
  0
VERTEX
  8
0
 10
-19.41801404953
 20
19.9842326641083
 42
0.0
  0
VERTEX
  8
0
 10
-18.9640102386475
 20
19.9842326641083
 42
0.0
  0
VERTEX
  8
0
 10
-18.4918460845947
 20
19.9842326641083
 42
0.0
  0
VERTEX
  8
0
 10
-17.7836000919342
 20
19.9115920066834
 42
0.0
  0
VERTEX
  8
0
 10
-16.6576702594757
 20
19.7844710350037
 42
0.0
  0
VERTEX
  8
0
 10
-16.0220648050308
 20
19.7299904823303
 42
0.0
  0
VERTEX
  8
0
 10
-15.6407014131546
 20
19.6936702728271
 42
0.0
  0
VERTEX
  8
0
 10
-15.0777365416288
 20
19.7118303775787
 42
0.0
  0
VERTEX
  8
0
 10
-14.6418927907944
 20
19.7299904823303
 42
0.0
  0
VERTEX
  8
0
 10
-13.915486574173
 20
19.7299904823303
 42
0.0
  0
VERTEX
  8
0
 10
-12.9529982805252
 20
19.7844710350037
 42
0.0
  0
VERTEX
  8
0
 10
-12.2084319591522
 20
19.7844710350037
 42
0.0
  0
VERTEX
  8
0
 10
-11.6636271476746
 20
19.9297523498535
 42
0.0
  0
VERTEX
  8
0
 10
-11.3367443084717
 20
20.0387132167816
 42
0.0
  0
VERTEX
  8
0
 10
-10.9917013645172
 20
20.5290375947952
 42
0.0
  0
VERTEX
  8
0
 10
-10.9009008407593
 20
20.9830415248871
 42
0.0
  0
VERTEX
  8
0
 10
-10.9553809165955
 20
21.4370455741882
 42
0.0
  0
VERTEX
  8
0
 10
-11.1733028888702
 20
21.8910495042801
 42
0.0
  0
VERTEX
  8
0
 10
-11.4093849658966
 20
22.2905730307102
 42
0.0
  0
VERTEX
  8
0
 10
-11.5365059375763
 20
22.5448152571917
 42
0.0
  0
VERTEX
  8
0
 10
-11.6636271476746
 20
22.7808973193169
 42
0.0
  0
VERTEX
  8
0
 10
-11.7544279098511
 20
23.1985809206963
 42
0.0
  0
VERTEX
  8
0
 10
-11.7907483577728
 20
23.5799442529678
 42
0.0
  0
VERTEX
  8
0
 10
-11.7907483577728
 20
23.9068270921707
 42
0.0
  0
VERTEX
  8
0
 10
-11.6999473571777
 20
24.1429091691971
 42
0.0
  0
VERTEX
  8
0
 10
-11.5001857280731
 20
24.3063505887985
 42
0.0
  0
VERTEX
  8
0
 10
-11.3549044132233
 20
24.3608310222626
 42
0.0
  0
VERTEX
  8
0
 10
-11.1914629936218
 20
24.4153115749359
 42
0.0
  0
VERTEX
  8
0
 10
-10.9009008407593
 20
24.524272441864
 42
0.0
  0
VERTEX
  8
0
 10
-10.7192993164063
 20
24.6513936519623
 42
0.0
  0
VERTEX
  8
0
 10
-10.4832172393799
 20
24.7966747283936
 42
0.0
  0
VERTEX
  8
0
 10
-8.9214434623718
 20
24.9964365959167
 42
0.0
  0
VERTEX
  8
0
 10
-8.758002281189
 20
25.123557806015
 42
0.0
  0
VERTEX
  8
0
 10
-8.7943224906921
 20
25.2143585681915
 42
0.0
  0
VERTEX
  8
0
 10
-8.939603805542
 20
25.2869992256165
 42
0.0
  0
VERTEX
  8
0
 10
-10.2652950286865
 20
25.4141201972961
 42
0.0
  0
VERTEX
  8
0
 10
-10.8827404975891
 20
25.8499641418457
 42
0.0
  0
VERTEX
  8
0
 10
-11.209623336792
 20
26.0678858757019
 42
0.0
  0
VERTEX
  8
0
 10
-11.3730647563934
 20
26.1405265331268
 42
0.0
  0
VERTEX
  8
0
 10
-11.7362678050995
 20
26.1586866378784
 42
0.0
  0
VERTEX
  8
0
 10
-12.1721115112305
 20
26.1405265331268
 42
0.0
  0
VERTEX
  8
0
 10
-12.5716350078583
 20
25.995245218277
 42
0.0
  0
VERTEX
  8
0
 10
-12.8621973991394
 20
25.813643693924
 42
0.0
  0
VERTEX
  8
0
 10
-13.1527599096298
 20
25.5775616168976
 42
0.0
  0
VERTEX
  8
0
 10
-13.3525216579437
 20
25.2688388824463
 42
0.0
  0
VERTEX
  8
0
 10
-13.5159630775452
 20
24.8874757289886
 42
0.0
  0
VERTEX
  8
0
 10
-13.6249240636826
 20
24.3789912462235
 42
0.0
  0
VERTEX
  8
0
 10
-13.7157248258591
 20
23.6344246864319
 42
0.0
  0
VERTEX
  8
0
 10
-13.5886037349701
 20
22.9080184102058
 42
0.0
  0
VERTEX
  8
0
 10
-13.4614826440811
 20
22.4903347827494
 42
0.0
  0
VERTEX
  8
0
 10
-13.5159630775452
 20
22.3087331950665
 42
0.0
  0
VERTEX
  8
0
 10
-13.6249240636826
 20
22.2179324030876
 42
0.0
  0
VERTEX
  8
0
 10
-13.8065255880356
 20
22.1634519100189
 42
0.0
  0
VERTEX
  8
0
 10
-14.0426076054573
 20
22.1997722387314
 42
0.0
  0
VERTEX
  8
0
 10
-14.4602912068367
 20
22.3087331950665
 42
0.0
  0
VERTEX
  8
0
 10
-14.7690138667822
 20
22.3813738301396
 42
0.0
  0
VERTEX
  8
0
 10
-15.1685373187065
 20
22.4540144670755
 42
0.0
  0
VERTEX
  8
0
 10
-15.5862209796906
 20
22.4721746258438
 42
0.0
  0
VERTEX
  8
0
 10
-16.4579085111618
 20
22.526655100286
 42
0.0
  0
VERTEX
  8
0
 10
-17.0390336513519
 20
22.4903347827494
 42
0.0
  0
VERTEX
  8
0
 10
-17.6019985675812
 20
22.3995339907706
 42
0.0
  0
VERTEX
  8
0
 10
-18.2920844554901
 20
22.2542527168989
 42
0.0
  0
VERTEX
  8
0
 10
-18.8550493717194
 20
22.0544909536839
 42
0.0
  0
VERTEX
  8
0
 10
-19.3453736305237
 20
21.8728893399239
 42
0.0
  0
VERTEX
  8
0
 10
-19.8720183372498
 20
21.6549674272537
 42
0.0
  0
VERTEX
  8
0
 10
-20.1444206237793
 20
21.5278463363647
 42
0.0
  0
VERTEX
  8
0
 10
-20.3441824913025
 20
21.4733658432961
 42
0.0
  0
VERTEX
  8
0
 10
-20.6892251968384
 20
21.4552056789398
 42
0.0
  0
VERTEX
  8
0
 10
-21.0524282455444
 20
21.4733658432961
 42
0.0
  0
VERTEX
  8
0
 10
-21.2885103225708
 20
21.4552056789398
 42
0.0
  0
SEQEND
  0
POLYLINE
  8
0
 66
     1
 10
0.0
 20
0.0
 30
0.0
 70
     0
  0
VERTEX
  8
0
 10
-23.0682058334351
 20
20.0387132167816
 42
0.0
  0
VERTEX
  8
0
 10
-22.7776432037354
 20
20.1113538742065
 42
0.0
  0
VERTEX
  8
0
 10
-22.541561126709
 20
20.1113538742065
 42
0.0
  0
VERTEX
  8
0
 10
-22.359959602356
 20
20.1113538742065
 42
0.0
  0
VERTEX
  8
0
 10
-22.0875573158264
 20
20.1113538742065
 42
0.0
  0
VERTEX
  8
0
 10
-21.7606744766235
 20
19.8934319019318
 42
0.0
  0
VERTEX
  8
0
 10
-21.4701118469238
 20
19.8026311397552
 42
0.0
  0
VERTEX
  8
0
 10
-21.1795496940613
 20
19.8026311397552
 42
0.0
  0
VERTEX
  8
0
 10
-20.9253072738647
 20
19.8934319019318
 42
0.0
  0
VERTEX
  8
0
 10
-20.6529049873352
 20
19.8934319019318
 42
0.0
  0
VERTEX
  8
0
 10
-20.2897019386292
 20
19.9660725593567
 42
0.0
  0
VERTEX
  8
0
 10
-19.9991393089294
 20
19.8752717971802
 42
0.0
  0
VERTEX
  8
0
 10
-19.2908930778503
 20
19.6210296154022
 42
0.0
  0
VERTEX
  8
0
 10
-18.5281665325165
 20
19.5120685100555
 42
0.0
  0
VERTEX
  8
0
 10
-17.5475180149078
 20
19.4031076431274
 42
0.0
  0
VERTEX
  8
0
 10
-17.2932758331299
 20
19.3667874336243
 42
0.0
  0
VERTEX
  8
0
 10
-16.5305491685867
 20
19.239666223526
 42
0.0
  0
VERTEX
  8
0
 10
-15.8949435949326
 20
19.2941467761993
 42
0.0
  0
VERTEX
  8
0
 10
-15.4590998291969
 20
19.2941467761993
 42
0.0
  0
VERTEX
  8
0
 10
-14.7690138667822
 20
19.1488654613495
 42
0.0
  0
VERTEX
  8
0
 10
-14.4058107733727
 20
19.1851856708527
 42
0.0
  0
VERTEX
  8
0
 10
-13.915486574173
 20
19.3486270904541
 42
0.0
  0
VERTEX
  8
0
 10
-13.4251623153687
 20
19.1851856708527
 42
0.0
  0
VERTEX
  8
0
 10
-12.7713966369629
 20
19.1488654613495
 42
0.0
  0
VERTEX
  8
0
 10
-12.1357913017273
 20
19.1488654613495
 42
0.0
  0
VERTEX
  8
0
 10
-11.827068567276
 20
19.2759866714478
 42
0.0
  0
VERTEX
  8
0
 10
-11.4638655185699
 20
19.2759866714478
 42
0.0
  0
VERTEX
  8
0
 10
-11.0825021266937
 20
19.4394280910492
 42
0.0
  0
VERTEX
  8
0
 10
-10.7556195259094
 20
19.5483889579773
 42
0.0
  0
VERTEX
  8
0
 10
-10.3016157150269
 20
19.5847091674805
 42
0.0
  0
VERTEX
  8
0
 10
-10.2108149528503
 20
19.838951587677
 42
0.0
  0
VERTEX
  8
0
 10
-10.0292129516602
 20
19.9842326641083
 42
0.0
  0
VERTEX
  8
0
 10
-9.9202523231506
 20
20.4200766086578
 42
0.0
  0
VERTEX
  8
0
 10
-9.9202523231506
 20
20.7287993431091
 42
0.0
  0
VERTEX
  8
0
 10
-9.974732875824
 20
21.055682182312
 42
0.0
  0
VERTEX
  8
0
 10
-10.1926546096802
 20
21.4007252454758
 42
0.0
  0
VERTEX
  8
0
 10
-10.4650568962097
 20
21.7457682490349
 42
0.0
  0
SEQEND
  0
POLYLINE
  8
0
 66
     1
 10
0.0
 20
0.0
 30
0.0
 70
     0
  0
VERTEX
  8
0
 10
-18.364725112915
 20
23.3620223999023
 42
0.0
  0
VERTEX
  8
0
 10
-18.0196821689606
 20
23.4165028333664
 42
0.0
  0
VERTEX
  8
0
 10
-17.6927993297577
 20
23.6344246864319
 42
0.0
  0
VERTEX
  8
0
 10
-17.5111975669861
 20
23.6344246864319
 42
0.0
  0
VERTEX
  8
0
 10
-17.2569553852081
 20
23.4528231620789
 42
0.0
  0
VERTEX
  8
0
 10
-17.0571937561035
 20
23.3983426690102
 42
0.0
  0
VERTEX
  8
0
 10
-16.7666311264038
 20
23.3257020711899
 42
0.0
  0
VERTEX
  8
0
 10
-16.3671077489853
 20
23.3257020711899
 42
0.0
  0
VERTEX
  8
0
 10
-16.0220648050308
 20
23.4165028333664
 42
0.0
  0
VERTEX
  8
0
 10
-15.6407014131546
 20
23.5617841482162
 42
0.0
  0
VERTEX
  8
0
 10
-15.5135803222656
 20
23.5436239242554
 42
0.0
  0
SEQEND
  0
POLYLINE
  8
0
 66
     1
 10
0.0
 20
0.0
 30
0.0
 70
     0
  0
VERTEX
  8
0
 10
-17.9470415115356
 20
24.5605926513672
 42
0.0
  0
VERTEX
  8
0
 10
-17.8562407493591
 20
24.3063505887985
 42
0.0
  0
VERTEX
  8
0
 10
-17.6746389865875
 20
24.2700302600861
 42
0.0
  0
VERTEX
  8
0
 10
-17.4567172527313
 20
24.1973896026611
 42
0.0
  0
VERTEX
  8
0
 10
-17.220635175705
 20
24.1973896026611
 42
0.0
  0
VERTEX
  8
0
 10
-16.966392993927
 20
24.1792294979095
 42
0.0
  0
VERTEX
  8
0
 10
-16.6758303642273
 20
24.2700302600861
 42
0.0
  0
VERTEX
  8
0
 10
-16.5668694972992
 20
24.3608310222626
 42
0.0
  0
VERTEX
  8
0
 10
-16.5305491685867
 20
24.4516317844391
 42
0.0
  0
VERTEX
  8
0
 10
-16.5305491685867
 20
24.5061123371124
 42
0.0
  0
VERTEX
  8
0
 10
-16.5850296020508
 20
24.5605926513672
 42
0.0
  0
VERTEX
  8
0
 10
-16.7484710216522
 20
24.6513936519623
 42
0.0
  0
SEQEND
  0
POLYLINE
  8
0
 66
     1
 10
0.0
 20
0.0
 30
0.0
 70
     0
  0
VERTEX
  8
0
 10
-21.8151550292969
 20
22.3087331950665
 42
0.0
  0
VERTEX
  8
0
 10
-21.488272190094
 20
22.363213673234
 42
0.0
  0
VERTEX
  8
0
 10
-21.2521901130676
 20
22.4903347827494
 42
0.0
  0
VERTEX
  8
0
 10
-21.0161080360413
 20
22.5084949433804
 42
0.0
  0
VERTEX
  8
0
 10
-20.8526668548584
 20
22.5084949433804
 42
0.0
  0
VERTEX
  8
0
 10
-20.5984244346619
 20
22.3813738301396
 42
0.0
  0
VERTEX
  8
0
 10
-20.4168229103088
 20
22.3268933519721
 42
0.0
  0
VERTEX
  8
0
 10
-20.0354595184326
 20
22.3268933519721
 42
0.0
  0
VERTEX
  8
0
 10
-19.8175377845764
 20
22.3268933519721
 42
0.0
  0
VERTEX
  8
0
 10
-19.4906549453735
 20
22.4358543083072
 42
0.0
  0
VERTEX
  8
0
 10
-19.2908930778503
 20
22.5448152571917
 42
0.0
  0
VERTEX
  8
0
 10
-19.0003304481506
 20
22.6537762135267
 42
0.0
  0
VERTEX
  8
0
 10
-18.6008071899414
 20
22.690096527338
 42
0.0
  0
SEQEND
  0
ENDSEC
  0
EOF
