  0
SECTION
  2
HEADER
  9
$EXTMIN
 10
0.000000
 20
0.000000
  9
$EXTMAX
 10
0.965507
 20
2.008369
  9
$LTSCALE
 40
100.000000
  9
$PDMODE
 70
35
  9
$PDSIZE
 40
80.000000
  0
ENDSEC
  0
SECTION
  2
TABLES
  0
TABLE
  2
LAYER
 70
1
  0
LAYER
  2
LAYER_1
 70
0
 62
1
  6
CONTINUOUS
  0
ENDTAB
  0
ENDSEC
  0
SECTION
  2
BLOCKS
  0
ENDSEC
  0
SECTION
  2
ENTITIES
  0
POLYLINE
  8
LAYER_1
 62
7
 70
1
 66
1
  0
VERTEX
  8
LAYER_1
 62
7
 10
0.458632
 20
0.548843
 42
-0.061838
  0
VERTEX
  8
LAYER_1
 62
7
 10
0.440501
 20
0.598077
  0
VERTEX
  8
LAYER_1
 62
7
 10
0.427706
 20
0.648493
 42
-0.086645
  0
VERTEX
  8
LAYER_1
 62
7
 10
0.423817
 20
0.683487
  0
VERTEX
  8
LAYER_1
 62
7
 10
0.427927
 20
0.719236
 42
-0.178561
  0
VERTEX
  8
LAYER_1
 62
7
 10
0.520443
 20
0.890133
 42
-0.122831
  0
VERTEX
  8
LAYER_1
 62
7
 10
0.428123
 20
1.059824
 42
-0.200733
  0
VERTEX
  8
LAYER_1
 62
7
 10
0.457080
 20
1.249385
 42
0.217705
  0
VERTEX
  8
LAYER_1
 62
7
 10
0.333183
 20
1.289510
 42
0.164455
  0
VERTEX
  8
LAYER_1
 62
7
 10
0.211979
 20
1.236158
 42
0.139595
  0
VERTEX
  8
LAYER_1
 62
7
 10
0.169189
 20
1.153640
 42
0.065067
  0
VERTEX
  8
LAYER_1
 62
7
 10
0.144604
 20
0.948308
  0
VERTEX
  8
LAYER_1
 62
7
 10
0.150406
 20
0.739920
 42
0.232223
  0
VERTEX
  8
LAYER_1
 62
7
 10
0.249302
 20
0.554745
 42
0.311387
  0
VERTEX
  8
LAYER_1
 62
7
 10
0.458632
 20
0.548843
  0
SEQEND
  0
POLYLINE
  8
LAYER_1
 62
7
 70
1
 66
1
  0
VERTEX
  8
LAYER_1
 62
7
 10
0.433580
 20
1.875971
 42
-0.199588
  0
VERTEX
  8
LAYER_1
 62
7
 10
0.449978
 20
1.915560
 42
-0.199589
  0
VERTEX
  8
LAYER_1
 62
7
 10
0.489566
 20
1.931958
 42
-0.199589
  0
VERTEX
  8
LAYER_1
 62
7
 10
0.529155
 20
1.915560
 42
-0.199588
  0
VERTEX
  8
LAYER_1
 62
7
 10
0.545553
 20
1.875971
 42
-0.199588
  0
VERTEX
  8
LAYER_1
 62
7
 10
0.529155
 20
1.836383
 42
-0.199589
  0
VERTEX
  8
LAYER_1
 62
7
 10
0.489566
 20
1.819984
 42
-0.199589
  0
VERTEX
  8
LAYER_1
 62
7
 10
0.449978
 20
1.836383
 42
-0.199588
  0
VERTEX
  8
LAYER_1
 62
7
 10
0.433580
 20
1.875971
  0
SEQEND
  0
POLYLINE
  8
LAYER_1
 62
7
 70
1
 66
1
  0
VERTEX
  8
LAYER_1
 62
7
 10
0.506028
 20
1.985003
 42
-0.080861
  0
VERTEX
  8
LAYER_1
 62
7
 10
0.541286
 20
1.970398
 42
-0.114572
  0
VERTEX
  8
LAYER_1
 62
7
 10
0.552221
 20
1.962722
 42
-0.143189
  0
VERTEX
  8
LAYER_1
 62
7
 10
0.586198
 20
1.900238
 42
-0.143846
  0
VERTEX
  8
LAYER_1
 62
7
 10
0.575732
 20
1.824026
 42
-0.225243
  0
VERTEX
  8
LAYER_1
 62
7
 10
0.769967
 20
1.642576
 42
-0.236568
  0
VERTEX
  8
LAYER_1
 62
7
 10
0.750331
 20
1.373593
 42
-0.268674
  0
VERTEX
  8
LAYER_1
 62
7
 10
0.939919
 20
1.158680
 42
-0.300882
  0
VERTEX
  8
LAYER_1
 62
7
 10
0.837236
 20
0.894028
 42
-0.276590
  0
VERTEX
  8
LAYER_1
 62
7
 10
0.927519
 20
0.640781
 42
-0.260796
  0
VERTEX
  8
LAYER_1
 62
7
 10
0.755870
 20
0.432133
 42
-0.048440
  0
VERTEX
  8
LAYER_1
 62
7
 10
0.783055
 20
0.309887
 42
-0.106446
  0
VERTEX
  8
LAYER_1
 62
7
 10
0.771510
 20
0.191232
 42
-0.289952
  0
VERTEX
  8
LAYER_1
 62
7
 10
0.565073
 20
0.021431
 42
-0.273580
  0
VERTEX
  8
LAYER_1
 62
7
 10
0.323492
 20
0.131668
 42
-0.139807
  0
VERTEX
  8
LAYER_1
 62
7
 10
0.287184
 20
0.255487
  0
VERTEX
  8
LAYER_1
 62
7
 10
0.280593
 20
0.320178
 42
0.080530
  0
VERTEX
  8
LAYER_1
 62
7
 10
0.262755
 20
0.379432
 42
0.210262
  0
VERTEX
  8
LAYER_1
 62
7
 10
0.253225
 20
0.386445
 42
0.090681
  0
VERTEX
  8
LAYER_1
 62
7
 10
0.238483
 20
0.387434
 42
0.122679
  0
VERTEX
  8
LAYER_1
 62
7
 10
0.210870
 20
0.378273
 42
0.187883
  0
VERTEX
  8
LAYER_1
 62
7
 10
0.197416
 20
0.352980
  0
VERTEX
  8
LAYER_1
 62
7
 10
0.194894
 20
0.319012
 42
-0.193674
  0
VERTEX
  8
LAYER_1
 62
7
 10
0.188042
 20
0.299062
 42
-0.064212
  0
VERTEX
  8
LAYER_1
 62
7
 10
0.161384
 20
0.278886
 42
-0.086485
  0
VERTEX
  8
LAYER_1
 62
7
 10
0.094183
 20
0.408738
 42
-0.030950
  0
VERTEX
  8
LAYER_1
 62
7
 10
0.056790
 20
0.555211
 42
-0.025824
  0
VERTEX
  8
LAYER_1
 62
7
 10
0.035611
 20
0.700436
  0
VERTEX
  8
LAYER_1
 62
7
 10
0.024110
 20
0.848433
 42
-0.076802
  0
VERTEX
  8
LAYER_1
 62
7
 10
0.075853
 20
1.437213
 42
-0.299051
  0
VERTEX
  8
LAYER_1
 62
7
 10
0.127794
 20
1.485346
 42
-0.231937
  0
VERTEX
  8
LAYER_1
 62
7
 10
0.158786
 20
1.475195
 42
-0.179839
  0
VERTEX
  8
LAYER_1
 62
7
 10
0.175584
 20
1.431792
 42
0.116345
  0
VERTEX
  8
LAYER_1
 62
7
 10
0.177618
 20
1.424051
 42
0.159605
  0
VERTEX
  8
LAYER_1
 62
7
 10
0.181408
 20
1.420923
  0
VERTEX
  8
LAYER_1
 62
7
 10
0.186343
 20
1.418914
 42
-0.110724
  0
VERTEX
  8
LAYER_1
 62
7
 10
0.191809
 20
1.414532
 42
0.237338
  0
VERTEX
  8
LAYER_1
 62
7
 10
0.213752
 20
1.403708
 42
0.149400
  0
VERTEX
  8
LAYER_1
 62
7
 10
0.237000
 20
1.412178
 42
0.219614
  0
VERTEX
  8
LAYER_1
 62
7
 10
0.252629
 20
1.439231
 42
0.087270
  0
VERTEX
  8
LAYER_1
 62
7
 10
0.249824
 20
1.472030
 42
-0.152747
  0
VERTEX
  8
LAYER_1
 62
7
 10
0.271504
 20
1.659046
 42
-0.074126
  0
VERTEX
  8
LAYER_1
 62
7
 10
0.332149
 20
1.750088
 42
-0.047035
  0
VERTEX
  8
LAYER_1
 62
7
 10
0.377756
 20
1.786392
 42
0.099366
  0
VERTEX
  8
LAYER_1
 62
7
 10
0.395934
 20
1.806569
 42
0.179387
  0
VERTEX
  8
LAYER_1
 62
7
 10
0.399785
 20
1.833763
  0
VERTEX
  8
LAYER_1
 62
7
 10
0.392144
 20
1.857633
 42
-0.088406
  0
VERTEX
  8
LAYER_1
 62
7
 10
0.386826
 20
1.880752
 42
-0.119090
  0
VERTEX
  8
LAYER_1
 62
7
 10
0.400061
 20
1.930519
 42
-0.227025
  0
VERTEX
  8
LAYER_1
 62
7
 10
0.472779
 20
1.987501
 42
-0.111969
  0
VERTEX
  8
LAYER_1
 62
7
 10
0.506028
 20
1.985003
  0
SEQEND
  0
POLYLINE
  8
LAYER_1
 62
7
 70
1
 66
1
  0
VERTEX
  8
LAYER_1
 62
7
 10
0.328383
 20
1.539991
 42
-0.199589
  0
VERTEX
  8
LAYER_1
 62
7
 10
0.383778
 20
1.673728
 42
-0.199589
  0
VERTEX
  8
LAYER_1
 62
7
 10
0.517514
 20
1.729123
 42
-0.199589
  0
VERTEX
  8
LAYER_1
 62
7
 10
0.651251
 20
1.673728
 42
-0.199589
  0
VERTEX
  8
LAYER_1
 62
7
 10
0.706646
 20
1.539991
 42
-0.199589
  0
VERTEX
  8
LAYER_1
 62
7
 10
0.651251
 20
1.406255
 42
-0.199589
  0
VERTEX
  8
LAYER_1
 62
7
 10
0.517514
 20
1.350859
 42
-0.199589
  0
VERTEX
  8
LAYER_1
 62
7
 10
0.383778
 20
1.406255
 42
-0.199589
  0
VERTEX
  8
LAYER_1
 62
7
 10
0.328383
 20
1.539991
  0
SEQEND
  0
POLYLINE
  8
LAYER_1
 62
7
 70
1
 66
1
  0
VERTEX
  8
LAYER_1
 62
7
 10
0.496267
 20
1.115732
 42
-0.199589
  0
VERTEX
  8
LAYER_1
 62
7
 10
0.549653
 20
1.244619
 42
-0.199589
  0
VERTEX
  8
LAYER_1
 62
7
 10
0.678540
 20
1.298005
 42
-0.199589
  0
VERTEX
  8
LAYER_1
 62
7
 10
0.807426
 20
1.244619
 42
-0.199589
  0
VERTEX
  8
LAYER_1
 62
7
 10
0.860813
 20
1.115732
 42
-0.199589
  0
VERTEX
  8
LAYER_1
 62
7
 10
0.807426
 20
0.986846
 42
-0.199589
  0
VERTEX
  8
LAYER_1
 62
7
 10
0.678540
 20
0.933459
 42
-0.199589
  0
VERTEX
  8
LAYER_1
 62
7
 10
0.549653
 20
0.986846
 42
-0.199589
  0
VERTEX
  8
LAYER_1
 62
7
 10
0.496267
 20
1.115732
  0
SEQEND
  0
POLYLINE
  8
LAYER_1
 62
7
 70
1
 66
1
  0
VERTEX
  8
LAYER_1
 62
7
 10
0.503275
 20
0.687776
 42
-0.199589
  0
VERTEX
  8
LAYER_1
 62
7
 10
0.554908
 20
0.812428
 42
-0.199589
  0
VERTEX
  8
LAYER_1
 62
7
 10
0.679560
 20
0.864061
 42
-0.199589
  0
VERTEX
  8
LAYER_1
 62
7
 10
0.804212
 20
0.812428
 42
-0.199589
  0
VERTEX
  8
LAYER_1
 62
7
 10
0.855845
 20
0.687776
 42
-0.199589
  0
VERTEX
  8
LAYER_1
 62
7
 10
0.804212
 20
0.563124
 42
-0.199589
  0
VERTEX
  8
LAYER_1
 62
7
 10
0.679560
 20
0.511491
 42
-0.199589
  0
VERTEX
  8
LAYER_1
 62
7
 10
0.554908
 20
0.563124
 42
-0.199589
  0
VERTEX
  8
LAYER_1
 62
7
 10
0.503275
 20
0.687776
  0
SEQEND
  0
POLYLINE
  8
LAYER_1
 62
7
 70
1
 66
1
  0
VERTEX
  8
LAYER_1
 62
7
 10
0.355043
 20
0.278132
 42
-0.199589
  0
VERTEX
  8
LAYER_1
 62
7
 10
0.407563
 20
0.404925
 42
-0.199589
  0
VERTEX
  8
LAYER_1
 62
7
 10
0.534355
 20
0.457444
 42
-0.199589
  0
VERTEX
  8
LAYER_1
 62
7
 10
0.661148
 20
0.404925
 42
-0.199589
  0
VERTEX
  8
LAYER_1
 62
7
 10
0.713667
 20
0.278132
 42
-0.199589
  0
VERTEX
  8
LAYER_1
 62
7
 10
0.661148
 20
0.151339
 42
-0.199589
  0
VERTEX
  8
LAYER_1
 62
7
 10
0.534355
 20
0.098820
 42
-0.199589
  0
VERTEX
  8
LAYER_1
 62
7
 10
0.407563
 20
0.151339
 42
-0.199589
  0
VERTEX
  8
LAYER_1
 62
7
 10
0.355043
 20
0.278132
  0
SEQEND
  0
POLYLINE
  8
LAYER_1
 62
7
 70
1
 66
1
  0
VERTEX
  8
LAYER_1
 62
7
 10
0.458632
 20
0.548843
 42
-0.061838
  0
VERTEX
  8
LAYER_1
 62
7
 10
0.440501
 20
0.598077
  0
VERTEX
  8
LAYER_1
 62
7
 10
0.427706
 20
0.648493
 42
-0.086645
  0
VERTEX
  8
LAYER_1
 62
7
 10
0.423817
 20
0.683487
  0
VERTEX
  8
LAYER_1
 62
7
 10
0.427927
 20
0.719236
 42
-0.178561
  0
VERTEX
  8
LAYER_1
 62
7
 10
0.520443
 20
0.890133
 42
-0.122831
  0
VERTEX
  8
LAYER_1
 62
7
 10
0.428123
 20
1.059824
 42
-0.200733
  0
VERTEX
  8
LAYER_1
 62
7
 10
0.457080
 20
1.249385
 42
0.217705
  0
VERTEX
  8
LAYER_1
 62
7
 10
0.333183
 20
1.289510
 42
0.164455
  0
VERTEX
  8
LAYER_1
 62
7
 10
0.211979
 20
1.236158
 42
0.139595
  0
VERTEX
  8
LAYER_1
 62
7
 10
0.169189
 20
1.153640
 42
0.065067
  0
VERTEX
  8
LAYER_1
 62
7
 10
0.144604
 20
0.948308
  0
VERTEX
  8
LAYER_1
 62
7
 10
0.150406
 20
0.739920
 42
0.232223
  0
VERTEX
  8
LAYER_1
 62
7
 10
0.249302
 20
0.554745
 42
0.311387
  0
VERTEX
  8
LAYER_1
 62
7
 10
0.458632
 20
0.548843
  0
SEQEND
  0
POLYLINE
  8
LAYER_1
 62
7
 70
1
 66
1
  0
VERTEX
  8
LAYER_1
 62
7
 10
0.328383
 20
1.539991
 42
-0.199589
  0
VERTEX
  8
LAYER_1
 62
7
 10
0.383778
 20
1.673728
 42
-0.199589
  0
VERTEX
  8
LAYER_1
 62
7
 10
0.517514
 20
1.729123
 42
-0.199589
  0
VERTEX
  8
LAYER_1
 62
7
 10
0.651251
 20
1.673728
 42
-0.199589
  0
VERTEX
  8
LAYER_1
 62
7
 10
0.706646
 20
1.539991
 42
-0.199589
  0
VERTEX
  8
LAYER_1
 62
7
 10
0.651251
 20
1.406255
 42
-0.199589
  0
VERTEX
  8
LAYER_1
 62
7
 10
0.517514
 20
1.350859
 42
-0.199589
  0
VERTEX
  8
LAYER_1
 62
7
 10
0.383778
 20
1.406255
 42
-0.199589
  0
VERTEX
  8
LAYER_1
 62
7
 10
0.328383
 20
1.539991
  0
SEQEND
  0
POLYLINE
  8
LAYER_1
 62
7
 70
1
 66
1
  0
VERTEX
  8
LAYER_1
 62
7
 10
0.496267
 20
1.115732
 42
-0.199589
  0
VERTEX
  8
LAYER_1
 62
7
 10
0.549653
 20
1.244619
 42
-0.199589
  0
VERTEX
  8
LAYER_1
 62
7
 10
0.678540
 20
1.298005
 42
-0.199589
  0
VERTEX
  8
LAYER_1
 62
7
 10
0.807426
 20
1.244619
 42
-0.199589
  0
VERTEX
  8
LAYER_1
 62
7
 10
0.860813
 20
1.115732
 42
-0.199589
  0
VERTEX
  8
LAYER_1
 62
7
 10
0.807426
 20
0.986846
 42
-0.199589
  0
VERTEX
  8
LAYER_1
 62
7
 10
0.678540
 20
0.933459
 42
-0.199589
  0
VERTEX
  8
LAYER_1
 62
7
 10
0.549653
 20
0.986846
 42
-0.199589
  0
VERTEX
  8
LAYER_1
 62
7
 10
0.496267
 20
1.115732
  0
SEQEND
  0
POLYLINE
  8
LAYER_1
 62
7
 70
1
 66
1
  0
VERTEX
  8
LAYER_1
 62
7
 10
0.503275
 20
0.687776
 42
-0.199589
  0
VERTEX
  8
LAYER_1
 62
7
 10
0.554908
 20
0.812428
 42
-0.199589
  0
VERTEX
  8
LAYER_1
 62
7
 10
0.679560
 20
0.864061
 42
-0.199589
  0
VERTEX
  8
LAYER_1
 62
7
 10
0.804212
 20
0.812428
 42
-0.199589
  0
VERTEX
  8
LAYER_1
 62
7
 10
0.855845
 20
0.687776
 42
-0.199589
  0
VERTEX
  8
LAYER_1
 62
7
 10
0.804212
 20
0.563124
 42
-0.199589
  0
VERTEX
  8
LAYER_1
 62
7
 10
0.679560
 20
0.511491
 42
-0.199589
  0
VERTEX
  8
LAYER_1
 62
7
 10
0.554908
 20
0.563124
 42
-0.199589
  0
VERTEX
  8
LAYER_1
 62
7
 10
0.503275
 20
0.687776
  0
SEQEND
  0
POLYLINE
  8
LAYER_1
 62
7
 70
1
 66
1
  0
VERTEX
  8
LAYER_1
 62
7
 10
0.355043
 20
0.278132
 42
-0.199589
  0
VERTEX
  8
LAYER_1
 62
7
 10
0.407563
 20
0.404925
 42
-0.199589
  0
VERTEX
  8
LAYER_1
 62
7
 10
0.534355
 20
0.457444
 42
-0.199589
  0
VERTEX
  8
LAYER_1
 62
7
 10
0.661148
 20
0.404925
 42
-0.199589
  0
VERTEX
  8
LAYER_1
 62
7
 10
0.713667
 20
0.278132
 42
-0.199589
  0
VERTEX
  8
LAYER_1
 62
7
 10
0.661148
 20
0.151339
 42
-0.199589
  0
VERTEX
  8
LAYER_1
 62
7
 10
0.534355
 20
0.098820
 42
-0.199589
  0
VERTEX
  8
LAYER_1
 62
7
 10
0.407563
 20
0.151339
 42
-0.199589
  0
VERTEX
  8
LAYER_1
 62
7
 10
0.355043
 20
0.278132
  0
SEQEND
  0
POLYLINE
  8
LAYER_1
 62
7
 70
1
 66
1
  0
VERTEX
  8
LAYER_1
 62
7
 10
0.506028
 20
1.985003
 42
-0.080861
  0
VERTEX
  8
LAYER_1
 62
7
 10
0.541286
 20
1.970398
 42
-0.114572
  0
VERTEX
  8
LAYER_1
 62
7
 10
0.552221
 20
1.962722
 42
-0.143189
  0
VERTEX
  8
LAYER_1
 62
7
 10
0.586198
 20
1.900238
 42
-0.143846
  0
VERTEX
  8
LAYER_1
 62
7
 10
0.575732
 20
1.824026
 42
-0.225243
  0
VERTEX
  8
LAYER_1
 62
7
 10
0.769967
 20
1.642576
 42
-0.236568
  0
VERTEX
  8
LAYER_1
 62
7
 10
0.750331
 20
1.373593
 42
-0.268674
  0
VERTEX
  8
LAYER_1
 62
7
 10
0.939919
 20
1.158680
 42
-0.300882
  0
VERTEX
  8
LAYER_1
 62
7
 10
0.837236
 20
0.894028
 42
-0.276590
  0
VERTEX
  8
LAYER_1
 62
7
 10
0.927519
 20
0.640781
 42
-0.260796
  0
VERTEX
  8
LAYER_1
 62
7
 10
0.755870
 20
0.432133
 42
-0.048440
  0
VERTEX
  8
LAYER_1
 62
7
 10
0.783055
 20
0.309887
 42
-0.106446
  0
VERTEX
  8
LAYER_1
 62
7
 10
0.771510
 20
0.191232
 42
-0.289952
  0
VERTEX
  8
LAYER_1
 62
7
 10
0.565073
 20
0.021431
 42
-0.273580
  0
VERTEX
  8
LAYER_1
 62
7
 10
0.323492
 20
0.131668
 42
-0.139807
  0
VERTEX
  8
LAYER_1
 62
7
 10
0.287184
 20
0.255487
  0
VERTEX
  8
LAYER_1
 62
7
 10
0.280593
 20
0.320178
 42
0.080530
  0
VERTEX
  8
LAYER_1
 62
7
 10
0.262755
 20
0.379432
 42
0.210262
  0
VERTEX
  8
LAYER_1
 62
7
 10
0.253225
 20
0.386445
 42
0.090681
  0
VERTEX
  8
LAYER_1
 62
7
 10
0.238483
 20
0.387434
 42
0.122679
  0
VERTEX
  8
LAYER_1
 62
7
 10
0.210870
 20
0.378273
 42
0.187883
  0
VERTEX
  8
LAYER_1
 62
7
 10
0.197416
 20
0.352980
  0
VERTEX
  8
LAYER_1
 62
7
 10
0.194894
 20
0.319012
 42
-0.193674
  0
VERTEX
  8
LAYER_1
 62
7
 10
0.188042
 20
0.299062
 42
-0.064212
  0
VERTEX
  8
LAYER_1
 62
7
 10
0.161384
 20
0.278886
 42
-0.086485
  0
VERTEX
  8
LAYER_1
 62
7
 10
0.094183
 20
0.408738
 42
-0.030950
  0
VERTEX
  8
LAYER_1
 62
7
 10
0.056790
 20
0.555211
 42
-0.025824
  0
VERTEX
  8
LAYER_1
 62
7
 10
0.035611
 20
0.700436
  0
VERTEX
  8
LAYER_1
 62
7
 10
0.024110
 20
0.848433
 42
-0.076802
  0
VERTEX
  8
LAYER_1
 62
7
 10
0.075853
 20
1.437213
 42
-0.299051
  0
VERTEX
  8
LAYER_1
 62
7
 10
0.127794
 20
1.485346
 42
-0.231937
  0
VERTEX
  8
LAYER_1
 62
7
 10
0.158786
 20
1.475195
 42
-0.179839
  0
VERTEX
  8
LAYER_1
 62
7
 10
0.175584
 20
1.431792
 42
0.116345
  0
VERTEX
  8
LAYER_1
 62
7
 10
0.177618
 20
1.424051
 42
0.159605
  0
VERTEX
  8
LAYER_1
 62
7
 10
0.181408
 20
1.420923
  0
VERTEX
  8
LAYER_1
 62
7
 10
0.186343
 20
1.418914
 42
-0.110724
  0
VERTEX
  8
LAYER_1
 62
7
 10
0.191809
 20
1.414532
 42
0.237338
  0
VERTEX
  8
LAYER_1
 62
7
 10
0.213752
 20
1.403708
 42
0.149400
  0
VERTEX
  8
LAYER_1
 62
7
 10
0.237000
 20
1.412178
 42
0.219614
  0
VERTEX
  8
LAYER_1
 62
7
 10
0.252629
 20
1.439231
 42
0.087270
  0
VERTEX
  8
LAYER_1
 62
7
 10
0.249824
 20
1.472030
 42
-0.152747
  0
VERTEX
  8
LAYER_1
 62
7
 10
0.271504
 20
1.659046
 42
-0.074126
  0
VERTEX
  8
LAYER_1
 62
7
 10
0.332149
 20
1.750088
 42
-0.047035
  0
VERTEX
  8
LAYER_1
 62
7
 10
0.377756
 20
1.786392
 42
0.099366
  0
VERTEX
  8
LAYER_1
 62
7
 10
0.395934
 20
1.806569
 42
0.179387
  0
VERTEX
  8
LAYER_1
 62
7
 10
0.399785
 20
1.833763
  0
VERTEX
  8
LAYER_1
 62
7
 10
0.392144
 20
1.857633
 42
-0.088406
  0
VERTEX
  8
LAYER_1
 62
7
 10
0.386826
 20
1.880752
 42
-0.119090
  0
VERTEX
  8
LAYER_1
 62
7
 10
0.400061
 20
1.930519
 42
-0.227025
  0
VERTEX
  8
LAYER_1
 62
7
 10
0.472779
 20
1.987501
 42
-0.111969
  0
VERTEX
  8
LAYER_1
 62
7
 10
0.506028
 20
1.985003
  0
SEQEND
  0
ENDSEC
  0
EOF
