999
DXF created by Inkscape
  0
SECTION
  2
HEADER
  9
$ACADVER
  1
AC1014
  9
$HANDSEED
  5
FFFF
  0
ENDSEC
  0
SECTION
  2
TABLES
  0
TABLE
  2
VPORT
  5
8
330
0
100
AcDbSymbolTable
 70
     4
  0
VPORT
  5
2E
330
8
100
AcDbSymbolTableRecord
100
AcDbViewportTableRecord
  2
*ACTIVE
 70
     0
 10
0.0
 20
0.0
 11
1.0
 21
1.0
 12
4.25
 22
5.5
 13
0.0
 23
0.0
 14
10.0
 24
10.0
 15
10.0
 25
10.0
 16
0.0
 26
0.0
 36
1.0
 17
0.0
 27
0.0
 37
0.0
 40
11
 41
1.24
 42
50.0
 43
0.0
 44
0.0
 50
0.0
 51
0.0
 71
     0
 72
   100
 73
     1
 74
     3
 75
     0
 76
     0
 77
     0
 78
     0
  0
ENDTAB
  0
TABLE
  2
LTYPE
  5
5
330
0
100
AcDbSymbolTable
 70
     1
  0
LTYPE
  5
14
330
5
100
AcDbSymbolTableRecord
100
AcDbLinetypeTableRecord
  2
BYBLOCK
 70
     0
  3

 72
    65
 73
     0
 40
0.0
  0
LTYPE
  5
15
330
5
100
AcDbSymbolTableRecord
100
AcDbLinetypeTableRecord
  2
BYLAYER
 70
     0
  3

 72
    65
 73
     0
 40
0.0
  0
LTYPE
  5
16
330
5
100
AcDbSymbolTableRecord
100
AcDbLinetypeTableRecord
  2
CONTINUOUS
 70
     0
  3
Solid line
 72
    65
 73
     0
 40
0.0
  0
ENDTAB
  0
TABLE
  2
LAYER
  5
2
330
0
100
AcDbSymbolTable
 70
1
  0
LAYER
  5
10
330
2
100
AcDbSymbolTableRecord
100
AcDbLayerTableRecord
  2
0
 70
     0
 62
     7
  6
CONTINUOUS
  0
ENDTAB
  0
TABLE
  2
STYLE
  5
3
330
0
100
AcDbSymbolTable
 70
     1
  0
STYLE
  5
11
330
3
100
AcDbSymbolTableRecord
100
AcDbTextStyleTableRecord
  2
STANDARD
 70
     0
 40
0.0
 41
1.0
 50
0.0
 71
     0
 42
2.5
  3
txt
  4

  0
ENDTAB
  0
TABLE
  2
VIEW
  5
6
330
0
100
AcDbSymbolTable
 70
     0
  0
ENDTAB
  0
TABLE
  2
UCS
  5
7
330
0
100
AcDbSymbolTable
 70
     0
  0
ENDTAB
  0
TABLE
  2
APPID
  5
9
330
0
100
AcDbSymbolTable
 70
     2
  0
APPID
  5
12
330
9
100
AcDbSymbolTableRecord
100
AcDbRegAppTableRecord
  2
ACAD
 70
     0
  0
ENDTAB
  0
TABLE
  2
DIMSTYLE
  5
A
330
0
100
AcDbSymbolTable
 70
     1
  0
DIMSTYLE
105
27
330
A
100
AcDbSymbolTableRecord
100
AcDbDimStyleTableRecord
  2
ISO-25
 70
     0
  3

  4

  5

  6

  7

 40
1.0
 41
2.5
 42
0.625
 43
3.75
 44
1.25
 45
0.0
 46
0.0
 47
0.0
 48
0.0
140
2.5
141
2.5
142
0.0
143
0.03937007874016
144
1.0
145
0.0
146
1.0
147
0.625
 71
     0
 72
     0
 73
     0
 74
     0
 75
     0
 76
     0
 77
     1
 78
     8
170
     0
171
     3
172
     1
173
     0
174
     0
175
     0
176
     0
177
     0
178
     0
270
     2
271
     2
272
     2
273
     2
274
     3
340
11
275
     0
280
     0
281
     0
282
     0
283
     0
284
     8
285
     0
286
     0
287
     3
288
     0
  0
ENDTAB
  0
TABLE
  2
BLOCK_RECORD
  5
1
330
0
100
AcDbSymbolTable
 70
     1
  0
BLOCK_RECORD
  5
1F
330
1
100
AcDbSymbolTableRecord
100
AcDbBlockTableRecord
  2
*MODEL_SPACE
  0
BLOCK_RECORD
  5
1B
330
1
100
AcDbSymbolTableRecord
100
AcDbBlockTableRecord
  2
*PAPER_SPACE
  0
ENDTAB
  0
ENDSEC
  0
SECTION
  2
BLOCKS
  0
BLOCK
  5
20
330
1F
100
AcDbEntity
  8
0
100
AcDbBlockBegin
  2
*MODEL_SPACE
 70
     0
 10
0.0
 20
0.0
 30
0.0
  3
*MODEL_SPACE
  1

  0
ENDBLK
  5
21
330
1F
100
AcDbEntity
  8
0
100
AcDbBlockEnd
  0
BLOCK
  5
1C
330
1B
100
AcDbEntity
 67
     1
  8
0
100
AcDbBlockBegin
  2
*PAPER_SPACE
  1

  0
ENDBLK
  5
1D
330
1B
100
AcDbEntity
 67
     1
  8
0
100
AcDbBlockEnd
  0
ENDSEC
  0
SECTION
  2
ENTITIES
  0
SPLINE
  5
100
100
AcDbEntity
  8
0
 62
7
100
AcDbSpline
 70
8
 71
3
 72
8
 73
4
 74
0
 40
0
 40
0
 40
0
 40
0
 40
1
 40
1
 40
1
 40
1
 10
39.531770
 20
61.727705
 30
0.0
 10
39.468439
 20
61.917725
 30
0.0
 10
39.524432
 20
62.584475
 30
0.0
 10
39.656230
 20
63.209372
 30
0.0
  0
SPLINE
  5
101
100
AcDbEntity
  8
0
 62
7
100
AcDbSpline
 70
8
 71
3
 72
8
 73
4
 74
0
 40
0
 40
0
 40
0
 40
0
 40
1
 40
1
 40
1
 40
1
 10
39.656230
 20
63.209372
 30
0.0
 10
39.788028
 20
63.834268
 30
0.0
 10
40.022272
 20
65.361545
 30
0.0
 10
40.176760
 20
66.603323
 30
0.0
  0
SPLINE
  5
102
100
AcDbEntity
  8
0
 62
7
100
AcDbSpline
 70
8
 71
3
 72
8
 73
4
 74
0
 40
0
 40
0
 40
0
 40
0
 40
1
 40
1
 40
1
 40
1
 10
40.176760
 20
66.603323
 30
0.0
 10
40.451109
 20
68.808297
 30
0.0
 10
40.928431
 20
70.632674
 30
0.0
 10
42.355064
 20
74.928878
 30
0.0
  0
SPLINE
  5
103
100
AcDbEntity
  8
0
 62
7
100
AcDbSpline
 70
8
 71
3
 72
8
 73
4
 74
0
 40
0
 40
0
 40
0
 40
0
 40
1
 40
1
 40
1
 40
1
 10
42.355064
 20
74.928878
 30
0.0
 10
43.011485
 20
76.905658
 30
0.0
 10
43.217733
 20
77.194756
 30
0.0
 10
45.475652
 20
79.303323
 30
0.0
  0
SPLINE
  5
104
100
AcDbEntity
  8
0
 62
7
100
AcDbSpline
 70
8
 71
3
 72
8
 73
4
 74
0
 40
0
 40
0
 40
0
 40
0
 40
1
 40
1
 40
1
 40
1
 10
45.475652
 20
79.303323
 30
0.0
 10
46.805398
 20
80.545100
 30
0.0
 10
48.853090
 20
82.518869
 30
0.0
 10
50.026090
 20
83.689474
 30
0.0
  0
SPLINE
  5
105
100
AcDbEntity
  8
0
 62
7
100
AcDbSpline
 70
8
 71
3
 72
8
 73
4
 74
0
 40
0
 40
0
 40
0
 40
0
 40
1
 40
1
 40
1
 40
1
 10
50.026090
 20
83.689474
 30
0.0
 10
51.199062
 20
84.860078
 30
0.0
 10
52.694304
 20
86.052207
 30
0.0
 10
53.348834
 20
86.338651
 30
0.0
  0
SPLINE
  5
106
100
AcDbEntity
  8
0
 62
7
100
AcDbSpline
 70
8
 71
3
 72
8
 73
4
 74
0
 40
0
 40
0
 40
0
 40
0
 40
1
 40
1
 40
1
 40
1
 10
53.348834
 20
86.338651
 30
0.0
 10
54.472784
 20
86.830531
 30
0.0
 10
54.579407
 20
86.832887
 30
0.0
 10
55.269017
 20
86.381055
 30
0.0
  0
SPLINE
  5
107
100
AcDbEntity
  8
0
 62
7
100
AcDbSpline
 70
8
 71
3
 72
8
 73
4
 74
0
 40
0
 40
0
 40
0
 40
0
 40
1
 40
1
 40
1
 40
1
 10
55.269017
 20
86.381055
 30
0.0
 10
56.516524
 20
85.563649
 30
0.0
 10
56.455141
 20
85.136938
 30
0.0
 10
54.882034
 20
83.690696
 30
0.0
  0
SPLINE
  5
108
100
AcDbEntity
  8
0
 62
7
100
AcDbSpline
 70
8
 71
3
 72
8
 73
4
 74
0
 40
0
 40
0
 40
0
 40
0
 40
1
 40
1
 40
1
 40
1
 10
54.882034
 20
83.690696
 30
0.0
 10
53.462597
 20
82.385734
 30
0.0
 10
53.428787
 20
82.317701
 30
0.0
 10
53.428787
 20
80.764630
 30
0.0
  0
SPLINE
  5
109
100
AcDbEntity
  8
0
 62
7
100
AcDbSpline
 70
8
 71
3
 72
8
 73
4
 74
0
 40
0
 40
0
 40
0
 40
0
 40
1
 40
1
 40
1
 40
1
 10
53.428787
 20
80.764630
 30
0.0
 10
53.428787
 20
78.655857
 30
0.0
 10
54.998451
 20
75.199687
 30
0.0
 10
56.569836
 20
73.848554
 30
0.0
  0
SPLINE
  5
10a
100
AcDbEntity
  8
0
 62
7
100
AcDbSpline
 70
8
 71
3
 72
8
 73
4
 74
0
 40
0
 40
0
 40
0
 40
0
 40
1
 40
1
 40
1
 40
1
 10
56.569836
 20
73.848554
 30
0.0
 10
57.170602
 20
73.331986
 30
0.0
 10
57.665027
 20
72.760486
 30
0.0
 10
57.668555
 20
72.578554
 30
0.0
  0
SPLINE
  5
10b
100
AcDbEntity
  8
0
 62
7
100
AcDbSpline
 70
8
 71
3
 72
8
 73
4
 74
0
 40
0
 40
0
 40
0
 40
0
 40
1
 40
1
 40
1
 40
1
 10
57.668555
 20
72.578554
 30
0.0
 10
57.672224
 20
72.396619
 30
0.0
 10
58.561111
 20
71.258629
 30
0.0
 10
59.644111
 20
70.049685
 30
0.0
  0
SPLINE
  5
10c
100
AcDbEntity
  8
0
 62
7
100
AcDbSpline
 70
8
 71
3
 72
8
 73
4
 74
0
 40
0
 40
0
 40
0
 40
0
 40
1
 40
1
 40
1
 40
1
 10
59.644111
 20
70.049685
 30
0.0
 10
60.727138
 20
68.840741
 30
0.0
 10
61.613232
 20
67.684931
 30
0.0
 10
61.613232
 20
67.481217
 30
0.0
  0
SPLINE
  5
10d
100
AcDbEntity
  8
0
 62
7
100
AcDbSpline
 70
8
 71
3
 72
8
 73
4
 74
0
 40
0
 40
0
 40
0
 40
0
 40
1
 40
1
 40
1
 40
1
 10
61.613232
 20
67.481217
 30
0.0
 10
61.613232
 20
67.043493
 30
0.0
 10
64.043814
 20
63.796168
 30
0.0
 10
65.106070
 20
62.814684
 30
0.0
  0
SPLINE
  5
10e
100
AcDbEntity
  8
0
 62
7
100
AcDbSpline
 70
8
 71
3
 72
8
 73
4
 74
0
 40
0
 40
0
 40
0
 40
0
 40
1
 40
1
 40
1
 40
1
 10
65.106070
 20
62.814684
 30
0.0
 10
66.601735
 20
61.432752
 30
0.0
 10
66.393286
 20
61.382211
 30
0.0
 10
59.197692
 20
61.382211
 30
0.0
  0
SPLINE
  5
10f
100
AcDbEntity
  8
0
 62
7
100
AcDbSpline
 70
8
 71
3
 72
8
 73
4
 74
0
 40
0
 40
0
 40
0
 40
0
 40
1
 40
1
 40
1
 40
1
 10
59.197692
 20
61.382211
 30
0.0
 10
54.740782
 20
61.382211
 30
0.0
 10
52.607605
 20
61.477317
 30
0.0
 10
52.727098
 20
61.670693
 30
0.0
  0
SPLINE
  5
110
100
AcDbEntity
  8
0
 62
7
100
AcDbSpline
 70
8
 71
3
 72
8
 73
4
 74
0
 40
0
 40
0
 40
0
 40
0
 40
1
 40
1
 40
1
 40
1
 10
52.727098
 20
61.670693
 30
0.0
 10
52.825170
 20
61.829359
 30
0.0
 10
53.564141
 20
62.445817
 30
0.0
 10
54.369264
 20
63.040597
 30
0.0
  0
SPLINE
  5
111
100
AcDbEntity
  8
0
 62
7
100
AcDbSpline
 70
8
 71
3
 72
8
 73
4
 74
0
 40
0
 40
0
 40
0
 40
0
 40
1
 40
1
 40
1
 40
1
 10
54.369264
 20
63.040597
 30
0.0
 10
56.677052
 20
64.745448
 30
0.0
 10
59.089262
 20
67.054627
 30
0.0
 10
58.893428
 20
67.371495
 30
0.0
  0
SPLINE
  5
112
100
AcDbEntity
  8
0
 62
7
100
AcDbSpline
 70
8
 71
3
 72
8
 73
4
 74
0
 40
0
 40
0
 40
0
 40
0
 40
1
 40
1
 40
1
 40
1
 10
58.893428
 20
67.371495
 30
0.0
 10
58.553914
 20
67.920857
 30
0.0
 10
56.119522
 20
67.316430
 30
0.0
 10
50.606565
 20
65.313976
 30
0.0
  0
SPLINE
  5
113
100
AcDbEntity
  8
0
 62
7
100
AcDbSpline
 70
8
 71
3
 72
8
 73
4
 74
0
 40
0
 40
0
 40
0
 40
0
 40
1
 40
1
 40
1
 40
1
 10
50.606565
 20
65.313976
 30
0.0
 10
47.579732
 20
64.214546
 30
0.0
 10
44.785732
 20
63.241517
 30
0.0
 10
44.397676
 20
63.151691
 30
0.0
  0
SPLINE
  5
114
100
AcDbEntity
  8
0
 62
7
100
AcDbSpline
 70
8
 71
3
 72
8
 73
4
 74
0
 40
0
 40
0
 40
0
 40
0
 40
1
 40
1
 40
1
 40
1
 10
44.397676
 20
63.151691
 30
0.0
 10
44.009620
 20
63.061865
 30
0.0
 10
43.380321
 20
62.785804
 30
0.0
 10
42.999208
 20
62.538219
 30
0.0
  0
SPLINE
  5
115
100
AcDbEntity
  8
0
 62
7
100
AcDbSpline
 70
8
 71
3
 72
8
 73
4
 74
0
 40
0
 40
0
 40
0
 40
0
 40
1
 40
1
 40
1
 40
1
 10
42.999208
 20
62.538219
 30
0.0
 10
42.257274
 20
62.056223
 30
0.0
 10
40.517713
 20
61.393450
 30
0.0
 10
39.976213
 20
61.386462
 30
0.0
  0
SPLINE
  5
116
100
AcDbEntity
  8
0
 62
7
100
AcDbSpline
 70
8
 71
3
 72
8
 73
4
 74
0
 40
0
 40
0
 40
0
 40
0
 40
1
 40
1
 40
1
 40
1
 10
39.976213
 20
61.386462
 30
0.0
 10
39.795111
 20
61.384204
 30
0.0
 10
39.595129
 20
61.537685
 30
0.0
 10
39.531770
 20
61.727705
 30
0.0
  0
SPLINE
  5
117
100
AcDbEntity
  8
0
 62
7
100
AcDbSpline
 70
8
 71
3
 72
8
 73
4
 74
0
 40
0
 40
0
 40
0
 40
0
 40
1
 40
1
 40
1
 40
1
 10
69.515454
 20
62.117587
 30
0.0
 10
69.515454
 20
62.522042
 30
0.0
 10
69.698164
 20
63.569792
 30
0.0
 10
69.921487
 20
64.445920
 30
0.0
  0
SPLINE
  5
118
100
AcDbEntity
  8
0
 62
7
100
AcDbSpline
 70
8
 71
3
 72
8
 73
4
 74
0
 40
0
 40
0
 40
0
 40
0
 40
1
 40
1
 40
1
 40
1
 10
69.921487
 20
64.445920
 30
0.0
 10
70.447380
 20
66.509230
 30
0.0
 10
70.353089
 20
73.174517
 30
0.0
 10
69.793076
 20
73.520609
 30
0.0
  0
SPLINE
  5
119
100
AcDbEntity
  8
0
 62
7
100
AcDbSpline
 70
8
 71
3
 72
8
 73
4
 74
0
 40
0
 40
0
 40
0
 40
0
 40
1
 40
1
 40
1
 40
1
 10
69.793076
 20
73.520609
 30
0.0
 10
69.583131
 20
73.650372
 30
0.0
 10
69.438830
 20
74.194663
 30
0.0
 10
69.460646
 20
74.774694
 30
0.0
  0
SPLINE
  5
11a
100
AcDbEntity
  8
0
 62
7
100
AcDbSpline
 70
8
 71
3
 72
8
 73
4
 74
0
 40
0
 40
0
 40
0
 40
0
 40
1
 40
1
 40
1
 40
1
 10
69.460646
 20
74.774694
 30
0.0
 10
69.485764
 20
75.443877
 30
0.0
 10
69.355095
 20
75.854798
 30
0.0
 10
69.083992
 20
75.958834
 30
0.0
  0
SPLINE
  5
11b
100
AcDbEntity
  8
0
 62
7
100
AcDbSpline
 70
8
 71
3
 72
8
 73
4
 74
0
 40
0
 40
0
 40
0
 40
0
 40
1
 40
1
 40
1
 40
1
 10
69.083992
 20
75.958834
 30
0.0
 10
68.589426
 20
76.148617
 30
0.0
 10
68.525672
 20
77.374130
 30
0.0
 10
69.002092
 20
77.532945
 30
0.0
  0
SPLINE
  5
11c
100
AcDbEntity
  8
0
 62
7
100
AcDbSpline
 70
8
 71
3
 72
8
 73
4
 74
0
 40
0
 40
0
 40
0
 40
0
 40
1
 40
1
 40
1
 40
1
 10
69.002092
 20
77.532945
 30
0.0
 10
69.392885
 20
77.663205
 30
0.0
 10
68.227279
 20
80.291100
 30
0.0
 10
67.778743
 20
80.291100
 30
0.0
  0
SPLINE
  5
11d
100
AcDbEntity
  8
0
 62
7
100
AcDbSpline
 70
8
 71
3
 72
8
 73
4
 74
0
 40
0
 40
0
 40
0
 40
0
 40
1
 40
1
 40
1
 40
1
 10
67.778743
 20
80.291100
 30
0.0
 10
67.627331
 20
80.291100
 30
0.0
 10
67.182887
 20
79.910100
 30
0.0
 10
66.791050
 20
79.444434
 30
0.0
  0
SPLINE
  5
11e
100
AcDbEntity
  8
0
 62
7
100
AcDbSpline
 70
8
 71
3
 72
8
 73
4
 74
0
 40
0
 40
0
 40
0
 40
0
 40
1
 40
1
 40
1
 40
1
 10
66.791050
 20
79.444434
 30
0.0
 10
65.706978
 20
78.156100
 30
0.0
 10
65.004414
 20
78.345102
 30
0.0
 10
63.415305
 20
80.352563
 30
0.0
  0
SPLINE
  5
11f
100
AcDbEntity
  8
0
 62
7
100
AcDbSpline
 70
8
 71
3
 72
8
 73
4
 74
0
 40
0
 40
0
 40
0
 40
0
 40
1
 40
1
 40
1
 40
1
 10
63.415305
 20
80.352563
 30
0.0
 10
62.324657
 20
81.730326
 30
0.0
 10
62.265052
 20
82.831100
 30
0.0
 10
63.281052
 20
82.831100
 30
0.0
  0
SPLINE
  5
120
100
AcDbEntity
  8
0
 62
7
100
AcDbSpline
 70
8
 71
3
 72
8
 73
4
 74
0
 40
0
 40
0
 40
0
 40
0
 40
1
 40
1
 40
1
 40
1
 10
63.281052
 20
82.831100
 30
0.0
 10
63.987398
 20
82.831100
 30
0.0
 10
64.243317
 20
83.248620
 30
0.0
 10
64.211990
 20
84.349967
 30
0.0
  0
SPLINE
  5
121
100
AcDbEntity
  8
0
 62
7
100
AcDbSpline
 70
8
 71
3
 72
8
 73
4
 74
0
 40
0
 40
0
 40
0
 40
0
 40
1
 40
1
 40
1
 40
1
 10
64.211990
 20
84.349967
 30
0.0
 10
64.198444
 20
84.830159
 30
0.0
 10
64.401785
 20
85.465411
 30
0.0
 10
64.664110
 20
85.761639
 30
0.0
  0
SPLINE
  5
122
100
AcDbEntity
  8
0
 62
7
100
AcDbSpline
 70
8
 71
3
 72
8
 73
4
 74
0
 40
0
 40
0
 40
0
 40
0
 40
1
 40
1
 40
1
 40
1
 10
64.664110
 20
85.761639
 30
0.0
 10
64.987396
 20
86.126736
 30
0.0
 10
65.035797
 20
86.337178
 30
0.0
 10
64.814337
 20
86.414930
 30
0.0
  0
SPLINE
  5
123
100
AcDbEntity
  8
0
 62
7
100
AcDbSpline
 70
8
 71
3
 72
8
 73
4
 74
0
 40
0
 40
0
 40
0
 40
0
 40
1
 40
1
 40
1
 40
1
 10
64.814337
 20
86.414930
 30
0.0
 10
64.634674
 20
86.478015
 30
0.0
 10
64.197230
 20
86.781517
 30
0.0
 10
63.842251
 20
87.089382
 30
0.0
  0
SPLINE
  5
124
100
AcDbEntity
  8
0
 62
7
100
AcDbSpline
 70
8
 71
3
 72
8
 73
4
 74
0
 40
0
 40
0
 40
0
 40
0
 40
1
 40
1
 40
1
 40
1
 10
63.842251
 20
87.089382
 30
0.0
 10
62.976083
 20
87.840598
 30
0.0
 10
62.349070
 20
87.665268
 30
0.0
 10
62.177676
 20
86.623930
 30
0.0
  0
SPLINE
  5
125
100
AcDbEntity
  8
0
 62
7
100
AcDbSpline
 70
8
 71
3
 72
8
 73
4
 74
0
 40
0
 40
0
 40
0
 40
0
 40
1
 40
1
 40
1
 40
1
 10
62.177676
 20
86.623930
 30
0.0
 10
62.100065
 20
86.152345
 30
0.0
 10
61.699168
 20
85.338732
 30
0.0
 10
61.286813
 20
84.815899
 30
0.0
  0
LWPOLYLINE
  5
126
100
AcDbEntity
  8
0
 62
7
100
AcDbPolyline
 90
2
 70
0
 10
39.531770
 20
61.727705
 30
0.0
 10
39.531770
 20
61.727705
 30
0.0
  0
SPLINE
  5
127
100
AcDbEntity
  8
0
 62
7
100
AcDbSpline
 70
8
 71
3
 72
8
 73
4
 74
0
 40
0
 40
0
 40
0
 40
0
 40
1
 40
1
 40
1
 40
1
 10
60.252215
 20
84.896772
 30
0.0
 10
59.962881
 20
85.944672
 30
0.0
 10
60.212534
 20
90.050305
 30
0.0
 10
60.632876
 20
91.156656
 30
0.0
  0
SPLINE
  5
128
100
AcDbEntity
  8
0
 62
7
100
AcDbSpline
 70
8
 71
3
 72
8
 73
4
 74
0
 40
0
 40
0
 40
0
 40
0
 40
1
 40
1
 40
1
 40
1
 10
60.632876
 20
91.156656
 30
0.0
 10
60.860658
 20
91.756161
 30
0.0
 10
62.730239
 20
93.837767
 30
0.0
 10
63.040881
 20
93.837767
 30
0.0
  0
SPLINE
  5
129
100
AcDbEntity
  8
0
 62
7
100
AcDbSpline
 70
8
 71
3
 72
8
 73
4
 74
0
 40
0
 40
0
 40
0
 40
0
 40
1
 40
1
 40
1
 40
1
 10
63.040881
 20
93.837767
 30
0.0
 10
63.142199
 20
93.837767
 30
0.0
 10
63.295953
 20
92.901150
 30
0.0
 10
63.382511
 20
91.756395
 30
0.0
  0
SPLINE
  5
12a
100
AcDbEntity
  8
0
 62
7
100
AcDbSpline
 70
8
 71
3
 72
8
 73
4
 74
0
 40
0
 40
0
 40
0
 40
0
 40
1
 40
1
 40
1
 40
1
 10
63.382511
 20
91.756395
 30
0.0
 10
63.524836
 20
89.874565
 30
0.0
 10
63.989119
 20
88.475545
 30
0.0
 10
64.471296
 20
88.475545
 30
0.0
  0
SPLINE
  5
12b
100
AcDbEntity
  8
0
 62
7
100
AcDbSpline
 70
8
 71
3
 72
8
 73
4
 74
0
 40
0
 40
0
 40
0
 40
0
 40
1
 40
1
 40
1
 40
1
 10
64.471296
 20
88.475545
 30
0.0
 10
64.571570
 20
88.475545
 30
0.0
 10
64.737601
 20
89.035795
 30
0.0
 10
64.840302
 20
89.720548
 30
0.0
  0
SPLINE
  5
12c
100
AcDbEntity
  8
0
 62
7
100
AcDbSpline
 70
8
 71
3
 72
8
 73
4
 74
0
 40
0
 40
0
 40
0
 40
0
 40
1
 40
1
 40
1
 40
1
 10
64.840302
 20
89.720548
 30
0.0
 10
65.035486
 20
91.022169
 30
0.0
 10
65.406214
 20
91.360084
 30
0.0
 10
66.364132
 20
91.109576
 30
0.0
  0
SPLINE
  5
12d
100
AcDbEntity
  8
0
 62
7
100
AcDbSpline
 70
8
 71
3
 72
8
 73
4
 74
0
 40
0
 40
0
 40
0
 40
0
 40
1
 40
1
 40
1
 40
1
 10
66.364132
 20
91.109576
 30
0.0
 10
66.837927
 20
90.985677
 30
0.0
 10
66.997185
 20
91.163655
 30
0.0
 10
67.291514
 20
92.146062
 30
0.0
  0
SPLINE
  5
12e
100
AcDbEntity
  8
0
 62
7
100
AcDbSpline
 70
8
 71
3
 72
8
 73
4
 74
0
 40
0
 40
0
 40
0
 40
0
 40
1
 40
1
 40
1
 40
1
 10
67.291514
 20
92.146062
 30
0.0
 10
67.607519
 20
93.200772
 30
0.0
 10
67.593041
 20
93.362259
 30
0.0
 10
67.160874
 20
93.604118
 30
0.0
  0
SPLINE
  5
12f
100
AcDbEntity
  8
0
 62
7
100
AcDbSpline
 70
8
 71
3
 72
8
 73
4
 74
0
 40
0
 40
0
 40
0
 40
0
 40
1
 40
1
 40
1
 40
1
 10
67.160874
 20
93.604118
 30
0.0
 10
66.785208
 20
93.814345
 30
0.0
 10
66.715866
 20
94.094756
 30
0.0
 10
66.855509
 20
94.839074
 30
0.0
  0
SPLINE
  5
130
100
AcDbEntity
  8
0
 62
7
100
AcDbSpline
 70
8
 71
3
 72
8
 73
4
 74
0
 40
0
 40
0
 40
0
 40
0
 40
1
 40
1
 40
1
 40
1
 10
66.855509
 20
94.839074
 30
0.0
 10
67.023742
 20
95.735776
 30
0.0
 10
66.917542
 20
95.918840
 30
0.0
 10
65.312488
 20
97.499177
 30
0.0
  0
SPLINE
  5
131
100
AcDbEntity
  8
0
 62
7
100
AcDbSpline
 70
8
 71
3
 72
8
 73
4
 74
0
 40
0
 40
0
 40
0
 40
0
 40
1
 40
1
 40
1
 40
1
 10
65.312488
 20
97.499177
 30
0.0
 10
64.364447
 20
98.432599
 30
0.0
 10
63.588787
 20
99.387636
 30
0.0
 10
63.588787
 20
99.621482
 30
0.0
  0
SPLINE
  5
132
100
AcDbEntity
  8
0
 62
7
100
AcDbSpline
 70
8
 71
3
 72
8
 73
4
 74
0
 40
0
 40
0
 40
0
 40
0
 40
1
 40
1
 40
1
 40
1
 10
63.588787
 20
99.621482
 30
0.0
 10
63.588787
 20
99.887282
 30
0.0
 10
63.323329
 20
100.046656
 30
0.0
 10
62.880550
 20
100.046656
 30
0.0
  0
SPLINE
  5
133
100
AcDbEntity
  8
0
 62
7
100
AcDbSpline
 70
8
 71
3
 72
8
 73
4
 74
0
 40
0
 40
0
 40
0
 40
0
 40
1
 40
1
 40
1
 40
1
 10
62.880550
 20
100.046656
 30
0.0
 10
62.372268
 20
100.046656
 30
0.0
 10
61.953958
 20
100.364159
 30
0.0
 10
61.398884
 20
101.171309
 30
0.0
  0
SPLINE
  5
134
100
AcDbEntity
  8
0
 62
7
100
AcDbSpline
 70
8
 71
3
 72
8
 73
4
 74
0
 40
0
 40
0
 40
0
 40
0
 40
1
 40
1
 40
1
 40
1
 10
61.398884
 20
101.171309
 30
0.0
 10
60.878156
 20
101.928502
 30
0.0
 10
60.277841
 20
102.404704
 30
0.0
 10
59.561504
 20
102.628780
 30
0.0
  0
SPLINE
  5
135
100
AcDbEntity
  8
0
 62
7
100
AcDbSpline
 70
8
 71
3
 72
8
 73
4
 74
0
 40
0
 40
0
 40
0
 40
0
 40
1
 40
1
 40
1
 40
1
 10
59.561504
 20
102.628780
 30
0.0
 10
58.879684
 20
102.842059
 30
0.0
 10
58.296302
 20
103.287165
 30
0.0
 10
57.937344
 20
103.868015
 30
0.0
  0
SPLINE
  5
136
100
AcDbEntity
  8
0
 62
7
100
AcDbSpline
 70
8
 71
3
 72
8
 73
4
 74
0
 40
0
 40
0
 40
0
 40
0
 40
1
 40
1
 40
1
 40
1
 10
57.937344
 20
103.868015
 30
0.0
 10
57.389466
 20
104.754467
 30
0.0
 10
56.516101
 20
105.126656
 30
0.0
 10
54.983803
 20
105.126656
 30
0.0
  0
SPLINE
  5
137
100
AcDbEntity
  8
0
 62
7
100
AcDbSpline
 70
8
 71
3
 72
8
 73
4
 74
0
 40
0
 40
0
 40
0
 40
0
 40
1
 40
1
 40
1
 40
1
 10
54.983803
 20
105.126656
 30
0.0
 10
54.636077
 20
105.126656
 30
0.0
 10
54.040786
 20
105.371128
 30
0.0
 10
53.660915
 20
105.669928
 30
0.0
  0
SPLINE
  5
138
100
AcDbEntity
  8
0
 62
7
100
AcDbSpline
 70
8
 71
3
 72
8
 73
4
 74
0
 40
0
 40
0
 40
0
 40
0
 40
1
 40
1
 40
1
 40
1
 10
53.660915
 20
105.669928
 30
0.0
 10
53.191862
 20
106.038888
 30
0.0
 10
52.840072
 20
106.130828
 30
0.0
 10
52.564538
 20
105.956474
 30
0.0
  0
SPLINE
  5
139
100
AcDbEntity
  8
0
 62
7
100
AcDbSpline
 70
8
 71
3
 72
8
 73
4
 74
0
 40
0
 40
0
 40
0
 40
0
 40
1
 40
1
 40
1
 40
1
 10
52.564538
 20
105.956474
 30
0.0
 10
51.866292
 20
105.514658
 30
0.0
 10
50.682313
 20
105.664724
 30
0.0
 10
49.001426
 20
106.408086
 30
0.0
  0
SPLINE
  5
13a
100
AcDbEntity
  8
0
 62
7
100
AcDbSpline
 70
8
 71
3
 72
8
 73
4
 74
0
 40
0
 40
0
 40
0
 40
0
 40
1
 40
1
 40
1
 40
1
 10
49.001426
 20
106.408086
 30
0.0
 10
47.210924
 20
107.199937
 30
0.0
 10
46.943038
 20
107.475287
 30
0.0
 10
46.953311
 20
108.513323
 30
0.0
  0
LWPOLYLINE
  5
13b
100
AcDbEntity
  8
0
 62
7
100
AcDbPolyline
 90
3
 70
0
 10
61.286813
 20
84.815899
 30
0.0
 10
60.537034
 20
83.865292
 30
0.0
 10
60.252215
 20
84.896772
 30
0.0
  0
SPLINE
  5
13c
100
AcDbEntity
  8
0
 62
7
100
AcDbSpline
 70
8
 71
3
 72
8
 73
4
 74
0
 40
0
 40
0
 40
0
 40
0
 40
1
 40
1
 40
1
 40
1
 10
47.379523
 20
108.446354
 30
0.0
 10
47.871690
 20
107.539326
 30
0.0
 10
48.778160
 20
107.239716
 30
0.0
 10
49.825487
 20
107.637914
 30
0.0
  0
SPLINE
  5
13d
100
AcDbEntity
  8
0
 62
7
100
AcDbSpline
 70
8
 71
3
 72
8
 73
4
 74
0
 40
0
 40
0
 40
0
 40
0
 40
1
 40
1
 40
1
 40
1
 10
49.825487
 20
107.637914
 30
0.0
 10
50.494071
 20
107.892106
 30
0.0
 10
50.573742
 20
108.068100
 30
0.0
 10
50.567167
 20
109.276344
 30
0.0
  0
SPLINE
  5
13e
100
AcDbEntity
  8
0
 62
7
100
AcDbSpline
 70
8
 71
3
 72
8
 73
4
 74
0
 40
0
 40
0
 40
0
 40
0
 40
1
 40
1
 40
1
 40
1
 10
50.567167
 20
109.276344
 30
0.0
 10
50.563216
 20
110.020849
 30
0.0
 10
50.700968
 20
110.996999
 30
0.0
 10
50.873462
 20
111.445569
 30
0.0
  0
SPLINE
  5
13f
100
AcDbEntity
  8
0
 62
7
100
AcDbSpline
 70
8
 71
3
 72
8
 73
4
 74
0
 40
0
 40
0
 40
0
 40
0
 40
1
 40
1
 40
1
 40
1
 10
50.873462
 20
111.445569
 30
0.0
 10
51.323184
 20
112.614895
 30
0.0
 10
50.693010
 20
113.200012
 30
0.0
 10
48.718216
 20
113.446748
 30
0.0
  0
SPLINE
  5
140
100
AcDbEntity
  8
0
 62
7
100
AcDbSpline
 70
8
 71
3
 72
8
 73
4
 74
0
 40
0
 40
0
 40
0
 40
0
 40
1
 40
1
 40
1
 40
1
 10
48.718216
 20
113.446748
 30
0.0
 10
46.808446
 20
113.685355
 30
0.0
 10
45.900904
 20
114.470684
 30
0.0
 10
45.638494
 20
116.111710
 30
0.0
  0
SPLINE
  5
141
100
AcDbEntity
  8
0
 62
7
100
AcDbSpline
 70
8
 71
3
 72
8
 73
4
 74
0
 40
0
 40
0
 40
0
 40
0
 40
1
 40
1
 40
1
 40
1
 10
45.638494
 20
116.111710
 30
0.0
 10
45.456461
 20
117.249988
 30
0.0
 10
45.448502
 20
117.256386
 30
0.0
 10
44.419012
 20
117.091763
 30
0.0
  0
SPLINE
  5
142
100
AcDbEntity
  8
0
 62
7
100
AcDbSpline
 70
8
 71
3
 72
8
 73
4
 74
0
 40
0
 40
0
 40
0
 40
0
 40
1
 40
1
 40
1
 40
1
 10
44.419012
 20
117.091763
 30
0.0
 10
43.672365
 20
116.972369
 30
0.0
 10
43.281431
 20
117.048126
 30
0.0
 10
43.020262
 20
117.362824
 30
0.0
  0
SPLINE
  5
143
100
AcDbEntity
  8
0
 62
7
100
AcDbSpline
 70
8
 71
3
 72
8
 73
4
 74
0
 40
0
 40
0
 40
0
 40
0
 40
1
 40
1
 40
1
 40
1
 10
43.020262
 20
117.362824
 30
0.0
 10
42.709846
 20
117.736839
 30
0.0
 10
42.803036
 20
117.860285
 30
0.0
 10
43.668894
 20
118.222055
 30
0.0
  0
SPLINE
  5
144
100
AcDbEntity
  8
0
 62
7
100
AcDbSpline
 70
8
 71
3
 72
8
 73
4
 74
0
 40
0
 40
0
 40
0
 40
0
 40
1
 40
1
 40
1
 40
1
 10
43.668894
 20
118.222055
 30
0.0
 10
44.224984
 20
118.454411
 30
0.0
 10
44.680519
 20
118.746252
 30
0.0
 10
44.681140
 20
118.870587
 30
0.0
  0
SPLINE
  5
145
100
AcDbEntity
  8
0
 62
7
100
AcDbSpline
 70
8
 71
3
 72
8
 73
4
 74
0
 40
0
 40
0
 40
0
 40
0
 40
1
 40
1
 40
1
 40
1
 10
44.681140
 20
118.870587
 30
0.0
 10
44.683962
 20
119.315680
 30
0.0
 10
42.841079
 20
123.188268
 30
0.0
 10
42.626901
 20
123.188570
 30
0.0
  0
SPLINE
  5
146
100
AcDbEntity
  8
0
 62
7
100
AcDbSpline
 70
8
 71
3
 72
8
 73
4
 74
0
 40
0
 40
0
 40
0
 40
0
 40
1
 40
1
 40
1
 40
1
 10
42.626901
 20
123.188570
 30
0.0
 10
42.320379
 20
123.189135
 30
0.0
 10
41.857761
 20
121.882917
 30
0.0
 10
41.857761
 20
121.017136
 30
0.0
  0
SPLINE
  5
147
100
AcDbEntity
  8
0
 62
7
100
AcDbSpline
 70
8
 71
3
 72
8
 73
4
 74
0
 40
0
 40
0
 40
0
 40
0
 40
1
 40
1
 40
1
 40
1
 10
41.857761
 20
121.017136
 30
0.0
 10
41.857761
 20
120.321235
 30
0.0
 10
41.806312
 20
120.299047
 30
0.0
 10
40.526942
 20
120.443254
 30
0.0
  0
SPLINE
  5
148
100
AcDbEntity
  8
0
 62
7
100
AcDbSpline
 70
8
 71
3
 72
8
 73
4
 74
0
 40
0
 40
0
 40
0
 40
0
 40
1
 40
1
 40
1
 40
1
 10
40.526942
 20
120.443254
 30
0.0
 10
39.508486
 20
120.558048
 30
0.0
 10
39.043356
 20
120.781957
 30
0.0
 10
38.545347
 20
121.397179
 30
0.0
  0
SPLINE
  5
149
100
AcDbEntity
  8
0
 62
7
100
AcDbSpline
 70
8
 71
3
 72
8
 73
4
 74
0
 40
0
 40
0
 40
0
 40
0
 40
1
 40
1
 40
1
 40
1
 10
38.545347
 20
121.397179
 30
0.0
 10
37.853987
 20
122.251299
 30
0.0
 10
37.756112
 20
122.552820
 30
0.0
 10
37.480353
 20
124.677826
 30
0.0
  0
LWPOLYLINE
  5
14a
100
AcDbEntity
  8
0
 62
7
100
AcDbPolyline
 90
3
 70
0
 10
46.953311
 20
108.513323
 30
0.0
 10
46.960367
 20
109.218878
 30
0.0
 10
47.379523
 20
108.446354
 30
0.0
  0
SPLINE
  5
14b
100
AcDbEntity
  8
0
 62
7
100
AcDbSpline
 70
8
 71
3
 72
8
 73
4
 74
0
 40
0
 40
0
 40
0
 40
0
 40
1
 40
1
 40
1
 40
1
 10
35.918874
 20
125.841727
 30
0.0
 10
34.707576
 20
125.681044
 30
0.0
 10
34.440735
 20
125.742557
 30
0.0
 10
33.808106
 20
126.328335
 30
0.0
  0
SPLINE
  5
14c
100
AcDbEntity
  8
0
 62
7
100
AcDbSpline
 70
8
 71
3
 72
8
 73
4
 74
0
 40
0
 40
0
 40
0
 40
0
 40
1
 40
1
 40
1
 40
1
 10
33.808106
 20
126.328335
 30
0.0
 10
33.016924
 20
127.060905
 30
0.0
 10
32.262318
 20
128.311135
 30
0.0
 10
32.262036
 20
128.889863
 30
0.0
  0
SPLINE
  5
14d
100
AcDbEntity
  8
0
 62
7
100
AcDbSpline
 70
8
 71
3
 72
8
 73
4
 74
0
 40
0
 40
0
 40
0
 40
0
 40
1
 40
1
 40
1
 40
1
 10
32.262036
 20
128.889863
 30
0.0
 10
32.261895
 20
129.124889
 30
0.0
 10
32.637956
 20
129.256656
 30
0.0
 10
33.308798
 20
129.256656
 30
0.0
  0
SPLINE
  5
14e
100
AcDbEntity
  8
0
 62
7
100
AcDbSpline
 70
8
 71
3
 72
8
 73
4
 74
0
 40
0
 40
0
 40
0
 40
0
 40
1
 40
1
 40
1
 40
1
 10
33.308798
 20
129.256656
 30
0.0
 10
34.136358
 20
129.256656
 30
0.0
 10
34.428515
 20
129.401216
 30
0.0
 10
34.702891
 20
129.946455
 30
0.0
  0
SPLINE
  5
14f
100
AcDbEntity
  8
0
 62
7
100
AcDbSpline
 70
8
 71
3
 72
8
 73
4
 74
0
 40
0
 40
0
 40
0
 40
0
 40
1
 40
1
 40
1
 40
1
 10
34.702891
 20
129.946455
 30
0.0
 10
35.157720
 20
130.850286
 30
0.0
 10
34.948340
 20
131.132691
 30
0.0
 10
34.070798
 20
130.799048
 30
0.0
  0
SPLINE
  5
150
100
AcDbEntity
  8
0
 62
7
100
AcDbSpline
 70
8
 71
3
 72
8
 73
4
 74
0
 40
0
 40
0
 40
0
 40
0
 40
1
 40
1
 40
1
 40
1
 10
34.070798
 20
130.799048
 30
0.0
 10
33.264546
 20
130.492515
 30
0.0
 10
31.884620
 20
131.043786
 30
0.0
 10
31.599717
 20
131.786216
 30
0.0
  0
SPLINE
  5
151
100
AcDbEntity
  8
0
 62
7
100
AcDbSpline
 70
8
 71
3
 72
8
 73
4
 74
0
 40
0
 40
0
 40
0
 40
0
 40
1
 40
1
 40
1
 40
1
 10
31.599717
 20
131.786216
 30
0.0
 10
31.508164
 20
132.024793
 30
0.0
 10
31.260909
 20
132.219989
 30
0.0
 10
31.050258
 20
132.219989
 30
0.0
  0
SPLINE
  5
152
100
AcDbEntity
  8
0
 62
7
100
AcDbSpline
 70
8
 71
3
 72
8
 73
4
 74
0
 40
0
 40
0
 40
0
 40
0
 40
1
 40
1
 40
1
 40
1
 10
31.050258
 20
132.219989
 30
0.0
 10
30.677386
 20
132.219989
 30
0.0
 10
29.744190
 20
133.103681
 30
0.0
 10
29.306802
 20
133.870924
 30
0.0
  0
SPLINE
  5
153
100
AcDbEntity
  8
0
 62
7
100
AcDbSpline
 70
8
 71
3
 72
8
 73
4
 74
0
 40
0
 40
0
 40
0
 40
0
 40
1
 40
1
 40
1
 40
1
 10
29.306802
 20
133.870924
 30
0.0
 10
29.132586
 20
134.176526
 30
0.0
 10
29.204327
 20
134.190479
 30
0.0
 10
29.669599
 20
133.941480
 30
0.0
  0
SPLINE
  5
154
100
AcDbEntity
  8
0
 62
7
100
AcDbSpline
 70
8
 71
3
 72
8
 73
4
 74
0
 40
0
 40
0
 40
0
 40
0
 40
1
 40
1
 40
1
 40
1
 10
29.669599
 20
133.941480
 30
0.0
 10
29.988566
 20
133.770772
 30
0.0
 10
30.451665
 20
133.631100
 30
0.0
 10
30.698694
 20
133.631100
 30
0.0
  0
SPLINE
  5
155
100
AcDbEntity
  8
0
 62
7
100
AcDbSpline
 70
8
 71
3
 72
8
 73
4
 74
0
 40
0
 40
0
 40
0
 40
0
 40
1
 40
1
 40
1
 40
1
 10
30.698694
 20
133.631100
 30
0.0
 10
31.100607
 20
133.631100
 30
0.0
 10
31.104501
 20
133.714847
 30
0.0
 10
30.735834
 20
134.427766
 30
0.0
  0
SPLINE
  5
156
100
AcDbEntity
  8
0
 62
7
100
AcDbSpline
 70
8
 71
3
 72
8
 73
4
 74
0
 40
0
 40
0
 40
0
 40
0
 40
1
 40
1
 40
1
 40
1
 10
30.735834
 20
134.427766
 30
0.0
 10
30.509266
 20
134.865933
 30
0.0
 10
30.133149
 20
135.382707
 30
0.0
 10
29.900062
 20
135.576156
 30
0.0
  0
SPLINE
  5
157
100
AcDbEntity
  8
0
 62
7
100
AcDbSpline
 70
8
 71
3
 72
8
 73
4
 74
0
 40
0
 40
0
 40
0
 40
0
 40
1
 40
1
 40
1
 40
1
 10
29.900062
 20
135.576156
 30
0.0
 10
29.666974
 20
135.769605
 30
0.0
 10
29.393021
 20
136.331854
 30
0.0
 10
29.291280
 20
136.825602
 30
0.0
  0
SPLINE
  5
158
100
AcDbEntity
  8
0
 62
7
100
AcDbSpline
 70
8
 71
3
 72
8
 73
4
 74
0
 40
0
 40
0
 40
0
 40
0
 40
1
 40
1
 40
1
 40
1
 10
29.291280
 20
136.825602
 30
0.0
 10
29.189539
 20
137.319347
 30
0.0
 10
28.927383
 20
138.267512
 30
0.0
 10
28.708689
 20
138.932631
 30
0.0
  0
SPLINE
  5
159
100
AcDbEntity
  8
0
 62
7
100
AcDbSpline
 70
8
 71
3
 72
8
 73
4
 74
0
 40
0
 40
0
 40
0
 40
0
 40
1
 40
1
 40
1
 40
1
 10
28.708689
 20
138.932631
 30
0.0
 10
27.984140
 20
141.136354
 30
0.0
 10
28.058082
 20
141.252235
 30
0.0
 10
30.074983
 20
141.073901
 30
0.0
  0
SPLINE
  5
15a
100
AcDbEntity
  8
0
 62
7
100
AcDbSpline
 70
8
 71
3
 72
8
 73
4
 74
0
 40
0
 40
0
 40
0
 40
0
 40
1
 40
1
 40
1
 40
1
 10
30.074983
 20
141.073901
 30
0.0
 10
31.437947
 20
140.953393
 30
0.0
 10
31.967170
 20
141.019955
 30
0.0
 10
32.403316
 20
141.366744
 30
0.0
  0
SPLINE
  5
15b
100
AcDbEntity
  8
0
 62
7
100
AcDbSpline
 70
8
 71
3
 72
8
 73
4
 74
0
 40
0
 40
0
 40
0
 40
0
 40
1
 40
1
 40
1
 40
1
 10
32.403316
 20
141.366744
 30
0.0
 10
32.967761
 20
141.815545
 30
0.0
 10
32.967761
 20
141.815545
 30
0.0
 10
32.403316
 20
142.251462
 30
0.0
  0
SPLINE
  5
15c
100
AcDbEntity
  8
0
 62
7
100
AcDbSpline
 70
8
 71
3
 72
8
 73
4
 74
0
 40
0
 40
0
 40
0
 40
0
 40
1
 40
1
 40
1
 40
1
 10
32.403316
 20
142.251462
 30
0.0
 10
32.015515
 20
142.550957
 30
0.0
 10
31.618061
 20
142.618224
 30
0.0
 10
31.133316
 20
142.466403
 30
0.0
  0
SPLINE
  5
15d
100
AcDbEntity
  8
0
 62
7
100
AcDbSpline
 70
8
 71
3
 72
8
 73
4
 74
0
 40
0
 40
0
 40
0
 40
0
 40
1
 40
1
 40
1
 40
1
 10
31.133316
 20
142.466403
 30
0.0
 10
30.745261
 20
142.344864
 30
0.0
 10
28.780627
 20
142.243952
 30
0.0
 10
26.767480
 20
142.242152
 30
0.0
  0
SPLINE
  5
15e
100
AcDbEntity
  8
0
 62
7
100
AcDbSpline
 70
8
 71
3
 72
8
 73
4
 74
0
 40
0
 40
0
 40
0
 40
0
 40
1
 40
1
 40
1
 40
1
 10
26.767480
 20
142.242152
 30
0.0
 10
23.148036
 20
142.238906
 30
0.0
 10
23.103219
 20
142.231004
 30
0.0
 10
22.749962
 20
141.533323
 30
0.0
  0
SPLINE
  5
15f
100
AcDbEntity
  8
0
 62
7
100
AcDbSpline
 70
8
 71
3
 72
8
 73
4
 74
0
 40
0
 40
0
 40
0
 40
0
 40
1
 40
1
 40
1
 40
1
 10
22.749962
 20
141.533323
 30
0.0
 10
22.553507
 20
141.145267
 30
0.0
 10
22.390890
 20
140.605517
 30
0.0
 10
22.388604
 20
140.333878
 30
0.0
  0
SPLINE
  5
160
100
AcDbEntity
  8
0
 62
7
100
AcDbSpline
 70
8
 71
3
 72
8
 73
4
 74
0
 40
0
 40
0
 40
0
 40
0
 40
1
 40
1
 40
1
 40
1
 10
22.388604
 20
140.333878
 30
0.0
 10
22.383524
 20
139.718185
 30
0.0
 10
21.939024
 20
139.687140
 30
0.0
 10
21.709070
 20
140.286405
 30
0.0
  0
SPLINE
  5
161
100
AcDbEntity
  8
0
 62
7
100
AcDbSpline
 70
8
 71
3
 72
8
 73
4
 74
0
 40
0
 40
0
 40
0
 40
0
 40
1
 40
1
 40
1
 40
1
 10
21.709070
 20
140.286405
 30
0.0
 10
21.317910
 20
141.305727
 30
0.0
 10
21.537817
 20
142.819037
 30
0.0
 10
22.153711
 20
143.346383
 30
0.0
  0
SPLINE
  5
162
100
AcDbEntity
  8
0
 62
7
100
AcDbSpline
 70
8
 71
3
 72
8
 73
4
 74
0
 40
0
 40
0
 40
0
 40
0
 40
1
 40
1
 40
1
 40
1
 10
22.153711
 20
143.346383
 30
0.0
 10
22.837817
 20
143.932118
 30
0.0
 10
24.288129
 20
144.338561
 30
0.0
 10
25.730736
 20
144.348811
 30
0.0
  0
SPLINE
  5
163
100
AcDbEntity
  8
0
 62
7
100
AcDbSpline
 70
8
 71
3
 72
8
 73
4
 74
0
 40
0
 40
0
 40
0
 40
0
 40
1
 40
1
 40
1
 40
1
 10
25.730736
 20
144.348811
 30
0.0
 10
26.527337
 20
144.354484
 30
0.0
 10
26.643245
 20
144.434161
 30
0.0
 10
26.458841
 20
144.849434
 30
0.0
  0
SPLINE
  5
164
100
AcDbEntity
  8
0
 62
7
100
AcDbSpline
 70
8
 71
3
 72
8
 73
4
 74
0
 40
0
 40
0
 40
0
 40
0
 40
1
 40
1
 40
1
 40
1
 10
26.458841
 20
144.849434
 30
0.0
 10
26.093166
 20
145.672936
 30
0.0
 10
25.973871
 20
147.775649
 30
0.0
 10
26.275707
 20
148.077480
 30
0.0
  0
SPLINE
  5
165
100
AcDbEntity
  8
0
 62
7
100
AcDbSpline
 70
8
 71
3
 72
8
 73
4
 74
0
 40
0
 40
0
 40
0
 40
0
 40
1
 40
1
 40
1
 40
1
 10
26.275707
 20
148.077480
 30
0.0
 10
26.465332
 20
148.267122
 30
0.0
 10
26.872071
 20
147.937128
 30
0.0
 10
27.505632
 20
147.079593
 30
0.0
  0
SPLINE
  5
166
100
AcDbEntity
  8
0
 62
7
100
AcDbSpline
 70
8
 71
3
 72
8
 73
4
 74
0
 40
0
 40
0
 40
0
 40
0
 40
1
 40
1
 40
1
 40
1
 10
27.505632
 20
147.079593
 30
0.0
 10
28.026247
 20
146.374915
 30
0.0
 10
28.805688
 20
145.647073
 30
0.0
 10
29.237686
 20
145.462163
 30
0.0
  0
SPLINE
  5
167
100
AcDbEntity
  8
0
 62
7
100
AcDbSpline
 70
8
 71
3
 72
8
 73
4
 74
0
 40
0
 40
0
 40
0
 40
0
 40
1
 40
1
 40
1
 40
1
 10
29.237686
 20
145.462163
 30
0.0
 10
30.252839
 20
145.027674
 30
0.0
 10
32.358048
 20
145.430580
 30
0.0
 10
32.483778
 20
146.083411
 30
0.0
  0
SPLINE
  5
168
100
AcDbEntity
  8
0
 62
7
100
AcDbSpline
 70
8
 71
3
 72
8
 73
4
 74
0
 40
0
 40
0
 40
0
 40
0
 40
1
 40
1
 40
1
 40
1
 10
32.483778
 20
146.083411
 30
0.0
 10
32.585152
 20
146.609783
 30
0.0
 10
31.803453
 20
146.885946
 30
0.0
 10
30.195943
 20
146.891692
 30
0.0
  0
SPLINE
  5
169
100
AcDbEntity
  8
0
 62
7
100
AcDbSpline
 70
8
 71
3
 72
8
 73
4
 74
0
 40
0
 40
0
 40
0
 40
0
 40
1
 40
1
 40
1
 40
1
 10
30.195943
 20
146.891692
 30
0.0
 10
29.602769
 20
146.893950
 30
0.0
 10
28.920892
 20
147.092093
 30
0.0
 10
28.680664
 20
147.332318
 30
0.0
  0
SPLINE
  5
16a
100
AcDbEntity
  8
0
 62
7
100
AcDbSpline
 70
8
 71
3
 72
8
 73
4
 74
0
 40
0
 40
0
 40
0
 40
0
 40
1
 40
1
 40
1
 40
1
 10
28.680664
 20
147.332318
 30
0.0
 10
28.440465
 20
147.572542
 30
0.0
 10
28.290774
 20
147.798997
 30
0.0
 10
28.348065
 20
147.835554
 30
0.0
  0
SPLINE
  5
16b
100
AcDbEntity
  8
0
 62
7
100
AcDbSpline
 70
8
 71
3
 72
8
 73
4
 74
0
 40
0
 40
0
 40
0
 40
0
 40
1
 40
1
 40
1
 40
1
 10
28.348065
 20
147.835554
 30
0.0
 10
28.405328
 20
147.872110
 30
0.0
 10
28.810938
 20
148.083091
 30
0.0
 10
29.249370
 20
148.304401
 30
0.0
  0
SPLINE
  5
16c
100
AcDbEntity
  8
0
 62
7
100
AcDbSpline
 70
8
 71
3
 72
8
 73
4
 74
0
 40
0
 40
0
 40
0
 40
0
 40
1
 40
1
 40
1
 40
1
 10
29.249370
 20
148.304401
 30
0.0
 10
29.980523
 20
148.673463
 30
0.0
 10
30.005951
 20
148.736455
 30
0.0
 10
29.556512
 20
149.065089
 30
0.0
  0
SPLINE
  5
16d
100
AcDbEntity
  8
0
 62
7
100
AcDbSpline
 70
8
 71
3
 72
8
 73
4
 74
0
 40
0
 40
0
 40
0
 40
0
 40
1
 40
1
 40
1
 40
1
 10
29.556512
 20
149.065089
 30
0.0
 10
29.287018
 20
149.262156
 30
0.0
 10
28.769536
 20
149.348860
 30
0.0
 10
28.406570
 20
149.257762
 30
0.0
  0
SPLINE
  5
16e
100
AcDbEntity
  8
0
 62
7
100
AcDbSpline
 70
8
 71
3
 72
8
 73
4
 74
0
 40
0
 40
0
 40
0
 40
0
 40
1
 40
1
 40
1
 40
1
 10
28.406570
 20
149.257762
 30
0.0
 10
27.634974
 20
149.064101
 30
0.0
 10
27.537692
 20
149.558828
 30
0.0
 10
28.180284
 20
150.408517
 30
0.0
  0
SPLINE
  5
16f
100
AcDbEntity
  8
0
 62
7
100
AcDbSpline
 70
8
 71
3
 72
8
 73
4
 74
0
 40
0
 40
0
 40
0
 40
0
 40
1
 40
1
 40
1
 40
1
 10
28.180284
 20
150.408517
 30
0.0
 10
28.420342
 20
150.725927
 30
0.0
 10
28.519938
 20
151.202902
 30
0.0
 10
28.416024
 20
151.537406
 30
0.0
  0
SPLINE
  5
170
100
AcDbEntity
  8
0
 62
7
100
AcDbSpline
 70
8
 71
3
 72
8
 73
4
 74
0
 40
0
 40
0
 40
0
 40
0
 40
1
 40
1
 40
1
 40
1
 10
28.416024
 20
151.537406
 30
0.0
 10
28.248469
 20
152.076786
 30
0.0
 10
28.272655
 20
152.086148
 30
0.0
 10
28.767476
 20
151.673409
 30
0.0
  0
SPLINE
  5
171
100
AcDbEntity
  8
0
 62
7
100
AcDbSpline
 70
8
 71
3
 72
8
 73
4
 74
0
 40
0
 40
0
 40
0
 40
0
 40
1
 40
1
 40
1
 40
1
 10
28.767476
 20
151.673409
 30
0.0
 10
29.059745
 20
151.429623
 30
0.0
 10
29.758979
 20
151.097213
 30
0.0
 10
30.321335
 20
150.934720
 30
0.0
  0
LWPOLYLINE
  5
172
100
AcDbEntity
  8
0
 62
7
100
AcDbPolyline
 90
3
 70
0
 10
37.480353
 20
124.677826
 30
0.0
 10
37.305432
 20
126.025663
 30
0.0
 10
35.918874
 20
125.841727
 30
0.0
  0
SPLINE
  5
173
100
AcDbEntity
  8
0
 62
7
100
AcDbSpline
 70
8
 71
3
 72
8
 73
4
 74
0
 40
0
 40
0
 40
0
 40
0
 40
1
 40
1
 40
1
 40
1
 10
31.803001
 20
152.290931
 30
0.0
 10
32.379722
 20
154.365256
 30
0.0
 10
32.378509
 20
154.399252
 30
0.0
 10
31.702841
 20
155.074929
 30
0.0
  0
SPLINE
  5
174
100
AcDbEntity
  8
0
 62
7
100
AcDbSpline
 70
8
 71
3
 72
8
 73
4
 74
0
 40
0
 40
0
 40
0
 40
0
 40
1
 40
1
 40
1
 40
1
 10
31.702841
 20
155.074929
 30
0.0
 10
31.238190
 20
155.539577
 30
0.0
 10
31.012130
 20
155.584391
 30
0.0
 10
30.368127
 20
155.339532
 30
0.0
  0
SPLINE
  5
175
100
AcDbEntity
  8
0
 62
7
100
AcDbSpline
 70
8
 71
3
 72
8
 73
4
 74
0
 40
0
 40
0
 40
0
 40
0
 40
1
 40
1
 40
1
 40
1
 10
30.368127
 20
155.339532
 30
0.0
 10
29.293848
 20
154.931100
 30
0.0
 10
28.086445
 20
153.438861
 30
0.0
 10
27.874553
 20
152.257767
 30
0.0
  0
SPLINE
  5
176
100
AcDbEntity
  8
0
 62
7
100
AcDbSpline
 70
8
 71
3
 72
8
 73
4
 74
0
 40
0
 40
0
 40
0
 40
0
 40
1
 40
1
 40
1
 40
1
 10
27.874553
 20
152.257767
 30
0.0
 10
27.594504
 20
150.696542
 30
0.0
 10
27.445293
 20
150.282211
 30
0.0
 10
27.163183
 20
150.282211
 30
0.0
  0
SPLINE
  5
177
100
AcDbEntity
  8
0
 62
7
100
AcDbSpline
 70
8
 71
3
 72
8
 73
4
 74
0
 40
0
 40
0
 40
0
 40
0
 40
1
 40
1
 40
1
 40
1
 10
27.163183
 20
150.282211
 30
0.0
 10
26.704996
 20
150.282211
 30
0.0
 10
26.891008
 20
152.916905
 30
0.0
 10
27.432198
 20
154.092211
 30
0.0
  0
SPLINE
  5
178
100
AcDbEntity
  8
0
 62
7
100
AcDbSpline
 70
8
 71
3
 72
8
 73
4
 74
0
 40
0
 40
0
 40
0
 40
0
 40
1
 40
1
 40
1
 40
1
 10
27.432198
 20
154.092211
 30
0.0
 10
28.327350
 20
156.036217
 30
0.0
 10
29.388252
 20
156.942927
 30
0.0
 10
31.556650
 20
157.617206
 30
0.0
  0
SPLINE
  5
179
100
AcDbEntity
  8
0
 62
7
100
AcDbSpline
 70
8
 71
3
 72
8
 73
4
 74
0
 40
0
 40
0
 40
0
 40
0
 40
1
 40
1
 40
1
 40
1
 10
31.556650
 20
157.617206
 30
0.0
 10
33.980741
 20
158.371002
 30
0.0
 10
34.280461
 20
158.520439
 30
0.0
 10
34.571686
 20
159.120517
 30
0.0
  0
SPLINE
  5
17a
100
AcDbEntity
  8
0
 62
7
100
AcDbSpline
 70
8
 71
3
 72
8
 73
4
 74
0
 40
0
 40
0
 40
0
 40
0
 40
1
 40
1
 40
1
 40
1
 10
34.571686
 20
159.120517
 30
0.0
 10
34.698460
 20
159.381781
 30
0.0
 10
34.909929
 20
159.817795
 30
0.0
 10
35.041586
 20
160.089434
 30
0.0
  0
SPLINE
  5
17b
100
AcDbEntity
  8
0
 62
7
100
AcDbSpline
 70
8
 71
3
 72
8
 73
4
 74
0
 40
0
 40
0
 40
0
 40
0
 40
1
 40
1
 40
1
 40
1
 10
35.041586
 20
160.089434
 30
0.0
 10
35.173243
 20
160.361073
 30
0.0
 10
35.585993
 20
160.737862
 30
0.0
 10
35.958808
 20
160.926745
 30
0.0
  0
SPLINE
  5
17c
100
AcDbEntity
  8
0
 62
7
100
AcDbSpline
 70
8
 71
3
 72
8
 73
4
 74
0
 40
0
 40
0
 40
0
 40
0
 40
1
 40
1
 40
1
 40
1
 10
35.958808
 20
160.926745
 30
0.0
 10
36.730319
 20
161.317622
 30
0.0
 10
36.743612
 20
161.397819
 30
0.0
 10
36.229544
 20
162.558878
 30
0.0
  0
SPLINE
  5
17d
100
AcDbEntity
  8
0
 62
7
100
AcDbSpline
 70
8
 71
3
 72
8
 73
4
 74
0
 40
0
 40
0
 40
0
 40
0
 40
1
 40
1
 40
1
 40
1
 10
36.229544
 20
162.558878
 30
0.0
 10
35.635579
 20
163.900320
 30
0.0
 10
35.734921
 20
165.801891
 30
0.0
 10
36.467006
 20
167.104445
 30
0.0
  0
SPLINE
  5
17e
100
AcDbEntity
  8
0
 62
7
100
AcDbSpline
 70
8
 71
3
 72
8
 73
4
 74
0
 40
0
 40
0
 40
0
 40
0
 40
1
 40
1
 40
1
 40
1
 10
36.467006
 20
167.104445
 30
0.0
 10
36.821477
 20
167.735113
 30
0.0
 10
37.068139
 20
168.557859
 30
0.0
 10
37.015166
 20
168.932771
 30
0.0
  0
SPLINE
  5
17f
100
AcDbEntity
  8
0
 62
7
100
AcDbSpline
 70
8
 71
3
 72
8
 73
4
 74
0
 40
0
 40
0
 40
0
 40
0
 40
1
 40
1
 40
1
 40
1
 10
37.015166
 20
168.932771
 30
0.0
 10
36.934958
 20
169.500523
 30
0.0
 10
36.735794
 20
169.629442
 30
0.0
 10
35.823342
 20
169.704242
 30
0.0
  0
SPLINE
  5
180
100
AcDbEntity
  8
0
 62
7
100
AcDbSpline
 70
8
 71
3
 72
8
 73
4
 74
0
 40
0
 40
0
 40
0
 40
0
 40
1
 40
1
 40
1
 40
1
 10
35.823342
 20
169.704242
 30
0.0
 10
35.220825
 20
169.753637
 30
0.0
 10
34.592175
 20
169.658387
 30
0.0
 10
34.426342
 20
169.492576
 30
0.0
  0
SPLINE
  5
181
100
AcDbEntity
  8
0
 62
7
100
AcDbSpline
 70
8
 71
3
 72
8
 73
4
 74
0
 40
0
 40
0
 40
0
 40
0
 40
1
 40
1
 40
1
 40
1
 10
34.426342
 20
169.492576
 30
0.0
 10
34.043253
 20
169.109484
 30
0.0
 10
32.826650
 20
169.097755
 30
0.0
 10
32.826650
 20
169.477166
 30
0.0
  0
SPLINE
  5
182
100
AcDbEntity
  8
0
 62
7
100
AcDbSpline
 70
8
 71
3
 72
8
 73
4
 74
0
 40
0
 40
0
 40
0
 40
0
 40
1
 40
1
 40
1
 40
1
 10
32.826650
 20
169.477166
 30
0.0
 10
32.826650
 20
169.634494
 30
0.0
 10
32.973687
 20
169.998671
 30
0.0
 10
33.153406
 20
170.286447
 30
0.0
  0
SPLINE
  5
183
100
AcDbEntity
  8
0
 62
7
100
AcDbSpline
 70
8
 71
3
 72
8
 73
4
 74
0
 40
0
 40
0
 40
0
 40
0
 40
1
 40
1
 40
1
 40
1
 10
33.153406
 20
170.286447
 30
0.0
 10
33.556335
 20
170.931630
 30
0.0
 10
33.327227
 20
171.594403
 30
0.0
 10
32.559159
 20
172.005463
 30
0.0
  0
SPLINE
  5
184
100
AcDbEntity
  8
0
 62
7
100
AcDbSpline
 70
8
 71
3
 72
8
 73
4
 74
0
 40
0
 40
0
 40
0
 40
0
 40
1
 40
1
 40
1
 40
1
 10
32.559159
 20
172.005463
 30
0.0
 10
32.065666
 20
172.269561
 30
0.0
 10
31.937904
 20
172.218896
 30
0.0
 10
31.716077
 20
171.671145
 30
0.0
  0
SPLINE
  5
185
100
AcDbEntity
  8
0
 62
7
100
AcDbSpline
 70
8
 71
3
 72
8
 73
4
 74
0
 40
0
 40
0
 40
0
 40
0
 40
1
 40
1
 40
1
 40
1
 10
31.716077
 20
171.671145
 30
0.0
 10
31.572256
 20
171.316073
 30
0.0
 10
31.379894
 20
170.676309
 30
0.0
 10
31.288595
 20
170.249448
 30
0.0
  0
SPLINE
  5
186
100
AcDbEntity
  8
0
 62
7
100
AcDbSpline
 70
8
 71
3
 72
8
 73
4
 74
0
 40
0
 40
0
 40
0
 40
0
 40
1
 40
1
 40
1
 40
1
 10
31.288595
 20
170.249448
 30
0.0
 10
31.163345
 20
169.664026
 30
0.0
 10
30.955855
 20
169.473337
 30
0.0
 10
30.444045
 20
169.473337
 30
0.0
  0
SPLINE
  5
187
100
AcDbEntity
  8
0
 62
7
100
AcDbSpline
 70
8
 71
3
 72
8
 73
4
 74
0
 40
0
 40
0
 40
0
 40
0
 40
1
 40
1
 40
1
 40
1
 10
30.444045
 20
169.473337
 30
0.0
 10
30.070862
 20
169.473337
 30
0.0
 10
29.374761
 20
169.144548
 30
0.0
 10
28.897185
 20
168.742694
 30
0.0
  0
SPLINE
  5
188
100
AcDbEntity
  8
0
 62
7
100
AcDbSpline
 70
8
 71
3
 72
8
 73
4
 74
0
 40
0
 40
0
 40
0
 40
0
 40
1
 40
1
 40
1
 40
1
 10
28.897185
 20
168.742694
 30
0.0
 10
27.601446
 20
167.652391
 30
0.0
 10
27.771118
 20
168.603833
 30
0.0
 10
29.114383
 20
169.960593
 30
0.0
  0
SPLINE
  5
189
100
AcDbEntity
  8
0
 62
7
100
AcDbSpline
 70
8
 71
3
 72
8
 73
4
 74
0
 40
0
 40
0
 40
0
 40
0
 40
1
 40
1
 40
1
 40
1
 10
29.114383
 20
169.960593
 30
0.0
 10
29.711396
 20
170.563618
 30
0.0
 10
30.266584
 20
171.367429
 30
0.0
 10
30.348089
 20
171.746837
 30
0.0
  0
SPLINE
  5
18a
100
AcDbEntity
  8
0
 62
7
100
AcDbSpline
 70
8
 71
3
 72
8
 73
4
 74
0
 40
0
 40
0
 40
0
 40
0
 40
1
 40
1
 40
1
 40
1
 10
30.348089
 20
171.746837
 30
0.0
 10
30.429595
 20
172.126245
 30
0.0
 10
30.577564
 20
172.627277
 30
0.0
 10
30.676906
 20
172.860243
 30
0.0
  0
SPLINE
  5
18b
100
AcDbEntity
  8
0
 62
7
100
AcDbSpline
 70
8
 71
3
 72
8
 73
4
 74
0
 40
0
 40
0
 40
0
 40
0
 40
1
 40
1
 40
1
 40
1
 10
30.676906
 20
172.860243
 30
0.0
 10
30.799673
 20
173.148175
 30
0.0
 10
30.603613
 20
173.396206
 30
0.0
 10
30.064654
 20
173.634777
 30
0.0
  0
SPLINE
  5
18c
100
AcDbEntity
  8
0
 62
7
100
AcDbSpline
 70
8
 71
3
 72
8
 73
4
 74
0
 40
0
 40
0
 40
0
 40
0
 40
1
 40
1
 40
1
 40
1
 10
30.064654
 20
173.634777
 30
0.0
 10
29.232211
 20
174.003243
 30
0.0
 10
28.265854
 20
175.654105
 30
0.0
 10
27.895494
 20
177.340408
 30
0.0
  0
SPLINE
  5
18d
100
AcDbEntity
  8
0
 62
7
100
AcDbSpline
 70
8
 71
3
 72
8
 73
4
 74
0
 40
0
 40
0
 40
0
 40
0
 40
1
 40
1
 40
1
 40
1
 10
27.895494
 20
177.340408
 30
0.0
 10
27.748597
 20
178.009230
 30
0.0
 10
27.779331
 20
178.235349
 30
0.0
 10
27.998702
 20
178.099766
 30
0.0
  0
SPLINE
  5
18e
100
AcDbEntity
  8
0
 62
7
100
AcDbSpline
 70
8
 71
3
 72
8
 73
4
 74
0
 40
0
 40
0
 40
0
 40
0
 40
1
 40
1
 40
1
 40
1
 10
27.998702
 20
178.099766
 30
0.0
 10
28.170519
 20
177.993575
 30
0.0
 10
28.311094
 20
177.752622
 30
0.0
 10
28.311094
 20
177.564318
 30
0.0
  0
SPLINE
  5
18f
100
AcDbEntity
  8
0
 62
7
100
AcDbSpline
 70
8
 71
3
 72
8
 73
4
 74
0
 40
0
 40
0
 40
0
 40
0
 40
1
 40
1
 40
1
 40
1
 10
28.311094
 20
177.564318
 30
0.0
 10
28.311094
 20
177.376010
 30
0.0
 10
28.701351
 20
176.748506
 30
0.0
 10
29.178306
 20
176.169860
 30
0.0
  0
SPLINE
  5
190
100
AcDbEntity
  8
0
 62
7
100
AcDbSpline
 70
8
 71
3
 72
8
 73
4
 74
0
 40
0
 40
0
 40
0
 40
0
 40
1
 40
1
 40
1
 40
1
 10
29.178306
 20
176.169860
 30
0.0
 10
29.912310
 20
175.279407
 30
0.0
 10
30.216658
 20
175.117781
 30
0.0
 10
31.159478
 20
175.117781
 30
0.0
  0
SPLINE
  5
191
100
AcDbEntity
  8
0
 62
7
100
AcDbSpline
 70
8
 71
3
 72
8
 73
4
 74
0
 40
0
 40
0
 40
0
 40
0
 40
1
 40
1
 40
1
 40
1
 10
31.159478
 20
175.117781
 30
0.0
 10
32.531756
 20
175.117781
 30
0.0
 10
34.330555
 20
174.044953
 30
0.0
 10
34.942526
 20
172.861539
 30
0.0
  0
SPLINE
  5
192
100
AcDbEntity
  8
0
 62
7
100
AcDbSpline
 70
8
 71
3
 72
8
 73
4
 74
0
 40
0
 40
0
 40
0
 40
0
 40
1
 40
1
 40
1
 40
1
 10
34.942526
 20
172.861539
 30
0.0
 10
35.280910
 20
172.207181
 30
0.0
 10
35.572982
 20
172.013337
 30
0.0
 10
36.220569
 20
172.013337
 30
0.0
  0
SPLINE
  5
193
100
AcDbEntity
  8
0
 62
7
100
AcDbSpline
 70
8
 71
3
 72
8
 73
4
 74
0
 40
0
 40
0
 40
0
 40
0
 40
1
 40
1
 40
1
 40
1
 10
36.220569
 20
172.013337
 30
0.0
 10
37.036502
 20
172.013337
 30
0.0
 10
37.175553
 20
172.203560
 30
0.0
 10
37.078976
 20
173.187779
 30
0.0
  0
SPLINE
  5
194
100
AcDbEntity
  8
0
 62
7
100
AcDbSpline
 70
8
 71
3
 72
8
 73
4
 74
0
 40
0
 40
0
 40
0
 40
0
 40
1
 40
1
 40
1
 40
1
 10
37.078976
 20
173.187779
 30
0.0
 10
37.053576
 20
173.445668
 30
0.0
 10
37.166070
 20
173.738911
 30
0.0
 10
37.328715
 20
173.839436
 30
0.0
  0
SPLINE
  5
195
100
AcDbEntity
  8
0
 62
7
100
AcDbSpline
 70
8
 71
3
 72
8
 73
4
 74
0
 40
0
 40
0
 40
0
 40
0
 40
1
 40
1
 40
1
 40
1
 10
37.328715
 20
173.839436
 30
0.0
 10
38.037403
 20
174.277436
 30
0.0
 10
37.626629
 20
176.429389
 30
0.0
 10
36.354427
 20
178.943334
 30
0.0
  0
SPLINE
  5
196
100
AcDbEntity
  8
0
 62
7
100
AcDbSpline
 70
8
 71
3
 72
8
 73
4
 74
0
 40
0
 40
0
 40
0
 40
0
 40
1
 40
1
 40
1
 40
1
 10
36.354427
 20
178.943334
 30
0.0
 10
35.585118
 20
180.463553
 30
0.0
 10
35.084427
 20
181.833939
 30
0.0
 10
35.084427
 20
182.419324
 30
0.0
  0
LWPOLYLINE
  5
197
100
AcDbEntity
  8
0
 62
7
100
AcDbPolyline
 90
3
 70
0
 10
30.321335
 20
150.934720
 30
0.0
 10
31.343826
 20
150.639282
 30
0.0
 10
31.803001
 20
152.290931
 30
0.0
  0
SPLINE
  5
198
100
AcDbEntity
  8
0
 62
7
100
AcDbSpline
 70
8
 71
3
 72
8
 73
4
 74
0
 40
0
 40
0
 40
0
 40
0
 40
1
 40
1
 40
1
 40
1
 10
35.783943
 20
182.426738
 30
0.0
 10
36.168669
 20
181.899313
 30
0.0
 10
36.634956
 20
181.178986
 30
0.0
 10
36.820094
 20
180.826013
 30
0.0
  0
SPLINE
  5
199
100
AcDbEntity
  8
0
 62
7
100
AcDbSpline
 70
8
 71
3
 72
8
 73
4
 74
0
 40
0
 40
0
 40
0
 40
0
 40
1
 40
1
 40
1
 40
1
 10
36.820094
 20
180.826013
 30
0.0
 10
37.260615
 20
179.986272
 30
0.0
 10
38.452242
 20
179.669786
 30
0.0
 10
38.804370
 20
180.299006
 30
0.0
  0
SPLINE
  5
19a
100
AcDbEntity
  8
0
 62
7
100
AcDbSpline
 70
8
 71
3
 72
8
 73
4
 74
0
 40
0
 40
0
 40
0
 40
0
 40
1
 40
1
 40
1
 40
1
 10
38.804370
 20
180.299006
 30
0.0
 10
39.243677
 20
181.084044
 30
0.0
 10
39.599983
 20
180.814064
 30
0.0
 10
39.599983
 20
179.696134
 30
0.0
  0
SPLINE
  5
19b
100
AcDbEntity
  8
0
 62
7
100
AcDbSpline
 70
8
 71
3
 72
8
 73
4
 74
0
 40
0
 40
0
 40
0
 40
0
 40
1
 40
1
 40
1
 40
1
 10
39.599983
 20
179.696134
 30
0.0
 10
39.599983
 20
178.122245
 30
0.0
 10
40.240825
 20
177.351499
 30
0.0
 10
41.373580
 20
177.562985
 30
0.0
  0
SPLINE
  5
19c
100
AcDbEntity
  8
0
 62
7
100
AcDbSpline
 70
8
 71
3
 72
8
 73
4
 74
0
 40
0
 40
0
 40
0
 40
0
 40
1
 40
1
 40
1
 40
1
 10
41.373580
 20
177.562985
 30
0.0
 10
42.725396
 20
177.815374
 30
0.0
 10
42.865689
 20
178.110581
 30
0.0
 10
41.991280
 20
178.862732
 30
0.0
  0
SPLINE
  5
19d
100
AcDbEntity
  8
0
 62
7
100
AcDbSpline
 70
8
 71
3
 72
8
 73
4
 74
0
 40
0
 40
0
 40
0
 40
0
 40
1
 40
1
 40
1
 40
1
 10
41.991280
 20
178.862732
 30
0.0
 10
41.184632
 20
179.556567
 30
0.0
 10
41.221434
 20
180.197781
 30
0.0
 10
42.067903
 20
180.197781
 30
0.0
  0
SPLINE
  5
19e
100
AcDbEntity
  8
0
 62
7
100
AcDbSpline
 70
8
 71
3
 72
8
 73
4
 74
0
 40
0
 40
0
 40
0
 40
0
 40
1
 40
1
 40
1
 40
1
 10
42.067903
 20
180.197781
 30
0.0
 10
42.320379
 20
180.197781
 30
0.0
 10
42.820364
 20
179.922115
 30
0.0
 10
43.179012
 20
179.585187
 30
0.0
  0
SPLINE
  5
19f
100
AcDbEntity
  8
0
 62
7
100
AcDbSpline
 70
8
 71
3
 72
8
 73
4
 74
0
 40
0
 40
0
 40
0
 40
0
 40
1
 40
1
 40
1
 40
1
 10
43.179012
 20
179.585187
 30
0.0
 10
43.537660
 20
179.248259
 30
0.0
 10
43.889281
 20
179.030767
 30
0.0
 10
43.960373
 20
179.101870
 30
0.0
  0
SPLINE
  5
1a0
100
AcDbEntity
  8
0
 62
7
100
AcDbSpline
 70
8
 71
3
 72
8
 73
4
 74
0
 40
0
 40
0
 40
0
 40
0
 40
1
 40
1
 40
1
 40
1
 10
43.960373
 20
179.101870
 30
0.0
 10
44.031464
 20
179.172973
 30
0.0
 10
43.705724
 20
180.344980
 30
0.0
 10
43.236501
 20
181.706329
 30
0.0
  0
SPLINE
  5
1a1
100
AcDbEntity
  8
0
 62
7
100
AcDbSpline
 70
8
 71
3
 72
8
 73
4
 74
0
 40
0
 40
0
 40
0
 40
0
 40
1
 40
1
 40
1
 40
1
 10
43.236501
 20
181.706329
 30
0.0
 10
42.612649
 20
183.516198
 30
0.0
 10
42.311574
 20
185.068477
 30
0.0
 10
42.116389
 20
187.481313
 30
0.0
  0
SPLINE
  5
1a2
100
AcDbEntity
  8
0
 62
7
100
AcDbSpline
 70
8
 71
3
 72
8
 73
4
 74
0
 40
0
 40
0
 40
0
 40
0
 40
1
 40
1
 40
1
 40
1
 10
42.116389
 20
187.481313
 30
0.0
 10
41.699801
 20
192.631174
 30
0.0
 10
41.585840
 20
192.928755
 30
0.0
 10
40.164427
 20
192.578703
 30
0.0
  0
SPLINE
  5
1a3
100
AcDbEntity
  8
0
 62
7
100
AcDbSpline
 70
8
 71
3
 72
8
 73
4
 74
0
 40
0
 40
0
 40
0
 40
0
 40
1
 40
1
 40
1
 40
1
 10
40.164427
 20
192.578703
 30
0.0
 10
39.846645
 20
192.500440
 30
0.0
 10
39.719250
 20
192.777839
 30
0.0
 10
39.653464
 20
193.691297
 30
0.0
  0
SPLINE
  5
1a4
100
AcDbEntity
  8
0
 62
7
100
AcDbSpline
 70
8
 71
3
 72
8
 73
4
 74
0
 40
0
 40
0
 40
0
 40
0
 40
1
 40
1
 40
1
 40
1
 10
39.653464
 20
193.691297
 30
0.0
 10
39.584066
 20
194.655142
 30
0.0
 10
39.466689
 20
194.889516
 30
0.0
 10
39.089020
 20
194.818538
 30
0.0
  0
SPLINE
  5
1a5
100
AcDbEntity
  8
0
 62
7
100
AcDbSpline
 70
8
 71
3
 72
8
 73
4
 74
0
 40
0
 40
0
 40
0
 40
0
 40
1
 40
1
 40
1
 40
1
 10
39.089020
 20
194.818538
 30
0.0
 10
38.826779
 20
194.769253
 30
0.0
 10
38.486842
 20
194.443921
 30
0.0
 10
38.333624
 20
194.095577
 30
0.0
  0
SPLINE
  5
1a6
100
AcDbEntity
  8
0
 62
7
100
AcDbSpline
 70
8
 71
3
 72
8
 73
4
 74
0
 40
0
 40
0
 40
0
 40
0
 40
1
 40
1
 40
1
 40
1
 10
38.333624
 20
194.095577
 30
0.0
 10
37.980959
 20
193.293821
 30
0.0
 10
37.734663
 20
193.292395
 30
0.0
 10
37.525875
 20
194.090892
 30
0.0
  0
SPLINE
  5
1a7
100
AcDbEntity
  8
0
 62
7
100
AcDbSpline
 70
8
 71
3
 72
8
 73
4
 74
0
 40
0
 40
0
 40
0
 40
0
 40
1
 40
1
 40
1
 40
1
 10
37.525875
 20
194.090892
 30
0.0
 10
37.297162
 20
194.965395
 30
0.0
 10
38.041326
 20
195.981124
 30
0.0
 10
39.306556
 20
196.521455
 30
0.0
  0
SPLINE
  5
1a8
100
AcDbEntity
  8
0
 62
7
100
AcDbSpline
 70
8
 71
3
 72
8
 73
4
 74
0
 40
0
 40
0
 40
0
 40
0
 40
1
 40
1
 40
1
 40
1
 10
39.306556
 20
196.521455
 30
0.0
 10
40.063505
 20
196.844718
 30
0.0
 10
40.500780
 20
197.281135
 30
0.0
 10
40.830669
 20
198.042653
 30
0.0
  0
SPLINE
  5
1a9
100
AcDbEntity
  8
0
 62
7
100
AcDbSpline
 70
8
 71
3
 72
8
 73
4
 74
0
 40
0
 40
0
 40
0
 40
0
 40
1
 40
1
 40
1
 40
1
 10
40.830669
 20
198.042653
 30
0.0
 10
41.085121
 20
198.629988
 30
0.0
 10
41.293316
 20
199.251123
 30
0.0
 10
41.293316
 20
199.422954
 30
0.0
  0
SPLINE
  5
1aa
100
AcDbEntity
  8
0
 62
7
100
AcDbSpline
 70
8
 71
3
 72
8
 73
4
 74
0
 40
0
 40
0
 40
0
 40
0
 40
1
 40
1
 40
1
 40
1
 10
41.293316
 20
199.422954
 30
0.0
 10
41.293316
 20
200.406538
 30
0.0
 10
42.614850
 20
201.952915
 30
0.0
 10
44.158549
 20
202.775703
 30
0.0
  0
LWPOLYLINE
  5
1ab
100
AcDbEntity
  8
0
 62
7
100
AcDbPolyline
 90
3
 70
0
 10
35.084427
 20
182.419324
 30
0.0
 10
35.084427
 20
183.385698
 30
0.0
 10
35.783943
 20
182.426738
 30
0.0
  0
SPLINE
  5
1ac
100
AcDbEntity
  8
0
 62
7
100
AcDbSpline
 70
8
 71
3
 72
8
 73
4
 74
0
 40
0
 40
0
 40
0
 40
0
 40
1
 40
1
 40
1
 40
1
 10
45.174239
 20
202.633776
 30
0.0
 10
44.824791
 20
202.071714
 30
0.0
 10
44.407215
 20
201.397431
 30
0.0
 10
44.246292
 20
201.135368
 30
0.0
  0
SPLINE
  5
1ad
100
AcDbEntity
  8
0
 62
7
100
AcDbSpline
 70
8
 71
3
 72
8
 73
4
 74
0
 40
0
 40
0
 40
0
 40
0
 40
1
 40
1
 40
1
 40
1
 10
44.246292
 20
201.135368
 30
0.0
 10
44.085341
 20
200.873302
 30
0.0
 10
43.673070
 20
200.214387
 30
0.0
 10
43.330114
 20
199.671109
 30
0.0
  0
SPLINE
  5
1ae
100
AcDbEntity
  8
0
 62
7
100
AcDbSpline
 70
8
 71
3
 72
8
 73
4
 74
0
 40
0
 40
0
 40
0
 40
0
 40
1
 40
1
 40
1
 40
1
 10
43.330114
 20
199.671109
 30
0.0
 10
42.637343
 20
198.573730
 30
0.0
 10
42.517568
 20
197.355298
 30
0.0
 10
43.058334
 20
196.906502
 30
0.0
  0
SPLINE
  5
1af
100
AcDbEntity
  8
0
 62
7
100
AcDbSpline
 70
8
 71
3
 72
8
 73
4
 74
0
 40
0
 40
0
 40
0
 40
0
 40
1
 40
1
 40
1
 40
1
 10
43.058334
 20
196.906502
 30
0.0
 10
43.252983
 20
196.744955
 30
0.0
 10
43.855358
 20
196.570655
 30
0.0
 10
44.396942
 20
196.519166
 30
0.0
  0
SPLINE
  5
1b0
100
AcDbEntity
  8
0
 62
7
100
AcDbSpline
 70
8
 71
3
 72
8
 73
4
 74
0
 40
0
 40
0
 40
0
 40
0
 40
1
 40
1
 40
1
 40
1
 10
44.396942
 20
196.519166
 30
0.0
 10
45.171473
 20
196.445532
 30
0.0
 10
45.465125
 20
196.244866
 30
0.0
 10
45.772888
 20
195.578887
 30
0.0
  0
SPLINE
  5
1b1
100
AcDbEntity
  8
0
 62
7
100
AcDbSpline
 70
8
 71
3
 72
8
 73
4
 74
0
 40
0
 40
0
 40
0
 40
0
 40
1
 40
1
 40
1
 40
1
 10
45.772888
 20
195.578887
 30
0.0
 10
45.988083
 20
195.113220
 30
0.0
 10
46.407832
 20
194.463505
 30
0.0
 10
46.705689
 20
194.135074
 30
0.0
  0
SPLINE
  5
1b2
100
AcDbEntity
  8
0
 62
7
100
AcDbSpline
 70
8
 71
3
 72
8
 73
4
 74
0
 40
0
 40
0
 40
0
 40
0
 40
1
 40
1
 40
1
 40
1
 10
46.705689
 20
194.135074
 30
0.0
 10
47.241714
 20
193.544030
 30
0.0
 10
47.239880
 20
193.529177
 30
0.0
 10
46.526281
 20
192.681113
 30
0.0
  0
SPLINE
  5
1b3
100
AcDbEntity
  8
0
 62
7
100
AcDbSpline
 70
8
 71
3
 72
8
 73
4
 74
0
 40
0
 40
0
 40
0
 40
0
 40
1
 40
1
 40
1
 40
1
 10
46.526281
 20
192.681113
 30
0.0
 10
45.740856
 20
191.747692
 30
0.0
 10
45.782258
 20
191.250868
 30
0.0
 10
46.692848
 20
190.682198
 30
0.0
  0
SPLINE
  5
1b4
100
AcDbEntity
  8
0
 62
7
100
AcDbSpline
 70
8
 71
3
 72
8
 73
4
 74
0
 40
0
 40
0
 40
0
 40
0
 40
1
 40
1
 40
1
 40
1
 10
46.692848
 20
190.682198
 30
0.0
 10
47.215354
 20
190.355890
 30
0.0
 10
47.377548
 20
190.403134
 30
0.0
 10
48.095154
 20
191.090628
 30
0.0
  0
SPLINE
  5
1b5
100
AcDbEntity
  8
0
 62
7
100
AcDbSpline
 70
8
 71
3
 72
8
 73
4
 74
0
 40
0
 40
0
 40
0
 40
0
 40
1
 40
1
 40
1
 40
1
 10
48.095154
 20
191.090628
 30
0.0
 10
48.845131
 20
191.809174
 30
0.0
 10
48.893504
 20
191.979419
 30
0.0
 10
48.733766
 20
193.338669
 30
0.0
  0
SPLINE
  5
1b6
100
AcDbEntity
  8
0
 62
7
100
AcDbSpline
 70
8
 71
3
 72
8
 73
4
 74
0
 40
0
 40
0
 40
0
 40
0
 40
1
 40
1
 40
1
 40
1
 10
48.733766
 20
193.338669
 30
0.0
 10
48.580746
 20
194.640481
 30
0.0
 10
48.676504
 20
195.047835
 30
0.0
 10
49.568015
 20
196.887421
 30
0.0
  0
SPLINE
  5
1b7
100
AcDbEntity
  8
0
 62
7
100
AcDbSpline
 70
8
 71
3
 72
8
 73
4
 74
0
 40
0
 40
0
 40
0
 40
0
 40
1
 40
1
 40
1
 40
1
 10
49.568015
 20
196.887421
 30
0.0
 10
50.269338
 20
198.334581
 30
0.0
 10
50.836971
 20
199.111524
 30
0.0
 10
51.437540
 20
199.446316
 30
0.0
  0
SPLINE
  5
1b8
100
AcDbEntity
  8
0
 62
7
100
AcDbSpline
 70
8
 71
3
 72
8
 73
4
 74
0
 40
0
 40
0
 40
0
 40
0
 40
1
 40
1
 40
1
 40
1
 10
51.437540
 20
199.446316
 30
0.0
 10
52.165137
 20
199.851914
 30
0.0
 10
52.299983
 20
200.095808
 30
0.0
 10
52.299983
 20
201.006296
 30
0.0
  0
SPLINE
  5
1b9
100
AcDbEntity
  8
0
 62
7
100
AcDbSpline
 70
8
 71
3
 72
8
 73
4
 74
0
 40
0
 40
0
 40
0
 40
0
 40
1
 40
1
 40
1
 40
1
 10
52.299983
 20
201.006296
 30
0.0
 10
52.299983
 20
202.413242
 30
0.0
 10
51.681888
 20
203.254778
 30
0.0
 10
50.384654
 20
203.614050
 30
0.0
  0
SPLINE
  5
1ba
100
AcDbEntity
  8
0
 62
7
100
AcDbSpline
 70
8
 71
3
 72
8
 73
4
 74
0
 40
0
 40
0
 40
0
 40
0
 40
1
 40
1
 40
1
 40
1
 10
50.384654
 20
203.614050
 30
0.0
 10
48.977155
 20
204.003861
 30
0.0
 10
48.513492
 20
204.332517
 30
0.0
 10
48.774773
 20
204.755243
 30
0.0
  0
SPLINE
  5
1bb
100
AcDbEntity
  8
0
 62
7
100
AcDbSpline
 70
8
 71
3
 72
8
 73
4
 74
0
 40
0
 40
0
 40
0
 40
0
 40
1
 40
1
 40
1
 40
1
 10
48.774773
 20
204.755243
 30
0.0
 10
49.113609
 20
205.303497
 30
0.0
 10
51.936876
 20
204.904420
 30
0.0
 10
53.639156
 20
204.067643
 30
0.0
  0
SPLINE
  5
1bc
100
AcDbEntity
  8
0
 62
7
100
AcDbSpline
 70
8
 71
3
 72
8
 73
4
 74
0
 40
0
 40
0
 40
0
 40
0
 40
1
 40
1
 40
1
 40
1
 10
53.639156
 20
204.067643
 30
0.0
 10
55.446930
 20
203.179021
 30
0.0
 10
55.662124
 20
203.174996
 30
0.0
 10
56.458245
 20
204.014952
 30
0.0
  0
SPLINE
  5
1bd
100
AcDbEntity
  8
0
 62
7
100
AcDbSpline
 70
8
 71
3
 72
8
 73
4
 74
0
 40
0
 40
0
 40
0
 40
0
 40
1
 40
1
 40
1
 40
1
 10
56.458245
 20
204.014952
 30
0.0
 10
57.642224
 20
205.264155
 30
0.0
 10
59.156515
 20
205.367702
 30
0.0
 10
64.775221
 20
204.583666
 30
0.0
  0
SPLINE
  5
1be
100
AcDbEntity
  8
0
 62
7
100
AcDbSpline
 70
8
 71
3
 72
8
 73
4
 74
0
 40
0
 40
0
 40
0
 40
0
 40
1
 40
1
 40
1
 40
1
 10
64.775221
 20
204.583666
 30
0.0
 10
65.505302
 20
204.481790
 30
0.0
 10
66.296907
 20
204.472979
 30
0.0
 10
66.534340
 20
204.564080
 30
0.0
  0
SPLINE
  5
1bf
100
AcDbEntity
  8
0
 62
7
100
AcDbSpline
 70
8
 71
3
 72
8
 73
4
 74
0
 40
0
 40
0
 40
0
 40
0
 40
1
 40
1
 40
1
 40
1
 10
66.534340
 20
204.564080
 30
0.0
 10
67.261345
 20
204.843060
 30
0.0
 10
66.704041
 20
205.573126
 30
0.0
 10
65.520880
 20
205.891718
 30
0.0
  0
SPLINE
  5
1c0
100
AcDbEntity
  8
0
 62
7
100
AcDbSpline
 70
8
 71
3
 72
8
 73
4
 74
0
 40
0
 40
0
 40
0
 40
0
 40
1
 40
1
 40
1
 40
1
 10
65.520880
 20
205.891718
 30
0.0
 10
64.514166
 20
206.162798
 30
0.0
 10
63.860200
 20
206.809824
 30
0.0
 10
64.224606
 20
207.174232
 30
0.0
  0
SPLINE
  5
1c1
100
AcDbEntity
  8
0
 62
7
100
AcDbSpline
 70
8
 71
3
 72
8
 73
4
 74
0
 40
0
 40
0
 40
0
 40
0
 40
1
 40
1
 40
1
 40
1
 10
64.224606
 20
207.174232
 30
0.0
 10
64.627647
 20
207.577268
 30
0.0
 10
66.439175
 20
207.600659
 30
0.0
 10
67.216528
 20
207.212863
 30
0.0
  0
SPLINE
  5
1c2
100
AcDbEntity
  8
0
 62
7
100
AcDbSpline
 70
8
 71
3
 72
8
 73
4
 74
0
 40
0
 40
0
 40
0
 40
0
 40
1
 40
1
 40
1
 40
1
 10
67.216528
 20
207.212863
 30
0.0
 10
68.007738
 20
206.818158
 30
0.0
 10
68.107927
 20
206.827172
 30
0.0
 10
68.566933
 20
207.334396
 30
0.0
  0
SPLINE
  5
1c3
100
AcDbEntity
  8
0
 62
7
100
AcDbSpline
 70
8
 71
3
 72
8
 73
4
 74
0
 40
0
 40
0
 40
0
 40
0
 40
1
 40
1
 40
1
 40
1
 10
68.566933
 20
207.334396
 30
0.0
 10
69.263599
 20
208.104199
 30
0.0
 10
70.431096
 20
207.921822
 30
0.0
 10
70.650749
 20
207.008878
 30
0.0
  0
LWPOLYLINE
  5
1c4
100
AcDbEntity
  8
0
 62
7
100
AcDbPolyline
 90
3
 70
0
 10
44.158549
 20
202.775703
 30
0.0
 10
45.809606
 20
203.655703
 30
0.0
 10
45.174239
 20
202.633776
 30
0.0
  0
SPLINE
  5
1c5
100
AcDbEntity
  8
0
 62
7
100
AcDbSpline
 70
8
 71
3
 72
8
 73
4
 74
0
 40
0
 40
0
 40
0
 40
0
 40
1
 40
1
 40
1
 40
1
 10
148.519727
 20
206.886371
 30
0.0
 10
149.613592
 20
205.757807
 30
0.0
 10
149.551390
 20
204.881656
 30
0.0
 10
148.393150
 20
205.103068
 30
0.0
  0
SPLINE
  5
1c6
100
AcDbEntity
  8
0
 62
7
100
AcDbSpline
 70
8
 71
3
 72
8
 73
4
 74
0
 40
0
 40
0
 40
0
 40
0
 40
1
 40
1
 40
1
 40
1
 10
148.393150
 20
205.103068
 30
0.0
 10
147.859383
 20
205.205103
 30
0.0
 10
147.691094
 20
205.117687
 30
0.0
 10
147.691094
 20
204.738386
 30
0.0
  0
SPLINE
  5
1c7
100
AcDbEntity
  8
0
 62
7
100
AcDbSpline
 70
8
 71
3
 72
8
 73
4
 74
0
 40
0
 40
0
 40
0
 40
0
 40
1
 40
1
 40
1
 40
1
 10
147.691094
 20
204.738386
 30
0.0
 10
147.691094
 20
204.371387
 30
0.0
 10
147.846937
 20
204.280249
 30
0.0
 10
148.280572
 20
204.393649
 30
0.0
  0
SPLINE
  5
1c8
100
AcDbEntity
  8
0
 62
7
100
AcDbSpline
 70
8
 71
3
 72
8
 73
4
 74
0
 40
0
 40
0
 40
0
 40
0
 40
1
 40
1
 40
1
 40
1
 10
148.280572
 20
204.393649
 30
0.0
 10
148.814056
 20
204.533157
 30
0.0
 10
148.861244
 20
204.443532
 30
0.0
 10
148.777621
 20
203.450005
 30
0.0
  0
LWPOLYLINE
  5
1c9
100
AcDbEntity
  8
0
 62
7
100
AcDbPolyline
 90
7
 70
0
 10
70.650749
 20
207.008878
 30
0.0
 10
70.820478
 20
206.303323
 30
0.0
 10
71.020065
 20
207.079434
 30
0.0
 10
71.219624
 20
207.855545
 30
0.0
 10
109.400001
 20
207.855545
 30
0.0
 10
147.580378
 20
207.855545
 30
0.0
 10
148.519727
 20
206.886371
 30
0.0
  0
SPLINE
  5
1ca
100
AcDbEntity
  8
0
 62
7
100
AcDbSpline
 70
8
 71
3
 72
8
 73
4
 74
0
 40
0
 40
0
 40
0
 40
0
 40
1
 40
1
 40
1
 40
1
 10
149.900950
 20
202.448940
 30
0.0
 10
151.437453
 20
202.571188
 30
0.0
 10
152.605006
 20
202.094574
 30
0.0
 10
153.024501
 20
201.173860
 30
0.0
  0
SPLINE
  5
1cb
100
AcDbEntity
  8
0
 62
7
100
AcDbSpline
 70
8
 71
3
 72
8
 73
4
 74
0
 40
0
 40
0
 40
0
 40
0
 40
1
 40
1
 40
1
 40
1
 10
153.024501
 20
201.173860
 30
0.0
 10
153.348013
 20
200.463857
 30
0.0
 10
153.340929
 20
200.458495
 30
0.0
 10
152.284994
 20
200.613796
 30
0.0
  0
SPLINE
  5
1cc
100
AcDbEntity
  8
0
 62
7
100
AcDbSpline
 70
8
 71
3
 72
8
 73
4
 74
0
 40
0
 40
0
 40
0
 40
0
 40
1
 40
1
 40
1
 40
1
 10
152.284994
 20
200.613796
 30
0.0
 10
149.753772
 20
200.986075
 30
0.0
 10
149.814167
 20
200.996873
 30
0.0
 10
149.717478
 20
200.154657
 30
0.0
  0
SPLINE
  5
1cd
100
AcDbEntity
  8
0
 62
7
100
AcDbSpline
 70
8
 71
3
 72
8
 73
4
 74
0
 40
0
 40
0
 40
0
 40
0
 40
1
 40
1
 40
1
 40
1
 10
149.717478
 20
200.154657
 30
0.0
 10
149.635210
 20
199.438315
 30
0.0
 10
149.691513
 20
199.384337
 30
0.0
 10
150.347821
 20
199.549087
 30
0.0
  0
LWPOLYLINE
  5
1ce
100
AcDbEntity
  8
0
 62
7
100
AcDbPolyline
 90
3
 70
0
 10
148.777621
 20
203.450005
 30
0.0
 10
148.685222
 20
202.352211
 30
0.0
 10
149.900950
 20
202.448940
 30
0.0
  0
SPLINE
  5
1cf
100
AcDbEntity
  8
0
 62
7
100
AcDbSpline
 70
8
 71
3
 72
8
 73
4
 74
0
 40
0
 40
0
 40
0
 40
0
 40
1
 40
1
 40
1
 40
1
 10
150.652847
 20
198.359975
 30
0.0
 10
150.019766
 20
196.273238
 30
0.0
 10
150.077988
 20
195.905364
 30
0.0
 10
151.007205
 20
196.121778
 30
0.0
  0
SPLINE
  5
1d0
100
AcDbEntity
  8
0
 62
7
100
AcDbSpline
 70
8
 71
3
 72
8
 73
4
 74
0
 40
0
 40
0
 40
0
 40
0
 40
1
 40
1
 40
1
 40
1
 10
151.007205
 20
196.121778
 30
0.0
 10
151.434066
 20
196.221196
 30
0.0
 10
152.132566
 20
196.706415
 30
0.0
 10
152.559427
 20
197.200047
 30
0.0
  0
SPLINE
  5
1d1
100
AcDbEntity
  8
0
 62
7
100
AcDbSpline
 70
8
 71
3
 72
8
 73
4
 74
0
 40
0
 40
0
 40
0
 40
0
 40
1
 40
1
 40
1
 40
1
 10
152.559427
 20
197.200047
 30
0.0
 10
153.327523
 20
198.088277
 30
0.0
 10
153.335426
 20
198.090371
 30
0.0
 10
153.325548
 20
197.402663
 30
0.0
  0
SPLINE
  5
1d2
100
AcDbEntity
  8
0
 62
7
100
AcDbSpline
 70
8
 71
3
 72
8
 73
4
 74
0
 40
0
 40
0
 40
0
 40
0
 40
1
 40
1
 40
1
 40
1
 10
153.325548
 20
197.402663
 30
0.0
 10
153.320186
 20
197.020469
 30
0.0
 10
153.134032
 20
196.390267
 30
0.0
 10
152.912205
 20
196.002211
 30
0.0
  0
SPLINE
  5
1d3
100
AcDbEntity
  8
0
 62
7
100
AcDbSpline
 70
8
 71
3
 72
8
 73
4
 74
0
 40
0
 40
0
 40
0
 40
0
 40
1
 40
1
 40
1
 40
1
 10
152.912205
 20
196.002211
 30
0.0
 10
152.328711
 20
194.981504
 30
0.0
 10
152.393622
 20
194.362306
 30
0.0
 10
153.095057
 20
194.257951
 30
0.0
  0
SPLINE
  5
1d4
100
AcDbEntity
  8
0
 62
7
100
AcDbSpline
 70
8
 71
3
 72
8
 73
4
 74
0
 40
0
 40
0
 40
0
 40
0
 40
1
 40
1
 40
1
 40
1
 10
153.095057
 20
194.257951
 30
0.0
 10
153.428446
 20
194.208351
 30
0.0
 10
154.075412
 20
193.704175
 30
0.0
 10
154.532753
 20
193.137560
 30
0.0
  0
SPLINE
  5
1d5
100
AcDbEntity
  8
0
 62
7
100
AcDbSpline
 70
8
 71
3
 72
8
 73
4
 74
0
 40
0
 40
0
 40
0
 40
0
 40
1
 40
1
 40
1
 40
1
 10
154.532753
 20
193.137560
 30
0.0
 10
155.361584
 20
192.110683
 30
0.0
 10
155.362712
 20
192.104079
 30
0.0
 10
154.883217
 20
191.093602
 30
0.0
  0
SPLINE
  5
1d6
100
AcDbEntity
  8
0
 62
7
100
AcDbSpline
 70
8
 71
3
 72
8
 73
4
 74
0
 40
0
 40
0
 40
0
 40
0
 40
1
 40
1
 40
1
 40
1
 10
154.883217
 20
191.093602
 30
0.0
 10
154.314596
 20
189.895295
 30
0.0
 10
154.509865
 20
188.577444
 30
0.0
 10
155.235346
 20
188.717161
 30
0.0
  0
SPLINE
  5
1d7
100
AcDbEntity
  8
0
 62
7
100
AcDbSpline
 70
8
 71
3
 72
8
 73
4
 74
0
 40
0
 40
0
 40
0
 40
0
 40
1
 40
1
 40
1
 40
1
 10
155.235346
 20
188.717161
 30
0.0
 10
155.949029
 20
188.854601
 30
0.0
 10
156.682496
 20
190.342984
 30
0.0
 10
156.883072
 20
192.060682
 30
0.0
  0
SPLINE
  5
1d8
100
AcDbEntity
  8
0
 62
7
100
AcDbSpline
 70
8
 71
3
 72
8
 73
4
 74
0
 40
0
 40
0
 40
0
 40
0
 40
1
 40
1
 40
1
 40
1
 10
156.883072
 20
192.060682
 30
0.0
 10
157.046535
 20
193.460668
 30
0.0
 10
156.995227
 20
193.676438
 30
0.0
 10
156.328251
 20
194.393974
 30
0.0
  0
SPLINE
  5
1d9
100
AcDbEntity
  8
0
 62
7
100
AcDbSpline
 70
8
 71
3
 72
8
 73
4
 74
0
 40
0
 40
0
 40
0
 40
0
 40
1
 40
1
 40
1
 40
1
 10
156.328251
 20
194.393974
 30
0.0
 10
155.924052
 20
194.828833
 30
0.0
 10
155.593316
 20
195.241583
 30
0.0
 10
155.593316
 20
195.311196
 30
0.0
  0
SPLINE
  5
1da
100
AcDbEntity
  8
0
 62
7
100
AcDbSpline
 70
8
 71
3
 72
8
 73
4
 74
0
 40
0
 40
0
 40
0
 40
0
 40
1
 40
1
 40
1
 40
1
 10
155.593316
 20
195.311196
 30
0.0
 10
155.593316
 20
195.675155
 30
0.0
 10
157.834245
 20
195.359654
 30
0.0
 10
158.894413
 20
194.846432
 30
0.0
  0
LWPOLYLINE
  5
1db
100
AcDbEntity
  8
0
 62
7
100
AcDbPolyline
 90
3
 70
0
 10
150.347821
 20
199.549087
 30
0.0
 10
151.068476
 20
199.729961
 30
0.0
 10
150.652847
 20
198.359975
 30
0.0
  0
SPLINE
  5
1dc
100
AcDbEntity
  8
0
 62
7
100
AcDbSpline
 70
8
 71
3
 72
8
 73
4
 74
0
 40
0
 40
0
 40
0
 40
0
 40
1
 40
1
 40
1
 40
1
 10
160.667474
 20
194.916988
 30
0.0
 10
160.996404
 20
195.311741
 30
0.0
 10
161.222775
 20
196.012738
 30
0.0
 10
161.228363
 20
196.653868
 30
0.0
  0
SPLINE
  5
1dd
100
AcDbEntity
  8
0
 62
7
100
AcDbSpline
 70
8
 71
3
 72
8
 73
4
 74
0
 40
0
 40
0
 40
0
 40
0
 40
1
 40
1
 40
1
 40
1
 10
161.228363
 20
196.653868
 30
0.0
 10
161.238805
 20
197.851814
 30
0.0
 10
161.654405
 20
197.831415
 30
0.0
 10
162.126140
 20
196.609796
 30
0.0
  0
LWPOLYLINE
  5
1de
100
AcDbEntity
  8
0
 62
7
100
AcDbPolyline
 90
3
 70
0
 10
158.894413
 20
194.846432
 30
0.0
 10
160.115956
 20
194.255098
 30
0.0
 10
160.667474
 20
194.916988
 30
0.0
  0
SPLINE
  5
1df
100
AcDbEntity
  8
0
 62
7
100
AcDbSpline
 70
8
 71
3
 72
8
 73
4
 74
0
 40
0
 40
0
 40
0
 40
0
 40
1
 40
1
 40
1
 40
1
 10
163.187634
 20
196.778323
 30
0.0
 10
163.612435
 20
197.282795
 30
0.0
 10
164.047791
 20
197.695545
 30
0.0
 10
164.155120
 20
197.695545
 30
0.0
  0
SPLINE
  5
1e0
100
AcDbEntity
  8
0
 62
7
100
AcDbSpline
 70
8
 71
3
 72
8
 73
4
 74
0
 40
0
 40
0
 40
0
 40
0
 40
1
 40
1
 40
1
 40
1
 10
164.155120
 20
197.695545
 30
0.0
 10
164.534624
 20
197.695545
 30
0.0
 10
164.019653
 20
195.854556
 30
0.0
 10
163.479226
 20
195.279296
 30
0.0
  0
SPLINE
  5
1e1
100
AcDbEntity
  8
0
 62
7
100
AcDbSpline
 70
8
 71
3
 72
8
 73
4
 74
0
 40
0
 40
0
 40
0
 40
0
 40
1
 40
1
 40
1
 40
1
 10
163.479226
 20
195.279296
 30
0.0
 10
163.177756
 20
194.958390
 30
0.0
 10
162.931094
 20
194.559057
 30
0.0
 10
162.931094
 20
194.391888
 30
0.0
  0
SPLINE
  5
1e2
100
AcDbEntity
  8
0
 62
7
100
AcDbSpline
 70
8
 71
3
 72
8
 73
4
 74
0
 40
0
 40
0
 40
0
 40
0
 40
1
 40
1
 40
1
 40
1
 10
162.931094
 20
194.391888
 30
0.0
 10
162.931094
 20
194.053233
 30
0.0
 10
164.923555
 20
193.179989
 30
0.0
 10
165.696223
 20
193.179989
 30
0.0
  0
SPLINE
  5
1e3
100
AcDbEntity
  8
0
 62
7
100
AcDbSpline
 70
8
 71
3
 72
8
 73
4
 74
0
 40
0
 40
0
 40
0
 40
0
 40
1
 40
1
 40
1
 40
1
 10
165.696223
 20
193.179989
 30
0.0
 10
166.660124
 20
193.179989
 30
0.0
 10
167.446650
 20
194.003968
 30
0.0
 10
167.446650
 20
195.013782
 30
0.0
  0
SPLINE
  5
1e4
100
AcDbEntity
  8
0
 62
7
100
AcDbSpline
 70
8
 71
3
 72
8
 73
4
 74
0
 40
0
 40
0
 40
0
 40
0
 40
1
 40
1
 40
1
 40
1
 10
167.446650
 20
195.013782
 30
0.0
 10
167.446650
 20
195.539096
 30
0.0
 10
167.563941
 20
196.041390
 30
0.0
 10
167.707282
 20
196.129985
 30
0.0
  0
SPLINE
  5
1e5
100
AcDbEntity
  8
0
 62
7
100
AcDbSpline
 70
8
 71
3
 72
8
 73
4
 74
0
 40
0
 40
0
 40
0
 40
0
 40
1
 40
1
 40
1
 40
1
 10
167.707282
 20
196.129985
 30
0.0
 10
168.058564
 20
196.347076
 30
0.0
 10
169.229617
 20
194.667266
 30
0.0
 10
169.051168
 20
194.202266
 30
0.0
  0
SPLINE
  5
1e6
100
AcDbEntity
  8
0
 62
7
100
AcDbSpline
 70
8
 71
3
 72
8
 73
4
 74
0
 40
0
 40
0
 40
0
 40
0
 40
1
 40
1
 40
1
 40
1
 10
169.051168
 20
194.202266
 30
0.0
 10
168.973331
 20
193.999427
 30
0.0
 10
167.916662
 20
193.086131
 30
0.0
 10
166.703022
 20
192.172721
 30
0.0
  0
SPLINE
  5
1e7
100
AcDbEntity
  8
0
 62
7
100
AcDbSpline
 70
8
 71
3
 72
8
 73
4
 74
0
 40
0
 40
0
 40
0
 40
0
 40
1
 40
1
 40
1
 40
1
 10
166.703022
 20
192.172721
 30
0.0
 10
163.870330
 20
190.040772
 30
0.0
 10
163.495538
 20
189.652432
 30
0.0
 10
163.495538
 20
188.849286
 30
0.0
  0
SPLINE
  5
1e8
100
AcDbEntity
  8
0
 62
7
100
AcDbSpline
 70
8
 71
3
 72
8
 73
4
 74
0
 40
0
 40
0
 40
0
 40
0
 40
1
 40
1
 40
1
 40
1
 10
163.495538
 20
188.849286
 30
0.0
 10
163.495538
 20
188.036565
 30
0.0
 10
164.384002
 20
187.178774
 30
0.0
 10
164.986349
 20
187.409922
 30
0.0
  0
SPLINE
  5
1e9
100
AcDbEntity
  8
0
 62
7
100
AcDbSpline
 70
8
 71
3
 72
8
 73
4
 74
0
 40
0
 40
0
 40
0
 40
0
 40
1
 40
1
 40
1
 40
1
 10
164.986349
 20
187.409922
 30
0.0
 10
165.329644
 20
187.541655
 30
0.0
 10
165.393850
 20
187.442177
 30
0.0
 10
165.270321
 20
186.969844
 30
0.0
  0
SPLINE
  5
1ea
100
AcDbEntity
  8
0
 62
7
100
AcDbSpline
 70
8
 71
3
 72
8
 73
4
 74
0
 40
0
 40
0
 40
0
 40
0
 40
1
 40
1
 40
1
 40
1
 10
165.270321
 20
186.969844
 30
0.0
 10
165.065710
 20
186.187423
 30
0.0
 10
164.155402
 20
185.853898
 30
0.0
 10
163.074802
 20
186.165429
 30
0.0
  0
SPLINE
  5
1eb
100
AcDbEntity
  8
0
 62
7
100
AcDbSpline
 70
8
 71
3
 72
8
 73
4
 74
0
 40
0
 40
0
 40
0
 40
0
 40
1
 40
1
 40
1
 40
1
 10
163.074802
 20
186.165429
 30
0.0
 10
161.714462
 20
186.557611
 30
0.0
 10
161.218739
 20
185.443468
 30
0.0
 10
161.694707
 20
183.063618
 30
0.0
  0
SPLINE
  5
1ec
100
AcDbEntity
  8
0
 62
7
100
AcDbSpline
 70
8
 71
3
 72
8
 73
4
 74
0
 40
0
 40
0
 40
0
 40
0
 40
1
 40
1
 40
1
 40
1
 10
161.694707
 20
183.063618
 30
0.0
 10
161.904567
 20
182.014327
 30
0.0
 10
162.754169
 20
181.643510
 30
0.0
 10
163.468106
 20
182.289612
 30
0.0
  0
SPLINE
  5
1ed
100
AcDbEntity
  8
0
 62
7
100
AcDbSpline
 70
8
 71
3
 72
8
 73
4
 74
0
 40
0
 40
0
 40
0
 40
0
 40
1
 40
1
 40
1
 40
1
 10
163.468106
 20
182.289612
 30
0.0
 10
164.020698
 20
182.789702
 30
0.0
 10
164.342205
 20
182.625824
 30
0.0
 10
164.342205
 20
181.844062
 30
0.0
  0
SPLINE
  5
1ee
100
AcDbEntity
  8
0
 62
7
100
AcDbSpline
 70
8
 71
3
 72
8
 73
4
 74
0
 40
0
 40
0
 40
0
 40
0
 40
1
 40
1
 40
1
 40
1
 10
164.342205
 20
181.844062
 30
0.0
 10
164.342205
 20
181.552230
 30
0.0
 10
164.557541
 20
181.312023
 30
0.0
 10
164.836094
 20
181.293088
 30
0.0
  0
SPLINE
  5
1ef
100
AcDbEntity
  8
0
 62
7
100
AcDbSpline
 70
8
 71
3
 72
8
 73
4
 74
0
 40
0
 40
0
 40
0
 40
0
 40
1
 40
1
 40
1
 40
1
 10
164.836094
 20
181.293088
 30
0.0
 10
166.659108
 20
181.169190
 30
0.0
 10
166.680106
 20
181.177755
 30
0.0
 10
167.252424
 20
182.279051
 30
0.0
  0
SPLINE
  5
1f0
100
AcDbEntity
  8
0
 62
7
100
AcDbSpline
 70
8
 71
3
 72
8
 73
4
 74
0
 40
0
 40
0
 40
0
 40
0
 40
1
 40
1
 40
1
 40
1
 10
167.252424
 20
182.279051
 30
0.0
 10
167.723002
 20
183.184508
 30
0.0
 10
167.760932
 20
183.468302
 30
0.0
 10
167.473009
 20
183.929312
 30
0.0
  0
SPLINE
  5
1f1
100
AcDbEntity
  8
0
 62
7
100
AcDbSpline
 70
8
 71
3
 72
8
 73
4
 74
0
 40
0
 40
0
 40
0
 40
0
 40
1
 40
1
 40
1
 40
1
 10
167.473009
 20
183.929312
 30
0.0
 10
166.981886
 20
184.715730
 30
0.0
 10
167.229988
 20
184.810771
 30
0.0
 10
168.253297
 20
184.228245
 30
0.0
  0
SPLINE
  5
1f2
100
AcDbEntity
  8
0
 62
7
100
AcDbSpline
 70
8
 71
3
 72
8
 73
4
 74
0
 40
0
 40
0
 40
0
 40
0
 40
1
 40
1
 40
1
 40
1
 10
168.253297
 20
184.228245
 30
0.0
 10
169.123275
 20
183.733026
 30
0.0
 10
169.414134
 20
182.940510
 30
0.0
 10
168.853160
 20
182.593811
 30
0.0
  0
SPLINE
  5
1f3
100
AcDbEntity
  8
0
 62
7
100
AcDbSpline
 70
8
 71
3
 72
8
 73
4
 74
0
 40
0
 40
0
 40
0
 40
0
 40
1
 40
1
 40
1
 40
1
 10
168.853160
 20
182.593811
 30
0.0
 10
168.695398
 20
182.496315
 30
0.0
 10
168.643356
 20
182.291935
 30
0.0
 10
168.737478
 20
182.139634
 30
0.0
  0
SPLINE
  5
1f4
100
AcDbEntity
  8
0
 62
7
100
AcDbSpline
 70
8
 71
3
 72
8
 73
4
 74
0
 40
0
 40
0
 40
0
 40
0
 40
1
 40
1
 40
1
 40
1
 10
168.737478
 20
182.139634
 30
0.0
 10
169.037028
 20
181.654942
 30
0.0
 10
168.083286
 20
180.073818
 30
0.0
 10
166.970202
 20
179.209842
 30
0.0
  0
SPLINE
  5
1f5
100
AcDbEntity
  8
0
 62
7
100
AcDbSpline
 70
8
 71
3
 72
8
 73
4
 74
0
 40
0
 40
0
 40
0
 40
0
 40
1
 40
1
 40
1
 40
1
 10
166.970202
 20
179.209842
 30
0.0
 10
166.378523
 20
178.750582
 30
0.0
 10
165.489156
 20
177.958368
 30
0.0
 10
164.993828
 20
177.449363
 30
0.0
  0
SPLINE
  5
1f6
100
AcDbEntity
  8
0
 62
7
100
AcDbSpline
 70
8
 71
3
 72
8
 73
4
 74
0
 40
0
 40
0
 40
0
 40
0
 40
1
 40
1
 40
1
 40
1
 10
164.993828
 20
177.449363
 30
0.0
 10
164.134038
 20
176.565863
 30
0.0
 10
164.096446
 20
176.433473
 30
0.0
 10
164.164941
 20
174.529534
 30
0.0
  0
SPLINE
  5
1f7
100
AcDbEntity
  8
0
 62
7
100
AcDbSpline
 70
8
 71
3
 72
8
 73
4
 74
0
 40
0
 40
0
 40
0
 40
0
 40
1
 40
1
 40
1
 40
1
 10
164.164941
 20
174.529534
 30
0.0
 10
164.204424
 20
173.432632
 30
0.0
 10
164.370371
 20
172.449503
 30
0.0
 10
164.533749
 20
172.344801
 30
0.0
  0
SPLINE
  5
1f8
100
AcDbEntity
  8
0
 62
7
100
AcDbSpline
 70
8
 71
3
 72
8
 73
4
 74
0
 40
0
 40
0
 40
0
 40
0
 40
1
 40
1
 40
1
 40
1
 10
164.533749
 20
172.344801
 30
0.0
 10
164.697128
 20
172.240099
 30
0.0
 10
164.816113
 20
171.582934
 30
0.0
 10
164.798163
 20
170.884434
 30
0.0
  0
SPLINE
  5
1f9
100
AcDbEntity
  8
0
 62
7
100
AcDbSpline
 70
8
 71
3
 72
8
 73
4
 74
0
 40
0
 40
0
 40
0
 40
0
 40
1
 40
1
 40
1
 40
1
 10
164.798163
 20
170.884434
 30
0.0
 10
164.767881
 20
169.705154
 30
0.0
 10
164.819894
 20
169.608154
 30
0.0
 10
165.527059
 20
169.526538
 30
0.0
  0
SPLINE
  5
1fa
100
AcDbEntity
  8
0
 62
7
100
AcDbSpline
 70
8
 71
3
 72
8
 73
4
 74
0
 40
0
 40
0
 40
0
 40
0
 40
1
 40
1
 40
1
 40
1
 10
165.527059
 20
169.526538
 30
0.0
 10
166.167901
 20
169.452574
 30
0.0
 10
166.379737
 20
169.617270
 30
0.0
 10
166.863607
 20
170.565723
 30
0.0
  0
SPLINE
  5
1fb
100
AcDbEntity
  8
0
 62
7
100
AcDbSpline
 70
8
 71
3
 72
8
 73
4
 74
0
 40
0
 40
0
 40
0
 40
0
 40
1
 40
1
 40
1
 40
1
 10
166.863607
 20
170.565723
 30
0.0
 10
167.434204
 20
171.684215
 30
0.0
 10
167.924903
 20
172.193598
 30
0.0
 10
168.183052
 20
171.935440
 30
0.0
  0
SPLINE
  5
1fc
100
AcDbEntity
  8
0
 62
7
100
AcDbSpline
 70
8
 71
3
 72
8
 73
4
 74
0
 40
0
 40
0
 40
0
 40
0
 40
1
 40
1
 40
1
 40
1
 10
168.183052
 20
171.935440
 30
0.0
 10
168.256966
 20
171.861518
 30
0.0
 10
168.386365
 20
171.309051
 30
0.0
 10
168.470552
 20
170.707734
 30
0.0
  0
SPLINE
  5
1fd
100
AcDbEntity
  8
0
 62
7
100
AcDbSpline
 70
8
 71
3
 72
8
 73
4
 74
0
 40
0
 40
0
 40
0
 40
0
 40
1
 40
1
 40
1
 40
1
 10
168.470552
 20
170.707734
 30
0.0
 10
168.735897
 20
168.813013
 30
0.0
 10
168.833151
 20
168.686177
 30
0.0
 10
169.445263
 20
169.436594
 30
0.0
  0
SPLINE
  5
1fe
100
AcDbEntity
  8
0
 62
7
100
AcDbSpline
 70
8
 71
3
 72
8
 73
4
 74
0
 40
0
 40
0
 40
0
 40
0
 40
1
 40
1
 40
1
 40
1
 10
169.445263
 20
169.436594
 30
0.0
 10
169.745293
 20
169.804448
 30
0.0
 10
170.069595
 20
170.598198
 30
0.0
 10
170.165917
 20
171.200483
 30
0.0
  0
SPLINE
  5
1ff
100
AcDbEntity
  8
0
 62
7
100
AcDbSpline
 70
8
 71
3
 72
8
 73
4
 74
0
 40
0
 40
0
 40
0
 40
0
 40
1
 40
1
 40
1
 40
1
 10
170.165917
 20
171.200483
 30
0.0
 10
170.262211
 20
171.802768
 30
0.0
 10
170.448534
 20
172.295545
 30
0.0
 10
170.579909
 20
172.295545
 30
0.0
  0
SPLINE
  5
200
100
AcDbEntity
  8
0
 62
7
100
AcDbSpline
 70
8
 71
3
 72
8
 73
4
 74
0
 40
0
 40
0
 40
0
 40
0
 40
1
 40
1
 40
1
 40
1
 10
170.579909
 20
172.295545
 30
0.0
 10
171.028473
 20
172.295545
 30
0.0
 10
171.679983
 20
170.632370
 30
0.0
 10
171.679983
 20
169.487338
 30
0.0
  0
SPLINE
  5
201
100
AcDbEntity
  8
0
 62
7
100
AcDbSpline
 70
8
 71
3
 72
8
 73
4
 74
0
 40
0
 40
0
 40
0
 40
0
 40
1
 40
1
 40
1
 40
1
 10
171.679983
 20
169.487338
 30
0.0
 10
171.679983
 20
168.638244
 30
0.0
 10
171.793577
 20
168.344434
 30
0.0
 10
172.121886
 20
168.344434
 30
0.0
  0
SPLINE
  5
202
100
AcDbEntity
  8
0
 62
7
100
AcDbSpline
 70
8
 71
3
 72
8
 73
4
 74
0
 40
0
 40
0
 40
0
 40
0
 40
1
 40
1
 40
1
 40
1
 10
172.121886
 20
168.344434
 30
0.0
 10
172.879173
 20
168.344434
 30
0.0
 10
173.581314
 20
168.863240
 30
0.0
 10
174.217782
 20
169.893086
 30
0.0
  0
SPLINE
  5
203
100
AcDbEntity
  8
0
 62
7
100
AcDbSpline
 70
8
 71
3
 72
8
 73
4
 74
0
 40
0
 40
0
 40
0
 40
0
 40
1
 40
1
 40
1
 40
1
 10
174.217782
 20
169.893086
 30
0.0
 10
174.968436
 20
171.107691
 30
0.0
 10
175.348872
 20
171.156352
 30
0.0
 10
175.348872
 20
170.037767
 30
0.0
  0
SPLINE
  5
204
100
AcDbEntity
  8
0
 62
7
100
AcDbSpline
 70
8
 71
3
 72
8
 73
4
 74
0
 40
0
 40
0
 40
0
 40
0
 40
1
 40
1
 40
1
 40
1
 10
175.348872
 20
170.037767
 30
0.0
 10
175.348872
 20
169.572100
 30
0.0
 10
175.227234
 20
169.191100
 30
0.0
 10
175.078559
 20
169.191100
 30
0.0
  0
SPLINE
  5
205
100
AcDbEntity
  8
0
 62
7
100
AcDbSpline
 70
8
 71
3
 72
8
 73
4
 74
0
 40
0
 40
0
 40
0
 40
0
 40
1
 40
1
 40
1
 40
1
 10
175.078559
 20
169.191100
 30
0.0
 10
174.929885
 20
169.191100
 30
0.0
 10
174.485385
 20
168.640191
 30
0.0
 10
174.090782
 20
167.966860
 30
0.0
  0
SPLINE
  5
206
100
AcDbEntity
  8
0
 62
7
100
AcDbSpline
 70
8
 71
3
 72
8
 73
4
 74
0
 40
0
 40
0
 40
0
 40
0
 40
1
 40
1
 40
1
 40
1
 10
174.090782
 20
167.966860
 30
0.0
 10
173.005468
 20
166.114926
 30
0.0
 10
173.227210
 20
164.536849
 30
0.0
 10
174.335158
 20
166.227767
 30
0.0
  0
SPLINE
  5
207
100
AcDbEntity
  8
0
 62
7
100
AcDbSpline
 70
8
 71
3
 72
8
 73
4
 74
0
 40
0
 40
0
 40
0
 40
0
 40
1
 40
1
 40
1
 40
1
 10
174.335158
 20
166.227767
 30
0.0
 10
174.916028
 20
167.114303
 30
0.0
 10
175.290254
 20
167.124020
 30
0.0
 10
175.507565
 20
166.258205
 30
0.0
  0
SPLINE
  5
208
100
AcDbEntity
  8
0
 62
7
100
AcDbSpline
 70
8
 71
3
 72
8
 73
4
 74
0
 40
0
 40
0
 40
0
 40
0
 40
1
 40
1
 40
1
 40
1
 10
175.507565
 20
166.258205
 30
0.0
 10
175.633211
 20
165.757542
 30
0.0
 10
175.379352
 20
165.147039
 30
0.0
 10
174.525178
 20
163.895635
 30
0.0
  0
SPLINE
  5
209
100
AcDbEntity
  8
0
 62
7
100
AcDbSpline
 70
8
 71
3
 72
8
 73
4
 74
0
 40
0
 40
0
 40
0
 40
0
 40
1
 40
1
 40
1
 40
1
 10
174.525178
 20
163.895635
 30
0.0
 10
173.891646
 20
162.967536
 30
0.0
 10
173.373316
 20
162.079546
 30
0.0
 10
173.373316
 20
161.922323
 30
0.0
  0
SPLINE
  5
20a
100
AcDbEntity
  8
0
 62
7
100
AcDbSpline
 70
8
 71
3
 72
8
 73
4
 74
0
 40
0
 40
0
 40
0
 40
0
 40
1
 40
1
 40
1
 40
1
 10
173.373316
 20
161.922323
 30
0.0
 10
173.373316
 20
161.765097
 30
0.0
 10
173.913066
 20
160.574004
 30
0.0
 10
174.572761
 20
159.275448
 30
0.0
  0
SPLINE
  5
20b
100
AcDbEntity
  8
0
 62
7
100
AcDbSpline
 70
8
 71
3
 72
8
 73
4
 74
0
 40
0
 40
0
 40
0
 40
0
 40
1
 40
1
 40
1
 40
1
 10
174.572761
 20
159.275448
 30
0.0
 10
175.680991
 20
157.093964
 30
0.0
 10
175.770314
 20
156.753482
 30
0.0
 10
175.747257
 20
154.797767
 30
0.0
  0
SPLINE
  5
20c
100
AcDbEntity
  8
0
 62
7
100
AcDbSpline
 70
8
 71
3
 72
8
 73
4
 74
0
 40
0
 40
0
 40
0
 40
0
 40
1
 40
1
 40
1
 40
1
 10
175.747257
 20
154.797767
 30
0.0
 10
175.719881
 20
152.488024
 30
0.0
 10
175.388778
 20
151.599300
 30
0.0
 10
173.958956
 20
149.999989
 30
0.0
  0
SPLINE
  5
20d
100
AcDbEntity
  8
0
 62
7
100
AcDbSpline
 70
8
 71
3
 72
8
 73
4
 74
0
 40
0
 40
0
 40
0
 40
0
 40
1
 40
1
 40
1
 40
1
 10
173.958956
 20
149.999989
 30
0.0
 10
173.301716
 20
149.264814
 30
0.0
 10
173.114970
 20
148.831781
 30
0.0
 10
173.228762
 20
148.306656
 30
0.0
  0
SPLINE
  5
20e
100
AcDbEntity
  8
0
 62
7
100
AcDbSpline
 70
8
 71
3
 72
8
 73
4
 74
0
 40
0
 40
0
 40
0
 40
0
 40
1
 40
1
 40
1
 40
1
 10
173.228762
 20
148.306656
 30
0.0
 10
173.684466
 20
146.203570
 30
0.0
 10
173.715003
 20
144.394743
 30
0.0
 10
173.304680
 20
143.808914
 30
0.0
  0
LWPOLYLINE
  5
20f
100
AcDbEntity
  8
0
 62
7
100
AcDbPolyline
 90
3
 70
0
 10
162.126140
 20
196.609796
 30
0.0
 10
162.415276
 20
195.861100
 30
0.0
 10
163.187634
 20
196.778323
 30
0.0
  0
SPLINE
  5
210
100
AcDbEntity
  8
0
 62
7
100
AcDbSpline
 70
8
 71
3
 72
8
 73
4
 74
0
 40
0
 40
0
 40
0
 40
0
 40
1
 40
1
 40
1
 40
1
 10
172.712944
 20
143.845281
 30
0.0
 10
172.585239
 20
144.333602
 30
0.0
 10
172.466593
 20
144.408363
 30
0.0
 10
172.216374
 20
144.158153
 30
0.0
  0
SPLINE
  5
211
100
AcDbEntity
  8
0
 62
7
100
AcDbSpline
 70
8
 71
3
 72
8
 73
4
 74
0
 40
0
 40
0
 40
0
 40
0
 40
1
 40
1
 40
1
 40
1
 10
172.216374
 20
144.158153
 30
0.0
 10
171.939119
 20
143.880903
 30
0.0
 10
171.854763
 20
142.441124
 30
0.0
 10
172.012949
 20
140.686656
 30
0.0
  0
SPLINE
  5
212
100
AcDbEntity
  8
0
 62
7
100
AcDbSpline
 70
8
 71
3
 72
8
 73
4
 74
0
 40
0
 40
0
 40
0
 40
0
 40
1
 40
1
 40
1
 40
1
 10
172.012949
 20
140.686656
 30
0.0
 10
172.117314
 20
139.529443
 30
0.0
 10
171.919251
 20
138.426239
 30
0.0
 10
171.538872
 20
138.045863
 30
0.0
  0
SPLINE
  5
213
100
AcDbEntity
  8
0
 62
7
100
AcDbSpline
 70
8
 71
3
 72
8
 73
4
 74
0
 40
0
 40
0
 40
0
 40
0
 40
1
 40
1
 40
1
 40
1
 10
171.538872
 20
138.045863
 30
0.0
 10
170.994126
 20
137.501106
 30
0.0
 10
171.001803
 20
137.121800
 30
0.0
 10
171.562014
 20
136.906851
 30
0.0
  0
SPLINE
  5
214
100
AcDbEntity
  8
0
 62
7
100
AcDbSpline
 70
8
 71
3
 72
8
 73
4
 74
0
 40
0
 40
0
 40
0
 40
0
 40
1
 40
1
 40
1
 40
1
 10
171.562014
 20
136.906851
 30
0.0
 10
171.807547
 20
136.812631
 30
0.0
 10
172.045037
 20
136.735545
 30
0.0
 10
172.089798
 20
136.735545
 30
0.0
  0
SPLINE
  5
215
100
AcDbEntity
  8
0
 62
7
100
AcDbSpline
 70
8
 71
3
 72
8
 73
4
 74
0
 40
0
 40
0
 40
0
 40
0
 40
1
 40
1
 40
1
 40
1
 10
172.089798
 20
136.735545
 30
0.0
 10
172.134530
 20
136.735545
 30
0.0
 10
172.327062
 20
137.338795
 30
0.0
 10
172.517618
 20
138.076100
 30
0.0
  0
SPLINE
  5
216
100
AcDbEntity
  8
0
 62
7
100
AcDbSpline
 70
8
 71
3
 72
8
 73
4
 74
0
 40
0
 40
0
 40
0
 40
0
 40
1
 40
1
 40
1
 40
1
 10
172.517618
 20
138.076100
 30
0.0
 10
173.080906
 20
140.255497
 30
0.0
 10
173.141584
 20
140.341422
 30
0.0
 10
173.416694
 20
139.349134
 30
0.0
  0
SPLINE
  5
217
100
AcDbEntity
  8
0
 62
7
100
AcDbSpline
 70
8
 71
3
 72
8
 73
4
 74
0
 40
0
 40
0
 40
0
 40
0
 40
1
 40
1
 40
1
 40
1
 10
173.416694
 20
139.349134
 30
0.0
 10
173.612528
 20
138.642884
 30
0.0
 10
173.548802
 20
138.193530
 30
0.0
 10
173.136645
 20
137.373579
 30
0.0
  0
SPLINE
  5
218
100
AcDbEntity
  8
0
 62
7
100
AcDbSpline
 70
8
 71
3
 72
8
 73
4
 74
0
 40
0
 40
0
 40
0
 40
0
 40
1
 40
1
 40
1
 40
1
 10
173.136645
 20
137.373579
 30
0.0
 10
172.019355
 20
135.150952
 30
0.0
 10
171.864500
 20
134.266058
 30
0.0
 10
172.396602
 20
133.144721
 30
0.0
  0
SPLINE
  5
219
100
AcDbEntity
  8
0
 62
7
100
AcDbSpline
 70
8
 71
3
 72
8
 73
4
 74
0
 40
0
 40
0
 40
0
 40
0
 40
1
 40
1
 40
1
 40
1
 10
172.396602
 20
133.144721
 30
0.0
 10
172.859502
 20
132.169251
 30
0.0
 10
172.858402
 20
132.073493
 30
0.0
 10
172.374024
 20
131.174130
 30
0.0
  0
SPLINE
  5
21a
100
AcDbEntity
  8
0
 62
7
100
AcDbSpline
 70
8
 71
3
 72
8
 73
4
 74
0
 40
0
 40
0
 40
0
 40
0
 40
1
 40
1
 40
1
 40
1
 10
172.374024
 20
131.174130
 30
0.0
 10
171.737076
 20
129.991379
 30
0.0
 10
172.083871
 20
129.490336
 30
0.0
 10
173.190493
 20
129.994546
 30
0.0
  0
SPLINE
  5
21b
100
AcDbEntity
  8
0
 62
7
100
AcDbSpline
 70
8
 71
3
 72
8
 73
4
 74
0
 40
0
 40
0
 40
0
 40
0
 40
1
 40
1
 40
1
 40
1
 10
173.190493
 20
129.994546
 30
0.0
 10
174.285995
 20
130.493689
 30
0.0
 10
174.364904
 20
130.168829
 30
0.0
 10
173.504662
 20
128.700941
 30
0.0
  0
SPLINE
  5
21c
100
AcDbEntity
  8
0
 62
7
100
AcDbSpline
 70
8
 71
3
 72
8
 73
4
 74
0
 40
0
 40
0
 40
0
 40
0
 40
1
 40
1
 40
1
 40
1
 10
173.504662
 20
128.700941
 30
0.0
 10
172.774554
 20
127.455141
 30
0.0
 10
172.748871
 20
127.282890
 30
0.0
 10
172.943379
 20
124.939339
 30
0.0
  0
SPLINE
  5
21d
100
AcDbEntity
  8
0
 62
7
100
AcDbSpline
 70
8
 71
3
 72
8
 73
4
 74
0
 40
0
 40
0
 40
0
 40
0
 40
1
 40
1
 40
1
 40
1
 10
172.943379
 20
124.939339
 30
0.0
 10
173.360306
 20
119.916365
 30
0.0
 10
173.367107
 20
119.963682
 30
0.0
 10
172.030954
 20
118.602231
 30
0.0
  0
SPLINE
  5
21e
100
AcDbEntity
  8
0
 62
7
100
AcDbSpline
 70
8
 71
3
 72
8
 73
4
 74
0
 40
0
 40
0
 40
0
 40
0
 40
1
 40
1
 40
1
 40
1
 10
172.030954
 20
118.602231
 30
0.0
 10
171.372276
 20
117.931081
 30
0.0
 10
170.833344
 20
117.250152
 30
0.0
 10
170.833344
 20
117.089057
 30
0.0
  0
SPLINE
  5
21f
100
AcDbEntity
  8
0
 62
7
100
AcDbSpline
 70
8
 71
3
 72
8
 73
4
 74
0
 40
0
 40
0
 40
0
 40
0
 40
1
 40
1
 40
1
 40
1
 10
170.833344
 20
117.089057
 30
0.0
 10
170.833344
 20
116.560144
 30
0.0
 10
172.199780
 20
115.491346
 30
0.0
 10
172.653424
 20
115.665426
 30
0.0
  0
SPLINE
  5
220
100
AcDbEntity
  8
0
 62
7
100
AcDbSpline
 70
8
 71
3
 72
8
 73
4
 74
0
 40
0
 40
0
 40
0
 40
0
 40
1
 40
1
 40
1
 40
1
 10
172.653424
 20
115.665426
 30
0.0
 10
172.957518
 20
115.782120
 30
0.0
 10
173.091122
 20
115.663733
 30
0.0
 10
173.091122
 20
115.277800
 30
0.0
  0
SPLINE
  5
221
100
AcDbEntity
  8
0
 62
7
100
AcDbSpline
 70
8
 71
3
 72
8
 73
4
 74
0
 40
0
 40
0
 40
0
 40
0
 40
1
 40
1
 40
1
 40
1
 10
173.091122
 20
115.277800
 30
0.0
 10
173.091122
 20
114.810118
 30
0.0
 10
172.896445
 20
114.722211
 30
0.0
 10
171.860662
 20
114.722211
 30
0.0
  0
SPLINE
  5
222
100
AcDbEntity
  8
0
 62
7
100
AcDbSpline
 70
8
 71
3
 72
8
 73
4
 74
0
 40
0
 40
0
 40
0
 40
0
 40
1
 40
1
 40
1
 40
1
 10
171.860662
 20
114.722211
 30
0.0
 10
170.877597
 20
114.722211
 30
0.0
 10
170.523662
 20
114.864076
 30
0.0
 10
170.100329
 20
115.427767
 30
0.0
  0
SPLINE
  5
223
100
AcDbEntity
  8
0
 62
7
100
AcDbSpline
 70
8
 71
3
 72
8
 73
4
 74
0
 40
0
 40
0
 40
0
 40
0
 40
1
 40
1
 40
1
 40
1
 10
170.100329
 20
115.427767
 30
0.0
 10
169.493494
 20
116.235834
 30
0.0
 10
169.140011
 20
116.331829
 30
0.0
 10
169.140011
 20
115.688552
 30
0.0
  0
SPLINE
  5
224
100
AcDbEntity
  8
0
 62
7
100
AcDbSpline
 70
8
 71
3
 72
8
 73
4
 74
0
 40
0
 40
0
 40
0
 40
0
 40
1
 40
1
 40
1
 40
1
 10
169.140011
 20
115.688552
 30
0.0
 10
169.140011
 20
115.177467
 30
0.0
 10
166.695064
 20
111.899989
 30
0.0
 10
166.313810
 20
111.899989
 30
0.0
  0
SPLINE
  5
225
100
AcDbEntity
  8
0
 62
7
100
AcDbSpline
 70
8
 71
3
 72
8
 73
4
 74
0
 40
0
 40
0
 40
0
 40
0
 40
1
 40
1
 40
1
 40
1
 10
166.313810
 20
111.899989
 30
0.0
 10
166.174561
 20
111.899989
 30
0.0
 10
166.232332
 20
112.386673
 30
0.0
 10
166.442192
 20
112.981507
 30
0.0
  0
SPLINE
  5
226
100
AcDbEntity
  8
0
 62
7
100
AcDbSpline
 70
8
 71
3
 72
8
 73
4
 74
0
 40
0
 40
0
 40
0
 40
0
 40
1
 40
1
 40
1
 40
1
 10
166.442192
 20
112.981507
 30
0.0
 10
166.710134
 20
113.740930
 30
0.0
 10
166.752101
 20
114.434348
 30
0.0
 10
166.583078
 20
115.309840
 30
0.0
  0
SPLINE
  5
227
100
AcDbEntity
  8
0
 62
7
100
AcDbSpline
 70
8
 71
3
 72
8
 73
4
 74
0
 40
0
 40
0
 40
0
 40
0
 40
1
 40
1
 40
1
 40
1
 10
166.583078
 20
115.309840
 30
0.0
 10
166.450687
 20
115.995590
 30
0.0
 10
166.336839
 20
116.647921
 30
0.0
 10
166.330094
 20
116.759466
 30
0.0
  0
SPLINE
  5
228
100
AcDbEntity
  8
0
 62
7
100
AcDbSpline
 70
8
 71
3
 72
8
 73
4
 74
0
 40
0
 40
0
 40
0
 40
0
 40
1
 40
1
 40
1
 40
1
 10
166.330094
 20
116.759466
 30
0.0
 10
166.323320
 20
116.871009
 30
0.0
 10
166.123930
 20
116.887880
 30
0.0
 10
165.886977
 20
116.796954
 30
0.0
  0
SPLINE
  5
229
100
AcDbEntity
  8
0
 62
7
100
AcDbSpline
 70
8
 71
3
 72
8
 73
4
 74
0
 40
0
 40
0
 40
0
 40
0
 40
1
 40
1
 40
1
 40
1
 10
165.886977
 20
116.796954
 30
0.0
 10
165.310481
 20
116.575731
 30
0.0
 10
164.060011
 20
114.406631
 30
0.0
 10
164.060011
 20
113.627838
 30
0.0
  0
SPLINE
  5
22a
100
AcDbEntity
  8
0
 62
7
100
AcDbSpline
 70
8
 71
3
 72
8
 73
4
 74
0
 40
0
 40
0
 40
0
 40
0
 40
1
 40
1
 40
1
 40
1
 10
164.060011
 20
113.627838
 30
0.0
 10
164.060011
 20
113.286045
 30
0.0
 10
163.823650
 20
112.535201
 30
0.0
 10
163.534739
 20
111.959301
 30
0.0
  0
SPLINE
  5
22b
100
AcDbEntity
  8
0
 62
7
100
AcDbSpline
 70
8
 71
3
 72
8
 73
4
 74
0
 40
0
 40
0
 40
0
 40
0
 40
1
 40
1
 40
1
 40
1
 10
163.534739
 20
111.959301
 30
0.0
 10
163.245856
 20
111.383401
 30
0.0
 10
163.069270
 20
110.743426
 30
0.0
 10
163.142366
 20
110.537130
 30
0.0
  0
SPLINE
  5
22c
100
AcDbEntity
  8
0
 62
7
100
AcDbSpline
 70
8
 71
3
 72
8
 73
4
 74
0
 40
0
 40
0
 40
0
 40
0
 40
1
 40
1
 40
1
 40
1
 10
163.142366
 20
110.537130
 30
0.0
 10
163.215461
 20
110.330834
 30
0.0
 10
163.024312
 20
109.986280
 30
0.0
 10
162.717593
 20
109.771452
 30
0.0
  0
SPLINE
  5
22d
100
AcDbEntity
  8
0
 62
7
100
AcDbSpline
 70
8
 71
3
 72
8
 73
4
 74
0
 40
0
 40
0
 40
0
 40
0
 40
1
 40
1
 40
1
 40
1
 10
162.717593
 20
109.771452
 30
0.0
 10
162.340177
 20
109.507089
 30
0.0
 10
162.096619
 20
108.898629
 30
0.0
 10
161.963975
 20
107.888756
 30
0.0
  0
SPLINE
  5
22e
100
AcDbEntity
  8
0
 62
7
100
AcDbSpline
 70
8
 71
3
 72
8
 73
4
 74
0
 40
0
 40
0
 40
0
 40
0
 40
1
 40
1
 40
1
 40
1
 10
161.963975
 20
107.888756
 30
0.0
 10
161.732609
 20
106.127275
 30
0.0
 10
160.870166
 20
104.557848
 30
0.0
 10
159.295790
 20
103.033414
 30
0.0
  0
SPLINE
  5
22f
100
AcDbEntity
  8
0
 62
7
100
AcDbSpline
 70
8
 71
3
 72
8
 73
4
 74
0
 40
0
 40
0
 40
0
 40
0
 40
1
 40
1
 40
1
 40
1
 10
159.295790
 20
103.033414
 30
0.0
 10
158.255264
 20
102.025889
 30
0.0
 10
157.984444
 20
101.913372
 30
0.0
 10
156.238730
 20
101.763414
 30
0.0
  0
SPLINE
  5
230
100
AcDbEntity
  8
0
 62
7
100
AcDbSpline
 70
8
 71
3
 72
8
 73
4
 74
0
 40
0
 40
0
 40
0
 40
0
 40
1
 40
1
 40
1
 40
1
 10
156.238730
 20
101.763414
 30
0.0
 10
154.373862
 20
101.603216
 30
0.0
 10
154.325348
 20
101.579264
 30
0.0
 10
154.399516
 20
100.855115
 30
0.0
  0
SPLINE
  5
231
100
AcDbEntity
  8
0
 62
7
100
AcDbSpline
 70
8
 71
3
 72
8
 73
4
 74
0
 40
0
 40
0
 40
0
 40
0
 40
1
 40
1
 40
1
 40
1
 10
154.399516
 20
100.855115
 30
0.0
 10
154.549574
 20
99.389770
 30
0.0
 10
152.934416
 20
99.633652
 30
0.0
 10
152.250084
 20
101.179668
 30
0.0
  0
SPLINE
  5
232
100
AcDbEntity
  8
0
 62
7
100
AcDbSpline
 70
8
 71
3
 72
8
 73
4
 74
0
 40
0
 40
0
 40
0
 40
0
 40
1
 40
1
 40
1
 40
1
 10
152.250084
 20
101.179668
 30
0.0
 10
151.932584
 20
101.896987
 30
0.0
 10
151.783994
 20
101.958398
 30
0.0
 10
150.455291
 20
101.921419
 30
0.0
  0
SPLINE
  5
233
100
AcDbEntity
  8
0
 62
7
100
AcDbSpline
 70
8
 71
3
 72
8
 73
4
 74
0
 40
0
 40
0
 40
0
 40
0
 40
1
 40
1
 40
1
 40
1
 10
150.455291
 20
101.921419
 30
0.0
 10
149.042543
 20
101.882099
 30
0.0
 10
148.990191
 20
101.850022
 30
0.0
 10
148.343874
 20
100.627777
 30
0.0
  0
SPLINE
  5
234
100
AcDbEntity
  8
0
 62
7
100
AcDbSpline
 70
8
 71
3
 72
8
 73
4
 74
0
 40
0
 40
0
 40
0
 40
0
 40
1
 40
1
 40
1
 40
1
 10
148.343874
 20
100.627777
 30
0.0
 10
147.979328
 20
99.938452
 30
0.0
 10
147.519108
 20
99.176452
 30
0.0
 10
147.321157
 20
98.934443
 30
0.0
  0
SPLINE
  5
235
100
AcDbEntity
  8
0
 62
7
100
AcDbSpline
 70
8
 71
3
 72
8
 73
4
 74
0
 40
0
 40
0
 40
0
 40
0
 40
1
 40
1
 40
1
 40
1
 10
147.321157
 20
98.934443
 30
0.0
 10
147.123206
 20
98.692438
 30
0.0
 10
146.792470
 20
98.113434
 30
0.0
 10
146.586250
 20
97.647767
 30
0.0
  0
SPLINE
  5
236
100
AcDbEntity
  8
0
 62
7
100
AcDbSpline
 70
8
 71
3
 72
8
 73
4
 74
0
 40
0
 40
0
 40
0
 40
0
 40
1
 40
1
 40
1
 40
1
 10
146.586250
 20
97.647767
 30
0.0
 10
146.380002
 20
97.182100
 30
0.0
 10
146.039642
 20
96.469797
 30
0.0
 10
145.829895
 20
96.064867
 30
0.0
  0
SPLINE
  5
237
100
AcDbEntity
  8
0
 62
7
100
AcDbSpline
 70
8
 71
3
 72
8
 73
4
 74
0
 40
0
 40
0
 40
0
 40
0
 40
1
 40
1
 40
1
 40
1
 10
145.829895
 20
96.064867
 30
0.0
 10
145.477569
 20
95.384647
 30
0.0
 10
145.508500
 20
95.275226
 30
0.0
 10
146.236408
 20
94.626649
 30
0.0
  0
SPLINE
  5
238
100
AcDbEntity
  8
0
 62
7
100
AcDbSpline
 70
8
 71
3
 72
8
 73
4
 74
0
 40
0
 40
0
 40
0
 40
0
 40
1
 40
1
 40
1
 40
1
 10
146.236408
 20
94.626649
 30
0.0
 10
147.334958
 20
93.647837
 30
0.0
 10
147.990814
 20
93.544022
 30
0.0
 10
151.365486
 20
93.814783
 30
0.0
  0
SPLINE
  5
239
100
AcDbEntity
  8
0
 62
7
100
AcDbSpline
 70
8
 71
3
 72
8
 73
4
 74
0
 40
0
 40
0
 40
0
 40
0
 40
1
 40
1
 40
1
 40
1
 10
151.365486
 20
93.814783
 30
0.0
 10
153.521015
 20
93.987726
 30
0.0
 10
154.799510
 20
94.252690
 30
0.0
 10
156.078738
 20
94.791599
 30
0.0
  0
SPLINE
  5
23a
100
AcDbEntity
  8
0
 62
7
100
AcDbSpline
 70
8
 71
3
 72
8
 73
4
 74
0
 40
0
 40
0
 40
0
 40
0
 40
1
 40
1
 40
1
 40
1
 10
156.078738
 20
94.791599
 30
0.0
 10
158.312725
 20
95.732731
 30
0.0
 10
158.916906
 20
95.720237
 30
0.0
 10
162.129555
 20
94.666493
 30
0.0
  0
SPLINE
  5
23b
100
AcDbEntity
  8
0
 62
7
100
AcDbSpline
 70
8
 71
3
 72
8
 73
4
 74
0
 40
0
 40
0
 40
0
 40
0
 40
1
 40
1
 40
1
 40
1
 10
162.129555
 20
94.666493
 30
0.0
 10
163.579358
 20
94.190960
 30
0.0
 10
165.745866
 20
93.657675
 30
0.0
 10
166.944012
 20
93.481419
 30
0.0
  0
SPLINE
  5
23c
100
AcDbEntity
  8
0
 62
7
100
AcDbSpline
 70
8
 71
3
 72
8
 73
4
 74
0
 40
0
 40
0
 40
0
 40
0
 40
1
 40
1
 40
1
 40
1
 10
166.944012
 20
93.481419
 30
0.0
 10
168.820423
 20
93.205389
 30
0.0
 10
169.387802
 20
93.230306
 30
0.0
 10
171.036234
 20
93.661144
 30
0.0
  0
SPLINE
  5
23d
100
AcDbEntity
  8
0
 62
7
100
AcDbSpline
 70
8
 71
3
 72
8
 73
4
 74
0
 40
0
 40
0
 40
0
 40
0
 40
1
 40
1
 40
1
 40
1
 10
171.036234
 20
93.661144
 30
0.0
 10
176.519360
 20
95.094220
 30
0.0
 10
178.165591
 20
95.254999
 30
0.0
 10
180.428900
 20
94.578473
 30
0.0
  0
LWPOLYLINE
  5
23e
100
AcDbEntity
  8
0
 62
7
100
AcDbPolyline
 90
3
 70
0
 10
173.304680
 20
143.808914
 30
0.0
 10
172.880726
 20
143.203643
 30
0.0
 10
172.712944
 20
143.845281
 30
0.0
  0
SPLINE
  5
23f
100
AcDbEntity
  8
0
 62
7
100
AcDbSpline
 70
8
 71
3
 72
8
 73
4
 74
0
 40
0
 40
0
 40
0
 40
0
 40
1
 40
1
 40
1
 40
1
 10
168.047952
 20
61.382211
 30
0.0
 10
156.800268
 20
61.382211
 30
0.0
 10
154.192845
 20
61.452702
 30
0.0
 10
153.934696
 20
61.763753
 30
0.0
  0
SPLINE
  5
240
100
AcDbEntity
  8
0
 62
7
100
AcDbSpline
 70
8
 71
3
 72
8
 73
4
 74
0
 40
0
 40
0
 40
0
 40
0
 40
1
 40
1
 40
1
 40
1
 10
153.934696
 20
61.763753
 30
0.0
 10
153.612540
 20
62.151947
 30
0.0
 10
153.604891
 20
62.133385
 30
0.0
 10
155.590663
 20
65.788649
 30
0.0
  0
SPLINE
  5
241
100
AcDbEntity
  8
0
 62
7
100
AcDbSpline
 70
8
 71
3
 72
8
 73
4
 74
0
 40
0
 40
0
 40
0
 40
0
 40
1
 40
1
 40
1
 40
1
 10
155.590663
 20
65.788649
 30
0.0
 10
156.196820
 20
66.904397
 30
0.0
 10
156.202380
 20
66.978455
 30
0.0
 10
155.733778
 20
67.693649
 30
0.0
  0
SPLINE
  5
242
100
AcDbEntity
  8
0
 62
7
100
AcDbSpline
 70
8
 71
3
 72
8
 73
4
 74
0
 40
0
 40
0
 40
0
 40
0
 40
1
 40
1
 40
1
 40
1
 10
155.733778
 20
67.693649
 30
0.0
 10
155.465611
 20
68.102913
 30
0.0
 10
155.137076
 20
68.437767
 30
0.0
 10
155.003698
 20
68.437767
 30
0.0
  0
SPLINE
  5
243
100
AcDbEntity
  8
0
 62
7
100
AcDbSpline
 70
8
 71
3
 72
8
 73
4
 74
0
 40
0
 40
0
 40
0
 40
0
 40
1
 40
1
 40
1
 40
1
 10
155.003698
 20
68.437767
 30
0.0
 10
154.553045
 20
68.437767
 30
0.0
 10
153.850707
 20
70.178485
 30
0.0
 10
154.023540
 20
70.867051
 30
0.0
  0
SPLINE
  5
244
100
AcDbEntity
  8
0
 62
7
100
AcDbSpline
 70
8
 71
3
 72
8
 73
4
 74
0
 40
0
 40
0
 40
0
 40
0
 40
1
 40
1
 40
1
 40
1
 10
154.023540
 20
70.867051
 30
0.0
 10
154.116730
 20
71.238391
 30
0.0
 10
154.072138
 20
71.542211
 30
0.0
 10
153.924423
 20
71.542211
 30
0.0
  0
SPLINE
  5
245
100
AcDbEntity
  8
0
 62
7
100
AcDbSpline
 70
8
 71
3
 72
8
 73
4
 74
0
 40
0
 40
0
 40
0
 40
0
 40
1
 40
1
 40
1
 40
1
 10
153.924423
 20
71.542211
 30
0.0
 10
153.776680
 20
71.542211
 30
0.0
 10
153.573395
 20
71.827961
 30
0.0
 10
153.472614
 20
72.177211
 30
0.0
  0
SPLINE
  5
246
100
AcDbEntity
  8
0
 62
7
100
AcDbSpline
 70
8
 71
3
 72
8
 73
4
 74
0
 40
0
 40
0
 40
0
 40
0
 40
1
 40
1
 40
1
 40
1
 10
153.472614
 20
72.177211
 30
0.0
 10
153.255049
 20
72.931247
 30
0.0
 10
150.447474
 20
75.640643
 30
0.0
 10
149.243344
 20
76.258554
 30
0.0
  0
SPLINE
  5
247
100
AcDbEntity
  8
0
 62
7
100
AcDbSpline
 70
8
 71
3
 72
8
 73
4
 74
0
 40
0
 40
0
 40
0
 40
0
 40
1
 40
1
 40
1
 40
1
 10
149.243344
 20
76.258554
 30
0.0
 10
148.777678
 20
76.497520
 30
0.0
 10
147.444178
 20
77.538821
 30
0.0
 10
146.280011
 20
78.572556
 30
0.0
  0
SPLINE
  5
248
100
AcDbEntity
  8
0
 62
7
100
AcDbSpline
 70
8
 71
3
 72
8
 73
4
 74
0
 40
0
 40
0
 40
0
 40
0
 40
1
 40
1
 40
1
 40
1
 10
146.280011
 20
78.572556
 30
0.0
 10
143.400611
 20
81.129348
 30
0.0
 10
141.537775
 20
82.407078
 30
0.0
 10
139.456612
 20
83.252729
 30
0.0
  0
SPLINE
  5
249
100
AcDbEntity
  8
0
 62
7
100
AcDbSpline
 70
8
 71
3
 72
8
 73
4
 74
0
 40
0
 40
0
 40
0
 40
0
 40
1
 40
1
 40
1
 40
1
 10
139.456612
 20
83.252729
 30
0.0
 10
138.491355
 20
83.644945
 30
0.0
 10
137.093988
 20
84.478197
 30
0.0
 10
136.351349
 20
85.104403
 30
0.0
  0
SPLINE
  5
24a
100
AcDbEntity
  8
0
 62
7
100
AcDbSpline
 70
8
 71
3
 72
8
 73
4
 74
0
 40
0
 40
0
 40
0
 40
0
 40
1
 40
1
 40
1
 40
1
 10
136.351349
 20
85.104403
 30
0.0
 10
135.211030
 20
86.065926
 30
0.0
 10
134.912552
 20
86.195576
 30
0.0
 10
134.431673
 20
85.938212
 30
0.0
  0
SPLINE
  5
24b
100
AcDbEntity
  8
0
 62
7
100
AcDbSpline
 70
8
 71
3
 72
8
 73
4
 74
0
 40
0
 40
0
 40
0
 40
0
 40
1
 40
1
 40
1
 40
1
 10
134.431673
 20
85.938212
 30
0.0
 10
134.118463
 20
85.770600
 30
0.0
 10
133.862233
 20
85.565170
 30
0.0
 10
133.862233
 20
85.481698
 30
0.0
  0
SPLINE
  5
24c
100
AcDbEntity
  8
0
 62
7
100
AcDbSpline
 70
8
 71
3
 72
8
 73
4
 74
0
 40
0
 40
0
 40
0
 40
0
 40
1
 40
1
 40
1
 40
1
 10
133.862233
 20
85.481698
 30
0.0
 10
133.862233
 20
85.398228
 30
0.0
 10
134.811601
 20
84.361927
 30
0.0
 10
135.971929
 20
83.178809
 30
0.0
  0
SPLINE
  5
24d
100
AcDbEntity
  8
0
 62
7
100
AcDbSpline
 70
8
 71
3
 72
8
 73
4
 74
0
 40
0
 40
0
 40
0
 40
0
 40
1
 40
1
 40
1
 40
1
 10
135.971929
 20
83.178809
 30
0.0
 10
137.132258
 20
81.995691
 30
0.0
 10
138.397432
 20
80.385704
 30
0.0
 10
138.783427
 20
79.601059
 30
0.0
  0
SPLINE
  5
24e
100
AcDbEntity
  8
0
 62
7
100
AcDbSpline
 70
8
 71
3
 72
8
 73
4
 74
0
 40
0
 40
0
 40
0
 40
0
 40
1
 40
1
 40
1
 40
1
 10
138.783427
 20
79.601059
 30
0.0
 10
139.630517
 20
77.879150
 30
0.0
 10
140.435951
 20
76.904434
 30
0.0
 10
141.011684
 20
76.904434
 30
0.0
  0
SPLINE
  5
24f
100
AcDbEntity
  8
0
 62
7
100
AcDbSpline
 70
8
 71
3
 72
8
 73
4
 74
0
 40
0
 40
0
 40
0
 40
0
 40
1
 40
1
 40
1
 40
1
 10
141.011684
 20
76.904434
 30
0.0
 10
141.247199
 20
76.904434
 30
0.0
 10
141.564783
 20
76.493383
 30
0.0
 10
141.720316
 20
75.987211
 30
0.0
  0
SPLINE
  5
250
100
AcDbEntity
  8
0
 62
7
100
AcDbSpline
 70
8
 71
3
 72
8
 73
4
 74
0
 40
0
 40
0
 40
0
 40
0
 40
1
 40
1
 40
1
 40
1
 10
141.720316
 20
75.987211
 30
0.0
 10
142.123781
 20
74.674300
 30
0.0
 10
142.387461
 20
72.023191
 30
0.0
 10
142.170743
 20
71.458437
 30
0.0
  0
SPLINE
  5
251
100
AcDbEntity
  8
0
 62
7
100
AcDbSpline
 70
8
 71
3
 72
8
 73
4
 74
0
 40
0
 40
0
 40
0
 40
0
 40
1
 40
1
 40
1
 40
1
 10
142.170743
 20
71.458437
 30
0.0
 10
141.941268
 20
70.860461
 30
0.0
 10
140.826688
 20
70.830746
 30
0.0
 10
140.346120
 20
71.409793
 30
0.0
  0
SPLINE
  5
252
100
AcDbEntity
  8
0
 62
7
100
AcDbSpline
 70
8
 71
3
 72
8
 73
4
 74
0
 40
0
 40
0
 40
0
 40
0
 40
1
 40
1
 40
1
 40
1
 10
140.346120
 20
71.409793
 30
0.0
 10
138.850680
 20
73.211705
 30
0.0
 10
135.837789
 20
74.906952
 30
0.0
 10
135.837789
 20
73.946477
 30
0.0
  0
SPLINE
  5
253
100
AcDbEntity
  8
0
 62
7
100
AcDbSpline
 70
8
 71
3
 72
8
 73
4
 74
0
 40
0
 40
0
 40
0
 40
0
 40
1
 40
1
 40
1
 40
1
 10
135.837789
 20
73.946477
 30
0.0
 10
135.837789
 20
73.710686
 30
0.0
 10
135.742539
 20
73.521489
 30
0.0
 10
135.626122
 20
73.526039
 30
0.0
  0
SPLINE
  5
254
100
AcDbEntity
  8
0
 62
7
100
AcDbSpline
 70
8
 71
3
 72
8
 73
4
 74
0
 40
0
 40
0
 40
0
 40
0
 40
1
 40
1
 40
1
 40
1
 10
135.626122
 20
73.526039
 30
0.0
 10
135.295696
 20
73.538965
 30
0.0
 10
133.580011
 20
75.171239
 30
0.0
 10
133.580011
 20
75.472689
 30
0.0
  0
SPLINE
  5
255
100
AcDbEntity
  8
0
 62
7
100
AcDbSpline
 70
8
 71
3
 72
8
 73
4
 74
0
 40
0
 40
0
 40
0
 40
0
 40
1
 40
1
 40
1
 40
1
 10
133.580011
 20
75.472689
 30
0.0
 10
133.580011
 20
76.457106
 30
0.0
 10
132.033405
 20
76.031261
 30
0.0
 10
131.439835
 20
74.883404
 30
0.0
  0
SPLINE
  5
256
100
AcDbEntity
  8
0
 62
7
100
AcDbSpline
 70
8
 71
3
 72
8
 73
4
 74
0
 40
0
 40
0
 40
0
 40
0
 40
1
 40
1
 40
1
 40
1
 10
131.439835
 20
74.883404
 30
0.0
 10
130.880443
 20
73.801654
 30
0.0
 10
131.054856
 20
73.359576
 30
0.0
 10
132.125579
 20
73.145434
 30
0.0
  0
SPLINE
  5
257
100
AcDbEntity
  8
0
 62
7
100
AcDbSpline
 70
8
 71
3
 72
8
 73
4
 74
0
 40
0
 40
0
 40
0
 40
0
 40
1
 40
1
 40
1
 40
1
 10
132.125579
 20
73.145434
 30
0.0
 10
133.375231
 20
72.895504
 30
0.0
 10
136.459158
 20
69.887337
 30
0.0
 10
136.245544
 20
69.126674
 30
0.0
  0
SPLINE
  5
258
100
AcDbEntity
  8
0
 62
7
100
AcDbSpline
 70
8
 71
3
 72
8
 73
4
 74
0
 40
0
 40
0
 40
0
 40
0
 40
1
 40
1
 40
1
 40
1
 10
136.245544
 20
69.126674
 30
0.0
 10
136.098393
 20
68.602672
 30
0.0
 10
135.913227
 20
68.557819
 30
0.0
 10
134.360807
 20
68.670109
 30
0.0
  0
SPLINE
  5
259
100
AcDbEntity
  8
0
 62
7
100
AcDbSpline
 70
8
 71
3
 72
8
 73
4
 74
0
 40
0
 40
0
 40
0
 40
0
 40
1
 40
1
 40
1
 40
1
 10
134.360807
 20
68.670109
 30
0.0
 10
132.929320
 20
68.773654
 30
0.0
 10
132.575836
 20
68.707927
 30
0.0
 10
132.262965
 20
68.280039
 30
0.0
  0
SPLINE
  5
25a
100
AcDbEntity
  8
0
 62
7
100
AcDbSpline
 70
8
 71
3
 72
8
 73
4
 74
0
 40
0
 40
0
 40
0
 40
0
 40
1
 40
1
 40
1
 40
1
 10
132.262965
 20
68.280039
 30
0.0
 10
131.752312
 20
67.581691
 30
0.0
 10
131.790017
 20
67.308878
 30
0.0
 10
132.397190
 20
67.308878
 30
0.0
  0
SPLINE
  5
25b
100
AcDbEntity
  8
0
 62
7
100
AcDbSpline
 70
8
 71
3
 72
8
 73
4
 74
0
 40
0
 40
0
 40
0
 40
0
 40
1
 40
1
 40
1
 40
1
 10
132.397190
 20
67.308878
 30
0.0
 10
132.677944
 20
67.308878
 30
0.0
 10
133.154194
 20
67.122417
 30
0.0
 10
133.455523
 20
66.894519
 30
0.0
  0
SPLINE
  5
25c
100
AcDbEntity
  8
0
 62
7
100
AcDbSpline
 70
8
 71
3
 72
8
 73
4
 74
0
 40
0
 40
0
 40
0
 40
0
 40
1
 40
1
 40
1
 40
1
 10
133.455523
 20
66.894519
 30
0.0
 10
133.756823
 20
66.666625
 30
0.0
 10
134.289094
 20
66.476125
 30
0.0
 10
134.638344
 20
66.471186
 30
0.0
  0
SPLINE
  5
25d
100
AcDbEntity
  8
0
 62
7
100
AcDbSpline
 70
8
 71
3
 72
8
 73
4
 74
0
 40
0
 40
0
 40
0
 40
0
 40
1
 40
1
 40
1
 40
1
 10
134.638344
 20
66.471186
 30
0.0
 10
134.987594
 20
66.466247
 30
0.0
 10
135.273344
 20
66.335211
 30
0.0
 10
135.273344
 20
66.179989
 30
0.0
  0
SPLINE
  5
25e
100
AcDbEntity
  8
0
 62
7
100
AcDbSpline
 70
8
 71
3
 72
8
 73
4
 74
0
 40
0
 40
0
 40
0
 40
0
 40
1
 40
1
 40
1
 40
1
 10
135.273344
 20
66.179989
 30
0.0
 10
135.273344
 20
65.898151
 30
0.0
 10
134.724422
 20
65.788126
 30
0.0
 10
133.791678
 20
65.883007
 30
0.0
  0
SPLINE
  5
25f
100
AcDbEntity
  8
0
 62
7
100
AcDbSpline
 70
8
 71
3
 72
8
 73
4
 74
0
 40
0
 40
0
 40
0
 40
0
 40
1
 40
1
 40
1
 40
1
 10
133.791678
 20
65.883007
 30
0.0
 10
133.520039
 20
65.910636
 30
0.0
 10
133.297789
 20
65.822210
 30
0.0
 10
133.297789
 20
65.686501
 30
0.0
  0
SPLINE
  5
260
100
AcDbEntity
  8
0
 62
7
100
AcDbSpline
 70
8
 71
3
 72
8
 73
4
 74
0
 40
0
 40
0
 40
0
 40
0
 40
1
 40
1
 40
1
 40
1
 10
133.297789
 20
65.686501
 30
0.0
 10
133.297789
 20
65.342735
 30
0.0
 10
134.390045
 20
64.204434
 30
0.0
 10
134.719907
 20
64.204434
 30
0.0
  0
SPLINE
  5
261
100
AcDbEntity
  8
0
 62
7
100
AcDbSpline
 70
8
 71
3
 72
8
 73
4
 74
0
 40
0
 40
0
 40
0
 40
0
 40
1
 40
1
 40
1
 40
1
 10
134.719907
 20
64.204434
 30
0.0
 10
134.869061
 20
64.204434
 30
0.0
 10
134.991122
 20
63.774067
 30
0.0
 10
134.991122
 20
63.248064
 30
0.0
  0
SPLINE
  5
262
100
AcDbEntity
  8
0
 62
7
100
AcDbSpline
 70
8
 71
3
 72
8
 73
4
 74
0
 40
0
 40
0
 40
0
 40
0
 40
1
 40
1
 40
1
 40
1
 10
134.991122
 20
63.248064
 30
0.0
 10
134.991122
 20
62.378515
 30
0.0
 10
134.901460
 20
62.274872
 30
0.0
 10
134.003344
 20
62.106388
 30
0.0
  0
SPLINE
  5
263
100
AcDbEntity
  8
0
 62
7
100
AcDbSpline
 70
8
 71
3
 72
8
 73
4
 74
0
 40
0
 40
0
 40
0
 40
0
 40
1
 40
1
 40
1
 40
1
 10
134.003344
 20
62.106388
 30
0.0
 10
133.460067
 20
62.004469
 30
0.0
 10
133.015567
 20
61.799833
 30
0.0
 10
133.015567
 20
61.651646
 30
0.0
  0
SPLINE
  5
264
100
AcDbEntity
  8
0
 62
7
100
AcDbSpline
 70
8
 71
3
 72
8
 73
4
 74
0
 40
0
 40
0
 40
0
 40
0
 40
1
 40
1
 40
1
 40
1
 10
133.015567
 20
61.651646
 30
0.0
 10
133.015567
 20
61.483219
 30
0.0
 10
125.896426
 20
61.382211
 30
0.0
 10
114.025341
 20
61.382211
 30
0.0
  0
LWPOLYLINE
  5
265
100
AcDbEntity
  8
0
 62
7
100
AcDbPolyline
 90
5
 70
0
 10
180.428900
 20
94.578473
 30
0.0
 10
181.698900
 20
94.198859
 30
0.0
 10
181.771742
 20
77.790535
 30
0.0
 10
181.844555
 20
61.382211
 30
0.0
 10
168.047952
 20
61.382211
 30
0.0
  0
SPLINE
  5
266
100
AcDbEntity
  8
0
 62
7
100
AcDbSpline
 70
8
 71
3
 72
8
 73
4
 74
0
 40
0
 40
0
 40
0
 40
0
 40
1
 40
1
 40
1
 40
1
 10
93.968514
 20
62.658192
 30
0.0
 10
92.852409
 20
63.993413
 30
0.0
 10
92.482247
 20
65.604072
 30
0.0
 10
93.233946
 20
65.854632
 30
0.0
  0
SPLINE
  5
267
100
AcDbEntity
  8
0
 62
7
100
AcDbSpline
 70
8
 71
3
 72
8
 73
4
 74
0
 40
0
 40
0
 40
0
 40
0
 40
1
 40
1
 40
1
 40
1
 10
93.233946
 20
65.854632
 30
0.0
 10
93.444596
 20
65.924846
 30
0.0
 10
94.105504
 20
66.439526
 30
0.0
 10
94.702658
 20
66.998366
 30
0.0
  0
LWPOLYLINE
  5
268
100
AcDbEntity
  8
0
 62
7
100
AcDbPolyline
 90
3
 70
0
 10
114.025341
 20
61.382211
 30
0.0
 10
95.035088
 20
61.382211
 30
0.0
 10
93.968514
 20
62.658192
 30
0.0
  0
SPLINE
  5
269
100
AcDbEntity
  8
0
 62
7
100
AcDbSpline
 70
8
 71
3
 72
8
 73
4
 74
0
 40
0
 40
0
 40
0
 40
0
 40
1
 40
1
 40
1
 40
1
 10
95.436831
 20
69.566656
 30
0.0
 10
95.243509
 20
70.420378
 30
0.0
 10
94.970261
 20
71.198137
 30
0.0
 10
94.829630
 20
71.295010
 30
0.0
  0
SPLINE
  5
26a
100
AcDbEntity
  8
0
 62
7
100
AcDbSpline
 70
8
 71
3
 72
8
 73
4
 74
0
 40
0
 40
0
 40
0
 40
0
 40
1
 40
1
 40
1
 40
1
 10
94.829630
 20
71.295010
 30
0.0
 10
94.688970
 20
71.391880
 30
0.0
 10
94.153962
 20
71.342254
 30
0.0
 10
93.640684
 20
71.184726
 30
0.0
  0
SPLINE
  5
26b
100
AcDbEntity
  8
0
 62
7
100
AcDbSpline
 70
8
 71
3
 72
8
 73
4
 74
0
 40
0
 40
0
 40
0
 40
0
 40
1
 40
1
 40
1
 40
1
 10
93.640684
 20
71.184726
 30
0.0
 10
91.992873
 20
70.678992
 30
0.0
 10
91.713248
 20
70.996952
 30
0.0
 10
91.894293
 20
73.170532
 30
0.0
  0
SPLINE
  5
26c
100
AcDbEntity
  8
0
 62
7
100
AcDbSpline
 70
8
 71
3
 72
8
 73
4
 74
0
 40
0
 40
0
 40
0
 40
0
 40
1
 40
1
 40
1
 40
1
 10
91.894293
 20
73.170532
 30
0.0
 10
91.981330
 20
74.215234
 30
0.0
 10
92.117446
 20
75.353335
 30
0.0
 10
92.196807
 20
75.699647
 30
0.0
  0
SPLINE
  5
26d
100
AcDbEntity
  8
0
 62
7
100
AcDbSpline
 70
8
 71
3
 72
8
 73
4
 74
0
 40
0
 40
0
 40
0
 40
0
 40
1
 40
1
 40
1
 40
1
 10
92.196807
 20
75.699647
 30
0.0
 10
92.390694
 20
76.545701
 30
0.0
 10
93.941900
 20
78.770868
 30
0.0
 10
94.482440
 20
78.978284
 30
0.0
  0
SPLINE
  5
26e
100
AcDbEntity
  8
0
 62
7
100
AcDbSpline
 70
8
 71
3
 72
8
 73
4
 74
0
 40
0
 40
0
 40
0
 40
0
 40
1
 40
1
 40
1
 40
1
 10
94.482440
 20
78.978284
 30
0.0
 10
95.614772
 20
79.412811
 30
0.0
 10
94.630607
 20
80.862005
 30
0.0
 10
92.465257
 20
81.948552
 30
0.0
  0
SPLINE
  5
26f
100
AcDbEntity
  8
0
 62
7
100
AcDbSpline
 70
8
 71
3
 72
8
 73
4
 74
0
 40
0
 40
0
 40
0
 40
0
 40
1
 40
1
 40
1
 40
1
 10
92.465257
 20
81.948552
 30
0.0
 10
91.816118
 20
82.274296
 30
0.0
 10
91.213940
 20
82.655753
 30
0.0
 10
91.127100
 20
82.796235
 30
0.0
  0
SPLINE
  5
270
100
AcDbEntity
  8
0
 62
7
100
AcDbSpline
 70
8
 71
3
 72
8
 73
4
 74
0
 40
0
 40
0
 40
0
 40
0
 40
1
 40
1
 40
1
 40
1
 10
91.127100
 20
82.796235
 30
0.0
 10
91.040289
 20
82.936716
 30
0.0
 10
90.301431
 20
83.396767
 30
0.0
 10
89.485188
 20
83.818568
 30
0.0
  0
SPLINE
  5
271
100
AcDbEntity
  8
0
 62
7
100
AcDbSpline
 70
8
 71
3
 72
8
 73
4
 74
0
 40
0
 40
0
 40
0
 40
0
 40
1
 40
1
 40
1
 40
1
 10
89.485188
 20
83.818568
 30
0.0
 10
88.668945
 20
84.240369
 30
0.0
 10
87.738938
 20
84.825743
 30
0.0
 10
87.418474
 20
85.119400
 30
0.0
  0
SPLINE
  5
272
100
AcDbEntity
  8
0
 62
7
100
AcDbSpline
 70
8
 71
3
 72
8
 73
4
 74
0
 40
0
 40
0
 40
0
 40
0
 40
1
 40
1
 40
1
 40
1
 10
87.418474
 20
85.119400
 30
0.0
 10
87.098039
 20
85.413058
 30
0.0
 10
86.699767
 20
85.653323
 30
0.0
 10
86.533426
 20
85.653323
 30
0.0
  0
SPLINE
  5
273
100
AcDbEntity
  8
0
 62
7
100
AcDbSpline
 70
8
 71
3
 72
8
 73
4
 74
0
 40
0
 40
0
 40
0
 40
0
 40
1
 40
1
 40
1
 40
1
 10
86.533426
 20
85.653323
 30
0.0
 10
86.367112
 20
85.653323
 30
0.0
 10
85.370670
 20
86.452539
 30
0.0
 10
84.319138
 20
87.429355
 30
0.0
  0
SPLINE
  5
274
100
AcDbEntity
  8
0
 62
7
100
AcDbSpline
 70
8
 71
3
 72
8
 73
4
 74
0
 40
0
 40
0
 40
0
 40
0
 40
1
 40
1
 40
1
 40
1
 10
84.319138
 20
87.429355
 30
0.0
 10
82.677452
 20
88.954425
 30
0.0
 10
82.434007
 20
89.303373
 30
0.0
 10
82.596482
 20
89.898800
 30
0.0
  0
SPLINE
  5
275
100
AcDbEntity
  8
0
 62
7
100
AcDbSpline
 70
8
 71
3
 72
8
 73
4
 74
0
 40
0
 40
0
 40
0
 40
0
 40
1
 40
1
 40
1
 40
1
 10
82.596482
 20
89.898800
 30
0.0
 10
82.821018
 20
90.721610
 30
0.0
 10
87.660536
 20
94.684434
 30
0.0
 10
88.440853
 20
94.684434
 30
0.0
  0
SPLINE
  5
276
100
AcDbEntity
  8
0
 62
7
100
AcDbSpline
 70
8
 71
3
 72
8
 73
4
 74
0
 40
0
 40
0
 40
0
 40
0
 40
1
 40
1
 40
1
 40
1
 10
88.440853
 20
94.684434
 30
0.0
 10
88.730780
 20
94.684434
 30
0.0
 10
89.639450
 20
94.419348
 30
0.0
 10
90.460124
 20
94.095351
 30
0.0
  0
SPLINE
  5
277
100
AcDbEntity
  8
0
 62
7
100
AcDbSpline
 70
8
 71
3
 72
8
 73
4
 74
0
 40
0
 40
0
 40
0
 40
0
 40
1
 40
1
 40
1
 40
1
 10
90.460124
 20
94.095351
 30
0.0
 10
92.187663
 20
93.413322
 30
0.0
 10
93.583562
 20
93.517211
 30
0.0
 10
94.335092
 20
94.383737
 30
0.0
  0
SPLINE
  5
278
100
AcDbEntity
  8
0
 62
7
100
AcDbSpline
 70
8
 71
3
 72
8
 73
4
 74
0
 40
0
 40
0
 40
0
 40
0
 40
1
 40
1
 40
1
 40
1
 10
94.335092
 20
94.383737
 30
0.0
 10
94.608481
 20
94.698957
 30
0.0
 10
95.180997
 20
95.137835
 30
0.0
 10
95.607350
 20
95.359027
 30
0.0
  0
SPLINE
  5
279
100
AcDbEntity
  8
0
 62
7
100
AcDbSpline
 70
8
 71
3
 72
8
 73
4
 74
0
 40
0
 40
0
 40
0
 40
0
 40
1
 40
1
 40
1
 40
1
 10
95.607350
 20
95.359027
 30
0.0
 10
96.275229
 20
95.705525
 30
0.0
 10
96.514102
 20
95.706205
 30
0.0
 10
97.333308
 20
95.363937
 30
0.0
  0
SPLINE
  5
27a
100
AcDbEntity
  8
0
 62
7
100
AcDbSpline
 70
8
 71
3
 72
8
 73
4
 74
0
 40
0
 40
0
 40
0
 40
0
 40
1
 40
1
 40
1
 40
1
 10
97.333308
 20
95.363937
 30
0.0
 10
98.573026
 20
94.845949
 30
0.0
 10
100.793804
 20
94.857315
 30
0.0
 10
102.064256
 20
95.388152
 30
0.0
  0
SPLINE
  5
27b
100
AcDbEntity
  8
0
 62
7
100
AcDbSpline
 70
8
 71
3
 72
8
 73
4
 74
0
 40
0
 40
0
 40
0
 40
0
 40
1
 40
1
 40
1
 40
1
 10
102.064256
 20
95.388152
 30
0.0
 10
102.805879
 20
95.698012
 30
0.0
 10
103.268300
 20
95.735384
 30
0.0
 10
103.810449
 20
95.529263
 30
0.0
  0
SPLINE
  5
27c
100
AcDbEntity
  8
0
 62
7
100
AcDbSpline
 70
8
 71
3
 72
8
 73
4
 74
0
 40
0
 40
0
 40
0
 40
0
 40
1
 40
1
 40
1
 40
1
 10
103.810449
 20
95.529263
 30
0.0
 10
104.216031
 20
95.375062
 30
0.0
 10
105.176659
 20
95.248895
 30
0.0
 10
105.945178
 20
95.248895
 30
0.0
  0
SPLINE
  5
27d
100
AcDbEntity
  8
0
 62
7
100
AcDbSpline
 70
8
 71
3
 72
8
 73
4
 74
0
 40
0
 40
0
 40
0
 40
0
 40
1
 40
1
 40
1
 40
1
 10
105.945178
 20
95.248895
 30
0.0
 10
107.264849
 20
95.248895
 30
0.0
 10
107.368707
 20
95.303903
 30
0.0
 10
107.814618
 20
96.238990
 30
0.0
  0
SPLINE
  5
27e
100
AcDbEntity
  8
0
 62
7
100
AcDbSpline
 70
8
 71
3
 72
8
 73
4
 74
0
 40
0
 40
0
 40
0
 40
0
 40
1
 40
1
 40
1
 40
1
 10
107.814618
 20
96.238990
 30
0.0
 10
108.266569
 20
97.186757
 30
0.0
 10
108.262251
 20
97.262161
 30
0.0
 10
107.713272
 20
98.002879
 30
0.0
  0
SPLINE
  5
27f
100
AcDbEntity
  8
0
 62
7
100
AcDbSpline
 70
8
 71
3
 72
8
 73
4
 74
0
 40
0
 40
0
 40
0
 40
0
 40
1
 40
1
 40
1
 40
1
 10
107.713272
 20
98.002879
 30
0.0
 10
106.882974
 20
99.123194
 30
0.0
 10
104.943289
 20
100.538256
 30
0.0
 10
103.727871
 20
100.910341
 30
0.0
  0
SPLINE
  5
280
100
AcDbEntity
  8
0
 62
7
100
AcDbSpline
 70
8
 71
3
 72
8
 73
4
 74
0
 40
0
 40
0
 40
0
 40
0
 40
1
 40
1
 40
1
 40
1
 10
103.727871
 20
100.910341
 30
0.0
 10
102.046673
 20
101.425026
 30
0.0
 10
96.249631
 20
101.587160
 30
0.0
 10
94.697889
 20
101.162896
 30
0.0
  0
SPLINE
  5
281
100
AcDbEntity
  8
0
 62
7
100
AcDbSpline
 70
8
 71
3
 72
8
 73
4
 74
0
 40
0
 40
0
 40
0
 40
0
 40
1
 40
1
 40
1
 40
1
 10
94.697889
 20
101.162896
 30
0.0
 10
93.963885
 20
100.962210
 30
0.0
 10
91.792439
 20
100.130267
 30
0.0
 10
89.872453
 20
99.314134
 30
0.0
  0
LWPOLYLINE
  5
282
100
AcDbEntity
  8
0
 62
7
100
AcDbPolyline
 90
3
 70
0
 10
94.702658
 20
66.998366
 30
0.0
 10
95.788367
 20
68.014434
 30
0.0
 10
95.436831
 20
69.566656
 30
0.0
  0
SPLINE
  5
283
100
AcDbEntity
  8
0
 62
7
100
AcDbSpline
 70
8
 71
3
 72
8
 73
4
 74
0
 40
0
 40
0
 40
0
 40
0
 40
1
 40
1
 40
1
 40
1
 10
84.610025
 20
99.575830
 30
0.0
 10
82.620979
 20
101.535742
 30
0.0
 10
82.064154
 20
102.886985
 30
0.0
 10
82.287533
 20
105.211791
 30
0.0
  0
SPLINE
  5
284
100
AcDbEntity
  8
0
 62
7
100
AcDbSpline
 70
8
 71
3
 72
8
 73
4
 74
0
 40
0
 40
0
 40
0
 40
0
 40
1
 40
1
 40
1
 40
1
 10
82.287533
 20
105.211791
 30
0.0
 10
82.461975
 20
107.027400
 30
0.0
 10
82.715185
 20
107.218312
 30
0.0
 10
84.047753
 20
106.538933
 30
0.0
  0
SPLINE
  5
285
100
AcDbEntity
  8
0
 62
7
100
AcDbSpline
 70
8
 71
3
 72
8
 73
4
 74
0
 40
0
 40
0
 40
0
 40
0
 40
1
 40
1
 40
1
 40
1
 10
84.047753
 20
106.538933
 30
0.0
 10
84.653092
 20
106.230320
 30
0.0
 10
85.218722
 20
106.089903
 30
0.0
 10
85.304743
 20
106.226899
 30
0.0
  0
SPLINE
  5
286
100
AcDbEntity
  8
0
 62
7
100
AcDbSpline
 70
8
 71
3
 72
8
 73
4
 74
0
 40
0
 40
0
 40
0
 40
0
 40
1
 40
1
 40
1
 40
1
 10
85.304743
 20
106.226899
 30
0.0
 10
85.497077
 20
106.533246
 30
0.0
 10
87.780029
 20
106.820376
 30
0.0
 10
90.964456
 20
106.938734
 30
0.0
  0
SPLINE
  5
287
100
AcDbEntity
  8
0
 62
7
100
AcDbSpline
 70
8
 71
3
 72
8
 73
4
 74
0
 40
0
 40
0
 40
0
 40
0
 40
1
 40
1
 40
1
 40
1
 10
90.964456
 20
106.938734
 30
0.0
 10
93.361708
 20
107.027835
 30
0.0
 10
95.433755
 20
107.580093
 30
0.0
 10
96.183394
 20
108.329734
 30
0.0
  0
SPLINE
  5
288
100
AcDbEntity
  8
0
 62
7
100
AcDbSpline
 70
8
 71
3
 72
8
 73
4
 74
0
 40
0
 40
0
 40
0
 40
0
 40
1
 40
1
 40
1
 40
1
 10
96.183394
 20
108.329734
 30
0.0
 10
96.806597
 20
108.952954
 30
0.0
 10
98.894646
 20
109.157444
 30
0.0
 10
99.979085
 20
108.701463
 30
0.0
  0
SPLINE
  5
289
100
AcDbEntity
  8
0
 62
7
100
AcDbSpline
 70
8
 71
3
 72
8
 73
4
 74
0
 40
0
 40
0
 40
0
 40
0
 40
1
 40
1
 40
1
 40
1
 10
99.979085
 20
108.701463
 30
0.0
 10
100.807210
 20
108.353266
 30
0.0
 10
101.154089
 20
108.368226
 30
0.0
 10
102.926078
 20
108.828573
 30
0.0
  0
SPLINE
  5
28a
100
AcDbEntity
  8
0
 62
7
100
AcDbSpline
 70
8
 71
3
 72
8
 73
4
 74
0
 40
0
 40
0
 40
0
 40
0
 40
1
 40
1
 40
1
 40
1
 10
102.926078
 20
108.828573
 30
0.0
 10
104.030695
 20
109.115540
 30
0.0
 10
105.238663
 20
109.352510
 30
0.0
 10
105.610491
 20
109.355169
 30
0.0
  0
SPLINE
  5
28b
100
AcDbEntity
  8
0
 62
7
100
AcDbSpline
 70
8
 71
3
 72
8
 73
4
 74
0
 40
0
 40
0
 40
0
 40
0
 40
1
 40
1
 40
1
 40
1
 10
105.610491
 20
109.355169
 30
0.0
 10
106.256328
 20
109.359797
 30
0.0
 10
109.025662
 20
111.935292
 30
0.0
 10
110.063675
 20
113.496650
 30
0.0
  0
SPLINE
  5
28c
100
AcDbEntity
  8
0
 62
7
100
AcDbSpline
 70
8
 71
3
 72
8
 73
4
 74
0
 40
0
 40
0
 40
0
 40
0
 40
1
 40
1
 40
1
 40
1
 10
110.063675
 20
113.496650
 30
0.0
 10
110.675335
 20
114.416689
 30
0.0
 10
110.202020
 20
114.528220
 30
0.0
 10
106.632502
 20
114.305186
 30
0.0
  0
SPLINE
  5
28d
100
AcDbEntity
  8
0
 62
7
100
AcDbSpline
 70
8
 71
3
 72
8
 73
4
 74
0
 40
0
 40
0
 40
0
 40
0
 40
1
 40
1
 40
1
 40
1
 10
106.632502
 20
114.305186
 30
0.0
 10
103.240530
 20
114.093248
 30
0.0
 10
102.872201
 20
114.173904
 30
0.0
 10
101.314476
 20
115.469714
 30
0.0
  0
SPLINE
  5
28e
100
AcDbEntity
  8
0
 62
7
100
AcDbSpline
 70
8
 71
3
 72
8
 73
4
 74
0
 40
0
 40
0
 40
0
 40
0
 40
1
 40
1
 40
1
 40
1
 10
101.314476
 20
115.469714
 30
0.0
 10
100.396238
 20
116.233548
 30
0.0
 10
99.309513
 20
116.300017
 30
0.0
 10
96.750011
 20
115.748896
 30
0.0
  0
SPLINE
  5
28f
100
AcDbEntity
  8
0
 62
7
100
AcDbSpline
 70
8
 71
3
 72
8
 73
4
 74
0
 40
0
 40
0
 40
0
 40
0
 40
1
 40
1
 40
1
 40
1
 10
96.750011
 20
115.748896
 30
0.0
 10
94.914776
 20
115.353729
 30
0.0
 10
94.073416
 20
114.984464
 30
0.0
 10
93.537814
 20
114.339100
 30
0.0
  0
SPLINE
  5
290
100
AcDbEntity
  8
0
 62
7
100
AcDbSpline
 70
8
 71
3
 72
8
 73
4
 74
0
 40
0
 40
0
 40
0
 40
0
 40
1
 40
1
 40
1
 40
1
 10
93.537814
 20
114.339100
 30
0.0
 10
93.348866
 20
114.111429
 30
0.0
 10
92.565559
 20
113.774329
 30
0.0
 10
91.797152
 20
113.589987
 30
0.0
  0
SPLINE
  5
291
100
AcDbEntity
  8
0
 62
7
100
AcDbSpline
 70
8
 71
3
 72
8
 73
4
 74
0
 40
0
 40
0
 40
0
 40
0
 40
1
 40
1
 40
1
 40
1
 10
91.797152
 20
113.589987
 30
0.0
 10
91.028718
 20
113.405645
 30
0.0
 10
90.395439
 20
113.172236
 30
0.0
 10
90.389851
 20
113.071302
 30
0.0
  0
SPLINE
  5
292
100
AcDbEntity
  8
0
 62
7
100
AcDbSpline
 70
8
 71
3
 72
8
 73
4
 74
0
 40
0
 40
0
 40
0
 40
0
 40
1
 40
1
 40
1
 40
1
 10
90.389851
 20
113.071302
 30
0.0
 10
90.384207
 20
112.970368
 30
0.0
 10
90.089962
 20
112.533770
 30
0.0
 10
89.735829
 20
112.101089
 30
0.0
  0
LWPOLYLINE
  5
293
100
AcDbEntity
  8
0
 62
7
100
AcDbPolyline
 90
3
 70
0
 10
89.872453
 20
99.314134
 30
0.0
 10
86.381562
 20
97.830258
 30
0.0
 10
84.610025
 20
99.575830
 30
0.0
  0
SPLINE
  5
294
100
AcDbEntity
  8
0
 62
7
100
AcDbSpline
 70
8
 71
3
 72
8
 73
4
 74
0
 40
0
 40
0
 40
0
 40
0
 40
1
 40
1
 40
1
 40
1
 10
88.337588
 20
111.907762
 30
0.0
 10
87.023307
 20
112.941570
 30
0.0
 10
86.557386
 20
111.945740
 30
0.0
 10
87.574684
 20
110.277228
 30
0.0
  0
LWPOLYLINE
  5
295
100
AcDbEntity
  8
0
 62
7
100
AcDbPolyline
 90
3
 70
0
 10
89.735829
 20
112.101089
 30
0.0
 10
89.091939
 20
111.314395
 30
0.0
 10
88.337588
 20
111.907762
 30
0.0
  0
SPLINE
  5
296
100
AcDbEntity
  8
0
 62
7
100
AcDbSpline
 70
8
 71
3
 72
8
 73
4
 74
0
 40
0
 40
0
 40
0
 40
0
 40
1
 40
1
 40
1
 40
1
 10
86.642561
 20
109.360006
 30
0.0
 10
85.215984
 20
109.360006
 30
0.0
 10
85.136764
 20
109.399890
 30
0.0
 10
84.819321
 20
110.277728
 30
0.0
  0
SPLINE
  5
297
100
AcDbEntity
  8
0
 62
7
100
AcDbSpline
 70
8
 71
3
 72
8
 73
4
 74
0
 40
0
 40
0
 40
0
 40
0
 40
1
 40
1
 40
1
 40
1
 10
84.819321
 20
110.277728
 30
0.0
 10
84.556572
 20
111.004394
 30
0.0
 10
84.570372
 20
111.509721
 30
0.0
 10
84.885699
 20
112.704997
 30
0.0
  0
SPLINE
  5
298
100
AcDbEntity
  8
0
 62
7
100
AcDbSpline
 70
8
 71
3
 72
8
 73
4
 74
0
 40
0
 40
0
 40
0
 40
0
 40
1
 40
1
 40
1
 40
1
 10
84.885699
 20
112.704997
 30
0.0
 10
85.104704
 20
113.535247
 30
0.0
 10
85.465102
 20
114.424021
 30
0.0
 10
85.686561
 20
114.680053
 30
0.0
  0
SPLINE
  5
299
100
AcDbEntity
  8
0
 62
7
100
AcDbSpline
 70
8
 71
3
 72
8
 73
4
 74
0
 40
0
 40
0
 40
0
 40
0
 40
1
 40
1
 40
1
 40
1
 10
85.686561
 20
114.680053
 30
0.0
 10
85.908021
 20
114.936082
 30
0.0
 10
86.169302
 20
115.570021
 30
0.0
 10
86.267205
 20
116.088802
 30
0.0
  0
SPLINE
  5
29a
100
AcDbEntity
  8
0
 62
7
100
AcDbSpline
 70
8
 71
3
 72
8
 73
4
 74
0
 40
0
 40
0
 40
0
 40
0
 40
1
 40
1
 40
1
 40
1
 10
86.267205
 20
116.088802
 30
0.0
 10
86.512513
 20
117.388766
 30
0.0
 10
92.248877
 20
123.282991
 30
0.0
 10
92.537280
 20
122.531430
 30
0.0
  0
SPLINE
  5
29b
100
AcDbEntity
  8
0
 62
7
100
AcDbSpline
 70
8
 71
3
 72
8
 73
4
 74
0
 40
0
 40
0
 40
0
 40
0
 40
1
 40
1
 40
1
 40
1
 10
92.537280
 20
122.531430
 30
0.0
 10
92.670207
 20
122.185033
 30
0.0
 10
92.300496
 20
121.551902
 30
0.0
 10
91.280573
 20
120.379280
 30
0.0
  0
SPLINE
  5
29c
100
AcDbEntity
  8
0
 62
7
100
AcDbSpline
 70
8
 71
3
 72
8
 73
4
 74
0
 40
0
 40
0
 40
0
 40
0
 40
1
 40
1
 40
1
 40
1
 10
91.280573
 20
120.379280
 30
0.0
 10
90.345062
 20
119.303674
 30
0.0
 10
89.835567
 20
118.461283
 30
0.0
 10
89.835567
 20
117.990068
 30
0.0
  0
SPLINE
  5
29d
100
AcDbEntity
  8
0
 62
7
100
AcDbSpline
 70
8
 71
3
 72
8
 73
4
 74
0
 40
0
 40
0
 40
0
 40
0
 40
1
 40
1
 40
1
 40
1
 10
89.835567
 20
117.990068
 30
0.0
 10
89.835567
 20
116.869084
 30
0.0
 10
90.462326
 20
117.090979
 30
0.0
 10
92.562906
 20
118.955624
 30
0.0
  0
SPLINE
  5
29e
100
AcDbEntity
  8
0
 62
7
100
AcDbSpline
 70
8
 71
3
 72
8
 73
4
 74
0
 40
0
 40
0
 40
0
 40
0
 40
1
 40
1
 40
1
 40
1
 10
92.562906
 20
118.955624
 30
0.0
 10
93.803357
 20
120.056739
 30
0.0
 10
94.634925
 20
120.596856
 30
0.0
 10
94.940459
 20
120.499882
 30
0.0
  0
SPLINE
  5
29f
100
AcDbEntity
  8
0
 62
7
100
AcDbSpline
 70
8
 71
3
 72
8
 73
4
 74
0
 40
0
 40
0
 40
0
 40
0
 40
1
 40
1
 40
1
 40
1
 10
94.940459
 20
120.499882
 30
0.0
 10
95.500359
 20
120.322178
 30
0.0
 10
99.370332
 20
120.885287
 30
0.0
 10
100.045322
 20
121.242676
 30
0.0
  0
SPLINE
  5
2a0
100
AcDbEntity
  8
0
 62
7
100
AcDbSpline
 70
8
 71
3
 72
8
 73
4
 74
0
 40
0
 40
0
 40
0
 40
0
 40
1
 40
1
 40
1
 40
1
 10
100.045322
 20
121.242676
 30
0.0
 10
100.361242
 20
121.409944
 30
0.0
 10
100.789627
 20
121.337529
 30
0.0
 10
101.334683
 20
121.024716
 30
0.0
  0
SPLINE
  5
2a1
100
AcDbEntity
  8
0
 62
7
100
AcDbSpline
 70
8
 71
3
 72
8
 73
4
 74
0
 40
0
 40
0
 40
0
 40
0
 40
1
 40
1
 40
1
 40
1
 10
101.334683
 20
121.024716
 30
0.0
 10
102.114040
 20
120.577422
 30
0.0
 10
102.188574
 20
120.584108
 30
0.0
 10
102.984723
 20
121.172731
 30
0.0
  0
SPLINE
  5
2a2
100
AcDbEntity
  8
0
 62
7
100
AcDbSpline
 70
8
 71
3
 72
8
 73
4
 74
0
 40
0
 40
0
 40
0
 40
0
 40
1
 40
1
 40
1
 40
1
 10
102.984723
 20
121.172731
 30
0.0
 10
103.494163
 20
121.549379
 30
0.0
 10
104.419880
 20
121.850544
 30
0.0
 10
105.364280
 20
121.946883
 30
0.0
  0
SPLINE
  5
2a3
100
AcDbEntity
  8
0
 62
7
100
AcDbSpline
 70
8
 71
3
 72
8
 73
4
 74
0
 40
0
 40
0
 40
0
 40
0
 40
1
 40
1
 40
1
 40
1
 10
105.364280
 20
121.946883
 30
0.0
 10
106.214418
 20
122.033607
 30
0.0
 10
107.203607
 20
122.247193
 30
0.0
 10
107.562424
 20
122.421519
 30
0.0
  0
SPLINE
  5
2a4
100
AcDbEntity
  8
0
 62
7
100
AcDbSpline
 70
8
 71
3
 72
8
 73
4
 74
0
 40
0
 40
0
 40
0
 40
0
 40
1
 40
1
 40
1
 40
1
 10
107.562424
 20
122.421519
 30
0.0
 10
108.052390
 20
122.659548
 30
0.0
 10
108.350106
 20
122.654002
 30
0.0
 10
108.758030
 20
122.399251
 30
0.0
  0
SPLINE
  5
2a5
100
AcDbEntity
  8
0
 62
7
100
AcDbSpline
 70
8
 71
3
 72
8
 73
4
 74
0
 40
0
 40
0
 40
0
 40
0
 40
1
 40
1
 40
1
 40
1
 10
108.758030
 20
122.399251
 30
0.0
 10
109.497058
 20
121.937731
 30
0.0
 10
110.439115
 20
121.972780
 30
0.0
 10
110.978555
 20
122.481866
 30
0.0
  0
SPLINE
  5
2a6
100
AcDbEntity
  8
0
 62
7
100
AcDbSpline
 70
8
 71
3
 72
8
 73
4
 74
0
 40
0
 40
0
 40
0
 40
0
 40
1
 40
1
 40
1
 40
1
 10
110.978555
 20
122.481866
 30
0.0
 10
111.790367
 20
123.247970
 30
0.0
 10
113.197076
 20
124.317795
 30
0.0
 10
113.392627
 20
124.317795
 30
0.0
  0
SPLINE
  5
2a7
100
AcDbEntity
  8
0
 62
7
100
AcDbSpline
 70
8
 71
3
 72
8
 73
4
 74
0
 40
0
 40
0
 40
0
 40
0
 40
1
 40
1
 40
1
 40
1
 10
113.392627
 20
124.317795
 30
0.0
 10
113.498376
 20
124.317795
 30
0.0
 10
114.454686
 20
123.428795
 30
0.0
 10
115.517789
 20
122.342240
 30
0.0
  0
SPLINE
  5
2a8
100
AcDbEntity
  8
0
 62
7
100
AcDbSpline
 70
8
 71
3
 72
8
 73
4
 74
0
 40
0
 40
0
 40
0
 40
0
 40
1
 40
1
 40
1
 40
1
 10
115.517789
 20
122.342240
 30
0.0
 10
116.580892
 20
121.255684
 30
0.0
 10
117.646337
 20
120.366684
 30
0.0
 10
117.885436
 20
120.366684
 30
0.0
  0
SPLINE
  5
2a9
100
AcDbEntity
  8
0
 62
7
100
AcDbSpline
 70
8
 71
3
 72
8
 73
4
 74
0
 40
0
 40
0
 40
0
 40
0
 40
1
 40
1
 40
1
 40
1
 10
117.885436
 20
120.366684
 30
0.0
 10
118.461959
 20
120.366684
 30
0.0
 10
118.795574
 20
121.042970
 30
0.0
 10
119.141522
 20
122.912975
 30
0.0
  0
SPLINE
  5
2aa
100
AcDbEntity
  8
0
 62
7
100
AcDbSpline
 70
8
 71
3
 72
8
 73
4
 74
0
 40
0
 40
0
 40
0
 40
0
 40
1
 40
1
 40
1
 40
1
 10
119.141522
 20
122.912975
 30
0.0
 10
119.369191
 20
124.143729
 30
0.0
 10
119.345428
 20
124.586344
 30
0.0
 10
119.024880
 20
125.083978
 30
0.0
  0
SPLINE
  5
2ab
100
AcDbEntity
  8
0
 62
7
100
AcDbSpline
 70
8
 71
3
 72
8
 73
4
 74
0
 40
0
 40
0
 40
0
 40
0
 40
1
 40
1
 40
1
 40
1
 10
119.024880
 20
125.083978
 30
0.0
 10
118.421178
 20
126.021187
 30
0.0
 10
118.518065
 20
126.453139
 30
0.0
 10
119.733399
 20
128.242812
 30
0.0
  0
SPLINE
  5
2ac
100
AcDbEntity
  8
0
 62
7
100
AcDbSpline
 70
8
 71
3
 72
8
 73
4
 74
0
 40
0
 40
0
 40
0
 40
0
 40
1
 40
1
 40
1
 40
1
 10
119.733399
 20
128.242812
 30
0.0
 10
120.773952
 20
129.775078
 30
0.0
 10
121.326769
 20
130.176449
 30
0.0
 10
123.078438
 20
130.671453
 30
0.0
  0
SPLINE
  5
2ad
100
AcDbEntity
  8
0
 62
7
100
AcDbSpline
 70
8
 71
3
 72
8
 73
4
 74
0
 40
0
 40
0
 40
0
 40
0
 40
1
 40
1
 40
1
 40
1
 10
123.078438
 20
130.671453
 30
0.0
 10
124.072622
 20
130.952394
 30
0.0
 10
125.931253
 20
133.049734
 30
0.0
 10
126.131376
 20
134.116489
 30
0.0
  0
SPLINE
  5
2ae
100
AcDbEntity
  8
0
 62
7
100
AcDbSpline
 70
8
 71
3
 72
8
 73
4
 74
0
 40
0
 40
0
 40
0
 40
0
 40
1
 40
1
 40
1
 40
1
 10
126.131376
 20
134.116489
 30
0.0
 10
126.352187
 20
135.293522
 30
0.0
 10
125.198209
 20
137.116830
 30
0.0
 10
123.959084
 20
137.548799
 30
0.0
  0
SPLINE
  5
2af
100
AcDbEntity
  8
0
 62
7
100
AcDbSpline
 70
8
 71
3
 72
8
 73
4
 74
0
 40
0
 40
0
 40
0
 40
0
 40
1
 40
1
 40
1
 40
1
 10
123.959084
 20
137.548799
 30
0.0
 10
123.356088
 20
137.758970
 30
0.0
 10
123.137789
 20
138.017330
 30
0.0
 10
123.137789
 20
138.520753
 30
0.0
  0
SPLINE
  5
2b0
100
AcDbEntity
  8
0
 62
7
100
AcDbSpline
 70
8
 71
3
 72
8
 73
4
 74
0
 40
0
 40
0
 40
0
 40
0
 40
1
 40
1
 40
1
 40
1
 10
123.137789
 20
138.520753
 30
0.0
 10
123.137789
 20
138.897875
 30
0.0
 10
122.979039
 20
139.329762
 30
0.0
 10
122.785011
 20
139.480500
 30
0.0
  0
SPLINE
  5
2b1
100
AcDbEntity
  8
0
 62
7
100
AcDbSpline
 70
8
 71
3
 72
8
 73
4
 74
0
 40
0
 40
0
 40
0
 40
0
 40
1
 40
1
 40
1
 40
1
 10
122.785011
 20
139.480500
 30
0.0
 10
121.946275
 20
140.132109
 30
0.0
 10
118.011250
 20
141.529767
 30
0.0
 10
116.820724
 20
141.598917
 30
0.0
  0
SPLINE
  5
2b2
100
AcDbEntity
  8
0
 62
7
100
AcDbSpline
 70
8
 71
3
 72
8
 73
4
 74
0
 40
0
 40
0
 40
0
 40
0
 40
1
 40
1
 40
1
 40
1
 10
116.820724
 20
141.598917
 30
0.0
 10
115.428381
 20
141.679790
 30
0.0
 10
115.269800
 20
141.822832
 30
0.0
 10
115.948234
 20
142.385899
 30
0.0
  0
SPLINE
  5
2b3
100
AcDbEntity
  8
0
 62
7
100
AcDbSpline
 70
8
 71
3
 72
8
 73
4
 74
0
 40
0
 40
0
 40
0
 40
0
 40
1
 40
1
 40
1
 40
1
 10
115.948234
 20
142.385899
 30
0.0
 10
116.332706
 20
142.704982
 30
0.0
 10
116.328726
 20
142.798344
 30
0.0
 10
115.911009
 20
143.259916
 30
0.0
  0
SPLINE
  5
2b4
100
AcDbEntity
  8
0
 62
7
100
AcDbSpline
 70
8
 71
3
 72
8
 73
4
 74
0
 40
0
 40
0
 40
0
 40
0
 40
1
 40
1
 40
1
 40
1
 10
115.911009
 20
143.259916
 30
0.0
 10
115.653792
 20
143.544142
 30
0.0
 10
115.206103
 20
143.851990
 30
0.0
 10
114.916119
 20
143.944025
 30
0.0
  0
SPLINE
  5
2b5
100
AcDbEntity
  8
0
 62
7
100
AcDbSpline
 70
8
 71
3
 72
8
 73
4
 74
0
 40
0
 40
0
 40
0
 40
0
 40
1
 40
1
 40
1
 40
1
 10
114.916119
 20
143.944025
 30
0.0
 10
114.593144
 20
144.046531
 30
0.0
 10
114.388900
 20
144.375252
 30
0.0
 10
114.388900
 20
144.792521
 30
0.0
  0
SPLINE
  5
2b6
100
AcDbEntity
  8
0
 62
7
100
AcDbSpline
 70
8
 71
3
 72
8
 73
4
 74
0
 40
0
 40
0
 40
0
 40
0
 40
1
 40
1
 40
1
 40
1
 10
114.388900
 20
144.792521
 30
0.0
 10
114.388900
 20
145.739235
 30
0.0
 10
113.204470
 20
146.017094
 30
0.0
 10
111.979964
 20
145.357645
 30
0.0
  0
SPLINE
  5
2b7
100
AcDbEntity
  8
0
 62
7
100
AcDbSpline
 70
8
 71
3
 72
8
 73
4
 74
0
 40
0
 40
0
 40
0
 40
0
 40
1
 40
1
 40
1
 40
1
 10
111.979964
 20
145.357645
 30
0.0
 10
110.114757
 20
144.353163
 30
0.0
 10
109.308420
 20
145.258176
 30
0.0
 10
110.768074
 20
146.717841
 30
0.0
  0
SPLINE
  5
2b8
100
AcDbEntity
  8
0
 62
7
100
AcDbSpline
 70
8
 71
3
 72
8
 73
4
 74
0
 40
0
 40
0
 40
0
 40
0
 40
1
 40
1
 40
1
 40
1
 10
110.768074
 20
146.717841
 30
0.0
 10
111.643132
 20
147.592890
 30
0.0
 10
111.919202
 20
147.687328
 30
0.0
 10
114.541272
 20
148.008528
 30
0.0
  0
LWPOLYLINE
  5
2b9
100
AcDbEntity
  8
0
 62
7
100
AcDbPolyline
 90
3
 70
0
 10
87.574684
 20
110.277228
 30
0.0
 10
88.133936
 20
109.360006
 30
0.0
 10
86.642561
 20
109.360006
 30
0.0
  0
SPLINE
  5
2ba
100
AcDbEntity
  8
0
 62
7
100
AcDbSpline
 70
8
 71
3
 72
8
 73
4
 74
0
 40
0
 40
0
 40
0
 40
0
 40
1
 40
1
 40
1
 40
1
 10
118.925227
 20
147.501747
 30
0.0
 10
120.026543
 20
146.897334
 30
0.0
 10
120.600188
 20
146.726615
 30
0.0
 10
120.891723
 20
146.916511
 30
0.0
  0
SPLINE
  5
2bb
100
AcDbEntity
  8
0
 62
7
100
AcDbSpline
 70
8
 71
3
 72
8
 73
4
 74
0
 40
0
 40
0
 40
0
 40
0
 40
1
 40
1
 40
1
 40
1
 10
120.891723
 20
146.916511
 30
0.0
 10
121.533186
 20
147.334324
 30
0.0
 10
119.461478
 20
149.153323
 30
0.0
 10
118.344160
 20
149.153323
 30
0.0
  0
SPLINE
  5
2bc
100
AcDbEntity
  8
0
 62
7
100
AcDbSpline
 70
8
 71
3
 72
8
 73
4
 74
0
 40
0
 40
0
 40
0
 40
0
 40
1
 40
1
 40
1
 40
1
 10
118.344160
 20
149.153323
 30
0.0
 10
117.876207
 20
149.153323
 30
0.0
 10
117.493344
 20
149.280323
 30
0.0
 10
117.493344
 20
149.435545
 30
0.0
  0
SPLINE
  5
2bd
100
AcDbEntity
  8
0
 62
7
100
AcDbSpline
 70
8
 71
3
 72
8
 73
4
 74
0
 40
0
 40
0
 40
0
 40
0
 40
1
 40
1
 40
1
 40
1
 10
117.493344
 20
149.435545
 30
0.0
 10
117.493344
 20
149.754151
 30
0.0
 10
117.745369
 20
149.783206
 30
0.0
 10
120.301371
 20
149.759248
 30
0.0
  0
SPLINE
  5
2be
100
AcDbEntity
  8
0
 62
7
100
AcDbSpline
 70
8
 71
3
 72
8
 73
4
 74
0
 40
0
 40
0
 40
0
 40
0
 40
1
 40
1
 40
1
 40
1
 10
120.301371
 20
149.759248
 30
0.0
 10
121.302498
 20
149.749878
 30
0.0
 10
122.286748
 20
149.879243
 30
0.0
 10
122.488593
 20
150.046756
 30
0.0
  0
SPLINE
  5
2bf
100
AcDbEntity
  8
0
 62
7
100
AcDbSpline
 70
8
 71
3
 72
8
 73
4
 74
0
 40
0
 40
0
 40
0
 40
0
 40
1
 40
1
 40
1
 40
1
 10
122.488593
 20
150.046756
 30
0.0
 10
123.542326
 20
150.921295
 30
0.0
 10
122.198045
 20
152.790205
 30
0.0
 10
120.095123
 20
153.374235
 30
0.0
  0
SPLINE
  5
2c0
100
AcDbEntity
  8
0
 62
7
100
AcDbSpline
 70
8
 71
3
 72
8
 73
4
 74
0
 40
0
 40
0
 40
0
 40
0
 40
1
 40
1
 40
1
 40
1
 10
120.095123
 20
153.374235
 30
0.0
 10
118.690870
 20
153.764241
 30
0.0
 10
114.427960
 20
153.748104
 30
0.0
 10
113.231563
 20
153.348243
 30
0.0
  0
SPLINE
  5
2c1
100
AcDbEntity
  8
0
 62
7
100
AcDbSpline
 70
8
 71
3
 72
8
 73
4
 74
0
 40
0
 40
0
 40
0
 40
0
 40
1
 40
1
 40
1
 40
1
 10
113.231563
 20
153.348243
 30
0.0
 10
112.099626
 20
152.969929
 30
0.0
 10
110.797933
 20
151.833406
 30
0.0
 10
110.551920
 20
151.008618
 30
0.0
  0
SPLINE
  5
2c2
100
AcDbEntity
  8
0
 62
7
100
AcDbSpline
 70
8
 71
3
 72
8
 73
4
 74
0
 40
0
 40
0
 40
0
 40
0
 40
1
 40
1
 40
1
 40
1
 10
110.551920
 20
151.008618
 30
0.0
 10
110.455908
 20
150.686698
 30
0.0
 10
110.019733
 20
149.851808
 30
0.0
 10
109.582627
 20
149.153308
 30
0.0
  0
SPLINE
  5
2c3
100
AcDbEntity
  8
0
 62
7
100
AcDbSpline
 70
8
 71
3
 72
8
 73
4
 74
0
 40
0
 40
0
 40
0
 40
0
 40
1
 40
1
 40
1
 40
1
 10
109.582627
 20
149.153308
 30
0.0
 10
108.543203
 20
147.492275
 30
0.0
 10
108.342628
 20
146.257282
 30
0.0
 10
108.718689
 20
143.833595
 30
0.0
  0
SPLINE
  5
2c4
100
AcDbEntity
  8
0
 62
7
100
AcDbSpline
 70
8
 71
3
 72
8
 73
4
 74
0
 40
0
 40
0
 40
0
 40
0
 40
1
 40
1
 40
1
 40
1
 10
108.718689
 20
143.833595
 30
0.0
 10
109.031024
 20
141.820467
 30
0.0
 10
109.978500
 20
139.659675
 30
0.0
 10
111.048151
 20
138.521094
 30
0.0
  0
LWPOLYLINE
  5
2c5
100
AcDbEntity
  8
0
 62
7
100
AcDbPolyline
 90
3
 70
0
 10
114.541272
 20
148.008528
 30
0.0
 10
117.370324
 20
148.355085
 30
0.0
 10
118.925227
 20
147.501747
 30
0.0
  0
SPLINE
  5
2c6
100
AcDbEntity
  8
0
 62
7
100
AcDbSpline
 70
8
 71
3
 72
8
 73
4
 74
0
 40
0
 40
0
 40
0
 40
0
 40
1
 40
1
 40
1
 40
1
 10
109.977174
 20
138.060730
 30
0.0
 10
109.066330
 20
138.150048
 30
0.0
 10
108.165731
 20
138.345679
 30
0.0
 10
107.975823
 20
138.495466
 30
0.0
  0
SPLINE
  5
2c7
100
AcDbEntity
  8
0
 62
7
100
AcDbSpline
 70
8
 71
3
 72
8
 73
4
 74
0
 40
0
 40
0
 40
0
 40
0
 40
1
 40
1
 40
1
 40
1
 10
107.975823
 20
138.495466
 30
0.0
 10
107.448350
 20
138.911456
 30
0.0
 10
107.212271
 20
140.693720
 30
0.0
 10
107.561916
 20
141.620021
 30
0.0
  0
SPLINE
  5
2c8
100
AcDbEntity
  8
0
 62
7
100
AcDbSpline
 70
8
 71
3
 72
8
 73
4
 74
0
 40
0
 40
0
 40
0
 40
0
 40
1
 40
1
 40
1
 40
1
 10
107.561916
 20
141.620021
 30
0.0
 10
108.222090
 20
143.369082
 30
0.0
 10
106.290392
 20
149.998324
 30
0.0
 10
104.435515
 20
152.349136
 30
0.0
  0
SPLINE
  5
2c9
100
AcDbEntity
  8
0
 62
7
100
AcDbSpline
 70
8
 71
3
 72
8
 73
4
 74
0
 40
0
 40
0
 40
0
 40
0
 40
1
 40
1
 40
1
 40
1
 10
104.435515
 20
152.349136
 30
0.0
 10
103.868813
 20
153.067375
 30
0.0
 10
103.573890
 20
153.771855
 30
0.0
 10
103.553683
 20
154.455530
 30
0.0
  0
SPLINE
  5
2ca
100
AcDbEntity
  8
0
 62
7
100
AcDbSpline
 70
8
 71
3
 72
8
 73
4
 74
0
 40
0
 40
0
 40
0
 40
0
 40
1
 40
1
 40
1
 40
1
 10
103.553683
 20
154.455530
 30
0.0
 10
103.525292
 20
155.416407
 30
0.0
 10
103.587155
 20
155.493896
 30
0.0
 10
104.511122
 20
155.655164
 30
0.0
  0
SPLINE
  5
2cb
100
AcDbEntity
  8
0
 62
7
100
AcDbSpline
 70
8
 71
3
 72
8
 73
4
 74
0
 40
0
 40
0
 40
0
 40
0
 40
1
 40
1
 40
1
 40
1
 10
104.511122
 20
155.655164
 30
0.0
 10
106.069243
 20
155.927110
 30
0.0
 10
107.844449
 20
156.981216
 30
0.0
 10
108.534539
 20
158.044240
 30
0.0
  0
SPLINE
  5
2cc
100
AcDbEntity
  8
0
 62
7
100
AcDbSpline
 70
8
 71
3
 72
8
 73
4
 74
0
 40
0
 40
0
 40
0
 40
0
 40
1
 40
1
 40
1
 40
1
 10
108.534539
 20
158.044240
 30
0.0
 10
109.187347
 20
159.049837
 30
0.0
 10
110.745750
 20
159.877753
 30
0.0
 10
111.985778
 20
159.877753
 30
0.0
  0
SPLINE
  5
2cd
100
AcDbEntity
  8
0
 62
7
100
AcDbSpline
 70
8
 71
3
 72
8
 73
4
 74
0
 40
0
 40
0
 40
0
 40
0
 40
1
 40
1
 40
1
 40
1
 10
111.985778
 20
159.877753
 30
0.0
 10
112.386872
 20
159.877753
 30
0.0
 10
112.802190
 20
160.114066
 30
0.0
 10
112.977789
 20
160.442197
 30
0.0
  0
SPLINE
  5
2ce
100
AcDbEntity
  8
0
 62
7
100
AcDbSpline
 70
8
 71
3
 72
8
 73
4
 74
0
 40
0
 40
0
 40
0
 40
0
 40
1
 40
1
 40
1
 40
1
 10
112.977789
 20
160.442197
 30
0.0
 10
113.143933
 20
160.752642
 30
0.0
 10
113.414302
 20
161.006642
 30
0.0
 10
113.578584
 20
161.006642
 30
0.0
  0
SPLINE
  5
2cf
100
AcDbEntity
  8
0
 62
7
100
AcDbSpline
 70
8
 71
3
 72
8
 73
4
 74
0
 40
0
 40
0
 40
0
 40
0
 40
1
 40
1
 40
1
 40
1
 10
113.578584
 20
161.006642
 30
0.0
 10
113.742865
 20
161.006642
 30
0.0
 10
113.943723
 20
160.752642
 30
0.0
 10
114.024890
 20
160.442197
 30
0.0
  0
SPLINE
  5
2d0
100
AcDbEntity
  8
0
 62
7
100
AcDbSpline
 70
8
 71
3
 72
8
 73
4
 74
0
 40
0
 40
0
 40
0
 40
0
 40
1
 40
1
 40
1
 40
1
 10
114.024890
 20
160.442197
 30
0.0
 10
114.157139
 20
159.936543
 30
0.0
 10
114.411591
 20
159.877352
 30
0.0
 10
116.467918
 20
159.873901
 30
0.0
  0
SPLINE
  5
2d1
100
AcDbEntity
  8
0
 62
7
100
AcDbSpline
 70
8
 71
3
 72
8
 73
4
 74
0
 40
0
 40
0
 40
0
 40
0
 40
1
 40
1
 40
1
 40
1
 10
116.467918
 20
159.873901
 30
0.0
 10
117.730411
 20
159.871643
 30
0.0
 10
119.049094
 20
159.793467
 30
0.0
 10
119.398344
 20
159.699871
 30
0.0
  0
SPLINE
  5
2d2
100
AcDbEntity
  8
0
 62
7
100
AcDbSpline
 70
8
 71
3
 72
8
 73
4
 74
0
 40
0
 40
0
 40
0
 40
0
 40
1
 40
1
 40
1
 40
1
 10
119.398344
 20
159.699871
 30
0.0
 10
120.159554
 20
159.495872
 30
0.0
 10
120.249781
 20
160.092118
 30
0.0
 10
119.632137
 20
161.245320
 30
0.0
  0
SPLINE
  5
2d3
100
AcDbEntity
  8
0
 62
7
100
AcDbSpline
 70
8
 71
3
 72
8
 73
4
 74
0
 40
0
 40
0
 40
0
 40
0
 40
1
 40
1
 40
1
 40
1
 10
119.632137
 20
161.245320
 30
0.0
 10
119.411496
 20
161.657325
 30
0.0
 10
119.160742
 20
162.218575
 30
0.0
 10
119.074946
 20
162.492545
 30
0.0
  0
SPLINE
  5
2d4
100
AcDbEntity
  8
0
 62
7
100
AcDbSpline
 70
8
 71
3
 72
8
 73
4
 74
0
 40
0
 40
0
 40
0
 40
0
 40
1
 40
1
 40
1
 40
1
 10
119.074946
 20
162.492545
 30
0.0
 10
118.889413
 20
163.084844
 30
0.0
 10
117.619978
 20
163.624874
 30
0.0
 10
116.928844
 20
163.405514
 30
0.0
  0
SPLINE
  5
2d5
100
AcDbEntity
  8
0
 62
7
100
AcDbSpline
 70
8
 71
3
 72
8
 73
4
 74
0
 40
0
 40
0
 40
0
 40
0
 40
1
 40
1
 40
1
 40
1
 10
116.928844
 20
163.405514
 30
0.0
 10
116.575868
 20
163.293488
 30
0.0
 10
116.340015
 20
163.488741
 30
0.0
 10
116.085225
 20
164.103881
 30
0.0
  0
SPLINE
  5
2d6
100
AcDbEntity
  8
0
 62
7
100
AcDbSpline
 70
8
 71
3
 72
8
 73
4
 74
0
 40
0
 40
0
 40
0
 40
0
 40
1
 40
1
 40
1
 40
1
 10
116.085225
 20
164.103881
 30
0.0
 10
115.799785
 20
164.792958
 30
0.0
 10
115.563706
 20
164.957767
 30
0.0
 10
114.861989
 20
164.957767
 30
0.0
  0
SPLINE
  5
2d7
100
AcDbEntity
  8
0
 62
7
100
AcDbSpline
 70
8
 71
3
 72
8
 73
4
 74
0
 40
0
 40
0
 40
0
 40
0
 40
1
 40
1
 40
1
 40
1
 10
114.861989
 20
164.957767
 30
0.0
 10
114.264468
 20
164.957767
 30
0.0
 10
113.698443
 20
165.242718
 30
0.0
 10
113.052719
 20
165.868574
 30
0.0
  0
SPLINE
  5
2d8
100
AcDbEntity
  8
0
 62
7
100
AcDbSpline
 70
8
 71
3
 72
8
 73
4
 74
0
 40
0
 40
0
 40
0
 40
0
 40
1
 40
1
 40
1
 40
1
 10
113.052719
 20
165.868574
 30
0.0
 10
112.314877
 20
166.583711
 30
0.0
 10
111.872607
 20
166.779384
 30
0.0
 10
110.993936
 20
166.779384
 30
0.0
  0
SPLINE
  5
2d9
100
AcDbEntity
  8
0
 62
7
100
AcDbSpline
 70
8
 71
3
 72
8
 73
4
 74
0
 40
0
 40
0
 40
0
 40
0
 40
1
 40
1
 40
1
 40
1
 10
110.993936
 20
166.779384
 30
0.0
 10
109.957870
 20
166.779384
 30
0.0
 10
109.862253
 20
166.846539
 30
0.0
 10
109.705027
 20
167.684570
 30
0.0
  0
SPLINE
  5
2da
100
AcDbEntity
  8
0
 62
7
100
AcDbSpline
 70
8
 71
3
 72
8
 73
4
 74
0
 40
0
 40
0
 40
0
 40
0
 40
1
 40
1
 40
1
 40
1
 10
109.705027
 20
167.684570
 30
0.0
 10
109.611640
 20
168.182424
 30
0.0
 10
109.286040
 20
168.815259
 30
0.0
 10
108.981494
 20
169.090875
 30
0.0
  0
SPLINE
  5
2db
100
AcDbEntity
  8
0
 62
7
100
AcDbSpline
 70
8
 71
3
 72
8
 73
4
 74
0
 40
0
 40
0
 40
0
 40
0
 40
1
 40
1
 40
1
 40
1
 10
108.981494
 20
169.090875
 30
0.0
 10
108.505498
 20
169.521650
 30
0.0
 10
108.391198
 20
169.534144
 30
0.0
 10
108.167114
 20
169.179879
 30
0.0
  0
SPLINE
  5
2dc
100
AcDbEntity
  8
0
 62
7
100
AcDbSpline
 70
8
 71
3
 72
8
 73
4
 74
0
 40
0
 40
0
 40
0
 40
0
 40
1
 40
1
 40
1
 40
1
 10
108.167114
 20
169.179879
 30
0.0
 10
108.023745
 20
168.953218
 30
0.0
 10
107.904478
 20
168.609017
 30
0.0
 10
107.902107
 20
168.414989
 30
0.0
  0
SPLINE
  5
2dd
100
AcDbEntity
  8
0
 62
7
100
AcDbSpline
 70
8
 71
3
 72
8
 73
4
 74
0
 40
0
 40
0
 40
0
 40
0
 40
1
 40
1
 40
1
 40
1
 10
107.902107
 20
168.414989
 30
0.0
 10
107.895334
 20
167.854880
 30
0.0
 10
107.389309
 20
168.005739
 30
0.0
 10
107.192233
 20
168.626656
 30
0.0
  0
SPLINE
  5
2de
100
AcDbEntity
  8
0
 62
7
100
AcDbSpline
 70
8
 71
3
 72
8
 73
4
 74
0
 40
0
 40
0
 40
0
 40
0
 40
1
 40
1
 40
1
 40
1
 10
107.192233
 20
168.626656
 30
0.0
 10
106.961996
 20
169.352057
 30
0.0
 10
106.574703
 20
169.348625
 30
0.0
 10
106.343168
 20
168.619149
 30
0.0
  0
SPLINE
  5
2df
100
AcDbEntity
  8
0
 62
7
100
AcDbSpline
 70
8
 71
3
 72
8
 73
4
 74
0
 40
0
 40
0
 40
0
 40
0
 40
1
 40
1
 40
1
 40
1
 10
106.343168
 20
168.619149
 30
0.0
 10
106.135876
 20
167.965965
 30
0.0
 10
104.941596
 20
167.090616
 30
0.0
 10
104.570586
 20
167.319916
 30
0.0
  0
SPLINE
  5
2e0
100
AcDbEntity
  8
0
 62
7
100
AcDbSpline
 70
8
 71
3
 72
8
 73
4
 74
0
 40
0
 40
0
 40
0
 40
0
 40
1
 40
1
 40
1
 40
1
 10
104.570586
 20
167.319916
 30
0.0
 10
104.434414
 20
167.404072
 30
0.0
 10
104.379748
 20
167.859519
 30
0.0
 10
104.449090
 20
168.332019
 30
0.0
  0
SPLINE
  5
2e1
100
AcDbEntity
  8
0
 62
7
100
AcDbSpline
 70
8
 71
3
 72
8
 73
4
 74
0
 40
0
 40
0
 40
0
 40
0
 40
1
 40
1
 40
1
 40
1
 10
104.449090
 20
168.332019
 30
0.0
 10
104.587463
 20
169.274855
 30
0.0
 10
104.367640
 20
169.370811
 30
0.0
 10
103.243070
 20
168.858422
 30
0.0
  0
SPLINE
  5
2e2
100
AcDbEntity
  8
0
 62
7
100
AcDbSpline
 70
8
 71
3
 72
8
 73
4
 74
0
 40
0
 40
0
 40
0
 40
0
 40
1
 40
1
 40
1
 40
1
 10
103.243070
 20
168.858422
 30
0.0
 10
102.643996
 20
168.585474
 30
0.0
 10
102.542622
 20
168.390306
 30
0.0
 10
102.678540
 20
167.771571
 30
0.0
  0
SPLINE
  5
2e3
100
AcDbEntity
  8
0
 62
7
100
AcDbSpline
 70
8
 71
3
 72
8
 73
4
 74
0
 40
0
 40
0
 40
0
 40
0
 40
1
 40
1
 40
1
 40
1
 10
102.678540
 20
167.771571
 30
0.0
 10
102.843104
 20
167.022279
 30
0.0
 10
102.831646
 20
167.016361
 30
0.0
 10
100.903306
 20
166.854695
 30
0.0
  0
SPLINE
  5
2e4
100
AcDbEntity
  8
0
 62
7
100
AcDbSpline
 70
8
 71
3
 72
8
 73
4
 74
0
 40
0
 40
0
 40
0
 40
0
 40
1
 40
1
 40
1
 40
1
 10
100.903306
 20
166.854695
 30
0.0
 10
97.358002
 20
166.557470
 30
0.0
 10
95.612768
 20
167.153117
 30
0.0
 10
97.173344
 20
168.127718
 30
0.0
  0
SPLINE
  5
2e5
100
AcDbEntity
  8
0
 62
7
100
AcDbSpline
 70
8
 71
3
 72
8
 73
4
 74
0
 40
0
 40
0
 40
0
 40
0
 40
1
 40
1
 40
1
 40
1
 10
97.173344
 20
168.127718
 30
0.0
 10
97.767676
 20
168.498885
 30
0.0
 10
97.943952
 20
169.191112
 30
0.0
 10
97.444137
 20
169.191112
 30
0.0
  0
SPLINE
  5
2e6
100
AcDbEntity
  8
0
 62
7
100
AcDbSpline
 70
8
 71
3
 72
8
 73
4
 74
0
 40
0
 40
0
 40
0
 40
0
 40
1
 40
1
 40
1
 40
1
 10
97.444137
 20
169.191112
 30
0.0
 10
97.282621
 20
169.191112
 30
0.0
 10
96.806371
 20
169.441722
 30
0.0
 10
96.385803
 20
169.748026
 30
0.0
  0
SPLINE
  5
2e7
100
AcDbEntity
  8
0
 62
7
100
AcDbSpline
 70
8
 71
3
 72
8
 73
4
 74
0
 40
0
 40
0
 40
0
 40
0
 40
1
 40
1
 40
1
 40
1
 10
96.385803
 20
169.748026
 30
0.0
 10
95.416596
 20
170.453890
 30
0.0
 10
93.141433
 20
170.649405
 30
0.0
 10
93.014038
 20
170.037778
 30
0.0
  0
SPLINE
  5
2e8
100
AcDbEntity
  8
0
 62
7
100
AcDbSpline
 70
8
 71
3
 72
8
 73
4
 74
0
 40
0
 40
0
 40
0
 40
0
 40
1
 40
1
 40
1
 40
1
 10
93.014038
 20
170.037778
 30
0.0
 10
92.965552
 20
169.804945
 30
0.0
 10
93.310061
 20
169.193858
 30
0.0
 10
93.779622
 20
168.679804
 30
0.0
  0
SPLINE
  5
2e9
100
AcDbEntity
  8
0
 62
7
100
AcDbSpline
 70
8
 71
3
 72
8
 73
4
 74
0
 40
0
 40
0
 40
0
 40
0
 40
1
 40
1
 40
1
 40
1
 10
93.779622
 20
168.679804
 30
0.0
 10
94.792715
 20
167.570693
 30
0.0
 10
94.809225
 20
167.497778
 30
0.0
 10
94.047197
 20
167.497778
 30
0.0
  0
SPLINE
  5
2ea
100
AcDbEntity
  8
0
 62
7
100
AcDbSpline
 70
8
 71
3
 72
8
 73
4
 74
0
 40
0
 40
0
 40
0
 40
0
 40
1
 40
1
 40
1
 40
1
 10
94.047197
 20
167.497778
 30
0.0
 10
93.724815
 20
167.497778
 30
0.0
 10
93.059222
 20
167.899578
 30
0.0
 10
92.568155
 20
168.390670
 30
0.0
  0
SPLINE
  5
2eb
100
AcDbEntity
  8
0
 62
7
100
AcDbSpline
 70
8
 71
3
 72
8
 73
4
 74
0
 40
0
 40
0
 40
0
 40
0
 40
1
 40
1
 40
1
 40
1
 10
92.568155
 20
168.390670
 30
0.0
 10
91.776550
 20
169.182253
 30
0.0
 10
91.482841
 20
169.287713
 30
0.0
 10
89.979302
 20
169.320177
 30
0.0
  0
SPLINE
  5
2ec
100
AcDbEntity
  8
0
 62
7
100
AcDbSpline
 70
8
 71
3
 72
8
 73
4
 74
0
 40
0
 40
0
 40
0
 40
0
 40
1
 40
1
 40
1
 40
1
 10
89.979302
 20
169.320177
 30
0.0
 10
88.884111
 20
169.343828
 30
0.0
 10
88.111866
 20
169.215132
 30
0.0
 10
87.799277
 20
168.956884
 30
0.0
  0
SPLINE
  5
2ed
100
AcDbEntity
  8
0
 62
7
100
AcDbSpline
 70
8
 71
3
 72
8
 73
4
 74
0
 40
0
 40
0
 40
0
 40
0
 40
1
 40
1
 40
1
 40
1
 10
87.799277
 20
168.956884
 30
0.0
 10
87.368380
 20
168.600889
 30
0.0
 10
87.278182
 20
168.638281
 30
0.0
 10
86.977869
 20
169.297374
 30
0.0
  0
SPLINE
  5
2ee
100
AcDbEntity
  8
0
 62
7
100
AcDbSpline
 70
8
 71
3
 72
8
 73
4
 74
0
 40
0
 40
0
 40
0
 40
0
 40
1
 40
1
 40
1
 40
1
 10
86.977869
 20
169.297374
 30
0.0
 10
86.567264
 20
170.198538
 30
0.0
 10
85.992716
 20
170.237877
 30
0.0
 10
85.126548
 20
169.424140
 30
0.0
  0
SPLINE
  5
2ef
100
AcDbEntity
  8
0
 62
7
100
AcDbSpline
 70
8
 71
3
 72
8
 73
4
 74
0
 40
0
 40
0
 40
0
 40
0
 40
1
 40
1
 40
1
 40
1
 10
85.126548
 20
169.424140
 30
0.0
 10
84.623346
 20
168.951412
 30
0.0
 10
84.473344
 20
168.908963
 30
0.0
 10
84.473344
 20
169.239287
 30
0.0
  0
SPLINE
  5
2f0
100
AcDbEntity
  8
0
 62
7
100
AcDbSpline
 70
8
 71
3
 72
8
 73
4
 74
0
 40
0
 40
0
 40
0
 40
0
 40
1
 40
1
 40
1
 40
1
 10
84.473344
 20
169.239287
 30
0.0
 10
84.473344
 20
169.475120
 30
0.0
 10
84.224453
 20
169.893309
 30
0.0
 10
83.920274
 20
170.168597
 30
0.0
  0
SPLINE
  5
2f1
100
AcDbEntity
  8
0
 62
7
100
AcDbSpline
 70
8
 71
3
 72
8
 73
4
 74
0
 40
0
 40
0
 40
0
 40
0
 40
1
 40
1
 40
1
 40
1
 10
83.920274
 20
170.168597
 30
0.0
 10
83.116900
 20
170.895646
 30
0.0
 10
81.997606
 20
170.552306
 30
0.0
 10
81.881472
 20
169.543201
 30
0.0
  0
SPLINE
  5
2f2
100
AcDbEntity
  8
0
 62
7
100
AcDbSpline
 70
8
 71
3
 72
8
 73
4
 74
0
 40
0
 40
0
 40
0
 40
0
 40
1
 40
1
 40
1
 40
1
 10
81.881472
 20
169.543201
 30
0.0
 10
81.796918
 20
168.808489
 30
0.0
 10
81.714961
 20
168.767598
 30
0.0
 10
80.320190
 20
168.764324
 30
0.0
  0
SPLINE
  5
2f3
100
AcDbEntity
  8
0
 62
7
100
AcDbSpline
 70
8
 71
3
 72
8
 73
4
 74
0
 40
0
 40
0
 40
0
 40
0
 40
1
 40
1
 40
1
 40
1
 10
80.320190
 20
168.764324
 30
0.0
 10
79.184133
 20
168.761784
 30
0.0
 10
78.751374
 20
168.632822
 30
0.0
 10
78.424165
 20
168.199879
 30
0.0
  0
SPLINE
  5
2f4
100
AcDbEntity
  8
0
 62
7
100
AcDbSpline
 70
8
 71
3
 72
8
 73
4
 74
0
 40
0
 40
0
 40
0
 40
0
 40
1
 40
1
 40
1
 40
1
 10
78.424165
 20
168.199879
 30
0.0
 10
77.888705
 20
167.491369
 30
0.0
 10
77.887012
 20
167.274202
 30
0.0
 10
78.405538
 20
165.804445
 30
0.0
  0
SPLINE
  5
2f5
100
AcDbEntity
  8
0
 62
7
100
AcDbSpline
 70
8
 71
3
 72
8
 73
4
 74
0
 40
0
 40
0
 40
0
 40
0
 40
1
 40
1
 40
1
 40
1
 10
78.405538
 20
165.804445
 30
0.0
 10
78.941394
 20
164.285689
 30
0.0
 10
78.940829
 20
163.062436
 30
0.0
 10
78.402716
 20
162.032740
 30
0.0
  0
SPLINE
  5
2f6
100
AcDbEntity
  8
0
 62
7
100
AcDbSpline
 70
8
 71
3
 72
8
 73
4
 74
0
 40
0
 40
0
 40
0
 40
0
 40
1
 40
1
 40
1
 40
1
 10
78.402716
 20
162.032740
 30
0.0
 10
78.170842
 20
161.588135
 30
0.0
 10
77.981133
 20
161.062288
 30
0.0
 10
77.981133
 20
160.864187
 30
0.0
  0
SPLINE
  5
2f7
100
AcDbEntity
  8
0
 62
7
100
AcDbSpline
 70
8
 71
3
 72
8
 73
4
 74
0
 40
0
 40
0
 40
0
 40
0
 40
1
 40
1
 40
1
 40
1
 10
77.981133
 20
160.864187
 30
0.0
 10
77.981133
 20
160.666087
 30
0.0
 10
77.224890
 20
159.699380
 30
0.0
 10
76.300640
 20
158.715946
 30
0.0
  0
SPLINE
  5
2f8
100
AcDbEntity
  8
0
 62
7
100
AcDbSpline
 70
8
 71
3
 72
8
 73
4
 74
0
 40
0
 40
0
 40
0
 40
0
 40
1
 40
1
 40
1
 40
1
 10
76.300640
 20
158.715946
 30
0.0
 10
74.619104
 20
156.926801
 30
0.0
 10
74.547250
 20
156.771519
 30
0.0
 10
73.867744
 20
153.458738
 30
0.0
  0
SPLINE
  5
2f9
100
AcDbEntity
  8
0
 62
7
100
AcDbSpline
 70
8
 71
3
 72
8
 73
4
 74
0
 40
0
 40
0
 40
0
 40
0
 40
1
 40
1
 40
1
 40
1
 10
73.867744
 20
153.458738
 30
0.0
 10
73.785758
 20
153.059126
 30
0.0
 10
73.938864
 20
152.653087
 30
0.0
 10
74.282469
 20
152.358904
 30
0.0
  0
SPLINE
  5
2fa
100
AcDbEntity
  8
0
 62
7
100
AcDbSpline
 70
8
 71
3
 72
8
 73
4
 74
0
 40
0
 40
0
 40
0
 40
0
 40
1
 40
1
 40
1
 40
1
 10
74.282469
 20
152.358904
 30
0.0
 10
74.582020
 20
152.102412
 30
0.0
 10
74.762981
 20
151.725451
 30
0.0
 10
74.684608
 20
151.521218
 30
0.0
  0
SPLINE
  5
2fb
100
AcDbEntity
  8
0
 62
7
100
AcDbSpline
 70
8
 71
3
 72
8
 73
4
 74
0
 40
0
 40
0
 40
0
 40
0
 40
1
 40
1
 40
1
 40
1
 10
74.684608
 20
151.521218
 30
0.0
 10
74.606235
 20
151.316982
 30
0.0
 10
74.753526
 20
150.513436
 30
0.0
 10
75.011873
 20
149.735561
 30
0.0
  0
SPLINE
  5
2fc
100
AcDbEntity
  8
0
 62
7
100
AcDbSpline
 70
8
 71
3
 72
8
 73
4
 74
0
 40
0
 40
0
 40
0
 40
0
 40
1
 40
1
 40
1
 40
1
 10
75.011873
 20
149.735561
 30
0.0
 10
75.452224
 20
148.409822
 30
0.0
 10
75.451434
 20
148.270074
 30
0.0
 10
74.999173
 20
147.504261
 30
0.0
  0
SPLINE
  5
2fd
100
AcDbEntity
  8
0
 62
7
100
AcDbSpline
 70
8
 71
3
 72
8
 73
4
 74
0
 40
0
 40
0
 40
0
 40
0
 40
1
 40
1
 40
1
 40
1
 10
74.999173
 20
147.504261
 30
0.0
 10
74.549000
 20
146.742134
 30
0.0
 10
74.467861
 20
146.712563
 30
0.0
 10
73.790838
 20
147.063806
 30
0.0
  0
SPLINE
  5
2fe
100
AcDbEntity
  8
0
 62
7
100
AcDbSpline
 70
8
 71
3
 72
8
 73
4
 74
0
 40
0
 40
0
 40
0
 40
0
 40
1
 40
1
 40
1
 40
1
 10
73.790838
 20
147.063806
 30
0.0
 10
73.166252
 20
147.387848
 30
0.0
 10
72.994661
 20
147.376595
 30
0.0
 10
72.559841
 20
146.983090
 30
0.0
  0
SPLINE
  5
2ff
100
AcDbEntity
  8
0
 62
7
100
AcDbSpline
 70
8
 71
3
 72
8
 73
4
 74
0
 40
0
 40
0
 40
0
 40
0
 40
1
 40
1
 40
1
 40
1
 10
72.559841
 20
146.983090
 30
0.0
 10
72.059236
 20
146.530081
 30
0.0
 10
71.856261
 20
145.484434
 30
0.0
 10
72.268898
 20
145.484434
 30
0.0
  0
SPLINE
  5
300
100
AcDbEntity
  8
0
 62
7
100
AcDbSpline
 70
8
 71
3
 72
8
 73
4
 74
0
 40
0
 40
0
 40
0
 40
0
 40
1
 40
1
 40
1
 40
1
 10
72.268898
 20
145.484434
 30
0.0
 10
72.386783
 20
145.484434
 30
0.0
 10
72.636267
 20
145.239358
 30
0.0
 10
72.823352
 20
144.939821
 30
0.0
  0
SPLINE
  5
301
100
AcDbEntity
  8
0
 62
7
100
AcDbSpline
 70
8
 71
3
 72
8
 73
4
 74
0
 40
0
 40
0
 40
0
 40
0
 40
1
 40
1
 40
1
 40
1
 10
72.823352
 20
144.939821
 30
0.0
 10
73.102724
 20
144.492465
 30
0.0
 10
72.964181
 20
143.597880
 30
0.0
 10
72.047552
 20
139.930377
 30
0.0
  0
SPLINE
  5
302
100
AcDbEntity
  8
0
 62
7
100
AcDbSpline
 70
8
 71
3
 72
8
 73
4
 74
0
 40
0
 40
0
 40
0
 40
0
 40
1
 40
1
 40
1
 40
1
 10
72.047552
 20
139.930377
 30
0.0
 10
70.813789
 20
134.994028
 30
0.0
 10
70.701154
 20
133.387483
 30
0.0
 10
71.392344
 20
130.584658
 30
0.0
  0
SPLINE
  5
303
100
AcDbEntity
  8
0
 62
7
100
AcDbSpline
 70
8
 71
3
 72
8
 73
4
 74
0
 40
0
 40
0
 40
0
 40
0
 40
1
 40
1
 40
1
 40
1
 10
71.392344
 20
130.584658
 30
0.0
 10
71.922922
 20
128.433052
 30
0.0
 10
72.345522
 20
127.743725
 30
0.0
 10
74.728493
 20
125.142861
 30
0.0
  0
SPLINE
  5
304
100
AcDbEntity
  8
0
 62
7
100
AcDbSpline
 70
8
 71
3
 72
8
 73
4
 74
0
 40
0
 40
0
 40
0
 40
0
 40
1
 40
1
 40
1
 40
1
 10
74.728493
 20
125.142861
 30
0.0
 10
77.459219
 20
122.162422
 30
0.0
 10
78.016636
 20
121.430487
 30
0.0
 10
77.862232
 20
121.028080
 30
0.0
  0
SPLINE
  5
305
100
AcDbEntity
  8
0
 62
7
100
AcDbSpline
 70
8
 71
3
 72
8
 73
4
 74
0
 40
0
 40
0
 40
0
 40
0
 40
1
 40
1
 40
1
 40
1
 10
77.862232
 20
121.028080
 30
0.0
 10
77.782194
 20
120.819518
 30
0.0
 10
77.585739
 20
120.648878
 30
0.0
 10
77.425635
 20
120.648878
 30
0.0
  0
SPLINE
  5
306
100
AcDbEntity
  8
0
 62
7
100
AcDbSpline
 70
8
 71
3
 72
8
 73
4
 74
0
 40
0
 40
0
 40
0
 40
0
 40
1
 40
1
 40
1
 40
1
 10
77.425635
 20
120.648878
 30
0.0
 10
77.007946
 20
120.648878
 30
0.0
 10
77.066704
 20
119.462187
 30
0.0
 10
77.516821
 20
118.806675
 30
0.0
  0
SPLINE
  5
307
100
AcDbEntity
  8
0
 62
7
100
AcDbSpline
 70
8
 71
3
 72
8
 73
4
 74
0
 40
0
 40
0
 40
0
 40
0
 40
1
 40
1
 40
1
 40
1
 10
77.516821
 20
118.806675
 30
0.0
 10
77.964115
 20
118.155301
 30
0.0
 10
78.280458
 20
116.697767
 30
0.0
 10
77.974557
 20
116.697767
 30
0.0
  0
SPLINE
  5
308
100
AcDbEntity
  8
0
 62
7
100
AcDbSpline
 70
8
 71
3
 72
8
 73
4
 74
0
 40
0
 40
0
 40
0
 40
0
 40
1
 40
1
 40
1
 40
1
 10
77.974557
 20
116.697767
 30
0.0
 10
77.858705
 20
116.697767
 30
0.0
 10
77.543067
 20
117.034836
 30
0.0
 10
77.273122
 20
117.446810
 30
0.0
  0
SPLINE
  5
309
100
AcDbEntity
  8
0
 62
7
100
AcDbSpline
 70
8
 71
3
 72
8
 73
4
 74
0
 40
0
 40
0
 40
0
 40
0
 40
1
 40
1
 40
1
 40
1
 10
77.273122
 20
117.446810
 30
0.0
 10
76.837484
 20
118.111689
 30
0.0
 10
76.752309
 20
118.142189
 30
0.0
 10
76.515045
 20
117.718251
 30
0.0
  0
SPLINE
  5
30a
100
AcDbEntity
  8
0
 62
7
100
AcDbSpline
 70
8
 71
3
 72
8
 73
4
 74
0
 40
0
 40
0
 40
0
 40
0
 40
1
 40
1
 40
1
 40
1
 10
76.515045
 20
117.718251
 30
0.0
 10
76.368063
 20
117.455573
 30
0.0
 10
76.330358
 20
116.864628
 30
0.0
 10
76.431309
 20
116.405040
 30
0.0
  0
SPLINE
  5
30b
100
AcDbEntity
  8
0
 62
7
100
AcDbSpline
 70
8
 71
3
 72
8
 73
4
 74
0
 40
0
 40
0
 40
0
 40
0
 40
1
 40
1
 40
1
 40
1
 10
76.431309
 20
116.405040
 30
0.0
 10
76.680483
 20
115.270496
 30
0.0
 10
75.964429
 20
115.535731
 30
0.0
 10
75.416128
 20
116.781076
 30
0.0
  0
SPLINE
  5
30c
100
AcDbEntity
  8
0
 62
7
100
AcDbSpline
 70
8
 71
3
 72
8
 73
4
 74
0
 40
0
 40
0
 40
0
 40
0
 40
1
 40
1
 40
1
 40
1
 10
75.416128
 20
116.781076
 30
0.0
 10
75.022287
 20
117.675529
 30
0.0
 10
74.056748
 20
118.088586
 30
0.0
 10
74.291444
 20
117.262211
 30
0.0
  0
SPLINE
  5
30d
100
AcDbEntity
  8
0
 62
7
100
AcDbSpline
 70
8
 71
3
 72
8
 73
4
 74
0
 40
0
 40
0
 40
0
 40
0
 40
1
 40
1
 40
1
 40
1
 10
74.291444
 20
117.262211
 30
0.0
 10
74.357569
 20
117.029378
 30
0.0
 10
74.453016
 20
115.834621
 30
0.0
 10
74.503534
 20
114.607195
 30
0.0
  0
SPLINE
  5
30e
100
AcDbEntity
  8
0
 62
7
100
AcDbSpline
 70
8
 71
3
 72
8
 73
4
 74
0
 40
0
 40
0
 40
0
 40
0
 40
1
 40
1
 40
1
 40
1
 10
74.503534
 20
114.607195
 30
0.0
 10
74.578662
 20
112.781793
 30
0.0
 10
74.717204
 20
112.215790
 30
0.0
 10
75.264574
 20
111.498161
 30
0.0
  0
SPLINE
  5
30f
100
AcDbEntity
  8
0
 62
7
100
AcDbSpline
 70
8
 71
3
 72
8
 73
4
 74
0
 40
0
 40
0
 40
0
 40
0
 40
1
 40
1
 40
1
 40
1
 10
75.264574
 20
111.498161
 30
0.0
 10
76.104863
 20
110.396476
 30
0.0
 10
76.487867
 20
108.388767
 30
0.0
 10
75.975464
 20
107.771391
 30
0.0
  0
SPLINE
  5
310
100
AcDbEntity
  8
0
 62
7
100
AcDbSpline
 70
8
 71
3
 72
8
 73
4
 74
0
 40
0
 40
0
 40
0
 40
0
 40
1
 40
1
 40
1
 40
1
 10
75.975464
 20
107.771391
 30
0.0
 10
75.668378
 20
107.401367
 30
0.0
 10
75.709498
 20
107.256268
 30
0.0
 10
76.233443
 20
106.861067
 30
0.0
  0
SPLINE
  5
311
100
AcDbEntity
  8
0
 62
7
100
AcDbSpline
 70
8
 71
3
 72
8
 73
4
 74
0
 40
0
 40
0
 40
0
 40
0
 40
1
 40
1
 40
1
 40
1
 10
76.233443
 20
106.861067
 30
0.0
 10
76.896807
 20
106.360673
 30
0.0
 10
79.674551
 20
101.884072
 30
0.0
 10
79.674551
 20
101.315349
 30
0.0
  0
SPLINE
  5
312
100
AcDbEntity
  8
0
 62
7
100
AcDbSpline
 70
8
 71
3
 72
8
 73
4
 74
0
 40
0
 40
0
 40
0
 40
0
 40
1
 40
1
 40
1
 40
1
 10
79.674551
 20
101.315349
 30
0.0
 10
79.674551
 20
101.129472
 30
0.0
 10
79.986096
 20
100.391472
 30
0.0
 10
80.366870
 20
99.675347
 30
0.0
  0
SPLINE
  5
313
100
AcDbEntity
  8
0
 62
7
100
AcDbSpline
 70
8
 71
3
 72
8
 73
4
 74
0
 40
0
 40
0
 40
0
 40
0
 40
1
 40
1
 40
1
 40
1
 10
80.366870
 20
99.675347
 30
0.0
 10
80.976385
 20
98.528966
 30
0.0
 10
81.064580
 20
97.981915
 30
0.0
 10
81.104486
 20
95.099529
 30
0.0
  0
SPLINE
  5
314
100
AcDbEntity
  8
0
 62
7
100
AcDbSpline
 70
8
 71
3
 72
8
 73
4
 74
0
 40
0
 40
0
 40
0
 40
0
 40
1
 40
1
 40
1
 40
1
 10
81.104486
 20
95.099529
 30
0.0
 10
81.145832
 20
92.112986
 30
0.0
 10
81.097148
 20
91.769609
 30
0.0
 10
80.548621
 20
91.185821
 30
0.0
  0
SPLINE
  5
315
100
AcDbEntity
  8
0
 62
7
100
AcDbSpline
 70
8
 71
3
 72
8
 73
4
 74
0
 40
0
 40
0
 40
0
 40
0
 40
1
 40
1
 40
1
 40
1
 10
80.548621
 20
91.185821
 30
0.0
 10
80.217970
 20
90.833856
 30
0.0
 10
79.317370
 20
90.400453
 30
0.0
 10
78.547327
 20
90.222701
 30
0.0
  0
SPLINE
  5
316
100
AcDbEntity
  8
0
 62
7
100
AcDbSpline
 70
8
 71
3
 72
8
 73
4
 74
0
 40
0
 40
0
 40
0
 40
0
 40
1
 40
1
 40
1
 40
1
 10
78.547327
 20
90.222701
 30
0.0
 10
75.916395
 20
89.615409
 30
0.0
 10
75.212392
 20
89.188297
 30
0.0
 10
75.003067
 20
88.072390
 30
0.0
  0
SPLINE
  5
317
100
AcDbEntity
  8
0
 62
7
100
AcDbSpline
 70
8
 71
3
 72
8
 73
4
 74
0
 40
0
 40
0
 40
0
 40
0
 40
1
 40
1
 40
1
 40
1
 10
75.003067
 20
88.072390
 30
0.0
 10
74.862041
 20
87.320674
 30
0.0
 10
74.947780
 20
86.863534
 30
0.0
 10
75.337952
 20
86.287078
 30
0.0
  0
SPLINE
  5
318
100
AcDbEntity
  8
0
 62
7
100
AcDbSpline
 70
8
 71
3
 72
8
 73
4
 74
0
 40
0
 40
0
 40
0
 40
0
 40
1
 40
1
 40
1
 40
1
 10
75.337952
 20
86.287078
 30
0.0
 10
75.918850
 20
85.428851
 30
0.0
 10
76.035944
 20
82.138516
 30
0.0
 10
75.530202
 20
80.885316
 30
0.0
  0
LWPOLYLINE
  5
319
100
AcDbEntity
  8
0
 62
7
100
AcDbPolyline
 90
3
 70
0
 10
111.048151
 20
138.521094
 30
0.0
 10
111.633198
 20
137.898337
 30
0.0
 10
109.977174
 20
138.060730
 30
0.0
  0
SPLINE
  5
31a
100
AcDbEntity
  8
0
 62
7
100
AcDbSpline
 70
8
 71
3
 72
8
 73
4
 74
0
 40
0
 40
0
 40
0
 40
0
 40
1
 40
1
 40
1
 40
1
 10
74.573243
 20
80.940209
 30
0.0
 10
73.928280
 20
81.628927
 30
0.0
 10
73.810876
 20
81.654022
 30
0.0
 10
72.528628
 20
81.377247
 30
0.0
  0
SPLINE
  5
31b
100
AcDbEntity
  8
0
 62
7
100
AcDbSpline
 70
8
 71
3
 72
8
 73
4
 74
0
 40
0
 40
0
 40
0
 40
0
 40
1
 40
1
 40
1
 40
1
 10
72.528628
 20
81.377247
 30
0.0
 10
71.436315
 20
81.141464
 30
0.0
 10
71.203933
 20
80.991632
 30
0.0
 10
71.349249
 20
80.616799
 30
0.0
  0
SPLINE
  5
31c
100
AcDbEntity
  8
0
 62
7
100
AcDbSpline
 70
8
 71
3
 72
8
 73
4
 74
0
 40
0
 40
0
 40
0
 40
0
 40
1
 40
1
 40
1
 40
1
 10
71.349249
 20
80.616799
 30
0.0
 10
71.781501
 20
79.501716
 30
0.0
 10
71.856148
 20
77.412874
 30
0.0
 10
71.472213
 20
77.175596
 30
0.0
  0
SPLINE
  5
31d
100
AcDbEntity
  8
0
 62
7
100
AcDbSpline
 70
8
 71
3
 72
8
 73
4
 74
0
 40
0
 40
0
 40
0
 40
0
 40
1
 40
1
 40
1
 40
1
 10
71.472213
 20
77.175596
 30
0.0
 10
70.912115
 20
76.829430
 30
0.0
 10
70.990375
 20
74.152276
 30
0.0
 10
71.594105
 20
73.007018
 30
0.0
  0
SPLINE
  5
31e
100
AcDbEntity
  8
0
 62
7
100
AcDbSpline
 70
8
 71
3
 72
8
 73
4
 74
0
 40
0
 40
0
 40
0
 40
0
 40
1
 40
1
 40
1
 40
1
 10
71.594105
 20
73.007018
 30
0.0
 10
71.864897
 20
72.493275
 30
0.0
 10
72.550895
 20
71.558885
 30
0.0
 10
73.118528
 20
70.930602
 30
0.0
  0
SPLINE
  5
31f
100
AcDbEntity
  8
0
 62
7
100
AcDbSpline
 70
8
 71
3
 72
8
 73
4
 74
0
 40
0
 40
0
 40
0
 40
0
 40
1
 40
1
 40
1
 40
1
 10
73.118528
 20
70.930602
 30
0.0
 10
74.098235
 20
69.846166
 30
0.0
 10
74.123945
 20
69.768800
 30
0.0
 10
73.625428
 20
69.404279
 30
0.0
  0
SPLINE
  5
320
100
AcDbEntity
  8
0
 62
7
100
AcDbSpline
 70
8
 71
3
 72
8
 73
4
 74
0
 40
0
 40
0
 40
0
 40
0
 40
1
 40
1
 40
1
 40
1
 10
73.625428
 20
69.404279
 30
0.0
 10
73.336602
 20
69.193087
 30
0.0
 10
72.983542
 20
69.092441
 30
0.0
 10
72.840878
 20
69.180624
 30
0.0
  0
SPLINE
  5
321
100
AcDbEntity
  8
0
 62
7
100
AcDbSpline
 70
8
 71
3
 72
8
 73
4
 74
0
 40
0
 40
0
 40
0
 40
0
 40
1
 40
1
 40
1
 40
1
 10
72.840878
 20
69.180624
 30
0.0
 10
72.382436
 20
69.463952
 30
0.0
 10
71.790560
 20
68.331259
 30
0.0
 10
71.781303
 20
67.152908
 30
0.0
  0
SPLINE
  5
322
100
AcDbEntity
  8
0
 62
7
100
AcDbSpline
 70
8
 71
3
 72
8
 73
4
 74
0
 40
0
 40
0
 40
0
 40
0
 40
1
 40
1
 40
1
 40
1
 10
71.781303
 20
67.152908
 30
0.0
 10
71.773683
 20
66.184572
 30
0.0
 10
71.951370
 20
65.828335
 30
0.0
 10
72.939684
 20
64.830149
 30
0.0
  0
SPLINE
  5
323
100
AcDbEntity
  8
0
 62
7
100
AcDbSpline
 70
8
 71
3
 72
8
 73
4
 74
0
 40
0
 40
0
 40
0
 40
0
 40
1
 40
1
 40
1
 40
1
 10
72.939684
 20
64.830149
 30
0.0
 10
73.667846
 20
64.094692
 30
0.0
 10
74.469865
 20
63.583071
 30
0.0
 10
75.071478
 20
63.470204
 30
0.0
  0
SPLINE
  5
324
100
AcDbEntity
  8
0
 62
7
100
AcDbSpline
 70
8
 71
3
 72
8
 73
4
 74
0
 40
0
 40
0
 40
0
 40
0
 40
1
 40
1
 40
1
 40
1
 10
75.071478
 20
63.470204
 30
0.0
 10
75.850948
 20
63.323974
 30
0.0
 10
76.019519
 20
63.174040
 30
0.0
 10
75.950262
 20
62.688516
 30
0.0
  0
SPLINE
  5
325
100
AcDbEntity
  8
0
 62
7
100
AcDbSpline
 70
8
 71
3
 72
8
 73
4
 74
0
 40
0
 40
0
 40
0
 40
0
 40
1
 40
1
 40
1
 40
1
 10
75.950262
 20
62.688516
 30
0.0
 10
75.880863
 20
62.202132
 30
0.0
 10
75.703374
 20
62.105804
 30
0.0
 10
75.017884
 20
62.182506
 30
0.0
  0
SPLINE
  5
326
100
AcDbEntity
  8
0
 62
7
100
AcDbSpline
 70
8
 71
3
 72
8
 73
4
 74
0
 40
0
 40
0
 40
0
 40
0
 40
1
 40
1
 40
1
 40
1
 10
75.017884
 20
62.182506
 30
0.0
 10
74.552217
 20
62.234616
 30
0.0
 10
73.633894
 20
62.512153
 30
0.0
 10
72.977163
 20
62.799258
 30
0.0
  0
SPLINE
  5
327
100
AcDbEntity
  8
0
 62
7
100
AcDbSpline
 70
8
 71
3
 72
8
 73
4
 74
0
 40
0
 40
0
 40
0
 40
0
 40
1
 40
1
 40
1
 40
1
 10
72.977163
 20
62.799258
 30
0.0
 10
71.700334
 20
63.357448
 30
0.0
 10
71.665959
 20
63.343628
 30
0.0
 10
71.382636
 20
62.158323
 30
0.0
  0
SPLINE
  5
328
100
AcDbEntity
  8
0
 62
7
100
AcDbSpline
 70
8
 71
3
 72
8
 73
4
 74
0
 40
0
 40
0
 40
0
 40
0
 40
1
 40
1
 40
1
 40
1
 10
71.382636
 20
62.158323
 30
0.0
 10
71.231675
 20
61.526715
 30
0.0
 10
71.040498
 20
61.382211
 30
0.0
 10
70.355855
 20
61.382211
 30
0.0
  0
SPLINE
  5
329
100
AcDbEntity
  8
0
 62
7
100
AcDbSpline
 70
8
 71
3
 72
8
 73
4
 74
0
 40
0
 40
0
 40
0
 40
0
 40
1
 40
1
 40
1
 40
1
 10
70.355855
 20
61.382211
 30
0.0
 10
69.637515
 20
61.382211
 30
0.0
 10
69.514551
 20
61.489696
 30
0.0
 10
69.514551
 20
62.117587
 30
0.0
  0
LWPOLYLINE
  5
32a
100
AcDbEntity
  8
0
 62
7
100
AcDbPolyline
 90
3
 70
0
 10
75.530202
 20
80.885316
 30
0.0
 10
75.257491
 20
80.209530
 30
0.0
 10
74.573243
 20
80.940209
 30
0.0
  0
SPLINE
  5
32b
100
AcDbEntity
  8
0
 62
7
100
AcDbSpline
 70
8
 71
3
 72
8
 73
4
 74
0
 40
0
 40
0
 40
0
 40
0
 40
1
 40
1
 40
1
 40
1
 10
38.027469
 20
164.463878
 30
0.0
 10
37.804429
 20
166.541426
 30
0.0
 10
37.498133
 20
167.020035
 30
0.0
 10
37.037970
 20
166.010075
 30
0.0
  0
SPLINE
  5
32c
100
AcDbEntity
  8
0
 62
7
100
AcDbSpline
 70
8
 71
3
 72
8
 73
4
 74
0
 40
0
 40
0
 40
0
 40
0
 40
1
 40
1
 40
1
 40
1
 10
37.037970
 20
166.010075
 30
0.0
 10
36.480355
 20
164.786241
 30
0.0
 10
37.135477
 20
162.809723
 30
0.0
 10
38.132258
 20
162.708572
 30
0.0
  0
SPLINE
  5
32d
100
AcDbEntity
  8
0
 62
7
100
AcDbSpline
 70
8
 71
3
 72
8
 73
4
 74
0
 40
0
 40
0
 40
0
 40
0
 40
1
 40
1
 40
1
 40
1
 10
38.132258
 20
162.708572
 30
0.0
 10
38.178768
 20
162.703858
 30
0.0
 10
38.132258
 20
163.493739
 30
0.0
 10
38.027469
 20
164.463878
 30
0.0
  0
LWPOLYLINE
  5
32e
100
AcDbEntity
  8
0
 62
7
100
AcDbPolyline
 90
3
 70
0
 10
69.514551
 20
62.117587
 30
0.0
 10
69.515397
 20
62.117587
 30
0.0
 10
69.515454
 20
62.117587
 30
0.0
  0
SPLINE
  5
32f
100
AcDbEntity
  8
0
 62
7
100
AcDbSpline
 70
8
 71
3
 72
8
 73
4
 74
0
 40
0
 40
0
 40
0
 40
0
 40
1
 40
1
 40
1
 40
1
 10
99.995454
 20
168.062211
 30
0.0
 10
99.995454
 20
168.217434
 30
0.0
 10
99.804954
 20
168.344434
 30
0.0
 10
99.572120
 20
168.344434
 30
0.0
  0
SPLINE
  5
330
100
AcDbEntity
  8
0
 62
7
100
AcDbSpline
 70
8
 71
3
 72
8
 73
4
 74
0
 40
0
 40
0
 40
0
 40
0
 40
1
 40
1
 40
1
 40
1
 10
99.572120
 20
168.344434
 30
0.0
 10
99.339287
 20
168.344434
 30
0.0
 10
99.148787
 20
168.217434
 30
0.0
 10
99.148787
 20
168.062211
 30
0.0
  0
SPLINE
  5
331
100
AcDbEntity
  8
0
 62
7
100
AcDbSpline
 70
8
 71
3
 72
8
 73
4
 74
0
 40
0
 40
0
 40
0
 40
0
 40
1
 40
1
 40
1
 40
1
 10
99.148787
 20
168.062211
 30
0.0
 10
99.148787
 20
167.906989
 30
0.0
 10
99.339287
 20
167.779989
 30
0.0
 10
99.572120
 20
167.779989
 30
0.0
  0
SPLINE
  5
332
100
AcDbEntity
  8
0
 62
7
100
AcDbSpline
 70
8
 71
3
 72
8
 73
4
 74
0
 40
0
 40
0
 40
0
 40
0
 40
1
 40
1
 40
1
 40
1
 10
99.572120
 20
167.779989
 30
0.0
 10
99.804954
 20
167.779989
 30
0.0
 10
99.995454
 20
167.906989
 30
0.0
 10
99.995454
 20
168.062211
 30
0.0
  0
LWPOLYLINE
  5
333
100
AcDbEntity
  8
0
 62
7
100
AcDbPolyline
 90
2
 70
0
 10
38.027469
 20
164.463878
 30
0.0
 10
38.027469
 20
164.463878
 30
0.0
  0
SPLINE
  5
334
100
AcDbEntity
  8
0
 62
7
100
AcDbSpline
 70
8
 71
3
 72
8
 73
4
 74
0
 40
0
 40
0
 40
0
 40
0
 40
1
 40
1
 40
1
 40
1
 10
103.822077
 20
169.876500
 30
0.0
 10
104.350199
 20
170.265173
 30
0.0
 10
104.351102
 20
170.286958
 30
0.0
 10
103.847477
 20
170.482069
 30
0.0
  0
SPLINE
  5
335
100
AcDbEntity
  8
0
 62
7
100
AcDbSpline
 70
8
 71
3
 72
8
 73
4
 74
0
 40
0
 40
0
 40
0
 40
0
 40
1
 40
1
 40
1
 40
1
 10
103.847477
 20
170.482069
 30
0.0
 10
103.520466
 20
170.608770
 30
0.0
 10
103.231837
 20
170.537151
 30
0.0
 10
103.075684
 20
170.290559
 30
0.0
  0
SPLINE
  5
336
100
AcDbEntity
  8
0
 62
7
100
AcDbSpline
 70
8
 71
3
 72
8
 73
4
 74
0
 40
0
 40
0
 40
0
 40
0
 40
1
 40
1
 40
1
 40
1
 10
103.075684
 20
170.290559
 30
0.0
 10
102.528511
 20
169.426400
 30
0.0
 10
102.917329
 20
169.210687
 30
0.0
 10
103.822020
 20
169.876500
 30
0.0
  0
LWPOLYLINE
  5
337
100
AcDbEntity
  8
0
 62
7
100
AcDbPolyline
 90
2
 70
0
 10
99.995454
 20
168.062211
 30
0.0
 10
99.995454
 20
168.062211
 30
0.0
  0
SPLINE
  5
338
100
AcDbEntity
  8
0
 62
7
100
AcDbSpline
 70
8
 71
3
 72
8
 73
4
 74
0
 40
0
 40
0
 40
0
 40
0
 40
1
 40
1
 40
1
 40
1
 10
46.937676
 20
188.749100
 30
0.0
 10
46.937676
 20
189.155768
 30
0.0
 10
46.386298
 20
189.793323
 30
0.0
 10
46.034565
 20
189.793323
 30
0.0
  0
SPLINE
  5
339
100
AcDbEntity
  8
0
 62
7
100
AcDbSpline
 70
8
 71
3
 72
8
 73
4
 74
0
 40
0
 40
0
 40
0
 40
0
 40
1
 40
1
 40
1
 40
1
 10
46.034565
 20
189.793323
 30
0.0
 10
45.692088
 20
189.793323
 30
0.0
 10
45.764676
 20
189.103667
 30
0.0
 10
46.147454
 20
188.720878
 30
0.0
  0
SPLINE
  5
33a
100
AcDbEntity
  8
0
 62
7
100
AcDbSpline
 70
8
 71
3
 72
8
 73
4
 74
0
 40
0
 40
0
 40
0
 40
0
 40
1
 40
1
 40
1
 40
1
 10
46.147454
 20
188.720878
 30
0.0
 10
46.590627
 20
188.277702
 30
0.0
 10
46.937676
 20
188.290097
 30
0.0
 10
46.937676
 20
188.749100
 30
0.0
  0
LWPOLYLINE
  5
33b
100
AcDbEntity
  8
0
 62
7
100
AcDbPolyline
 90
3
 70
0
 10
103.822020
 20
169.876500
 30
0.0
 10
103.822077
 20
169.876500
 30
0.0
 10
103.822077
 20
169.876500
 30
0.0
  0
SPLINE
  5
33c
100
AcDbEntity
  8
0
 62
7
100
AcDbSpline
 70
8
 71
3
 72
8
 73
4
 74
0
 40
0
 40
0
 40
0
 40
0
 40
1
 40
1
 40
1
 40
1
 10
152.996787
 20
191.260878
 30
0.0
 10
153.370506
 20
191.634577
 30
0.0
 10
153.444561
 20
192.878604
 30
0.0
 10
153.119469
 20
193.321100
 30
0.0
  0
SPLINE
  5
33d
100
AcDbEntity
  8
0
 62
7
100
AcDbSpline
 70
8
 71
3
 72
8
 73
4
 74
0
 40
0
 40
0
 40
0
 40
0
 40
1
 40
1
 40
1
 40
1
 10
153.119469
 20
193.321100
 30
0.0
 10
153.005423
 20
193.476323
 30
0.0
 10
152.637800
 20
193.641121
 30
0.0
 10
152.302520
 20
193.687320
 30
0.0
  0
SPLINE
  5
33e
100
AcDbEntity
  8
0
 62
7
100
AcDbSpline
 70
8
 71
3
 72
8
 73
4
 74
0
 40
0
 40
0
 40
0
 40
0
 40
1
 40
1
 40
1
 40
1
 10
152.302520
 20
193.687320
 30
0.0
 10
151.440868
 20
193.806040
 30
0.0
 10
151.089586
 20
192.253146
 30
0.0
 10
151.800391
 20
191.467702
 30
0.0
  0
SPLINE
  5
33f
100
AcDbEntity
  8
0
 62
7
100
AcDbSpline
 70
8
 71
3
 72
8
 73
4
 74
0
 40
0
 40
0
 40
0
 40
0
 40
1
 40
1
 40
1
 40
1
 10
151.800391
 20
191.467702
 30
0.0
 10
152.376632
 20
190.830958
 30
0.0
 10
152.538825
 20
190.802919
 30
0.0
 10
152.996787
 20
191.260878
 30
0.0
  0
LWPOLYLINE
  5
340
100
AcDbEntity
  8
0
 62
7
100
AcDbPolyline
 90
2
 70
0
 10
46.937676
 20
188.749100
 30
0.0
 10
46.937676
 20
188.749100
 30
0.0
  0
SPLINE
  5
341
100
AcDbEntity
  8
0
 62
7
100
AcDbSpline
 70
8
 71
3
 72
8
 73
4
 74
0
 40
0
 40
0
 40
0
 40
0
 40
1
 40
1
 40
1
 40
1
 10
51.293720
 20
193.724088
 30
0.0
 10
51.767655
 20
194.247783
 30
0.0
 10
51.752190
 20
194.285727
 30
0.0
 10
50.881703
 20
194.735883
 30
0.0
  0
SPLINE
  5
342
100
AcDbEntity
  8
0
 62
7
100
AcDbSpline
 70
8
 71
3
 72
8
 73
4
 74
0
 40
0
 40
0
 40
0
 40
0
 40
1
 40
1
 40
1
 40
1
 10
50.881703
 20
194.735883
 30
0.0
 10
49.778045
 20
195.306601
 30
0.0
 10
49.337807
 20
194.995765
 30
0.0
 10
49.742429
 20
193.931502
 30
0.0
  0
SPLINE
  5
343
100
AcDbEntity
  8
0
 62
7
100
AcDbSpline
 70
8
 71
3
 72
8
 73
4
 74
0
 40
0
 40
0
 40
0
 40
0
 40
1
 40
1
 40
1
 40
1
 10
49.742429
 20
193.931502
 30
0.0
 10
50.080023
 20
193.043600
 30
0.0
 10
50.613338
 20
192.972291
 30
0.0
 10
51.293720
 20
193.724088
 30
0.0
  0
LWPOLYLINE
  5
344
100
AcDbEntity
  8
0
 62
7
100
AcDbPolyline
 90
2
 70
0
 10
152.996787
 20
191.260878
 30
0.0
 10
152.996787
 20
191.260878
 30
0.0
  0
SPLINE
  5
345
100
AcDbEntity
  8
0
 62
7
100
AcDbSpline
 70
8
 71
3
 72
8
 73
4
 74
0
 40
0
 40
0
 40
0
 40
0
 40
1
 40
1
 40
1
 40
1
 10
52.577802
 20
196.354989
 30
0.0
 10
52.570465
 20
197.420017
 30
0.0
 10
52.182832
 20
197.803785
 30
0.0
 10
51.489130
 20
197.432531
 30
0.0
  0
SPLINE
  5
346
100
AcDbEntity
  8
0
 62
7
100
AcDbSpline
 70
8
 71
3
 72
8
 73
4
 74
0
 40
0
 40
0
 40
0
 40
0
 40
1
 40
1
 40
1
 40
1
 10
51.489130
 20
197.432531
 30
0.0
 10
50.766359
 20
197.045720
 30
0.0
 10
50.750668
 20
196.904834
 30
0.0
 10
51.355865
 20
196.236100
 30
0.0
  0
SPLINE
  5
347
100
AcDbEntity
  8
0
 62
7
100
AcDbSpline
 70
8
 71
3
 72
8
 73
4
 74
0
 40
0
 40
0
 40
0
 40
0
 40
1
 40
1
 40
1
 40
1
 10
51.355865
 20
196.236100
 30
0.0
 10
51.994562
 20
195.530347
 30
0.0
 10
52.583024
 20
195.587602
 30
0.0
 10
52.577802
 20
196.354989
 30
0.0
  0
LWPOLYLINE
  5
348
100
AcDbEntity
  8
0
 62
7
100
AcDbPolyline
 90
2
 70
0
 10
51.293720
 20
193.724088
 30
0.0
 10
51.293720
 20
193.724088
 30
0.0
  0
SPLINE
  5
349
100
AcDbEntity
  8
0
 62
7
100
AcDbSpline
 70
8
 71
3
 72
8
 73
4
 74
0
 40
0
 40
0
 40
0
 40
0
 40
1
 40
1
 40
1
 40
1
 10
57.186830
 20
197.624989
 30
0.0
 10
57.344338
 20
197.897274
 30
0.0
 10
57.086274
 20
198.522422
 30
0.0
 10
56.454717
 20
199.398372
 30
0.0
  0
SPLINE
  5
34a
100
AcDbEntity
  8
0
 62
7
100
AcDbSpline
 70
8
 71
3
 72
8
 73
4
 74
0
 40
0
 40
0
 40
0
 40
0
 40
1
 40
1
 40
1
 40
1
 10
56.454717
 20
199.398372
 30
0.0
 10
56.031948
 20
199.984768
 30
0.0
 10
55.910367
 20
200.027736
 30
0.0
 10
55.682952
 20
199.671100
 30
0.0
  0
SPLINE
  5
34b
100
AcDbEntity
  8
0
 62
7
100
AcDbSpline
 70
8
 71
3
 72
8
 73
4
 74
0
 40
0
 40
0
 40
0
 40
0
 40
1
 40
1
 40
1
 40
1
 10
55.682952
 20
199.671100
 30
0.0
 10
55.371944
 20
199.183384
 30
0.0
 10
55.314935
 20
197.879029
 30
0.0
 10
55.592500
 20
197.601472
 30
0.0
  0
SPLINE
  5
34c
100
AcDbEntity
  8
0
 62
7
100
AcDbSpline
 70
8
 71
3
 72
8
 73
4
 74
0
 40
0
 40
0
 40
0
 40
0
 40
1
 40
1
 40
1
 40
1
 10
55.592500
 20
197.601472
 30
0.0
 10
55.848702
 20
197.345273
 30
0.0
 10
57.035136
 20
197.362774
 30
0.0
 10
57.186830
 20
197.624981
 30
0.0
  0
LWPOLYLINE
  5
34d
100
AcDbEntity
  8
0
 62
7
100
AcDbPolyline
 90
2
 70
0
 10
52.577802
 20
196.354989
 30
0.0
 10
52.577802
 20
196.354989
 30
0.0
  0
SPLINE
  5
34e
100
AcDbEntity
  8
0
 62
7
100
AcDbSpline
 70
8
 71
3
 72
8
 73
4
 74
0
 40
0
 40
0
 40
0
 40
0
 40
1
 40
1
 40
1
 40
1
 10
64.082874
 20
200.804217
 30
0.0
 10
64.200645
 20
201.446495
 30
0.0
 10
62.574791
 20
202.999519
 30
0.0
 10
61.463343
 20
203.306399
 30
0.0
  0
SPLINE
  5
34f
100
AcDbEntity
  8
0
 62
7
100
AcDbSpline
 70
8
 71
3
 72
8
 73
4
 74
0
 40
0
 40
0
 40
0
 40
0
 40
1
 40
1
 40
1
 40
1
 10
61.463343
 20
203.306399
 30
0.0
 10
59.969936
 20
203.718754
 30
0.0
 10
57.421103
 20
203.379870
 30
0.0
 10
57.069115
 20
202.722154
 30
0.0
  0
SPLINE
  5
350
100
AcDbEntity
  8
0
 62
7
100
AcDbSpline
 70
8
 71
3
 72
8
 73
4
 74
0
 40
0
 40
0
 40
0
 40
0
 40
1
 40
1
 40
1
 40
1
 10
57.069115
 20
202.722154
 30
0.0
 10
56.840120
 20
202.294282
 30
0.0
 10
56.942454
 20
201.998785
 30
0.0
 10
57.574857
 20
201.261885
 30
0.0
  0
LWPOLYLINE
  5
351
100
AcDbEntity
  8
0
 62
7
100
AcDbPolyline
 90
3
 70
0
 10
57.186830
 20
197.624981
 30
0.0
 10
57.186830
 20
197.624989
 30
0.0
 10
57.186830
 20
197.624989
 30
0.0
  0
SPLINE
  5
352
100
AcDbEntity
  8
0
 62
7
100
AcDbSpline
 70
8
 71
3
 72
8
 73
4
 74
0
 40
0
 40
0
 40
0
 40
0
 40
1
 40
1
 40
1
 40
1
 10
61.186850
 20
200.361574
 30
0.0
 10
63.444628
 20
200.380426
 30
0.0
 10
64.021321
 20
200.468573
 30
0.0
 10
64.082874
 20
200.804217
 30
0.0
  0
LWPOLYLINE
  5
353
100
AcDbEntity
  8
0
 62
7
100
AcDbPolyline
 90
3
 70
0
 10
57.574857
 20
201.261885
 30
0.0
 10
58.367676
 20
200.338037
 30
0.0
 10
61.186850
 20
200.361574
 30
0.0
  0
SPLINE
  5
354
100
AcDbEntity
  8
0
 62
7
100
AcDbSpline
 70
8
 71
3
 72
8
 73
4
 74
0
 40
0
 40
0
 40
0
 40
0
 40
1
 40
1
 40
1
 40
1
 10
77.836578
 20
63.095726
 30
0.0
 10
77.731874
 20
63.572490
 30
0.0
 10
77.711639
 20
64.028011
 30
0.0
 10
77.791620
 20
64.107990
 30
0.0
  0
SPLINE
  5
355
100
AcDbEntity
  8
0
 62
7
100
AcDbSpline
 70
8
 71
3
 72
8
 73
4
 74
0
 40
0
 40
0
 40
0
 40
0
 40
1
 40
1
 40
1
 40
1
 10
77.791620
 20
64.107990
 30
0.0
 10
78.032300
 20
64.348677
 30
0.0
 10
78.891920
 20
62.841560
 30
0.0
 10
78.695352
 20
62.523512
 30
0.0
  0
SPLINE
  5
356
100
AcDbEntity
  8
0
 62
7
100
AcDbSpline
 70
8
 71
3
 72
8
 73
4
 74
0
 40
0
 40
0
 40
0
 40
0
 40
1
 40
1
 40
1
 40
1
 10
78.695352
 20
62.523512
 30
0.0
 10
78.366112
 20
61.990793
 30
0.0
 10
78.030098
 20
62.214691
 30
0.0
 10
77.836578
 20
63.095726
 30
0.0
  0
LWPOLYLINE
  5
357
100
AcDbEntity
  8
0
 62
7
100
AcDbPolyline
 90
2
 70
0
 10
64.082874
 20
200.804217
 30
0.0
 10
64.082874
 20
200.804217
 30
0.0
  0
SPLINE
  5
358
100
AcDbEntity
  8
0
 62
7
100
AcDbSpline
 70
8
 71
3
 72
8
 73
4
 74
0
 40
0
 40
0
 40
0
 40
0
 40
1
 40
1
 40
1
 40
1
 10
144.780339
 20
65.872279
 30
0.0
 10
144.862606
 20
66.186782
 30
0.0
 10
144.785983
 20
67.270626
 30
0.0
 10
144.610046
 20
68.280818
 30
0.0
  0
SPLINE
  5
359
100
AcDbEntity
  8
0
 62
7
100
AcDbSpline
 70
8
 71
3
 72
8
 73
4
 74
0
 40
0
 40
0
 40
0
 40
0
 40
1
 40
1
 40
1
 40
1
 10
144.610046
 20
68.280818
 30
0.0
 10
144.205508
 20
70.603794
 30
0.0
 10
144.410571
 20
71.542211
 30
0.0
 10
145.322713
 20
71.542211
 30
0.0
  0
SPLINE
  5
35a
100
AcDbEntity
  8
0
 62
7
100
AcDbSpline
 70
8
 71
3
 72
8
 73
4
 74
0
 40
0
 40
0
 40
0
 40
0
 40
1
 40
1
 40
1
 40
1
 10
145.322713
 20
71.542211
 30
0.0
 10
145.969482
 20
71.542211
 30
0.0
 10
145.996999
 20
71.462571
 30
0.0
 10
145.981420
 20
69.637211
 30
0.0
  0
SPLINE
  5
35b
100
AcDbEntity
  8
0
 62
7
100
AcDbSpline
 70
8
 71
3
 72
8
 73
4
 74
0
 40
0
 40
0
 40
0
 40
0
 40
1
 40
1
 40
1
 40
1
 10
145.981420
 20
69.637211
 30
0.0
 10
145.958278
 20
66.934618
 30
0.0
 10
145.659715
 20
65.498603
 30
0.0
 10
145.098290
 20
65.390484
 30
0.0
  0
SPLINE
  5
35c
100
AcDbEntity
  8
0
 62
7
100
AcDbSpline
 70
8
 71
3
 72
8
 73
4
 74
0
 40
0
 40
0
 40
0
 40
0
 40
1
 40
1
 40
1
 40
1
 10
145.098290
 20
65.390484
 30
0.0
 10
144.752088
 20
65.323812
 30
0.0
 10
144.669623
 20
65.448797
 30
0.0
 10
144.780339
 20
65.872279
 30
0.0
  0
LWPOLYLINE
  5
35d
100
AcDbEntity
  8
0
 62
7
100
AcDbPolyline
 90
2
 70
0
 10
77.836578
 20
63.095726
 30
0.0
 10
77.836578
 20
63.095726
 30
0.0
  0
SPLINE
  5
35e
100
AcDbEntity
  8
0
 62
7
100
AcDbSpline
 70
8
 71
3
 72
8
 73
4
 74
0
 40
0
 40
0
 40
0
 40
0
 40
1
 40
1
 40
1
 40
1
 10
74.215865
 20
66.413878
 30
0.0
 10
73.593198
 20
67.101916
 30
0.0
 10
73.625287
 20
67.591100
 30
0.0
 10
74.293081
 20
67.591100
 30
0.0
  0
SPLINE
  5
35f
100
AcDbEntity
  8
0
 62
7
100
AcDbSpline
 70
8
 71
3
 72
8
 73
4
 74
0
 40
0
 40
0
 40
0
 40
0
 40
1
 40
1
 40
1
 40
1
 10
74.293081
 20
67.591100
 30
0.0
 10
75.122109
 20
67.591100
 30
0.0
 10
75.823290
 20
66.780366
 30
0.0
 10
75.417313
 20
66.291199
 30
0.0
  0
SPLINE
  5
360
100
AcDbEntity
  8
0
 62
7
100
AcDbSpline
 70
8
 71
3
 72
8
 73
4
 74
0
 40
0
 40
0
 40
0
 40
0
 40
1
 40
1
 40
1
 40
1
 10
75.417313
 20
66.291199
 30
0.0
 10
74.987263
 20
65.773030
 30
0.0
 10
74.776330
 20
65.794570
 30
0.0
 10
74.215865
 20
66.413878
 30
0.0
  0
LWPOLYLINE
  5
361
100
AcDbEntity
  8
0
 62
7
100
AcDbPolyline
 90
2
 70
0
 10
144.780339
 20
65.872279
 30
0.0
 10
144.780339
 20
65.872279
 30
0.0
  0
SPLINE
  5
362
100
AcDbEntity
  8
0
 62
7
100
AcDbSpline
 70
8
 71
3
 72
8
 73
4
 74
0
 40
0
 40
0
 40
0
 40
0
 40
1
 40
1
 40
1
 40
1
 10
74.540816
 20
72.696071
 30
0.0
 10
73.828317
 20
73.094806
 30
0.0
 10
72.763944
 20
74.951264
 30
0.0
 10
73.121210
 20
75.172080
 30
0.0
  0
SPLINE
  5
363
100
AcDbEntity
  8
0
 62
7
100
AcDbSpline
 70
8
 71
3
 72
8
 73
4
 74
0
 40
0
 40
0
 40
0
 40
0
 40
1
 40
1
 40
1
 40
1
 10
73.121210
 20
75.172080
 30
0.0
 10
73.286564
 20
75.274262
 30
0.0
 10
73.505286
 20
75.737594
 30
0.0
 10
73.607253
 20
76.201706
 30
0.0
  0
SPLINE
  5
364
100
AcDbEntity
  8
0
 62
7
100
AcDbSpline
 70
8
 71
3
 72
8
 73
4
 74
0
 40
0
 40
0
 40
0
 40
0
 40
1
 40
1
 40
1
 40
1
 10
73.607253
 20
76.201706
 30
0.0
 10
73.927914
 20
77.660775
 30
0.0
 10
74.361858
 20
78.344320
 30
0.0
 10
74.758494
 20
78.015139
 30
0.0
  0
SPLINE
  5
365
100
AcDbEntity
  8
0
 62
7
100
AcDbSpline
 70
8
 71
3
 72
8
 73
4
 74
0
 40
0
 40
0
 40
0
 40
0
 40
1
 40
1
 40
1
 40
1
 10
74.758494
 20
78.015139
 30
0.0
 10
75.006934
 20
77.808950
 30
0.0
 10
75.038910
 20
77.466570
 30
0.0
 10
74.866020
 20
76.863751
 30
0.0
  0
SPLINE
  5
366
100
AcDbEntity
  8
0
 62
7
100
AcDbSpline
 70
8
 71
3
 72
8
 73
4
 74
0
 40
0
 40
0
 40
0
 40
0
 40
1
 40
1
 40
1
 40
1
 10
74.866020
 20
76.863751
 30
0.0
 10
74.603723
 20
75.949134
 30
0.0
 10
74.789397
 20
74.452315
 30
0.0
 10
75.196361
 20
74.200793
 30
0.0
  0
SPLINE
  5
367
100
AcDbEntity
  8
0
 62
7
100
AcDbSpline
 70
8
 71
3
 72
8
 73
4
 74
0
 40
0
 40
0
 40
0
 40
0
 40
1
 40
1
 40
1
 40
1
 10
75.196361
 20
74.200793
 30
0.0
 10
75.500343
 20
74.012923
 30
0.0
 10
75.522018
 20
72.753786
 30
0.0
 10
75.224584
 20
72.569870
 30
0.0
  0
SPLINE
  5
368
100
AcDbEntity
  8
0
 62
7
100
AcDbSpline
 70
8
 71
3
 72
8
 73
4
 74
0
 40
0
 40
0
 40
0
 40
0
 40
1
 40
1
 40
1
 40
1
 10
75.224584
 20
72.569870
 30
0.0
 10
75.104837
 20
72.495871
 30
0.0
 10
74.797214
 20
72.552654
 30
0.0
 10
74.540957
 20
72.696071
 30
0.0
  0
LWPOLYLINE
  5
369
100
AcDbEntity
  8
0
 62
7
100
AcDbPolyline
 90
2
 70
0
 10
74.215865
 20
66.413878
 30
0.0
 10
74.215865
 20
66.413878
 30
0.0
  0
SPLINE
  5
36a
100
AcDbEntity
  8
0
 62
7
100
AcDbSpline
 70
8
 71
3
 72
8
 73
4
 74
0
 40
0
 40
0
 40
0
 40
0
 40
1
 40
1
 40
1
 40
1
 10
58.814039
 20
75.045501
 30
0.0
 10
58.471110
 20
75.410519
 30
0.0
 10
57.906976
 20
76.390854
 30
0.0
 10
57.560379
 20
77.224025
 30
0.0
  0
SPLINE
  5
36b
100
AcDbEntity
  8
0
 62
7
100
AcDbSpline
 70
8
 71
3
 72
8
 73
4
 74
0
 40
0
 40
0
 40
0
 40
0
 40
1
 40
1
 40
1
 40
1
 10
57.560379
 20
77.224025
 30
0.0
 10
57.213810
 20
78.057193
 30
0.0
 10
56.650410
 20
79.273568
 30
0.0
 10
56.308413
 20
79.927079
 30
0.0
  0
SPLINE
  5
36c
100
AcDbEntity
  8
0
 62
7
100
AcDbSpline
 70
8
 71
3
 72
8
 73
4
 74
0
 40
0
 40
0
 40
0
 40
0
 40
1
 40
1
 40
1
 40
1
 10
56.308413
 20
79.927079
 30
0.0
 10
55.693000
 20
81.102986
 30
0.0
 10
55.475180
 20
82.548878
 30
0.0
 10
55.913443
 20
82.548878
 30
0.0
  0
SPLINE
  5
36d
100
AcDbEntity
  8
0
 62
7
100
AcDbSpline
 70
8
 71
3
 72
8
 73
4
 74
0
 40
0
 40
0
 40
0
 40
0
 40
1
 40
1
 40
1
 40
1
 10
55.913443
 20
82.548878
 30
0.0
 10
56.434538
 20
82.548878
 30
0.0
 10
57.936779
 20
80.573726
 30
0.0
 10
58.893682
 20
78.630403
 30
0.0
  0
SPLINE
  5
36e
100
AcDbEntity
  8
0
 62
7
100
AcDbSpline
 70
8
 71
3
 72
8
 73
4
 74
0
 40
0
 40
0
 40
0
 40
0
 40
1
 40
1
 40
1
 40
1
 10
58.893682
 20
78.630403
 30
0.0
 10
60.316138
 20
75.741692
 30
0.0
 10
60.266326
 20
73.499600
 30
0.0
 10
58.814039
 20
75.045501
 30
0.0
  0
LWPOLYLINE
  5
36f
100
AcDbEntity
  8
0
 62
7
100
AcDbPolyline
 90
3
 70
0
 10
74.540957
 20
72.696071
 30
0.0
 10
74.540816
 20
72.696071
 30
0.0
 10
74.540816
 20
72.696071
 30
0.0
  0
SPLINE
  5
370
100
AcDbEntity
  8
0
 62
7
100
AcDbSpline
 70
8
 71
3
 72
8
 73
4
 74
0
 40
0
 40
0
 40
0
 40
0
 40
1
 40
1
 40
1
 40
1
 10
58.090590
 20
81.693923
 30
0.0
 10
57.844238
 20
82.092530
 30
0.0
 10
58.763775
 20
83.733627
 30
0.0
 10
59.160354
 20
83.603105
 30
0.0
  0
SPLINE
  5
371
100
AcDbEntity
  8
0
 62
7
100
AcDbSpline
 70
8
 71
3
 72
8
 73
4
 74
0
 40
0
 40
0
 40
0
 40
0
 40
1
 40
1
 40
1
 40
1
 10
59.160354
 20
83.603105
 30
0.0
 10
59.721214
 20
83.418509
 30
0.0
 10
59.739361
 20
82.192321
 30
0.0
 10
59.187165
 20
81.788580
 30
0.0
  0
SPLINE
  5
372
100
AcDbEntity
  8
0
 62
7
100
AcDbSpline
 70
8
 71
3
 72
8
 73
4
 74
0
 40
0
 40
0
 40
0
 40
0
 40
1
 40
1
 40
1
 40
1
 10
59.187165
 20
81.788580
 30
0.0
 10
58.585890
 20
81.348920
 30
0.0
 10
58.318061
 20
81.325800
 30
0.0
 10
58.090534
 20
81.693923
 30
0.0
  0
LWPOLYLINE
  5
373
100
AcDbEntity
  8
0
 62
7
100
AcDbPolyline
 90
2
 70
0
 10
58.814039
 20
75.045501
 30
0.0
 10
58.814039
 20
75.045501
 30
0.0
  0
SPLINE
  5
374
100
AcDbEntity
  8
0
 62
7
100
AcDbSpline
 70
8
 71
3
 72
8
 73
4
 74
0
 40
0
 40
0
 40
0
 40
0
 40
1
 40
1
 40
1
 40
1
 10
93.222120
 20
124.018888
 30
0.0
 10
93.222120
 20
124.183271
 30
0.0
 10
93.349120
 20
124.317767
 30
0.0
 10
93.504343
 20
124.317767
 30
0.0
  0
SPLINE
  5
375
100
AcDbEntity
  8
0
 62
7
100
AcDbSpline
 70
8
 71
3
 72
8
 73
4
 74
0
 40
0
 40
0
 40
0
 40
0
 40
1
 40
1
 40
1
 40
1
 10
93.504343
 20
124.317767
 30
0.0
 10
93.659565
 20
124.317767
 30
0.0
 10
93.786565
 20
124.261763
 30
0.0
 10
93.786565
 20
124.193313
 30
0.0
  0
SPLINE
  5
376
100
AcDbEntity
  8
0
 62
7
100
AcDbSpline
 70
8
 71
3
 72
8
 73
4
 74
0
 40
0
 40
0
 40
0
 40
0
 40
1
 40
1
 40
1
 40
1
 10
93.786565
 20
124.193313
 30
0.0
 10
93.786565
 20
124.124862
 30
0.0
 10
93.659565
 20
123.990367
 30
0.0
 10
93.504343
 20
123.894434
 30
0.0
  0
SPLINE
  5
377
100
AcDbEntity
  8
0
 62
7
100
AcDbSpline
 70
8
 71
3
 72
8
 73
4
 74
0
 40
0
 40
0
 40
0
 40
0
 40
1
 40
1
 40
1
 40
1
 10
93.504343
 20
123.894434
 30
0.0
 10
93.349120
 20
123.798501
 30
0.0
 10
93.222120
 20
123.854505
 30
0.0
 10
93.222120
 20
124.018888
 30
0.0
  0
LWPOLYLINE
  5
378
100
AcDbEntity
  8
0
 62
7
100
AcDbPolyline
 90
3
 70
0
 10
58.090534
 20
81.693923
 30
0.0
 10
58.090590
 20
81.693923
 30
0.0
 10
58.090590
 20
81.693923
 30
0.0
  0
SPLINE
  5
379
100
AcDbEntity
  8
0
 62
7
100
AcDbSpline
 70
8
 71
3
 72
8
 73
4
 74
0
 40
0
 40
0
 40
0
 40
0
 40
1
 40
1
 40
1
 40
1
 10
94.415695
 20
124.935128
 30
0.0
 10
94.589544
 20
125.456658
 30
0.0
 10
95.028089
 20
125.493053
 30
0.0
 10
95.632439
 20
125.036102
 30
0.0
  0
SPLINE
  5
37a
100
AcDbEntity
  8
0
 62
7
100
AcDbSpline
 70
8
 71
3
 72
8
 73
4
 74
0
 40
0
 40
0
 40
0
 40
0
 40
1
 40
1
 40
1
 40
1
 10
95.632439
 20
125.036102
 30
0.0
 10
96.156949
 20
124.639492
 30
0.0
 10
96.136968
 20
124.617479
 30
0.0
 10
95.244722
 20
124.608964
 30
0.0
  0
SPLINE
  5
37b
100
AcDbEntity
  8
0
 62
7
100
AcDbSpline
 70
8
 71
3
 72
8
 73
4
 74
0
 40
0
 40
0
 40
0
 40
0
 40
1
 40
1
 40
1
 40
1
 10
95.244722
 20
124.608964
 30
0.0
 10
94.640993
 20
124.603207
 30
0.0
 10
94.344010
 20
124.720052
 30
0.0
 10
94.415695
 20
124.935128
 30
0.0
  0
LWPOLYLINE
  5
37c
100
AcDbEntity
  8
0
 62
7
100
AcDbPolyline
 90
2
 70
0
 10
93.222120
 20
124.018888
 30
0.0
 10
93.222120
 20
124.018888
 30
0.0
  0
SPLINE
  5
37d
100
AcDbEntity
  8
0
 62
7
100
AcDbSpline
 70
8
 71
3
 72
8
 73
4
 74
0
 40
0
 40
0
 40
0
 40
0
 40
1
 40
1
 40
1
 40
1
 10
107.107454
 20
124.938656
 30
0.0
 10
106.643593
 20
125.402525
 30
0.0
 10
106.682371
 20
126.152494
 30
0.0
 10
107.192120
 20
126.575545
 30
0.0
  0
SPLINE
  5
37e
100
AcDbEntity
  8
0
 62
7
100
AcDbSpline
 70
8
 71
3
 72
8
 73
4
 74
0
 40
0
 40
0
 40
0
 40
0
 40
1
 40
1
 40
1
 40
1
 10
107.192120
 20
126.575545
 30
0.0
 10
107.875917
 20
127.143034
 30
0.0
 10
107.687279
 20
127.652017
 30
0.0
 10
106.520121
 20
128.388814
 30
0.0
  0
SPLINE
  5
37f
100
AcDbEntity
  8
0
 62
7
100
AcDbSpline
 70
8
 71
3
 72
8
 73
4
 74
0
 40
0
 40
0
 40
0
 40
0
 40
1
 40
1
 40
1
 40
1
 10
106.520121
 20
128.388814
 30
0.0
 10
104.666627
 20
129.558862
 30
0.0
 10
102.479489
 20
130.042072
 30
0.0
 10
99.649393
 20
129.906763
 30
0.0
  0
SPLINE
  5
380
100
AcDbEntity
  8
0
 62
7
100
AcDbSpline
 70
8
 71
3
 72
8
 73
4
 74
0
 40
0
 40
0
 40
0
 40
0
 40
1
 40
1
 40
1
 40
1
 10
99.649393
 20
129.906763
 30
0.0
 10
98.176616
 20
129.836349
 30
0.0
 10
97.047643
 20
129.651191
 30
0.0
 10
96.929956
 20
129.460767
 30
0.0
  0
SPLINE
  5
381
100
AcDbEntity
  8
0
 62
7
100
AcDbSpline
 70
8
 71
3
 72
8
 73
4
 74
0
 40
0
 40
0
 40
0
 40
0
 40
1
 40
1
 40
1
 40
1
 10
96.929956
 20
129.460767
 30
0.0
 10
96.819268
 20
129.281686
 30
0.0
 10
95.928265
 20
129.103556
 30
0.0
 10
94.949913
 20
129.064920
 30
0.0
  0
SPLINE
  5
382
100
AcDbEntity
  8
0
 62
7
100
AcDbSpline
 70
8
 71
3
 72
8
 73
4
 74
0
 40
0
 40
0
 40
0
 40
0
 40
1
 40
1
 40
1
 40
1
 10
94.949913
 20
129.064920
 30
0.0
 10
92.940576
 20
128.985564
 30
0.0
 10
92.787526
 20
129.112618
 30
0.0
 10
92.169234
 20
131.373323
 30
0.0
  0
SPLINE
  5
383
100
AcDbEntity
  8
0
 62
7
100
AcDbSpline
 70
8
 71
3
 72
8
 73
4
 74
0
 40
0
 40
0
 40
0
 40
0
 40
1
 40
1
 40
1
 40
1
 10
92.169234
 20
131.373323
 30
0.0
 10
91.672918
 20
133.188062
 30
0.0
 10
91.697415
 20
133.267807
 30
0.0
 10
92.869343
 20
133.652583
 30
0.0
  0
SPLINE
  5
384
100
AcDbEntity
  8
0
 62
7
100
AcDbSpline
 70
8
 71
3
 72
8
 73
4
 74
0
 40
0
 40
0
 40
0
 40
0
 40
1
 40
1
 40
1
 40
1
 10
92.869343
 20
133.652583
 30
0.0
 10
93.451426
 20
133.843698
 30
0.0
 10
94.372176
 20
134.221715
 30
0.0
 10
94.915454
 20
134.492620
 30
0.0
  0
SPLINE
  5
385
100
AcDbEntity
  8
0
 62
7
100
AcDbSpline
 70
8
 71
3
 72
8
 73
4
 74
0
 40
0
 40
0
 40
0
 40
0
 40
1
 40
1
 40
1
 40
1
 10
94.915454
 20
134.492620
 30
0.0
 10
95.499061
 20
134.783628
 30
0.0
 10
96.942571
 20
135.061786
 30
0.0
 10
98.443232
 20
135.172398
 30
0.0
  0
SPLINE
  5
386
100
AcDbEntity
  8
0
 62
7
100
AcDbSpline
 70
8
 71
3
 72
8
 73
4
 74
0
 40
0
 40
0
 40
0
 40
0
 40
1
 40
1
 40
1
 40
1
 10
98.443232
 20
135.172398
 30
0.0
 10
101.483612
 20
135.396502
 30
0.0
 10
103.039757
 20
135.718797
 30
0.0
 10
104.672271
 20
136.462506
 30
0.0
  0
SPLINE
  5
387
100
AcDbEntity
  8
0
 62
7
100
AcDbSpline
 70
8
 71
3
 72
8
 73
4
 74
0
 40
0
 40
0
 40
0
 40
0
 40
1
 40
1
 40
1
 40
1
 10
104.672271
 20
136.462506
 30
0.0
 10
106.465455
 20
137.279395
 30
0.0
 10
107.152722
 20
137.196004
 30
0.0
 10
107.635068
 20
136.103003
 30
0.0
  0
SPLINE
  5
388
100
AcDbEntity
  8
0
 62
7
100
AcDbSpline
 70
8
 71
3
 72
8
 73
4
 74
0
 40
0
 40
0
 40
0
 40
0
 40
1
 40
1
 40
1
 40
1
 10
107.635068
 20
136.103003
 30
0.0
 10
108.207754
 20
134.805410
 30
0.0
 10
109.203067
 20
134.529908
 30
0.0
 10
111.322951
 20
135.082208
 30
0.0
  0
SPLINE
  5
389
100
AcDbEntity
  8
0
 62
7
100
AcDbSpline
 70
8
 71
3
 72
8
 73
4
 74
0
 40
0
 40
0
 40
0
 40
0
 40
1
 40
1
 40
1
 40
1
 10
111.322951
 20
135.082208
 30
0.0
 10
113.015974
 20
135.523296
 30
0.0
 10
113.021392
 20
135.522746
 30
0.0
 10
112.816414
 20
134.930779
 30
0.0
  0
SPLINE
  5
38a
100
AcDbEntity
  8
0
 62
7
100
AcDbSpline
 70
8
 71
3
 72
8
 73
4
 74
0
 40
0
 40
0
 40
0
 40
0
 40
1
 40
1
 40
1
 40
1
 10
112.816414
 20
134.930779
 30
0.0
 10
112.703271
 20
134.604011
 30
0.0
 10
112.555076
 20
133.459820
 30
0.0
 10
112.487089
 20
132.388134
 30
0.0
  0
SPLINE
  5
38b
100
AcDbEntity
  8
0
 62
7
100
AcDbSpline
 70
8
 71
3
 72
8
 73
4
 74
0
 40
0
 40
0
 40
0
 40
0
 40
1
 40
1
 40
1
 40
1
 10
112.487089
 20
132.388134
 30
0.0
 10
112.366467
 20
130.486391
 30
0.0
 10
112.390626
 20
130.401157
 30
0.0
 10
113.493070
 20
128.837880
 30
0.0
  0
SPLINE
  5
38c
100
AcDbEntity
  8
0
 62
7
100
AcDbSpline
 70
8
 71
3
 72
8
 73
4
 74
0
 40
0
 40
0
 40
0
 40
0
 40
1
 40
1
 40
1
 40
1
 10
113.493070
 20
128.837880
 30
0.0
 10
114.878584
 20
126.873216
 30
0.0
 10
114.739222
 20
126.495258
 30
0.0
 10
112.661220
 20
126.582123
 30
0.0
  0
SPLINE
  5
38d
100
AcDbEntity
  8
0
 62
7
100
AcDbSpline
 70
8
 71
3
 72
8
 73
4
 74
0
 40
0
 40
0
 40
0
 40
0
 40
1
 40
1
 40
1
 40
1
 10
112.661220
 20
126.582123
 30
0.0
 10
110.594196
 20
126.668531
 30
0.0
 10
110.437676
 20
126.638269
 30
0.0
 10
110.437676
 20
126.152211
 30
0.0
  0
SPLINE
  5
38e
100
AcDbEntity
  8
0
 62
7
100
AcDbSpline
 70
8
 71
3
 72
8
 73
4
 74
0
 40
0
 40
0
 40
0
 40
0
 40
1
 40
1
 40
1
 40
1
 10
110.437676
 20
126.152211
 30
0.0
 10
110.437676
 20
124.956664
 30
0.0
 10
107.983697
 20
124.062415
 30
0.0
 10
107.107454
 20
124.938656
 30
0.0
  0
LWPOLYLINE
  5
38f
100
AcDbEntity
  8
0
 62
7
100
AcDbPolyline
 90
2
 70
0
 10
94.415695
 20
124.935128
 30
0.0
 10
94.415695
 20
124.935128
 30
0.0
  0
SPLINE
  5
390
100
AcDbEntity
  8
0
 62
7
100
AcDbSpline
 70
8
 71
3
 72
8
 73
4
 74
0
 40
0
 40
0
 40
0
 40
0
 40
1
 40
1
 40
1
 40
1
 10
81.792120
 20
142.379989
 30
0.0
 10
81.888076
 20
142.535211
 30
0.0
 10
82.625805
 20
142.664162
 30
0.0
 10
83.431578
 20
142.666544
 30
0.0
  0
SPLINE
  5
391
100
AcDbEntity
  8
0
 62
7
100
AcDbSpline
 70
8
 71
3
 72
8
 73
4
 74
0
 40
0
 40
0
 40
0
 40
0
 40
1
 40
1
 40
1
 40
1
 10
83.431578
 20
142.666544
 30
0.0
 10
84.237322
 20
142.668801
 30
0.0
 10
85.900966
 20
142.923944
 30
0.0
 10
87.128576
 20
143.233249
 30
0.0
  0
SPLINE
  5
392
100
AcDbEntity
  8
0
 62
7
100
AcDbSpline
 70
8
 71
3
 72
8
 73
4
 74
0
 40
0
 40
0
 40
0
 40
0
 40
1
 40
1
 40
1
 40
1
 10
87.128576
 20
143.233249
 30
0.0
 10
89.169071
 20
143.747370
 30
0.0
 10
89.920149
 20
143.781722
 30
0.0
 10
89.479205
 20
143.340758
 30
0.0
  0
SPLINE
  5
393
100
AcDbEntity
  8
0
 62
7
100
AcDbSpline
 70
8
 71
3
 72
8
 73
4
 74
0
 40
0
 40
0
 40
0
 40
0
 40
1
 40
1
 40
1
 40
1
 10
89.479205
 20
143.340758
 30
0.0
 10
88.693893
 20
142.555455
 30
0.0
 10
81.331901
 20
141.635312
 30
0.0
 10
81.792120
 20
142.379989
 30
0.0
  0
LWPOLYLINE
  5
394
100
AcDbEntity
  8
0
 62
7
100
AcDbPolyline
 90
2
 70
0
 10
107.107454
 20
124.938656
 30
0.0
 10
107.107454
 20
124.938656
 30
0.0
  0
SPLINE
  5
395
100
AcDbEntity
  8
0
 62
7
100
AcDbSpline
 70
8
 71
3
 72
8
 73
4
 74
0
 40
0
 40
0
 40
0
 40
0
 40
1
 40
1
 40
1
 40
1
 10
75.655622
 20
142.882960
 30
0.0
 10
75.423522
 20
143.149604
 30
0.0
 10
75.169861
 20
143.685267
 30
0.0
 10
75.091939
 20
144.073323
 30
0.0
  0
SPLINE
  5
396
100
AcDbEntity
  8
0
 62
7
100
AcDbSpline
 70
8
 71
3
 72
8
 73
4
 74
0
 40
0
 40
0
 40
0
 40
0
 40
1
 40
1
 40
1
 40
1
 10
75.091939
 20
144.073323
 30
0.0
 10
75.014018
 20
144.461378
 30
0.0
 10
74.854477
 20
145.007306
 30
0.0
 10
74.737412
 20
145.286494
 30
0.0
  0
SPLINE
  5
397
100
AcDbEntity
  8
0
 62
7
100
AcDbSpline
 70
8
 71
3
 72
8
 73
4
 74
0
 40
0
 40
0
 40
0
 40
0
 40
1
 40
1
 40
1
 40
1
 10
74.737412
 20
145.286494
 30
0.0
 10
74.383336
 20
146.130838
 30
0.0
 10
78.684543
 20
149.998149
 30
0.0
 10
81.170413
 20
151.070557
 30
0.0
  0
SPLINE
  5
398
100
AcDbEntity
  8
0
 62
7
100
AcDbSpline
 70
8
 71
3
 72
8
 73
4
 74
0
 40
0
 40
0
 40
0
 40
0
 40
1
 40
1
 40
1
 40
1
 10
81.170413
 20
151.070557
 30
0.0
 10
83.162422
 20
151.929909
 30
0.0
 10
82.571054
 20
151.062626
 30
0.0
 10
79.463787
 20
148.567663
 30
0.0
  0
SPLINE
  5
399
100
AcDbEntity
  8
0
 62
7
100
AcDbSpline
 70
8
 71
3
 72
8
 73
4
 74
0
 40
0
 40
0
 40
0
 40
0
 40
1
 40
1
 40
1
 40
1
 10
79.463787
 20
148.567663
 30
0.0
 10
79.269759
 20
148.411871
 30
0.0
 10
79.111009
 20
148.166394
 30
0.0
 10
79.111009
 20
148.022165
 30
0.0
  0
SPLINE
  5
39a
100
AcDbEntity
  8
0
 62
7
100
AcDbSpline
 70
8
 71
3
 72
8
 73
4
 74
0
 40
0
 40
0
 40
0
 40
0
 40
1
 40
1
 40
1
 40
1
 10
79.111009
 20
148.022165
 30
0.0
 10
79.111009
 20
147.713721
 30
0.0
 10
79.917798
 20
147.962119
 30
0.0
 10
80.522120
 20
148.456632
 30
0.0
  0
SPLINE
  5
39b
100
AcDbEntity
  8
0
 62
7
100
AcDbSpline
 70
8
 71
3
 72
8
 73
4
 74
0
 40
0
 40
0
 40
0
 40
0
 40
1
 40
1
 40
1
 40
1
 10
80.522120
 20
148.456632
 30
0.0
 10
81.979855
 20
149.649441
 30
0.0
 10
83.893886
 20
149.979937
 30
0.0
 10
86.942676
 20
149.565260
 30
0.0
  0
SPLINE
  5
39c
100
AcDbEntity
  8
0
 62
7
100
AcDbSpline
 70
8
 71
3
 72
8
 73
4
 74
0
 40
0
 40
0
 40
0
 40
0
 40
1
 40
1
 40
1
 40
1
 10
86.942676
 20
149.565260
 30
0.0
 10
87.757762
 20
149.454397
 30
0.0
 10
88.422395
 20
149.475112
 30
0.0
 10
88.420025
 20
149.611304
 30
0.0
  0
SPLINE
  5
39d
100
AcDbEntity
  8
0
 62
7
100
AcDbSpline
 70
8
 71
3
 72
8
 73
4
 74
0
 40
0
 40
0
 40
0
 40
0
 40
1
 40
1
 40
1
 40
1
 10
88.420025
 20
149.611304
 30
0.0
 10
88.409865
 20
150.198705
 30
0.0
 10
87.819371
 20
150.705565
 30
0.0
 10
86.818272
 20
150.986452
 30
0.0
  0
SPLINE
  5
39e
100
AcDbEntity
  8
0
 62
7
100
AcDbSpline
 70
8
 71
3
 72
8
 73
4
 74
0
 40
0
 40
0
 40
0
 40
0
 40
1
 40
1
 40
1
 40
1
 10
86.818272
 20
150.986452
 30
0.0
 10
86.198258
 20
151.160414
 30
0.0
 10
85.743232
 20
151.463421
 30
0.0
 10
85.743232
 20
151.702365
 30
0.0
  0
SPLINE
  5
39f
100
AcDbEntity
  8
0
 62
7
100
AcDbSpline
 70
8
 71
3
 72
8
 73
4
 74
0
 40
0
 40
0
 40
0
 40
0
 40
1
 40
1
 40
1
 40
1
 10
85.743232
 20
151.702365
 30
0.0
 10
85.743232
 20
152.029966
 30
0.0
 10
86.104166
 20
152.100253
 30
0.0
 10
87.468146
 20
152.038260
 30
0.0
  0
SPLINE
  5
3a0
100
AcDbEntity
  8
0
 62
7
100
AcDbSpline
 70
8
 71
3
 72
8
 73
4
 74
0
 40
0
 40
0
 40
0
 40
0
 40
1
 40
1
 40
1
 40
1
 10
87.468146
 20
152.038260
 30
0.0
 10
89.683534
 20
151.937575
 30
0.0
 10
90.753156
 20
152.319289
 30
0.0
 10
90.631151
 20
153.167025
 30
0.0
  0
SPLINE
  5
3a1
100
AcDbEntity
  8
0
 62
7
100
AcDbSpline
 70
8
 71
3
 72
8
 73
4
 74
0
 40
0
 40
0
 40
0
 40
0
 40
1
 40
1
 40
1
 40
1
 10
90.631151
 20
153.167025
 30
0.0
 10
90.555628
 20
153.691577
 30
0.0
 10
90.037412
 20
153.963439
 30
0.0
 10
87.436565
 20
154.842886
 30
0.0
  0
SPLINE
  5
3a2
100
AcDbEntity
  8
0
 62
7
100
AcDbSpline
 70
8
 71
3
 72
8
 73
4
 74
0
 40
0
 40
0
 40
0
 40
0
 40
1
 40
1
 40
1
 40
1
 10
87.436565
 20
154.842886
 30
0.0
 10
83.053484
 20
156.324984
 30
0.0
 10
80.497511
 20
156.238986
 30
0.0
 10
79.000858
 20
154.559061
 30
0.0
  0
SPLINE
  5
3a3
100
AcDbEntity
  8
0
 62
7
100
AcDbSpline
 70
8
 71
3
 72
8
 73
4
 74
0
 40
0
 40
0
 40
0
 40
0
 40
1
 40
1
 40
1
 40
1
 10
79.000858
 20
154.559061
 30
0.0
 10
78.621156
 20
154.132857
 30
0.0
 10
78.272104
 20
154.009235
 30
0.0
 10
77.790040
 20
154.130227
 30
0.0
  0
SPLINE
  5
3a4
100
AcDbEntity
  8
0
 62
7
100
AcDbSpline
 70
8
 71
3
 72
8
 73
4
 74
0
 40
0
 40
0
 40
0
 40
0
 40
1
 40
1
 40
1
 40
1
 10
77.790040
 20
154.130227
 30
0.0
 10
77.351269
 20
154.240350
 30
0.0
 10
76.924182
 20
154.129662
 30
0.0
 10
76.577444
 20
153.815792
 30
0.0
  0
SPLINE
  5
3a5
100
AcDbEntity
  8
0
 62
7
100
AcDbSpline
 70
8
 71
3
 72
8
 73
4
 74
0
 40
0
 40
0
 40
0
 40
0
 40
1
 40
1
 40
1
 40
1
 10
76.577444
 20
153.815792
 30
0.0
 10
75.781521
 20
153.095513
 30
0.0
 10
75.256192
 20
153.575677
 30
0.0
 10
75.987938
 20
154.354588
 30
0.0
  0
SPLINE
  5
3a6
100
AcDbEntity
  8
0
 62
7
100
AcDbSpline
 70
8
 71
3
 72
8
 73
4
 74
0
 40
0
 40
0
 40
0
 40
0
 40
1
 40
1
 40
1
 40
1
 10
75.987938
 20
154.354588
 30
0.0
 10
76.311478
 20
154.698978
 30
0.0
 10
76.497039
 20
155.059892
 30
0.0
 10
76.400321
 20
155.156618
 30
0.0
  0
SPLINE
  5
3a7
100
AcDbEntity
  8
0
 62
7
100
AcDbSpline
 70
8
 71
3
 72
8
 73
4
 74
0
 40
0
 40
0
 40
0
 40
0
 40
1
 40
1
 40
1
 40
1
 10
76.400321
 20
155.156618
 30
0.0
 10
76.303576
 20
155.253347
 30
0.0
 10
76.480642
 20
155.658184
 30
0.0
 10
76.793767
 20
156.056261
 30
0.0
  0
SPLINE
  5
3a8
100
AcDbEntity
  8
0
 62
7
100
AcDbSpline
 70
8
 71
3
 72
8
 73
4
 74
0
 40
0
 40
0
 40
0
 40
0
 40
1
 40
1
 40
1
 40
1
 10
76.793767
 20
156.056261
 30
0.0
 10
77.125096
 20
156.477466
 30
0.0
 10
77.301372
 20
157.015988
 30
0.0
 10
77.215492
 20
157.344467
 30
0.0
  0
SPLINE
  5
3a9
100
AcDbEntity
  8
0
 62
7
100
AcDbSpline
 70
8
 71
3
 72
8
 73
4
 74
0
 40
0
 40
0
 40
0
 40
0
 40
1
 40
1
 40
1
 40
1
 10
77.215492
 20
157.344467
 30
0.0
 10
77.109179
 20
157.750940
 30
0.0
 10
77.431759
 20
158.272778
 30
0.0
 10
78.368116
 20
159.209135
 30
0.0
  0
SPLINE
  5
3aa
100
AcDbEntity
  8
0
 62
7
100
AcDbSpline
 70
8
 71
3
 72
8
 73
4
 74
0
 40
0
 40
0
 40
0
 40
0
 40
1
 40
1
 40
1
 40
1
 10
78.368116
 20
159.209135
 30
0.0
 10
79.481567
 20
160.322592
 30
0.0
 10
79.780356
 20
160.482284
 30
0.0
 10
80.448009
 20
160.320808
 30
0.0
  0
SPLINE
  5
3ab
100
AcDbEntity
  8
0
 62
7
100
AcDbSpline
 70
8
 71
3
 72
8
 73
4
 74
0
 40
0
 40
0
 40
0
 40
0
 40
1
 40
1
 40
1
 40
1
 10
80.448009
 20
160.320808
 30
0.0
 10
81.716118
 20
160.014120
 30
0.0
 10
86.994887
 20
159.624600
 30
0.0
 10
91.077147
 20
159.536484
 30
0.0
  0
LWPOLYLINE
  5
3ac
100
AcDbEntity
  8
0
 62
7
100
AcDbPolyline
 90
2
 70
0
 10
81.792120
 20
142.379989
 30
0.0
 10
81.792120
 20
142.379989
 30
0.0
  0
SPLINE
  5
3ad
100
AcDbEntity
  8
0
 62
7
100
AcDbSpline
 70
8
 71
3
 72
8
 73
4
 74
0
 40
0
 40
0
 40
0
 40
0
 40
1
 40
1
 40
1
 40
1
 10
95.056706
 20
158.170938
 30
0.0
 10
95.261091
 20
156.699118
 30
0.0
 10
95.450462
 20
156.349989
 30
0.0
 10
96.044343
 20
156.349989
 30
0.0
  0
SPLINE
  5
3ae
100
AcDbEntity
  8
0
 62
7
100
AcDbSpline
 70
8
 71
3
 72
8
 73
4
 74
0
 40
0
 40
0
 40
0
 40
0
 40
1
 40
1
 40
1
 40
1
 10
96.044343
 20
156.349989
 30
0.0
 10
96.277176
 20
156.349989
 30
0.0
 10
96.509868
 20
156.052061
 30
0.0
 10
96.561402
 20
155.687927
 30
0.0
  0
SPLINE
  5
3af
100
AcDbEntity
  8
0
 62
7
100
AcDbSpline
 70
8
 71
3
 72
8
 73
4
 74
0
 40
0
 40
0
 40
0
 40
0
 40
1
 40
1
 40
1
 40
1
 10
96.561402
 20
155.687927
 30
0.0
 10
96.644968
 20
155.097682
 30
0.0
 10
96.759776
 20
155.045496
 30
0.0
 10
97.619735
 20
155.206828
 30
0.0
  0
SPLINE
  5
3b0
100
AcDbEntity
  8
0
 62
7
100
AcDbSpline
 70
8
 71
3
 72
8
 73
4
 74
0
 40
0
 40
0
 40
0
 40
0
 40
1
 40
1
 40
1
 40
1
 10
97.619735
 20
155.206828
 30
0.0
 10
98.459064
 20
155.364283
 30
0.0
 10
98.584343
 20
155.313754
 30
0.0
 10
98.584343
 20
154.817802
 30
0.0
  0
SPLINE
  5
3b1
100
AcDbEntity
  8
0
 62
7
100
AcDbSpline
 70
8
 71
3
 72
8
 73
4
 74
0
 40
0
 40
0
 40
0
 40
0
 40
1
 40
1
 40
1
 40
1
 10
98.584343
 20
154.817802
 30
0.0
 10
98.584343
 20
154.469929
 30
0.0
 10
98.254425
 20
154.077206
 30
0.0
 10
97.737676
 20
153.809989
 30
0.0
  0
SPLINE
  5
3b2
100
AcDbEntity
  8
0
 62
7
100
AcDbSpline
 70
8
 71
3
 72
8
 73
4
 74
0
 40
0
 40
0
 40
0
 40
0
 40
1
 40
1
 40
1
 40
1
 10
97.737676
 20
153.809989
 30
0.0
 10
97.177324
 20
153.520218
 30
0.0
 10
96.891009
 20
153.157311
 30
0.0
 10
96.891009
 20
152.736814
 30
0.0
  0
SPLINE
  5
3b3
100
AcDbEntity
  8
0
 62
7
100
AcDbSpline
 70
8
 71
3
 72
8
 73
4
 74
0
 40
0
 40
0
 40
0
 40
0
 40
1
 40
1
 40
1
 40
1
 10
96.891009
 20
152.736814
 30
0.0
 10
96.891009
 20
152.056986
 30
0.0
 10
94.883788
 20
149.182247
 30
0.0
 10
94.110810
 20
148.755017
 30
0.0
  0
SPLINE
  5
3b4
100
AcDbEntity
  8
0
 62
7
100
AcDbSpline
 70
8
 71
3
 72
8
 73
4
 74
0
 40
0
 40
0
 40
0
 40
0
 40
1
 40
1
 40
1
 40
1
 10
94.110810
 20
148.755017
 30
0.0
 10
93.509112
 20
148.422454
 30
0.0
 10
93.139204
 20
147.784299
 30
0.0
 10
93.034556
 20
146.898319
 30
0.0
  0
SPLINE
  5
3b5
100
AcDbEntity
  8
0
 62
7
100
AcDbSpline
 70
8
 71
3
 72
8
 73
4
 74
0
 40
0
 40
0
 40
0
 40
0
 40
1
 40
1
 40
1
 40
1
 10
93.034556
 20
146.898319
 30
0.0
 10
92.988553
 20
146.508737
 30
0.0
 10
92.929230
 20
145.999489
 30
0.0
 10
92.902730
 20
145.766656
 30
0.0
  0
SPLINE
  5
3b6
100
AcDbEntity
  8
0
 62
7
100
AcDbSpline
 70
8
 71
3
 72
8
 73
4
 74
0
 40
0
 40
0
 40
0
 40
0
 40
1
 40
1
 40
1
 40
1
 10
92.902730
 20
145.766656
 30
0.0
 10
92.822099
 20
145.058498
 30
0.0
 10
92.338116
 20
144.929367
 30
0.0
 10
89.694343
 20
144.910648
 30
0.0
  0
SPLINE
  5
3b7
100
AcDbEntity
  8
0
 62
7
100
AcDbSpline
 70
8
 71
3
 72
8
 73
4
 74
0
 40
0
 40
0
 40
0
 40
0
 40
1
 40
1
 40
1
 40
1
 10
89.694343
 20
144.910648
 30
0.0
 10
86.948885
 20
144.891203
 30
0.0
 10
81.988914
 20
144.315466
 30
0.0
 10
81.392748
 20
143.947020
 30
0.0
  0
SPLINE
  5
3b8
100
AcDbEntity
  8
0
 62
7
100
AcDbSpline
 70
8
 71
3
 72
8
 73
4
 74
0
 40
0
 40
0
 40
0
 40
0
 40
1
 40
1
 40
1
 40
1
 10
81.392748
 20
143.947020
 30
0.0
 10
81.190451
 20
143.821981
 30
0.0
 10
80.209898
 20
143.737348
 30
0.0
 10
79.213795
 20
143.758950
 30
0.0
  0
SPLINE
  5
3b9
100
AcDbEntity
  8
0
 62
7
100
AcDbSpline
 70
8
 71
3
 72
8
 73
4
 74
0
 40
0
 40
0
 40
0
 40
0
 40
1
 40
1
 40
1
 40
1
 10
79.213795
 20
143.758950
 30
0.0
 10
77.817698
 20
143.789221
 30
0.0
 10
77.364477
 20
143.698605
 30
0.0
 10
77.235868
 20
143.363486
 30
0.0
  0
SPLINE
  5
3ba
100
AcDbEntity
  8
0
 62
7
100
AcDbSpline
 70
8
 71
3
 72
8
 73
4
 74
0
 40
0
 40
0
 40
0
 40
0
 40
1
 40
1
 40
1
 40
1
 10
77.235868
 20
143.363486
 30
0.0
 10
76.939620
 20
142.591455
 30
0.0
 10
76.124985
 20
142.343741
 30
0.0
 10
75.655622
 20
142.882960
 30
0.0
  0
LWPOLYLINE
  5
3bb
100
AcDbEntity
  8
0
 62
7
100
AcDbPolyline
 90
3
 70
0
 10
91.077147
 20
159.536484
 30
0.0
 10
94.878454
 20
159.454434
 30
0.0
 10
95.056706
 20
158.170938
 30
0.0
  0
SPLINE
  5
3bc
100
AcDbEntity
  8
0
 62
7
100
AcDbSpline
 70
8
 71
3
 72
8
 73
4
 74
0
 40
0
 40
0
 40
0
 40
0
 40
1
 40
1
 40
1
 40
1
 10
34.708056
 20
184.054805
 30
0.0
 10
34.416097
 20
184.346753
 30
0.0
 10
34.486427
 20
185.788203
 30
0.0
 10
34.802120
 20
185.983323
 30
0.0
  0
SPLINE
  5
3bd
100
AcDbEntity
  8
0
 62
7
100
AcDbSpline
 70
8
 71
3
 72
8
 73
4
 74
0
 40
0
 40
0
 40
0
 40
0
 40
1
 40
1
 40
1
 40
1
 10
34.802120
 20
185.983323
 30
0.0
 10
34.972583
 20
186.088662
 30
0.0
 10
35.084343
 20
185.704030
 30
0.0
 10
35.084343
 20
185.012202
 30
0.0
  0
SPLINE
  5
3be
100
AcDbEntity
  8
0
 62
7
100
AcDbSpline
 70
8
 71
3
 72
8
 73
4
 74
0
 40
0
 40
0
 40
0
 40
0
 40
1
 40
1
 40
1
 40
1
 10
35.084343
 20
185.012202
 30
0.0
 10
35.084343
 20
183.842325
 30
0.0
 10
35.038143
 20
183.724729
 30
0.0
 10
34.708056
 20
184.054805
 30
0.0
  0
LWPOLYLINE
  5
3bf
100
AcDbEntity
  8
0
 62
7
100
AcDbPolyline
 90
2
 70
0
 10
75.655622
 20
142.882960
 30
0.0
 10
75.655622
 20
142.882960
 30
0.0
  0
LWPOLYLINE
  5
3c0
100
AcDbEntity
  8
0
 62
7
100
AcDbPolyline
 90
2
 70
0
 10
34.708056
 20
184.054805
 30
0.0
 10
34.708056
 20
184.054805
 30
0.0
  0
ENDSEC
  0
SECTION
  2
OBJECTS
  0
DICTIONARY
  5
C
330
0
100
AcDbDictionary
  3
ACAD_GROUP
350
D
  3
ACAD_MLINESTYLE
350
17
  0
DICTIONARY
  5
D
330
C
100
AcDbDictionary
  0
DICTIONARY
  5
1A
330
C
100
AcDbDictionary
  0
DICTIONARY
  5
17
330
C
100
AcDbDictionary
  3
STANDARD
350
18
  0
DICTIONARY
  5
19
330
C
100
AcDbDictionary
  0
ENDSEC
  0
EOF
