  0
SECTION
  2
HEADER
  9
$ACADVER
  1
AC1009
  9
$DWGCODEPAGE
  3
ansi_1252
  9
$INSBASE
 10
0.0
 20
0.0
 30
0.0
  9
$EXTMIN
 10
1.128482118514099
 20
0.951749
 30
0.0
  9
$EXTMAX
 10
11.09988391216745
 20
30.830160804523
 30
0.0
  9
$LIMMIN
 10
0.0
 20
0.0
  9
$LIMMAX
 10
12.0
 20
9.0
  9
$ORTHOMODE
 70
     0
  9
$REGENMODE
 70
     1
  9
$FILLMODE
 70
     1
  9
$QTEXTMODE
 70
     0
  9
$MIRRTEXT
 70
     1
  9
$DRAGMODE
 70
     2
  9
$LTSCALE
 40
1.0
  9
$OSMODE
 70
    37
  9
$ATTMODE
 70
     1
  9
$TEXTSIZE
 40
0.2
  9
$TRACEWID
 40
0.05
  9
$TEXTSTYLE
  7
STANDARD
  9
$CLAYER
  8
0
  9
$CELTYPE
  6
BYBLOCK
  9
$CECOLOR
 62
   256
  9
$DIMSCALE
 40
1.0
  9
$DIMASZ
 40
0.18
  9
$DIMEXO
 40
0.0625
  9
$DIMDLI
 40
0.38
  9
$DIMRND
 40
0.0
  9
$DIMDLE
 40
0.0
  9
$DIMEXE
 40
0.18
  9
$DIMTP
 40
0.0
  9
$DIMTM
 40
0.0
  9
$DIMTXT
 40
0.18
  9
$DIMCEN
 40
0.09
  9
$DIMTSZ
 40
0.0
  9
$DIMTOL
 70
     0
  9
$DIMLIM
 70
     0
  9
$DIMTIH
 70
     1
  9
$DIMTOH
 70
     1
  9
$DIMSE1
 70
     0
  9
$DIMSE2
 70
     0
  9
$DIMTAD
 70
     0
  9
$DIMZIN
 70
     0
  9
$DIMBLK
  1

  9
$DIMASO
 70
     1
  9
$DIMSHO
 70
     1
  9
$DIMPOST
  1

  9
$DIMAPOST
  1

  9
$DIMALT
 70
     0
  9
$DIMALTD
 70
     2
  9
$DIMALTF
 40
25.4
  9
$DIMLFAC
 40
1.0
  9
$DIMTOFL
 70
     0
  9
$DIMTVP
 40
0.0
  9
$DIMTIX
 70
     0
  9
$DIMSOXD
 70
     0
  9
$DIMSAH
 70
     0
  9
$DIMBLK1
  1

  9
$DIMBLK2
  1

  9
$DIMSTYLE
  2
STANDARD
  9
$DIMCLRD
 70
     0
  9
$DIMCLRE
 70
     0
  9
$DIMCLRT
 70
     0
  9
$DIMTFAC
 40
1.0
  9
$DIMGAP
 40
0.09
  9
$LUNITS
 70
     2
  9
$LUPREC
 70
     4
  9
$SKETCHINC
 40
0.1
  9
$FILLETRAD
 40
0.5
  9
$AUNITS
 70
     0
  9
$AUPREC
 70
     0
  9
$MENU
  1
.
  9
$ELEVATION
 40
0.0
  9
$PELEVATION
 40
0.0
  9
$THICKNESS
 40
0.0
  9
$LIMCHECK
 70
     0
  9
$CHAMFERA
 40
0.5
  9
$CHAMFERB
 40
0.5
  9
$SKPOLY
 70
     0
  9
$TDCREATE
 40
2453353.508792488
  9
$TDUPDATE
 40
4910353.859588148
  9
$TDINDWG
 40
4895786.051922963
  9
$TDUSRTIMER
 40
4895786.051922963
  9
$USRTIMER
 70
     1
  9
$ANGBASE
 50
0.0
  9
$ANGDIR
 70
     0
  9
$PDMODE
 70
     0
  9
$PDSIZE
 40
0.0
  9
$PLINEWID
 40
0.0
  9
$COORDS
 70
     1
  9
$SPLFRAME
 70
     0
  9
$SPLINETYPE
 70
     6
  9
$SPLINESEGS
 70
     8
  9
$ATTDIA
 70
     0
  9
$ATTREQ
 70
     1
  9
$HANDLING
 70
     1
  9
$HANDSEED
  5
D6
  9
$SURFTAB1
 70
     6
  9
$SURFTAB2
 70
     6
  9
$SURFTYPE
 70
     6
  9
$SURFU
 70
     6
  9
$SURFV
 70
     6
  9
$UCSNAME
  2

  9
$UCSORG
 10
0.0
 20
0.0
 30
0.0
  9
$UCSXDIR
 10
1.0
 20
0.0
 30
0.0
  9
$UCSYDIR
 10
0.0
 20
1.0
 30
0.0
  9
$PUCSNAME
  2

  9
$PUCSORG
 10
0.0
 20
0.0
 30
0.0
  9
$PUCSXDIR
 10
1.0
 20
0.0
 30
0.0
  9
$PUCSYDIR
 10
0.0
 20
1.0
 30
0.0
  9
$USERI1
 70
     0
  9
$USERI2
 70
     0
  9
$USERI3
 70
     0
  9
$USERI4
 70
     0
  9
$USERI5
 70
     0
  9
$USERR1
 40
0.0
  9
$USERR2
 40
0.0
  9
$USERR3
 40
0.0
  9
$USERR4
 40
0.0
  9
$USERR5
 40
0.0
  9
$WORLDVIEW
 70
     1
  9
$SHADEDGE
 70
     3
  9
$SHADEDIF
 70
    70
  9
$TILEMODE
 70
     1
  9
$MAXACTVP
 70
    64
  9
$PLIMCHECK
 70
     0
  9
$PEXTMIN
 10
0.0
 20
0.0
 30
0.0
  9
$PEXTMAX
 10
0.0
 20
0.0
 30
0.0
  9
$PLIMMIN
 10
0.0
 20
0.0
  9
$PLIMMAX
 10
0.0
 20
0.0
  9
$UNITMODE
 70
     0
  9
$VISRETAIN
 70
     1
  9
$PLINEGEN
 70
     0
  9
$PSLTSCALE
 70
     1
  0
ENDSEC
  0
SECTION
  2
TABLES
  0
TABLE
  2
VPORT
 70
     1
  0
VPORT
  2
*ACTIVE
 70
     0
 10
0.0
 20
0.0
 11
1.0
 21
1.0
 12
7.439087456196637
 22
16.7070951588438
 13
0.0
 23
0.0
 14
0.5
 24
0.5
 15
0.5
 25
0.5
 16
0.0
 26
0.0
 36
1.0
 17
0.0
 27
0.0
 37
0.0
 40
35.89094069553646
 41
1.972972972850329
 42
50.0
 43
0.0
 44
0.0
 50
0.0
 51
0.0
 71
    16
 72
   100
 73
     1
 74
     3
 75
     0
 76
     0
 77
     0
 78
     0
  0
ENDTAB
  0
TABLE
  2
LTYPE
 70
     1
  0
LTYPE
  2
CONTINUOUS
 70
     0
  3
Solid line
 72
    65
 73
     0
 40
0.0
  0
ENDTAB
  0
TABLE
  2
LAYER
 70
     2
  0
LAYER
  2
0
 70
     0
 62
     7
  6
CONTINUOUS
  0
LAYER
  2
LAYER_1
 70
     0
 62
     7
  6
CONTINUOUS
  0
ENDTAB
  0
TABLE
  2
STYLE
 70
     1
  0
STYLE
  2
STANDARD
 70
     0
 40
0.0
 41
1.0
 50
0.0
 71
     0
 42
0.2
  3
txt
  4

  0
ENDTAB
  0
TABLE
  2
VIEW
 70
     0
  0
ENDTAB
  0
TABLE
  2
UCS
 70
     0
  0
ENDTAB
  0
TABLE
  2
APPID
 70
     1
  0
APPID
  2
ACAD
 70
     0
  0
ENDTAB
  0
TABLE
  2
DIMSTYLE
 70
     1
  0
DIMSTYLE
  2
STANDARD
 70
     0
  3

  4

  5

  6

  7

 40
1.0
 41
0.18
 42
0.0625
 43
0.38
 44
0.18
 45
0.0
 46
0.0
 47
0.0
 48
0.0
140
0.18
141
0.09
142
0.0
143
25.4
144
1.0
145
0.0
146
1.0
147
0.09
 71
     0
 72
     0
 73
     1
 74
     1
 75
     0
 76
     0
 77
     0
 78
     0
170
     0
171
     2
172
     0
173
     0
174
     0
175
     0
176
     0
177
     0
178
     0
  0
ENDTAB
  0
ENDSEC
  0
SECTION
  2
BLOCKS
  0
BLOCK
  8
0
  2
$MODEL_SPACE
 70
     0
 10
0.0
 20
0.0
 30
0.0
  3
$MODEL_SPACE
  1

  0
ENDBLK
  5
21
  8
0
  0
BLOCK
 67
     1
  8
0
  2
$PAPER_SPACE
 70
     0
 10
0.0
 20
0.0
 30
0.0
  3
$PAPER_SPACE
  1

  0
ENDBLK
  5
76
 67
     1
  8
0
  0
ENDSEC
  0
SECTION
  2
ENTITIES
  0
LINE
  5
CC
  8
LAYER_1
 10
5.730539
 20
14.174149
 30
0.0
 11
5.807023
 21
25.225576
 31
0.0
  0
LINE
  5
CD
  8
LAYER_1
 10
5.807023
 20
25.225576
 30
0.0
 11
5.699591
 21
27.0635
 31
0.0
  0
LINE
  5
23
  8
LAYER_1
 10
5.699591
 20
27.0635
 30
0.0
 11
5.47353
 21
27.563719
 31
0.0
  0
LINE
  5
24
  8
LAYER_1
 10
5.47353
 20
27.563719
 30
0.0
 11
4.450293288122668
 21
27.59388231577613
 31
0.0
  0
LINE
  5
25
  8
LAYER_1
 10
4.450293288122668
 20
27.59388231577613
 30
0.0
 11
3.963921222246293
 21
27.449681
 31
0.0
  0
LINE
  5
26
  8
LAYER_1
 10
3.963921222246293
 20
27.449681
 30
0.0
 11
2.538698222246293
 21
27.16847
 31
0.0
  0
LINE
  5
CE
  8
LAYER_1
 10
2.538698222246293
 20
27.16847
 30
0.0
 11
1.509554550320681
 21
27.20927731471119
 31
0.0
  0
LINE
  5
3D
  8
LAYER_1
 10
8.304620281164578
 20
29.86387587605463
 30
0.0
 11
8.952547857883603
 21
29.76254438806069
 31
0.0
  0
LINE
  5
4B
  8
LAYER_1
 10
10.05177940948128
 20
27.56408128486533
 30
0.0
 11
9.402063
 21
27.775374
 31
0.0
  0
LINE
  5
4C
  8
LAYER_1
 10
9.402063
 20
27.775374
 30
0.0
 11
8.961363
 21
27.922728
 31
0.0
  0
LINE
  5
4D
  8
LAYER_1
 10
8.961363
 20
27.922728
 30
0.0
 11
8.409741
 21
27.520421
 31
0.0
  0
LINE
  5
4E
  8
LAYER_1
 10
8.409741
 20
27.520421
 30
0.0
 11
8.164232
 21
27.226563
 31
0.0
  0
LINE
  5
4F
  8
LAYER_1
 10
8.164232
 20
27.226563
 30
0.0
 11
7.984648
 21
26.795721
 31
0.0
  0
LINE
  5
50
  8
LAYER_1
 10
7.984648
 20
26.795721
 30
0.0
 11
7.810839
 21
24.873412
 31
0.0
  0
LINE
  5
51
  8
LAYER_1
 10
7.810839
 20
24.873412
 30
0.0
 11
8.217800819640685
 21
1.34858652799959
 31
0.0
  0
LINE
  5
53
  8
LAYER_1
 10
8.217800819640685
 20
1.34858652799959
 30
0.0
 11
5.555667191143291
 21
1.323529411764706
 31
0.0
  0
LINE
  5
55
  8
LAYER_1
 10
5.555667191143291
 20
1.323529411764706
 30
0.0
 11
5.730539
 21
14.174149
 31
0.0
  0
LINE
  5
56
  8
LAYER_1
 10
5.730539
 20
14.174149
 30
0.0
 11
5.730539
 21
14.174149
 31
0.0
  0
LINE
  5
AB
  8
LAYER_1
 10
5.597670051143799
 20
30.00941083465789
 30
0.0
 11
4.450293288122668
 21
30.06223031566781
 31
0.0
  0
LINE
  5
AC
  8
LAYER_1
 10
4.450293288122668
 20
30.06223031566781
 30
0.0
 11
3.963921222246293
 21
30.18370696639514
 31
0.0
  0
LINE
  5
AD
  8
LAYER_1
 10
3.963921222246293
 20
30.18370696639514
 30
0.0
 11
2.538698222246293
 21
30.46491796639514
 31
0.0
  0
LINE
  5
AE
  8
LAYER_1
 10
2.538698222246293
 20
30.46491796639514
 30
0.0
 11
1.494311653048418
 21
30.43315008779488
 31
0.0
  0
LINE
  5
B0
  8
0
  6
BYBLOCK
 10
1.128482118514099
 20
30.18164228280253
 30
0.0
 11
1.128482118514099
 21
27.45316367106741
 31
0.0
  0
ARC
  5
B3
  8
0
  6
BYBLOCK
 10
9.544251897628127
 20
28.80815491595365
 30
0.0
 40
1.556005768440557
 50
308.4545908265376
 51
1.255837912104892
  0
LINE
  5
B4
  8
0
  6
BYBLOCK
 10
10.05177940948128
 20
27.56408128486533
 30
0.0
 11
10.51192284968497
 21
27.58964480932109
 31
0.0
  0
LINE
  5
B7
  8
LAYER_1
 10
10.05177940948128
 20
30.12043373044133
 30
0.0
 11
9.402063
 21
29.90914101530666
 31
0.0
  0
LINE
  5
B8
  8
LAYER_1
 10
9.402063
 20
29.90914101530666
 30
0.0
 11
8.952547857883603
 21
29.76254438806069
 31
0.0
  0
ARC
  5
B9
  8
0
  6
BYBLOCK
 10
9.520641386761113
 20
28.86527761466033
 30
0.0
 40
1.579410294818414
 50
359.1648771172443
 51
51.12469414411354
  0
LINE
  5
BA
  8
0
  6
BYBLOCK
 10
10.05177940948128
 20
30.12043373044133
 30
0.0
 11
10.51192284968497
 21
30.09487020598557
 31
0.0
  0
LINE
  5
C0
  8
0
  6
BYBLOCK
 10
1.128482118514099
 20
30.18164228280253
 30
0.0
 11
1.494311653048418
 21
30.43315008779488
 31
0.0
  0
LINE
  5
C1
  8
0
  6
BYBLOCK
 10
1.128482118514099
 20
27.45316367106741
 30
0.0
 11
1.509554550320681
 21
27.20927731471119
 31
0.0
  0
ARC
  5
C7
  8
0
  6
BYBLOCK
 10
6.795809970666744
 20
27.04740871928979
 30
0.0
 40
3.195151920988981
 50
61.82158978116119
 51
112.0234994199901
  0
ENDSEC
  0
EOF
