  0
SECTION
  2
HEADER
  9
$ACADVER
  1
AC1009
  9
$EXTMAX
 10
3569.9033203125
 20
3751.5869140625
 30
0.0
  9
$EXTMIN
 10
-384.283142089844
 20
-58.9490966796875
 30
0.0
  9
$INSUNITS
 70
     4
  9
$LUNITS
 70
     2
  9
$LUPREC
 70
     4
  9
$MEASUREMENT
 70
     1
  0
ENDSEC
  0
SECTION
  2
TABLES
  0
TABLE
  2
LAYER
 70
     1
  0
LAYER
  2
0
 70
     0
 62
     7
  6
Continuous
  0
LAYER
  2
Default
 70
     0
 62
    14
  6
Continuous
  0
ENDTAB
  0
TABLE
  2
APPID
 70
     1
  0
APPID
  2
ACAD
 70
     0
  0
ENDTAB
  0
ENDSEC
  0
SECTION
  2
ENTITIES
  0
POLYLINE
  8
Default
 66
     1
 10
0.0
 20
0.0
 30
0.0
 70
     1
  0
VERTEX
  8
Default
 10
54.8210550518486
 20
147.104950732134
 42
0.0
  0
VERTEX
  8
Default
 10
52.7374292583916
 20
144.426003283403
 42
0.0
  0
VERTEX
  8
Default
 10
51.8444467754815
 20
141.747055834673
 42
0.0
  0
VERTEX
  8
Default
 10
52.1421076031182
 20
139.961090868852
 42
0.0
  0
VERTEX
  8
Default
 10
45.5935665340874
 20
136.091500109575
 42
0.0
  0
VERTEX
  8
Default
 10
44.1052623959038
 20
131.328926867387
 42
0.0
  0
VERTEX
  8
Default
 10
43.5099407406304
 20
130.138279742143
 42
0.0
  0
VERTEX
  8
Default
 10
43.2122799129937
 20
128.352314776323
 42
0.0
  0
VERTEX
  8
Default
 10
42.3192974300835
 20
128.352314776323
 42
0.0
  0
VERTEX
  8
Default
 10
41.4263149471734
 20
127.75699312105
 42
0.0
  0
VERTEX
  8
Default
 10
41.4263149471734
 20
124.780384844682
 42
0.0
  0
VERTEX
  8
Default
 10
40.5333324642632
 20
120.613133257768
 42
0.0
  0
VERTEX
  8
Default
 10
39.3426891537163
 20
115.850556200884
 42
0.0
  0
VERTEX
  8
Default
 10
38.4497066708062
 20
110.492661303423
 42
0.0
  0
VERTEX
  8
Default
 10
34.5801120968316
 20
101.265173739336
 42
0.0
  0
VERTEX
  8
Default
 10
29.2222171993706
 20
87.8704326809861
 42
0.0
  0
VERTEX
  8
Default
 10
28.3292347164605
 20
85.1914842785813
 42
0.0
  0
VERTEX
  8
Default
 10
27.733913061187
 20
77.7499616803147
 42
0.0
  0
VERTEX
  8
Default
 10
29.2222171993706
 20
71.2014218033768
 42
0.0
  0
VERTEX
  8
Default
 10
32.4964863033745
 20
67.3318298520066
 42
0.0
  0
VERTEX
  8
Default
 10
35.175433752105
 20
60.7832897366501
 42
0.0
  0
VERTEX
  8
Default
 10
38.4497066708062
 20
51.2581394375779
 42
0.0
  0
VERTEX
  8
Default
 10
42.6169582577202
 20
38.7563789547898
 42
0.0
  0
VERTEX
  8
Default
 10
44.7005840511773
 20
31.9101799191452
 42
0.0
  0
VERTEX
  8
Default
 10
40.8309932918999
 20
24.46865541353
 42
0.0
  0
VERTEX
  8
Default
 10
34.8777729244683
 20
13.7528618039109
 42
0.0
  0
VERTEX
  8
Default
 10
33.091807958648
 20
8.6926277340866
 42
0.0
  0
VERTEX
  8
Default
 10
34.2824512691948
 20
7.2043235959031
 42
0.0
  0
VERTEX
  8
Default
 10
37.2590614529107
 20
9.2879493893601
 42
0.0
  0
VERTEX
  8
Default
 10
42.0216366024468
 20
9.5856102169968
 42
0.0
  0
VERTEX
  8
Default
 10
45.2959057064507
 20
9.8832710446335
 42
0.0
  0
VERTEX
  8
Default
 10
47.6771942348931
 20
9.2879493893601
 42
0.0
  0
VERTEX
  8
Default
 10
49.7608200283501
 20
9.5856102169968
 42
0.0
  0
VERTEX
  8
Default
 10
51.5467849941704
 20
9.8832710446335
 42
0.0
  0
VERTEX
  8
Default
 10
53.0350900860283
 20
9.2879493893601
 42
0.0
  0
VERTEX
  8
Default
 10
57.2023426266167
 20
6.3113411129929
 42
0.0
  0
VERTEX
  8
Default
 10
59.2859684200737
 20
6.3113411129929
 42
0.0
  0
VERTEX
  8
Default
 10
60.4766122074578
 20
8.6926277340866
 42
0.0
  0
VERTEX
  8
Default
 10
58.988307592437
 20
14.9435051144577
 42
0.0
  0
VERTEX
  8
Default
 10
55.7140375347588
 20
22.0873687924363
 42
0.0
  0
VERTEX
  8
Default
 10
53.9280725689385
 20
27.1476028622605
 42
0.0
  0
VERTEX
  8
Default
 10
53.0350900860283
 20
28.6359070004441
 42
0.0
  0
VERTEX
  8
Default
 10
53.3327509136651
 20
32.5055015744187
 42
0.0
  0
VERTEX
  8
Default
 10
56.6070209713433
 20
38.1610572995163
 42
0.0
  0
VERTEX
  8
Default
 10
60.1789513798211
 20
46.197903460405
 42
0.0
  0
VERTEX
  8
Default
 10
64.9415258141015
 20
52.4487827481247
 42
0.0
  0
VERTEX
  8
Default
 10
72.0853868694756
 20
59.2949846447922
 42
0.0
  0
VERTEX
  8
Default
 10
75.3596559734795
 20
64.3552206219651
 42
0.0
  0
VERTEX
  8
Default
 10
77.1456218929741
 20
70.0107782544113
 42
0.0
  0
VERTEX
  8
Default
 10
77.1456218929741
 20
76.5593183697678
 42
0.0
  0
VERTEX
  8
Default
 10
77.1456218929741
 20
83.1078584851242
 42
0.0
  0
VERTEX
  8
Default
 10
75.3596559734795
 20
91.14470178499
 42
0.0
  0
VERTEX
  8
Default
 10
72.680708524749
 20
100.669852084062
 42
0.0
  0
VERTEX
  8
Default
 10
72.3830476971123
 20
107.516053027055
 42
0.0
  0
VERTEX
  8
Default
 10
71.4900652142022
 20
111.385643786333
 42
0.0
  0
VERTEX
  8
Default
 10
71.7877260418389
 20
114.957573717973
 42
0.0
  0
VERTEX
  8
Default
 10
71.1924043865654
 20
116.743538683794
 42
0.0
  0
VERTEX
  8
Default
 10
68.2157955737565
 20
121.208454913042
 42
0.0
  0
VERTEX
  8
Default
 10
66.4298302503083
 20
122.994419878862
 42
0.0
  0
VERTEX
  8
Default
 10
64.3462039204094
 20
125.971028155229
 42
0.0
  0
VERTEX
  8
Default
 10
63.4532211990807
 20
130.435944384477
 42
0.0
  0
VERTEX
  8
Default
 10
61.0719338627312
 20
134.603195971391
 42
0.0
  0
VERTEX
  8
Default
 10
60.4766122074578
 20
139.068108385942
 42
0.0
  0
VERTEX
  8
Default
 10
59.2859684200737
 20
139.365769213579
 42
0.0
  0
VERTEX
  8
Default
 10
56.90468179898
 20
139.663430041216
 42
0.0
  0
VERTEX
  8
Default
 10
58.988307592437
 20
139.365769213579
 42
0.0
  0
VERTEX
  8
Default
 10
61.0719338627312
 20
139.663430041216
 42
0.0
  0
VERTEX
  8
Default
 10
63.1555601330254
 20
140.854073351762
 42
0.0
  0
VERTEX
  8
Default
 10
63.4532211990807
 20
143.235359972856
 42
0.0
  0
VERTEX
  8
Default
 10
63.1555601330254
 20
146.211968249223
 42
0.0
  0
VERTEX
  8
Default
 10
61.3695951672051
 20
147.700272387407
 42
0.0
  0
VERTEX
  8
Default
 10
59.5836297245476
 20
147.700272387407
 42
0.0
  0
SEQEND
  0
POLYLINE
  8
Default
 66
     1
 10
0.0
 20
0.0
 30
0.0
 70
     0
  0
VERTEX
  8
Default
 10
77.4432827206109
 20
82.2148750485398
 42
0.0
  0
VERTEX
  8
Default
 10
79.5269085140679
 20
83.405519312761
 42
0.0
  0
VERTEX
  8
Default
 10
83.0988393993828
 20
85.7868059338547
 42
0.0
  0
VERTEX
  8
Default
 10
84.8848034115288
 20
86.0844677151657
 42
0.0
  0
VERTEX
  8
Default
 10
83.9918209286187
 20
89.0610769452072
 42
0.0
  0
VERTEX
  8
Default
 10
83.0988393993828
 20
91.14470178499
 42
0.0
  0
VERTEX
  8
Default
 10
82.2058569164727
 20
94.4189727963425
 42
0.0
  0
VERTEX
  8
Default
 10
82.5035177441094
 20
97.3955810727097
 42
0.0
  0
VERTEX
  8
Default
 10
83.9918209286187
 20
99.4792087735154
 42
0.0
  0
VERTEX
  8
Default
 10
86.6707702846978
 20
99.7768696011521
 42
0.0
  0
VERTEX
  8
Default
 10
90.2427002163384
 20
99.7768696011521
 42
0.0
  0
VERTEX
  8
Default
 10
91.731004354522
 20
98.5862262906052
 42
0.0
  0
VERTEX
  8
Default
 10
93.2193084927056
 20
95.6096161068894
 42
0.0
  0
VERTEX
  8
Default
 10
92.9216476650689
 20
92.9306686581589
 42
0.0
  0
VERTEX
  8
Default
 10
92.9216476650689
 20
90.5493801297165
 42
0.0
  0
VERTEX
  8
Default
 10
90.8380218716118
 20
89.358737772844
 42
0.0
  0
VERTEX
  8
Default
 10
90.8380218716118
 20
86.6797893704392
 42
0.0
  0
VERTEX
  8
Default
 10
95.0052753658745
 20
85.1914842785813
 42
0.0
  0
VERTEX
  8
Default
 10
100.958491918609
 20
80.7265709103562
 42
0.0
  0
VERTEX
  8
Default
 10
104.53042185025
 20
72.6897264183976
 42
0.0
  0
VERTEX
  8
Default
 10
106.018725988433
 20
66.4388468922592
 42
0.0
  0
VERTEX
  8
Default
 10
106.911708471343
 20
60.4856289090134
 42
0.0
  0
VERTEX
  8
Default
 10
105.42340433316
 20
55.4253929318405
 42
0.0
  0
VERTEX
  8
Default
 10
104.828082677886
 20
51.8534610928513
 42
0.0
  0
VERTEX
  8
Default
 10
104.53042185025
 20
47.6862075985886
 42
0.0
  0
VERTEX
  8
Default
 10
103.042117712066
 20
45.3049209774948
 42
0.0
  0
VERTEX
  8
Default
 10
100.660831090972
 20
44.4119384945847
 42
0.0
  0
VERTEX
  8
Default
 10
100.660831090972
 20
47.0908859433152
 42
0.0
  0
VERTEX
  8
Default
 10
99.4701877804253
 20
46.197903460405
 42
0.0
  0
VERTEX
  8
Default
 10
98.5772052975152
 20
46.7932251156784
 42
0.0
  0
VERTEX
  8
Default
 10
98.5772052975152
 20
50.3651569546677
 42
0.0
  0
VERTEX
  8
Default
 10
98.5772052975152
 20
53.6394260586716
 42
0.0
  0
VERTEX
  8
Default
 10
98.5772052975152
 20
58.4020021618821
 42
0.0
  0
VERTEX
  8
Default
 10
97.684222814605
 20
63.4622371853806
 42
0.0
  0
VERTEX
  8
Default
 10
97.9818836422417
 20
67.92715150728
 42
0.0
  0
VERTEX
  8
Default
 10
97.684222814605
 20
70.3084390820481
 42
0.0
  0
VERTEX
  8
Default
 10
97.0889011593316
 20
73.8803701759793
 42
0.0
  0
VERTEX
  8
Default
 10
95.0052753658745
 20
77.7499616803147
 42
0.0
  0
VERTEX
  8
Default
 10
92.0286651821587
 20
78.642944640062
 42
0.0
  0
VERTEX
  8
Default
 10
86.0754486294243
 20
78.0476229847885
 42
0.0
  0
VERTEX
  8
Default
 10
82.8011785717461
 20
77.4523010910965
 42
0.0
  0
VERTEX
  8
Default
 10
80.7175527782891
 20
75.6663356484391
 42
0.0
  0
VERTEX
  8
Default
 10
79.2292476864312
 20
72.9873874248482
 42
0.0
  0
VERTEX
  8
Default
 10
77.4432827206109
 20
69.4154561223008
 42
0.0
  0
VERTEX
  8
Default
 10
75.9549785824273
 20
64.3552206219651
 42
0.0
  0
VERTEX
  8
Default
 10
75.9549785824273
 20
61.0809505642868
 42
0.0
  0
VERTEX
  8
Default
 10
75.3596559734795
 20
58.4020021618821
 42
0.0
  0
VERTEX
  8
Default
 10
73.2760306568596
 20
54.2347496212937
 42
0.0
  0
VERTEX
  8
Default
 10
72.9783693523858
 20
50.3651569546677
 42
0.0
  0
VERTEX
  8
Default
 10
72.9783693523858
 20
45.9002426327683
 42
0.0
  0
VERTEX
  8
Default
 10
72.9783693523858
 20
42.0306518734909
 42
0.0
  0
VERTEX
  8
Default
 10
73.2760306568596
 20
36.0774315060593
 42
0.0
  0
VERTEX
  8
Default
 10
73.8713523121331
 20
29.8265541256882
 42
0.0
  0
VERTEX
  8
Default
 10
73.8713523121331
 20
25.0639770688034
 42
0.0
  0
VERTEX
  8
Default
 10
73.8713523121331
 20
18.8130996884323
 42
0.0
  0
VERTEX
  8
Default
 10
73.8713523121331
 20
15.2411659420945
 42
0.0
  0
VERTEX
  8
Default
 10
73.8713523121331
 20
11.9668968380905
 42
0.0
  0
VERTEX
  8
Default
 10
72.3830476971123
 20
7.5019844235398
 42
0.0
  0
VERTEX
  8
Default
 10
71.4900652142022
 20
4.8230369748093
 42
0.0
  0
VERTEX
  8
Default
 10
75.3596559734795
 20
3.6323936642624
 42
0.0
  0
VERTEX
  8
Default
 10
78.6339260311577
 20
3.0370643795945
 42
0.0
  0
VERTEX
  8
Default
 10
81.3128744335625
 20
3.9300544918991
 42
0.0
  0
VERTEX
  8
Default
 10
81.6105352611992
 20
7.5019844235398
 42
0.0
  0
VERTEX
  8
Default
 10
81.6105352611992
 20
10.478592699907
 42
0.0
  0
VERTEX
  8
Default
 10
82.8011785717461
 20
14.0505226315476
 42
0.0
  0
VERTEX
  8
Default
 10
84.2894817562554
 20
19.1107605160691
 42
0.0
  0
VERTEX
  8
Default
 10
85.1824661465142
 20
22.6826904477097
 42
0.0
  0
VERTEX
  8
Default
 10
85.4801269741509
 20
25.6592987240769
 42
0.0
  0
VERTEX
  8
Default
 10
84.8848034115288
 20
28.0405853451706
 42
0.0
  0
VERTEX
  8
Default
 10
85.7777878017876
 20
31.0171974362351
 42
0.0
  0
VERTEX
  8
Default
 10
86.9684311123345
 20
32.5055015744187
 42
0.0
  0
VERTEX
  8
Default
 10
87.8614135952446
 20
30.7195366085984
 42
0.0
  0
VERTEX
  8
Default
 10
88.4567352505181
 20
27.1476028622605
 42
0.0
  0
VERTEX
  8
Default
 10
89.0520569057915
 20
24.46865541353
 42
0.0
  0
VERTEX
  8
Default
 10
89.3497177334282
 20
21.1943863095261
 42
0.0
  0
VERTEX
  8
Default
 10
89.3497177334282
 20
17.6224563778855
 42
0.0
  0
VERTEX
  8
Default
 10
90.2427002163384
 20
14.9435051144577
 42
0.0
  0
VERTEX
  8
Default
 10
90.8380218716118
 20
11.6692360104538
 42
0.0
  0
VERTEX
  8
Default
 10
91.731004354522
 20
8.9902885617234
 42
0.0
  0
VERTEX
  8
Default
 10
92.6239868374321
 20
5.4183586300827
 42
0.0
  0
VERTEX
  8
Default
 10
92.6239868374321
 20
2.441742724321
 42
0.0
  0
VERTEX
  8
Default
 10
95.0052753658745
 20
-0.5348655520462
 42
0.0
  0
VERTEX
  8
Default
 10
98.2795444698784
 20
-0.5348655520462
 42
0.0
  0
VERTEX
  8
Default
 10
100.660831090972
 20
1.5487602414109
 42
0.0
  0
VERTEX
  8
Default
 10
100.958491918609
 20
3.6323936642624
 42
0.0
  0
VERTEX
  8
Default
 10
101.851474401519
 20
7.5019844235398
 42
0.0
  0
VERTEX
  8
Default
 10
101.256152746246
 20
11.9668968380905
 42
0.0
  0
VERTEX
  8
Default
 10
101.256152746246
 20
15.5388267697312
 42
0.0
  0
VERTEX
  8
Default
 10
101.256152746246
 20
18.5154388607956
 42
0.0
  0
VERTEX
  8
Default
 10
100.363170263335
 20
22.385029620073
 42
0.0
  0
VERTEX
  8
Default
 10
99.1725269527886
 20
27.7429245175339
 42
0.0
  0
VERTEX
  8
Default
 10
98.8748661251519
 20
31.9101799191452
 42
0.0
  0
VERTEX
  8
Default
 10
99.4701877804253
 20
37.5657356442429
 42
0.0
  0
VERTEX
  8
Default
 10
99.4701877804253
 20
41.1376655758835
 42
0.0
  0
VERTEX
  8
Default
 10
99.4701877804253
 20
42.6259735287644
 42
0.0
  0
VERTEX
  8
Default
 10
98.2795444698784
 20
45.3049209774948
 42
0.0
  0
SEQEND
  0
POLYLINE
  8
Default
 66
     1
 10
0.0
 20
0.0
 30
0.0
 70
     0
  0
VERTEX
  8
Default
 10
76.8479610653374
 20
62.2715938748337
 42
0.0
  0
VERTEX
  8
Default
 10
81.6105352611992
 20
62.2715938748337
 42
0.0
  0
VERTEX
  8
Default
 10
85.1824661465142
 20
62.5692547024704
 42
0.0
  0
VERTEX
  8
Default
 10
94.7076145382378
 20
61.6762722195603
 42
0.0
  0
VERTEX
  8
Default
 10
97.9818836422417
 20
61.3786113919236
 42
0.0
  0
VERTEX
  8
Default
 10
97.9818836422417
 20
56.6160362423874
 42
0.0
  0
VERTEX
  8
Default
 10
95.3029361935112
 20
57.8066805066086
 42
0.0
  0
VERTEX
  8
Default
 10
90.5403610439751
 20
58.6996629895188
 42
0.0
  0
VERTEX
  8
Default
 10
84.2894817562554
 20
58.9973238171555
 42
0.0
  0
VERTEX
  8
Default
 10
83.0988393993828
 20
55.1277321042038
 42
0.0
  0
VERTEX
  8
Default
 10
82.8011785717461
 20
46.7932251156784
 42
0.0
  0
VERTEX
  8
Default
 10
82.8011785717461
 20
54.2347496212937
 42
0.0
  0
VERTEX
  8
Default
 10
82.8011785717461
 20
58.9973238171555
 42
0.0
  0
VERTEX
  8
Default
 10
79.5269085140679
 20
58.9973238171555
 42
0.0
  0
VERTEX
  8
Default
 10
75.9549785824273
 20
58.9973238171555
 42
0.0
  0
SEQEND
  0
POLYLINE
  8
Default
 66
     1
 10
0.0
 20
0.0
 30
0.0
 70
     0
  0
VERTEX
  8
Default
 10
36.3660789700005
 20
55.1277321042038
 42
0.0
  0
VERTEX
  8
Default
 10
31.0081821651909
 20
52.151121920488
 42
0.0
  0
VERTEX
  8
Default
 10
24.4596439571831
 20
50.6628177823044
 42
0.0
  0
VERTEX
  8
Default
 10
19.3994098873589
 20
49.7698352993943
 42
0.0
  0
VERTEX
  8
Default
 10
13.743850347564
 20
51.8534610928513
 42
0.0
  0
VERTEX
  8
Default
 10
6.5999904842827
 20
53.6394260586716
 42
0.0
  0
VERTEX
  8
Default
 10
0.9444347591851
 20
55.1277321042038
 42
0.0
  0
SEQEND
  0
POLYLINE
  8
Default
 66
     1
 10
0.0
 20
0.0
 30
0.0
 70
     0
  0
VERTEX
  8
Default
 10
34.5801120968316
 20
18.8130996884323
 42
0.0
  0
VERTEX
  8
Default
 10
31.0081821651909
 20
19.4084213437058
 42
0.0
  0
VERTEX
  8
Default
 10
31.0081821651909
 20
23.2780121029831
 42
0.0
  0
VERTEX
  8
Default
 10
30.7105213375542
 20
24.7663162411667
 42
0.0
  0
VERTEX
  8
Default
 10
28.6268955440972
 20
28.0405853451706
 42
0.0
  0
VERTEX
  8
Default
 10
29.2222171993706
 20
31.3148582638718
 42
0.0
  0
VERTEX
  8
Default
 10
29.2222171993706
 20
34.8867881955124
 42
0.0
  0
VERTEX
  8
Default
 10
28.3292347164605
 20
36.6727531613327
 42
0.0
  0
VERTEX
  8
Default
 10
23.8643223019097
 20
36.6727531613327
 42
0.0
  0
VERTEX
  8
Default
 10
20.5900531979058
 20
35.1844490231491
 42
0.0
  0
VERTEX
  8
Default
 10
16.7204586239312
 20
31.9101799191452
 42
0.0
  0
VERTEX
  8
Default
 10
12.8508678646538
 20
29.5288932980515
 42
0.0
  0
VERTEX
  8
Default
 10
14.3391720028374
 20
24.46865541353
 42
0.0
  0
VERTEX
  8
Default
 10
11.9578853817437
 20
20.8967254818894
 42
0.0
  0
VERTEX
  8
Default
 10
12.5532070370171
 20
17.9201172055222
 42
0.0
  0
VERTEX
  8
Default
 10
8.385955450103
 20
18.2177780331589
 42
0.0
  0
VERTEX
  8
Default
 10
-15.1292575625923
 20
8.6926277340866
 42
0.0
  0
VERTEX
  8
Default
 10
-13.6409534244087
 20
5.7160194577195
 42
0.0
  0
VERTEX
  8
Default
 10
-10.9620059756782
 20
4.8230369748093
 42
0.0
  0
VERTEX
  8
Default
 10
-10.9620059756782
 20
2.441742724321
 42
0.0
  0
VERTEX
  8
Default
 10
-8.2830585269477
 20
2.7394035519577
 42
0.0
  0
VERTEX
  8
Default
 10
13.1485286922905
 20
11.9668968380905
 42
0.0
  0
VERTEX
  8
Default
 10
-7.985397699311
 20
2.7394035519577
 42
0.0
  0
VERTEX
  8
Default
 10
-4.1158069400337
 20
0.0604561032273
 42
0.0
  0
VERTEX
  8
Default
 10
1.2420955868218
 20
-0.2372047244095
 42
0.0
  0
VERTEX
  8
Default
 10
3.3257213802788
 20
0.358116930864
 42
0.0
  0
VERTEX
  8
Default
 10
16.7204586239312
 20
6.6090019406296
 42
0.0
  0
VERTEX
  8
Default
 10
23.566661474273
 20
5.7160194577195
 42
0.0
  0
VERTEX
  8
Default
 10
33.3894687862847
 20
10.7762535275437
 42
0.0
  0
VERTEX
  8
Default
 10
23.566661474273
 20
5.7160194577195
 42
0.0
  0
VERTEX
  8
Default
 10
7.7906337948296
 20
-1.4278480349563
 42
0.0
  0
VERTEX
  8
Default
 10
3.3257213802788
 20
0.9534385861374
 42
0.0
  0
VERTEX
  8
Default
 10
8.0882946224663
 20
-1.1301872073196
 42
0.0
  0
VERTEX
  8
Default
 10
14.6368328304741
 20
-1.1301872073196
 42
0.0
  0
VERTEX
  8
Default
 10
17.6134411068413
 20
-0.5348655520462
 42
0.0
  0
VERTEX
  8
Default
 10
20.5900531979058
 20
-0.5348655520462
 42
0.0
  0
VERTEX
  8
Default
 10
38.4497066708062
 20
8.9902885617234
 42
0.0
  0
VERTEX
  8
Default
 10
20.5900531979058
 20
-0.5348655520462
 42
0.0
  0
VERTEX
  8
Default
 10
24.4596439571831
 20
-0.5348655520462
 42
0.0
  0
VERTEX
  8
Default
 10
28.9245563717339
 20
-0.5348655520462
 42
0.0
  0
VERTEX
  8
Default
 10
32.1988254757378
 20
-0.5348655520462
 42
0.0
  0
VERTEX
  8
Default
 10
46.4865490169976
 20
9.5856102169968
 42
0.0
  0
VERTEX
  8
Default
 10
32.4964863033745
 20
-0.8325263796829
 42
0.0
  0
VERTEX
  8
Default
 10
37.2590614529107
 20
0.0604561032273
 42
0.0
  0
VERTEX
  8
Default
 10
41.1286541195366
 20
0.0604561032273
 42
0.0
  0
VERTEX
  8
Default
 10
44.1052623959038
 20
0.0604561032273
 42
0.0
  0
VERTEX
  8
Default
 10
53.9280725689385
 20
9.2879493893601
 42
0.0
  0
VERTEX
  8
Default
 10
44.4029232235405
 20
-0.2372047244095
 42
0.0
  0
VERTEX
  8
Default
 10
46.1888881893609
 20
-0.2372047244095
 42
0.0
  0
VERTEX
  8
Default
 10
49.4631592007134
 20
-0.2372047244095
 42
0.0
  0
VERTEX
  8
Default
 10
51.8444467754815
 20
0.358116930864
 42
0.0
  0
VERTEX
  8
Default
 10
54.5233942242119
 20
0.358116930864
 42
0.0
  0
VERTEX
  8
Default
 10
56.6070209713433
 20
0.0604561032273
 42
0.0
  0
VERTEX
  8
Default
 10
58.6906467648003
 20
0.0604561032273
 42
0.0
  0
VERTEX
  8
Default
 10
59.8812905521843
 20
0.0604561032273
 42
0.0
  0
VERTEX
  8
Default
 10
66.1321693630669
 20
13.4552009762741
 42
0.0
  0
VERTEX
  8
Default
 10
62.560238477752
 20
13.1575401486374
 42
0.0
  0
VERTEX
  8
Default
 10
59.8812905521843
 20
14.0505226315476
 42
0.0
  0
VERTEX
  8
Default
 10
62.2625776501152
 20
12.8598793210007
 42
0.0
  0
VERTEX
  8
Default
 10
65.8345084162209
 20
13.4552009762741
 42
0.0
  0
VERTEX
  8
Default
 10
67.025152024791
 20
12.2645576657273
 42
0.0
  0
VERTEX
  8
Default
 10
70.0017608376
 20
12.2645576657273
 42
0.0
  0
VERTEX
  8
Default
 10
73.5736914844964
 20
12.8598793210007
 42
0.0
  0
VERTEX
  8
Default
 10
69.406438943908
 20
1.2510994137741
 42
0.0
  0
VERTEX
  8
Default
 10
66.4298302503083
 20
0.6557777585007
 42
0.0
  0
VERTEX
  8
Default
 10
63.1555601330254
 20
0.0604561032273
 42
0.0
  0
VERTEX
  8
Default
 10
60.7742730350945
 20
0.0604561032273
 42
0.0
  0
VERTEX
  8
Default
 10
66.1321693630669
 20
0.6557777585007
 42
0.0
  0
VERTEX
  8
Default
 10
70.0017608376
 20
0.358116930864
 42
0.0
  0
VERTEX
  8
Default
 10
75.3596559734795
 20
0.0604561032273
 42
0.0
  0
VERTEX
  8
Default
 10
76.8479610653374
 20
0.6557777585007
 42
0.0
  0
VERTEX
  8
Default
 10
81.6105352611992
 20
0.6557777585007
 42
0.0
  0
VERTEX
  8
Default
 10
84.5871425838921
 20
-0.8325263796829
 42
0.0
  0
VERTEX
  8
Default
 10
85.4801269741509
 20
-0.5348655520462
 42
0.0
  0
VERTEX
  8
Default
 10
86.9684311123345
 20
12.2645576657273
 42
0.0
  0
VERTEX
  8
Default
 10
83.0988393993828
 20
12.2645576657273
 42
0.0
  0
VERTEX
  8
Default
 10
90.5403610439751
 20
11.6692360104538
 42
0.0
  0
VERTEX
  8
Default
 10
86.6707702846978
 20
11.6692360104538
 42
0.0
  0
VERTEX
  8
Default
 10
85.1824661465142
 20
-0.8325263796829
 42
0.0
  0
VERTEX
  8
Default
 10
87.5637527676079
 20
-0.5348655520462
 42
0.0
  0
VERTEX
  8
Default
 10
90.8380218716118
 20
-0.8325263796829
 42
0.0
  0
VERTEX
  8
Default
 10
92.6239868374321
 20
-0.8325263796829
 42
0.0
  0
VERTEX
  8
Default
 10
95.8982578487847
 20
-1.1301872073196
 42
0.0
  0
VERTEX
  8
Default
 10
99.1725269527886
 20
-1.1301872073196
 42
0.0
  0
VERTEX
  8
Default
 10
103.339778539703
 20
-1.1301872073196
 42
0.0
  0
VERTEX
  8
Default
 10
104.828082677886
 20
-0.8325263796829
 42
0.0
  0
VERTEX
  8
Default
 10
101.851474401519
 20
5.7160194577195
 42
0.0
  0
VERTEX
  8
Default
 10
105.125743505523
 20
-1.1301872073196
 42
0.0
  0
VERTEX
  8
Default
 10
107.507030126617
 20
-1.1301872073196
 42
0.0
  0
VERTEX
  8
Default
 10
111.971942541167
 20
-2.3208305178665
 42
0.0
  0
VERTEX
  8
Default
 10
112.864925024078
 20
-1.1301872073196
 42
0.0
  0
VERTEX
  8
Default
 10
107.20936929898
 20
11.3715751828171
 42
0.0
  0
VERTEX
  8
Default
 10
102.744456884429
 20
11.6692360104538
 42
0.0
  0
VERTEX
  8
Default
 10
133.105865118072
 20
11.3715751828171
 42
0.0
  0
VERTEX
  8
Default
 10
118.520484563873
 20
11.3715751828171
 42
0.0
  0
VERTEX
  8
Default
 10
130.426917669341
 20
-0.5348655520462
 42
0.0
  0
VERTEX
  8
Default
 10
124.771361944244
 20
-1.4278480349563
 42
0.0
  0
VERTEX
  8
Default
 10
122.687736150787
 20
-1.4278480349563
 42
0.0
  0
VERTEX
  8
Default
 10
111.674281713531
 20
11.0739143551804
 42
0.0
  0
VERTEX
  8
Default
 10
122.687736150787
 20
-1.4278480349563
 42
0.0
  0
VERTEX
  8
Default
 10
120.901771184966
 20
-1.4278480349563
 42
0.0
  0
VERTEX
  8
Default
 10
118.222823736236
 20
-1.7255088625931
 42
0.0
  0
VERTEX
  8
Default
 10
115.841537115142
 20
-1.4278480349563
 42
0.0
  0
VERTEX
  8
Default
 10
113.460246679351
 20
-1.4278480349563
 42
0.0
  0
SEQEND
  0
CIRCLE
  8
Default
 10
47.9748550625298
 20
128.64997560396
 30
0.0
 40
1.8106001290862
  0
POLYLINE
  8
Default
 66
     1
 10
0.0
 20
0.0
 30
0.0
 70
     0
  0
VERTEX
  8
Default
 10
64.9415258141015
 20
123.887402361772
 42
0.0
  0
VERTEX
  8
Default
 10
63.4532211990807
 20
122.399098223589
 42
0.0
  0
VERTEX
  8
Default
 10
61.0719338627312
 20
120.613133257768
 42
0.0
  0
VERTEX
  8
Default
 10
56.6070209713433
 20
120.315472430132
 42
0.0
  0
VERTEX
  8
Default
 10
53.3327509136651
 20
120.315472430132
 42
0.0
  0
VERTEX
  8
Default
 10
52.4397684307549
 20
121.208454913042
 42
0.0
  0
VERTEX
  8
Default
 10
52.1421076031182
 20
122.399098223589
 42
0.0
  0
SEQEND
  0
POLYLINE
  8
Default
 66
     1
 10
0.0
 20
0.0
 30
0.0
 70
     0
  0
VERTEX
  8
Default
 10
66.4298302503083
 20
53.0441044033982
 42
0.0
  0
VERTEX
  8
Default
 10
69.406438943908
 20
50.9604786099411
 42
0.0
  0
VERTEX
  8
Default
 10
72.680708524749
 20
50.6628177823044
 42
0.0
  0
SEQEND
  0
POLYLINE
  8
Default
 66
     1
 10
0.0
 20
0.0
 30
0.0
 70
     0
  0
VERTEX
  8
Default
 10
105.125743505523
 20
52.7464435757614
 42
0.0
  0
VERTEX
  8
Default
 10
111.674281713531
 20
53.0441044033982
 42
0.0
  0
VERTEX
  8
Default
 10
115.246215459869
 20
57.2113578976609
 42
0.0
  0
VERTEX
  8
Default
 10
120.008788702056
 20
61.3786113919236
 42
0.0
  0
VERTEX
  8
Default
 10
130.724578496978
 20
64.3552206219651
 42
0.0
  0
VERTEX
  8
Default
 10
138.166099187896
 20
68.5224736393906
 42
0.0
  0
VERTEX
  8
Default
 10
139.65440332608
 20
11.0739143551804
 42
0.0
  0
VERTEX
  8
Default
 10
132.212882635162
 20
11.3715751828171
 42
0.0
  0
VERTEX
  8
Default
 10
140.54738580899
 20
0.358116930864
 42
0.0
  0
VERTEX
  8
Default
 10
138.761420843169
 20
0.0604561032273
 42
0.0
  0
VERTEX
  8
Default
 10
135.189490911529
 20
0.0604561032273
 42
0.0
  0
VERTEX
  8
Default
 10
132.212882635162
 20
0.358116930864
 42
0.0
  0
VERTEX
  8
Default
 10
130.426917669341
 20
-0.8325263796829
 42
0.0
  0
SEQEND
  0
POLYLINE
  8
Default
 66
     1
 10
0.0
 20
0.0
 30
0.0
 70
     0
  0
VERTEX
  8
Default
 10
45.8912273617241
 20
10.478592699907
 42
0.0
  0
VERTEX
  8
Default
 10
47.3795334072564
 20
25.0639770688034
 42
0.0
  0
VERTEX
  8
Default
 10
44.7005840511773
 20
24.7663162411667
 42
0.0
  0
VERTEX
  8
Default
 10
42.3192974300835
 20
25.3616378964402
 42
0.0
  0
VERTEX
  8
Default
 10
44.1052623959038
 20
24.7663162411667
 42
0.0
  0
VERTEX
  8
Default
 10
47.3795334072564
 20
25.0639770688034
 42
0.0
  0
VERTEX
  8
Default
 10
49.4631592007134
 20
24.46865541353
 42
0.0
  0
VERTEX
  8
Default
 10
51.2491241665337
 20
24.46865541353
 42
0.0
  0
VERTEX
  8
Default
 10
53.9280725689385
 20
25.6592987240769
 42
0.0
  0
SEQEND
  0
POLYLINE
  8
Default
 66
     1
 10
0.0
 20
0.0
 30
0.0
 70
     0
  0
VERTEX
  8
Default
 10
13.1485286922905
 20
17.9201172055222
 42
0.0
  0
VERTEX
  8
Default
 10
17.3157802792046
 20
16.1341522397019
 42
0.0
  0
VERTEX
  8
Default
 10
20.2923923702691
 20
16.1341522397019
 42
0.0
  0
VERTEX
  8
Default
 10
25.3526264400933
 20
16.1341522397019
 42
0.0
  0
VERTEX
  8
Default
 10
28.3292347164605
 20
17.6224563778855
 42
0.0
  0
VERTEX
  8
Default
 10
31.0081821651909
 20
18.2177780331589
 42
0.0
  0
VERTEX
  8
Default
 10
34.5801120968316
 20
18.8130996884323
 42
0.0
  0
VERTEX
  8
Default
 10
37.2590614529107
 20
17.9201172055222
 42
0.0
  0
SEQEND
  0
POLYLINE
  8
Default
 66
     1
 10
0.0
 20
0.0
 30
0.0
 70
     0
  0
VERTEX
  8
Default
 10
53.0350900860283
 20
113.46926957979
 42
0.0
  0
VERTEX
  8
Default
 10
49.7608200283501
 20
41.7329910458542
 42
0.0
  0
SEQEND
  0
POLYLINE
  8
Default
 66
     1
 10
0.0
 20
0.0
 30
0.0
 70
     0
  0
VERTEX
  8
Default
 10
34.5801120968316
 20
91.14470178499
 42
0.0
  0
VERTEX
  8
Default
 10
33.9847904415581
 20
85.489145106218
 42
0.0
  0
VERTEX
  8
Default
 10
30.1151996822808
 20
82.8101976574875
 42
0.0
  0
VERTEX
  8
Default
 10
34.5801120968316
 20
85.7868059338547
 42
0.0
  0
VERTEX
  8
Default
 10
33.6871296139214
 20
80.4289100827195
 42
0.0
  0
VERTEX
  8
Default
 10
30.1151996822808
 20
77.1546402634598
 42
0.0
  0
VERTEX
  8
Default
 10
33.6871296139214
 20
80.1312492550827
 42
0.0
  0
VERTEX
  8
Default
 10
34.5801120968316
 20
75.6663356484391
 42
0.0
  0
VERTEX
  8
Default
 10
31.9011646481011
 20
71.7967436970688
 42
0.0
  0
SEQEND
  0
ENDSEC
  0
EOF
