0
SECTION
2
HEADER
0
ENDSEC
0
SECTION
2
TABLES
0
ENDSEC
0
SECTION
2
BLOCKS
0
ENDSEC
0
SECTION
2
ENTITIES
0
POLYLINE
8
R2V
62
0
66
1
70
8
0
VERTEX
8
R2V
62
0
70
32
10
6.896552
20
3.172414
30
0
0
VERTEX
8
R2V
62
0
70
32
10
6.896552
20
3.103448
30
0
0
VERTEX
8
R2V
62
0
70
32
10
6.862069
20
3.103448
30
0
0
VERTEX
8
R2V
62
0
70
32
10
6.862069
20
3.172414
30
0
0
VERTEX
8
R2V
62
0
70
32
10
6.896552
20
3.172414
30
0
0
SEQEND
0
POLYLINE
8
R2V
62
0
66
1
70
8
0
VERTEX
8
R2V
62
0
70
32
10
8.482759
20
2.862069
30
0
0
VERTEX
8
R2V
62
0
70
32
10
8.482759
20
2.586207
30
0
0
VERTEX
8
R2V
62
0
70
32
10
8.310345
20
2.586207
30
0
0
VERTEX
8
R2V
62
0
70
32
10
8.310345
20
2.862069
30
0
0
VERTEX
8
R2V
62
0
70
32
10
8.482759
20
2.862069
30
0
0
SEQEND
0
POLYLINE
8
R2V
62
0
66
1
70
8
0
VERTEX
8
R2V
62
0
70
32
10
8.241379
20
2.862069
30
0
0
VERTEX
8
R2V
62
0
70
32
10
8.241379
20
2.586207
30
0
0
VERTEX
8
R2V
62
0
70
32
10
8.103448
20
2.586207
30
0
0
VERTEX
8
R2V
62
0
70
32
10
8.103448
20
2.862069
30
0
0
VERTEX
8
R2V
62
0
70
32
10
8.241379
20
2.862069
30
0
0
SEQEND
0
POLYLINE
8
R2V
62
0
66
1
70
8
0
VERTEX
8
R2V
62
0
70
32
10
7.310345
20
2.862069
30
0
0
VERTEX
8
R2V
62
0
70
32
10
7.310345
20
2.586207
30
0
0
VERTEX
8
R2V
62
0
70
32
10
7.137931
20
2.586207
30
0
0
VERTEX
8
R2V
62
0
70
32
10
7.137931
20
2.862069
30
0
0
VERTEX
8
R2V
62
0
70
32
10
7.310345
20
2.862069
30
0
0
SEQEND
0
POLYLINE
8
R2V
62
0
66
1
70
8
0
VERTEX
8
R2V
62
0
70
32
10
7.068966
20
2.862069
30
0
0
VERTEX
8
R2V
62
0
70
32
10
7.068966
20
2.586207
30
0
0
VERTEX
8
R2V
62
0
70
32
10
6.931034
20
2.586207
30
0
0
VERTEX
8
R2V
62
0
70
32
10
6.931034
20
2.862069
30
0
0
VERTEX
8
R2V
62
0
70
32
10
7.068966
20
2.862069
30
0
0
SEQEND
0
POLYLINE
8
R2V
62
0
66
1
70
8
0
VERTEX
8
R2V
62
0
70
32
10
3.034483
20
3.103448
30
0
0
VERTEX
8
R2V
62
0
70
32
10
2.724138
20
3.103448
30
0
0
VERTEX
8
R2V
62
0
70
32
10
2.724138
20
2.586207
30
0
0
VERTEX
8
R2V
62
0
70
32
10
3.034483
20
2.586207
30
0
0
VERTEX
8
R2V
62
0
70
32
10
3.034483
20
3.103448
30
0
0
SEQEND
0
POLYLINE
8
R2V
62
0
66
1
70
8
0
VERTEX
8
R2V
62
0
70
32
10
6.758621
20
3.034483
30
0
0
VERTEX
8
R2V
62
0
70
32
10
6.758621
20
2.551724
30
0
0
VERTEX
8
R2V
62
0
70
32
10
6.689655
20
2.551724
30
0
0
VERTEX
8
R2V
62
0
70
32
10
6.689655
20
3.034483
30
0
0
VERTEX
8
R2V
62
0
70
32
10
6.758621
20
3.034483
30
0
0
SEQEND
0
POLYLINE
8
R2V
62
0
66
1
70
8
0
VERTEX
8
R2V
62
0
70
32
10
9.068966
20
2.586207
30
0
0
VERTEX
8
R2V
62
0
70
32
10
9.068966
20
1.827586
30
0
0
VERTEX
8
R2V
62
0
70
32
10
8.758621
20
1.862069
30
0
0
VERTEX
8
R2V
62
0
70
32
10
8.758621
20
2.275862
30
0
0
VERTEX
8
R2V
62
0
70
32
10
9.034483
20
2.275862
30
0
0
VERTEX
8
R2V
62
0
70
32
10
9.034483
20
2.551724
30
0
0
VERTEX
8
R2V
62
0
70
32
10
8.758621
20
2.586207
30
0
0
VERTEX
8
R2V
62
0
70
32
10
9.068966
20
2.586207
30
0
0
SEQEND
0
POLYLINE
8
R2V
62
0
66
1
70
8
0
VERTEX
8
R2V
62
0
70
32
10
6.965517
20
3.344828
30
0
0
VERTEX
8
R2V
62
0
70
32
10
6.965517
20
3.310345
30
0
0
VERTEX
8
R2V
62
0
70
32
10
6.931034
20
3.310345
30
0
0
VERTEX
8
R2V
62
0
70
32
10
6.931034
20
3.344828
30
0
0
VERTEX
8
R2V
62
0
70
32
10
6.965517
20
3.344828
30
0
0
SEQEND
0
POLYLINE
8
R2V
62
0
66
1
70
8
0
VERTEX
8
R2V
62
0
70
32
10
6.931034
20
3.241379
30
0
0
VERTEX
8
R2V
62
0
70
32
10
6.931034
20
3.206897
30
0
0
VERTEX
8
R2V
62
0
70
32
10
6.896552
20
3.206897
30
0
0
VERTEX
8
R2V
62
0
70
32
10
6.896552
20
3.241379
30
0
0
VERTEX
8
R2V
62
0
70
32
10
6.931034
20
3.241379
30
0
0
SEQEND
0
POLYLINE
8
R2V
62
0
66
1
70
8
0
VERTEX
8
R2V
62
0
70
32
10
4.586207
20
4.034483
30
0
0
VERTEX
8
R2V
62
0
70
32
10
4.586207
20
2.758621
30
0
0
VERTEX
8
R2V
62
0
70
32
10
4.551724
20
2.758621
30
0
0
VERTEX
8
R2V
62
0
70
32
10
4.551724
20
4.034483
30
0
0
VERTEX
8
R2V
62
0
70
32
10
4.586207
20
4.034483
30
0
0
SEQEND
0
POLYLINE
8
R2V
62
0
66
1
70
8
0
VERTEX
8
R2V
62
0
70
32
10
6.413793
20
5.068966
30
0
0
VERTEX
8
R2V
62
0
70
32
10
6.413793
20
4.689655
30
0
0
VERTEX
8
R2V
62
0
70
32
10
6.137931
20
4.689655
30
0
0
VERTEX
8
R2V
62
0
70
32
10
6.137931
20
5.068966
30
0
0
VERTEX
8
R2V
62
0
70
32
10
6.413793
20
5.068966
30
0
0
SEQEND
0
POLYLINE
8
R2V
62
0
66
1
70
8
0
VERTEX
8
R2V
62
0
70
32
10
7.000000
20
4.448276
30
0
0
VERTEX
8
R2V
62
0
70
32
10
7.000000
20
4.206897
30
0
0
VERTEX
8
R2V
62
0
70
32
10
7.000000
20
4.448276
30
0
0
SEQEND
0
POLYLINE
8
R2V
62
0
66
1
70
8
0
VERTEX
8
R2V
62
0
70
32
10
5.448276
20
5.758621
30
0
0
VERTEX
8
R2V
62
0
70
32
10
5.379310
20
5.758621
30
0
0
VERTEX
8
R2V
62
0
70
32
10
5.413793
20
5.103448
30
0
0
VERTEX
8
R2V
62
0
70
32
10
5.448276
20
5.103448
30
0
0
VERTEX
8
R2V
62
0
70
32
10
6.758621
20
4.241379
30
0
0
VERTEX
8
R2V
62
0
70
32
10
6.793103
20
4.275862
30
0
0
VERTEX
8
R2V
62
0
70
32
10
6.896552
20
4.103448
30
0
0
VERTEX
8
R2V
62
0
70
32
10
6.724138
20
4.172414
30
0
0
VERTEX
8
R2V
62
0
70
32
10
6.551724
20
4.275862
30
0
0
VERTEX
8
R2V
62
0
70
32
10
6.517241
20
2.241379
30
0
0
VERTEX
8
R2V
62
0
70
32
10
6.827586
20
2.241379
30
0
0
VERTEX
8
R2V
62
0
70
32
10
6.862069
20
3.034483
30
0
0
VERTEX
8
R2V
62
0
70
32
10
7.137931
20
3.034483
30
0
0
VERTEX
8
R2V
62
0
70
32
10
9.241379
20
3.000000
30
0
0
VERTEX
8
R2V
62
0
70
32
10
9.275862
20
3.379310
30
0
0
VERTEX
8
R2V
62
0
70
32
10
7.206897
20
3.413793
30
0
0
VERTEX
8
R2V
62
0
70
32
10
7.172414
20
4.517241
30
0
0
VERTEX
8
R2V
62
0
70
32
10
6.827586
20
4.827586
30
0
0
VERTEX
8
R2V
62
0
70
32
10
6.793103
20
4.517241
30
0
0
VERTEX
8
R2V
62
0
70
32
10
6.758621
20
4.931034
30
0
0
VERTEX
8
R2V
62
0
70
32
10
6.586207
20
5.000000
30
0
0
VERTEX
8
R2V
62
0
70
32
10
6.206897
20
5.275862
30
0
0
VERTEX
8
R2V
62
0
70
32
10
5.724138
20
5.551724
30
0
0
VERTEX
8
R2V
62
0
70
32
10
5.448276
20
5.758621
30
0
0
SEQEND
0
POLYLINE
8
R2V
62
0
66
1
70
8
0
VERTEX
8
R2V
62
0
70
32
10
3.689655
20
8.620690
30
0
0
VERTEX
8
R2V
62
0
70
32
10
3.689655
20
8.482759
30
0
0
VERTEX
8
R2V
62
0
70
32
10
3.448276
20
8.482759
30
0
0
VERTEX
8
R2V
62
0
70
32
10
3.448276
20
8.620690
30
0
0
VERTEX
8
R2V
62
0
70
32
10
3.689655
20
8.620690
30
0
0
SEQEND
0
POLYLINE
8
R2V
62
0
66
1
70
8
0
VERTEX
8
R2V
62
0
70
32
10
2.344828
20
8.620690
30
0
0
VERTEX
8
R2V
62
0
70
32
10
2.344828
20
8.482759
30
0
0
VERTEX
8
R2V
62
0
70
32
10
2.103448
20
8.482759
30
0
0
VERTEX
8
R2V
62
0
70
32
10
2.103448
20
8.620690
30
0
0
VERTEX
8
R2V
62
0
70
32
10
2.344828
20
8.620690
30
0
0
SEQEND
0
POLYLINE
8
R2V
62
0
66
1
70
8
0
VERTEX
8
R2V
62
0
70
32
10
3.068966
20
8.689655
30
0
0
VERTEX
8
R2V
62
0
70
32
10
3.068966
20
8.413793
30
0
0
VERTEX
8
R2V
62
0
70
32
10
2.758621
20
8.413793
30
0
0
VERTEX
8
R2V
62
0
70
32
10
2.758621
20
8.689655
30
0
0
VERTEX
8
R2V
62
0
70
32
10
3.068966
20
8.689655
30
0
0
SEQEND
0
POLYLINE
8
R2V
62
0
66
1
70
8
0
VERTEX
8
R2V
62
0
70
32
10
5.586207
20
7.655172
30
0
0
VERTEX
8
R2V
62
0
70
32
10
5.655172
20
7.551724
30
0
0
VERTEX
8
R2V
62
0
70
32
10
5.620690
20
7.310345
30
0
0
VERTEX
8
R2V
62
0
70
32
10
5.551724
20
7.344828
30
0
0
VERTEX
8
R2V
62
0
70
32
10
5.586207
20
7.655172
30
0
0
SEQEND
0
POLYLINE
8
R2V
62
0
66
1
70
8
0
VERTEX
8
R2V
62
0
70
32
10
4.620690
20
7.655172
30
0
0
VERTEX
8
R2V
62
0
70
32
10
4.620690
20
4.275862
30
0
0
VERTEX
8
R2V
62
0
70
32
10
4.586207
20
4.275862
30
0
0
VERTEX
8
R2V
62
0
70
32
10
4.586207
20
7.655172
30
0
0
VERTEX
8
R2V
62
0
70
32
10
4.620690
20
7.655172
30
0
0
SEQEND
0
POLYLINE
8
R2V
62
0
66
1
70
8
0
VERTEX
8
R2V
62
0
70
32
10
5.034483
20
9.655172
30
0
0
VERTEX
8
R2V
62
0
70
32
10
5.034483
20
9.620690
30
0
0
VERTEX
8
R2V
62
0
70
32
10
4.586207
20
9.620690
30
0
0
VERTEX
8
R2V
62
0
70
32
10
4.586207
20
9.655172
30
0
0
VERTEX
8
R2V
62
0
70
32
10
5.034483
20
9.655172
30
0
0
SEQEND
0
POLYLINE
8
R2V
62
0
66
1
70
8
0
VERTEX
8
R2V
62
0
70
32
10
4.448276
20
9.620690
30
0
0
VERTEX
8
R2V
62
0
70
32
10
4.448276
20
9.586207
30
0
0
VERTEX
8
R2V
62
0
70
32
10
3.896552
20
9.586207
30
0
0
VERTEX
8
R2V
62
0
70
32
10
3.896552
20
9.620690
30
0
0
VERTEX
8
R2V
62
0
70
32
10
4.448276
20
9.620690
30
0
0
SEQEND
0
POLYLINE
8
R2V
62
0
66
1
70
8
0
VERTEX
8
R2V
62
0
70
32
10
4.827586
20
9.034483
30
0
0
VERTEX
8
R2V
62
0
70
32
10
4.827586
20
8.620690
30
0
0
VERTEX
8
R2V
62
0
70
32
10
4.551724
20
8.620690
30
0
0
VERTEX
8
R2V
62
0
70
32
10
4.551724
20
9.034483
30
0
0
VERTEX
8
R2V
62
0
70
32
10
4.827586
20
9.034483
30
0
0
SEQEND
0
POLYLINE
8
R2V
62
0
66
1
70
8
0
VERTEX
8
R2V
62
0
70
32
10
5.586207
20
10.034483
30
0
0
VERTEX
8
R2V
62
0
70
32
10
3.172414
20
9.931034
30
0
0
VERTEX
8
R2V
62
0
70
32
10
3.275862
20
9.758621
30
0
0
VERTEX
8
R2V
62
0
70
32
10
3.310345
20
9.758621
30
0
0
VERTEX
8
R2V
62
0
70
32
10
3.379310
20
9.724138
30
0
0
VERTEX
8
R2V
62
0
70
32
10
3.310345
20
9.862069
30
0
0
VERTEX
8
R2V
62
0
70
32
10
3.482759
20
9.862069
30
0
0
VERTEX
8
R2V
62
0
70
32
10
3.517241
20
9.793103
30
0
0
VERTEX
8
R2V
62
0
70
32
10
3.448276
20
9.793103
30
0
0
VERTEX
8
R2V
62
0
70
32
10
3.448276
20
9.620690
30
0
0
VERTEX
8
R2V
62
0
70
32
10
3.482759
20
9.620690
30
0
0
VERTEX
8
R2V
62
0
70
32
10
3.827586
20
9.551724
30
0
0
VERTEX
8
R2V
62
0
70
32
10
3.586207
20
9.517241
30
0
0
VERTEX
8
R2V
62
0
70
32
10
3.689655
20
9.344828
30
0
0
VERTEX
8
R2V
62
0
70
32
10
3.896552
20
9.379310
30
0
0
VERTEX
8
R2V
62
0
70
32
10
3.896552
20
9.137931
30
0
0
VERTEX
8
R2V
62
0
70
32
10
3.931034
20
9.137931
30
0
0
VERTEX
8
R2V
62
0
70
32
10
4.586207
20
8.310345
30
0
0
VERTEX
8
R2V
62
0
70
32
10
4.620690
20
8.310345
30
0
0
VERTEX
8
R2V
62
0
70
32
10
4.827586
20
8.034483
30
0
0
VERTEX
8
R2V
62
0
70
32
10
4.862069
20
8.034483
30
0
0
VERTEX
8
R2V
62
0
70
32
10
4.965517
20
7.862069
30
0
0
VERTEX
8
R2V
62
0
70
32
10
5.000000
20
7.862069
30
0
0
VERTEX
8
R2V
62
0
70
32
10
5.310345
20
7.517241
30
0
0
VERTEX
8
R2V
62
0
70
32
10
5.413793
20
7.379310
30
0
0
VERTEX
8
R2V
62
0
70
32
10
5.448276
20
8.862069
30
0
0
VERTEX
8
R2V
62
0
70
32
10
5.482759
20
7.275862
30
0
0
VERTEX
8
R2V
62
0
70
32
10
5.517241
20
7.275862
30
0
0
VERTEX
8
R2V
62
0
70
32
10
5.724138
20
7.034483
30
0
0
VERTEX
8
R2V
62
0
70
32
10
5.689655
20
9.206897
30
0
0
VERTEX
8
R2V
62
0
70
32
10
5.758621
20
9.206897
30
0
0
VERTEX
8
R2V
62
0
70
32
10
5.620690
20
9.965517
30
0
0
VERTEX
8
R2V
62
0
70
32
10
5.448276
20
9.655172
30
0
0
VERTEX
8
R2V
62
0
70
32
10
5.241379
20
9.689655
30
0
0
VERTEX
8
R2V
62
0
70
32
10
5.448276
20
9.689655
30
0
0
VERTEX
8
R2V
62
0
70
32
10
5.586207
20
10.034483
30
0
0
SEQEND
0
POLYLINE
8
R2V
62
0
66
1
70
8
0
VERTEX
8
R2V
62
0
70
32
10
2.965517
20
9.931034
30
0
0
VERTEX
8
R2V
62
0
70
32
10
2.724138
20
9.793103
30
0
0
VERTEX
8
R2V
62
0
70
32
10
2.620690
20
9.655172
30
0
0
VERTEX
8
R2V
62
0
70
32
10
2.448276
20
9.551724
30
0
0
VERTEX
8
R2V
62
0
70
32
10
2.379310
20
9.000000
30
0
0
VERTEX
8
R2V
62
0
70
32
10
1.862069
20
8.517241
30
0
0
VERTEX
8
R2V
62
0
70
32
10
1.724138
20
8.448276
30
0
0
VERTEX
8
R2V
62
0
70
32
10
1.482759
20
8.172414
30
0
0
VERTEX
8
R2V
62
0
70
32
10
1.344828
20
8.103448
30
0
0
VERTEX
8
R2V
62
0
70
32
10
1.275862
20
8.034483
30
0
0
VERTEX
8
R2V
62
0
70
32
10
1.241379
20
2.034483
30
0
0
VERTEX
8
R2V
62
0
70
32
10
1.379310
20
2.034483
30
0
0
VERTEX
8
R2V
62
0
70
32
10
1.379310
20
2.275862
30
0
0
VERTEX
8
R2V
62
0
70
32
10
1.551724
20
2.275862
30
0
0
VERTEX
8
R2V
62
0
70
32
10
1.551724
20
2.034483
30
0
0
VERTEX
8
R2V
62
0
70
32
10
2.586207
20
2.068966
30
0
0
VERTEX
8
R2V
62
0
70
32
10
2.586207
20
3.172414
30
0
0
VERTEX
8
R2V
62
0
70
32
10
3.172414
20
3.172414
30
0
0
VERTEX
8
R2V
62
0
70
32
10
3.172414
20
2.137931
30
0
0
VERTEX
8
R2V
62
0
70
32
10
4.517241
20
2.137931
30
0
0
VERTEX
8
R2V
62
0
70
32
10
4.551724
20
2.413793
30
0
0
VERTEX
8
R2V
62
0
70
32
10
4.551724
20
2.172414
30
0
0
VERTEX
8
R2V
62
0
70
32
10
4.862069
20
2.206897
30
0
0
VERTEX
8
R2V
62
0
70
32
10
5.000000
20
2.275862
30
0
0
VERTEX
8
R2V
62
0
70
32
10
5.034483
20
3.862069
30
0
0
VERTEX
8
R2V
62
0
70
32
10
5.034483
20
2.275862
30
0
0
VERTEX
8
R2V
62
0
70
32
10
6.241379
20
2.275862
30
0
0
VERTEX
8
R2V
62
0
70
32
10
6.275862
20
3.862069
30
0
0
VERTEX
8
R2V
62
0
70
32
10
6.275862
20
2.310345
30
0
0
VERTEX
8
R2V
62
0
70
32
10
6.482759
20
2.310345
30
0
0
VERTEX
8
R2V
62
0
70
32
10
6.448276
20
4.379310
30
0
0
VERTEX
8
R2V
62
0
70
32
10
5.448276
20
5.000000
30
0
0
VERTEX
8
R2V
62
0
70
32
10
4.965517
20
5.344828
30
0
0
VERTEX
8
R2V
62
0
70
32
10
4.896552
20
5.344828
30
0
0
VERTEX
8
R2V
62
0
70
32
10
4.862069
20
2.517241
30
0
0
VERTEX
8
R2V
62
0
70
32
10
4.896552
20
5.413793
30
0
0
VERTEX
8
R2V
62
0
70
32
10
4.931034
20
5.413793
30
0
0
VERTEX
8
R2V
62
0
70
32
10
5.344828
20
5.172414
30
0
0
VERTEX
8
R2V
62
0
70
32
10
5.379310
20
5.827586
30
0
0
VERTEX
8
R2V
62
0
70
32
10
5.448276
20
5.827586
30
0
0
VERTEX
8
R2V
62
0
70
32
10
5.965517
20
5.448276
30
0
0
VERTEX
8
R2V
62
0
70
32
10
6.034483
20
5.448276
30
0
0
VERTEX
8
R2V
62
0
70
32
10
6.241379
20
5.310345
30
0
0
VERTEX
8
R2V
62
0
70
32
10
6.172414
20
6.379310
30
0
0
VERTEX
8
R2V
62
0
70
32
10
5.896552
20
6.620690
30
0
0
VERTEX
8
R2V
62
0
70
32
10
5.827586
20
6.758621
30
0
0
VERTEX
8
R2V
62
0
70
32
10
5.517241
20
7.034483
30
0
0
VERTEX
8
R2V
62
0
70
32
10
5.448276
20
7.172414
30
0
0
VERTEX
8
R2V
62
0
70
32
10
5.172414
20
7.413793
30
0
0
VERTEX
8
R2V
62
0
70
32
10
5.103448
20
7.551724
30
0
0
VERTEX
8
R2V
62
0
70
32
10
4.793103
20
7.827586
30
0
0
VERTEX
8
R2V
62
0
70
32
10
4.724138
20
7.965517
30
0
0
VERTEX
8
R2V
62
0
70
32
10
4.586207
20
8.034483
30
0
0
VERTEX
8
R2V
62
0
70
32
10
4.551724
20
7.965517
30
0
0
VERTEX
8
R2V
62
0
70
32
10
4.517241
20
8.172414
30
0
0
VERTEX
8
R2V
62
0
70
32
10
4.344828
20
8.275862
30
0
0
VERTEX
8
R2V
62
0
70
32
10
4.241379
20
8.413793
30
0
0
VERTEX
8
R2V
62
0
70
32
10
4.068966
20
8.517241
30
0
0
VERTEX
8
R2V
62
0
70
32
10
3.965517
20
8.655172
30
0
0
VERTEX
8
R2V
62
0
70
32
10
3.793103
20
8.758621
30
0
0
VERTEX
8
R2V
62
0
70
32
10
3.689655
20
8.896552
30
0
0
VERTEX
8
R2V
62
0
70
32
10
3.517241
20
9.000000
30
0
0
VERTEX
8
R2V
62
0
70
32
10
3.517241
20
9.068966
30
0
0
VERTEX
8
R2V
62
0
70
32
10
3.586207
20
9.068966
30
0
0
VERTEX
8
R2V
62
0
70
32
10
3.689655
20
8.931034
30
0
0
VERTEX
8
R2V
62
0
70
32
10
3.758621
20
8.931034
30
0
0
VERTEX
8
R2V
62
0
70
32
10
3.862069
20
8.793103
30
0
0
VERTEX
8
R2V
62
0
70
32
10
3.931034
20
8.793103
30
0
0
VERTEX
8
R2V
62
0
70
32
10
4.034483
20
8.655172
30
0
0
VERTEX
8
R2V
62
0
70
32
10
4.103448
20
8.655172
30
0
0
VERTEX
8
R2V
62
0
70
32
10
4.206897
20
8.517241
30
0
0
VERTEX
8
R2V
62
0
70
32
10
4.275862
20
8.517241
30
0
0
VERTEX
8
R2V
62
0
70
32
10
4.379310
20
8.379310
30
0
0
VERTEX
8
R2V
62
0
70
32
10
4.448276
20
8.379310
30
0
0
VERTEX
8
R2V
62
0
70
32
10
4.379310
20
8.517241
30
0
0
VERTEX
8
R2V
62
0
70
32
10
2.965517
20
9.931034
30
0
0
SEQEND
0
POLYLINE
8
R2V
62
0
66
1
70
8
0
VERTEX
8
R2V
62
0
70
32
10
3.896552
20
10.344828
30
0
0
VERTEX
8
R2V
62
0
70
32
10
3.896552
20
10.310345
30
0
0
VERTEX
8
R2V
62
0
70
32
10
3.689655
20
10.310345
30
0
0
VERTEX
8
R2V
62
0
70
32
10
3.689655
20
10.344828
30
0
0
VERTEX
8
R2V
62
0
70
32
10
3.896552
20
10.344828
30
0
0
SEQEND
0
POLYLINE
8
R2V
62
0
66
1
70
8
0
VERTEX
8
R2V
62
0
70
32
10
4.758621
20
10.344828
30
0
0
VERTEX
8
R2V
62
0
70
32
10
4.758621
20
10.172414
30
0
0
VERTEX
8
R2V
62
0
70
32
10
4.689655
20
10.172414
30
0
0
VERTEX
8
R2V
62
0
70
32
10
4.689655
20
10.034483
30
0
0
VERTEX
8
R2V
62
0
70
32
10
5.655172
20
10.103448
30
0
0
VERTEX
8
R2V
62
0
70
32
10
5.793103
20
9.172414
30
0
0
VERTEX
8
R2V
62
0
70
32
10
5.724138
20
9.172414
30
0
0
VERTEX
8
R2V
62
0
70
32
10
5.793103
20
6.931034
30
0
0
VERTEX
8
R2V
62
0
70
32
10
5.827586
20
6.931034
30
0
0
VERTEX
8
R2V
62
0
70
32
10
6.275862
20
6.379310
30
0
0
VERTEX
8
R2V
62
0
70
32
10
6.310345
20
5.206897
30
0
0
VERTEX
8
R2V
62
0
70
32
10
6.379310
20
5.206897
30
0
0
VERTEX
8
R2V
62
0
70
32
10
6.896552
20
4.896552
30
0
0
VERTEX
8
R2V
62
0
70
32
10
7.137931
20
4.620690
30
0
0
VERTEX
8
R2V
62
0
70
32
10
7.206897
20
4.620690
30
0
0
VERTEX
8
R2V
62
0
70
32
10
7.310345
20
4.448276
30
0
0
VERTEX
8
R2V
62
0
70
32
10
7.275862
20
3.413793
30
0
0
VERTEX
8
R2V
62
0
70
32
10
8.241379
20
3.413793
30
0
0
VERTEX
8
R2V
62
0
70
32
10
8.241379
20
3.655172
30
0
0
VERTEX
8
R2V
62
0
70
32
10
8.379310
20
3.655172
30
0
0
VERTEX
8
R2V
62
0
70
32
10
8.379310
20
3.413793
30
0
0
VERTEX
8
R2V
62
0
70
32
10
9.310345
20
3.413793
30
0
0
VERTEX
8
R2V
62
0
70
32
10
9.344828
20
2.896552
30
0
0
VERTEX
8
R2V
62
0
70
32
10
9.275862
20
2.896552
30
0
0
VERTEX
8
R2V
62
0
70
32
10
9.241379
20
1.793103
30
0
0
VERTEX
8
R2V
62
0
70
32
10
9.241379
20
2.931034
30
0
0
VERTEX
8
R2V
62
0
70
32
10
6.862069
20
2.965517
30
0
0
VERTEX
8
R2V
62
0
70
32
10
6.862069
20
2.206897
30
0
0
VERTEX
8
R2V
62
0
70
32
10
4.827586
20
2.172414
30
0
0
VERTEX
8
R2V
62
0
70
32
10
4.758621
20
2.103448
30
0
0
VERTEX
8
R2V
62
0
70
32
10
2.931034
20
2.068966
30
0
0
VERTEX
8
R2V
62
0
70
32
10
2.827586
20
2.000000
30
0
0
VERTEX
8
R2V
62
0
70
32
10
1.172414
20
2.000000
30
0
0
VERTEX
8
R2V
62
0
70
32
10
1.241379
20
8.000000
30
0
0
VERTEX
8
R2V
62
0
70
32
10
1.172414
20
8.034483
30
0
0
VERTEX
8
R2V
62
0
70
32
10
1.517241
20
8.379310
30
0
0
VERTEX
8
R2V
62
0
70
32
10
1.689655
20
8.482759
30
0
0
VERTEX
8
R2V
62
0
70
32
10
1.931034
20
8.758621
30
0
0
VERTEX
8
R2V
62
0
70
32
10
2.068966
20
8.827586
30
0
0
VERTEX
8
R2V
62
0
70
32
10
2.379310
20
9.137931
30
0
0
VERTEX
8
R2V
62
0
70
32
10
2.379310
20
9.482759
30
0
0
VERTEX
8
R2V
62
0
70
32
10
2.310345
20
9.517241
30
0
0
VERTEX
8
R2V
62
0
70
32
10
2.655172
20
9.862069
30
0
0
VERTEX
8
R2V
62
0
70
32
10
2.793103
20
9.931034
30
0
0
VERTEX
8
R2V
62
0
70
32
10
2.931034
20
10.068966
30
0
0
VERTEX
8
R2V
62
0
70
32
10
3.172414
20
9.931034
30
0
0
VERTEX
8
R2V
62
0
70
32
10
3.724138
20
10.000000
30
0
0
VERTEX
8
R2V
62
0
70
32
10
3.724138
20
10.103448
30
0
0
VERTEX
8
R2V
62
0
70
32
10
3.655172
20
10.103448
30
0
0
VERTEX
8
R2V
62
0
70
32
10
3.689655
20
10.241379
30
0
0
VERTEX
8
R2V
62
0
70
32
10
3.896552
20
10.241379
30
0
0
VERTEX
8
R2V
62
0
70
32
10
3.931034
20
10.103448
30
0
0
VERTEX
8
R2V
62
0
70
32
10
3.862069
20
10.103448
30
0
0
VERTEX
8
R2V
62
0
70
32
10
3.862069
20
10.000000
30
0
0
VERTEX
8
R2V
62
0
70
32
10
4.586207
20
10.034483
30
0
0
VERTEX
8
R2V
62
0
70
32
10
4.586207
20
10.172414
30
0
0
VERTEX
8
R2V
62
0
70
32
10
4.482759
20
10.206897
30
0
0
VERTEX
8
R2V
62
0
70
32
10
4.551724
20
10.310345
30
0
0
VERTEX
8
R2V
62
0
70
32
10
4.517241
20
10.344828
30
0
0
VERTEX
8
R2V
62
0
70
32
10
4.758621
20
10.344828
30
0
0
SEQEND
0
ENDSEC
0
EOF
