  0
SECTION
  2
HEADER
  9
$ACADVER
  1
AC1006
  0
ENDSEC
  0
SECTION
  2
TABLES
  0
TABLE
  2
LTYPE
 70
    25
  0
LTYPE
  2
CONTINUOUS
 70
    64
  3
Solid line
 72
    64
 73
     0
 40
0.000000
  0
LTYPE
  2
DASHDOT
 70
    64
  3
__ . __ . __ . __ . __ . __ . __ . __ . __ . __
 72
    65
 73
     4
 40
1.000000
 49
0.500000
 49
-0.250000
 49
0.000000
 49
-0.250000
  0
LTYPE
  2
DASHED
 70
    64
  3
__ __ __ __ __ __ __ __ __ __ __ __ __ __ __ __
 72
    65
 73
     2
 40
0.750000
 49
0.500000
 49
-0.250000
  0
LTYPE
  2
DIVIDE
 70
    64
  3
____ . . ____ . . ____ . . ____ . . ____ . . __
 72
    65
 73
     6
 40
1.250000
 49
0.500000
 49
-0.250000
 49
0.000000
 49
-0.250000
 49
0.000000
 49
-0.250000
  0
LTYPE
  2
DOT
 70
    64
  3
. . . . . . . . . . . . . . . . . . . . . . . . 
 72
    65
 73
     2
 40
0.250000
 49
0.000000
 49
-0.250000
  0
ENDTAB
  0
ENDSEC
  0
SECTION
  2
ENTITIES
  0
LINE
  8
0
 62
     7
  6
CONTINUOUS
 10
-6.460788
 20
-6.460788
 30
0.000000
 11
-2.364812
 21
-8.825600
 31
0.000000
  0
LINE
  8
0
 62
     7
  6
CONTINUOUS
 10
2.364812
 20
-8.825600
 30
0.000000
 11
-2.364812
 21
-8.825600
 31
0.000000
  0
LINE
  8
0
 62
     7
  6
CONTINUOUS
 10
2.364812
 20
-8.825600
 30
0.000000
 11
6.460788
 21
-6.460788
 31
0.000000
  0
LINE
  8
0
 62
     7
  6
CONTINUOUS
 10
6.460788
 20
-6.460788
 30
0.000000
 11
8.825600
 21
-2.364812
 31
0.000000
  0
LINE
  8
0
 62
     7
  6
CONTINUOUS
 10
8.825600
 20
-2.364812
 30
0.000000
 11
8.825600
 21
2.364812
 31
0.000000
  0
LINE
  8
0
 62
     7
  6
CONTINUOUS
 10
6.460788
 20
6.460788
 30
0.000000
 11
8.825600
 21
2.364812
 31
0.000000
  0
LINE
  8
0
 62
     7
  6
CONTINUOUS
 10
6.460788
 20
6.460788
 30
0.000000
 11
2.364812
 21
8.825600
 31
0.000000
  0
LINE
  8
0
 62
     7
  6
CONTINUOUS
 10
2.364812
 20
8.825600
 30
0.000000
 11
-2.364812
 21
8.825600
 31
0.000000
  0
LINE
  8
0
 62
     7
  6
CONTINUOUS
 10
-2.364812
 20
8.825600
 30
0.000000
 11
-6.460788
 21
6.460788
 31
0.000000
  0
LINE
  8
0
 62
     7
  6
CONTINUOUS
 10
-6.460788
 20
6.460788
 30
0.000000
 11
-8.825600
 21
2.364812
 31
0.000000
  0
LINE
  8
0
 62
     7
  6
CONTINUOUS
 10
-8.825600
 20
2.364812
 30
0.000000
 11
-8.825600
 21
-2.364812
 31
0.000000
  0
LINE
  8
0
 62
     7
  6
CONTINUOUS
 10
-6.460788
 20
-6.460788
 30
0.000000
 11
-8.825600
 21
-2.364812
 31
0.000000
  0
CIRCLE
  8
0
 62
     7
  6
CONTINUOUS
 10
-6.076887
 20
-6.068247
 30
0.000000
 40
0.197000
  0
CIRCLE
  8
0
 62
     5
  6
CONTINUOUS
 10
-5.594933
 20
-6.346504
 30
0.000000
 40
0.197000
  0
CIRCLE
  8
0
 62
     7
  6
CONTINUOUS
 10
-5.112979
 20
-6.624760
 30
0.000000
 40
0.197000
  0
CIRCLE
  8
0
 62
     7
  6
CONTINUOUS
 10
-4.631024
 20
-6.903017
 30
0.000000
 40
0.197000
  0
CIRCLE
  8
0
 62
     7
  6
CONTINUOUS
 10
-4.149070
 20
-7.181273
 30
0.000000
 40
0.197000
  0
CIRCLE
  8
0
 62
     7
  6
CONTINUOUS
 10
-4.149028
 20
-7.181297
 30
0.000000
 40
0.197000
  0
CIRCLE
  8
0
 62
     7
  6
CONTINUOUS
 10
-3.667116
 20
-7.459529
 30
0.000000
 40
0.197000
  0
CIRCLE
  8
0
 62
     5
  6
CONTINUOUS
 10
-3.870112
 20
-6.698313
 30
0.000000
 40
0.197000
  0
CIRCLE
  8
0
 62
     5
  6
CONTINUOUS
 10
-3.593023
 20
-6.218490
 30
0.000000
 40
0.197000
  0
CIRCLE
  8
0
 62
     5
  6
CONTINUOUS
 10
-3.315934
 20
-5.738667
 30
0.000000
 40
0.197000
  0
CIRCLE
  8
0
 62
     5
  6
CONTINUOUS
 10
-3.038844
 20
-5.258844
 30
0.000000
 40
0.197000
  0
CIRCLE
  8
0
 62
     7
  6
CONTINUOUS
 10
-4.689614
 20
-3.665971
 30
0.000000
 40
0.197000
  0
CIRCLE
  8
0
 62
     7
  6
CONTINUOUS
 10
-4.412524
 20
-3.186148
 30
0.000000
 40
0.197000
  0
CIRCLE
  8
0
 62
     7
  6
CONTINUOUS
 10
-8.293009
 20
-2.223488
 30
0.000000
 40
0.197000
  0
CIRCLE
  8
0
 62
     7
  6
CONTINUOUS
 10
-7.738970
 20
-2.223488
 30
0.000000
 40
0.197000
  0
CIRCLE
  8
0
 62
     7
  6
CONTINUOUS
 10
-7.184239
 20
-2.223488
 30
0.000000
 40
0.197000
  0
CIRCLE
  8
0
 62
     7
  6
CONTINUOUS
 10
-6.629509
 20
-2.223488
 30
0.000000
 40
0.197000
  0
CIRCLE
  8
0
 62
     7
  6
CONTINUOUS
 10
-6.074779
 20
-2.223488
 30
0.000000
 40
0.197000
  0
CIRCLE
  8
0
 62
     7
  6
CONTINUOUS
 10
-5.520048
 20
-2.223488
 30
0.000000
 40
0.197000
  0
CIRCLE
  8
0
 62
     7
  6
CONTINUOUS
 10
-4.965318
 20
-2.223488
 30
0.000000
 40
0.197000
  0
CIRCLE
  8
0
 62
     7
  6
CONTINUOUS
 10
-4.410588
 20
-2.223488
 30
0.000000
 40
0.197000
  0
CIRCLE
  8
0
 62
     7
  6
CONTINUOUS
 10
-3.855857
 20
-2.223488
 30
0.000000
 40
0.197000
  0
CIRCLE
  8
0
 62
     7
  6
CONTINUOUS
 10
-4.135435
 20
-2.706326
 30
0.000000
 40
0.197000
  0
CIRCLE
  8
0
 62
    12
  6
CONTINUOUS
 10
-6.073715
 20
0.002294
 30
0.000000
 40
0.197000
  0
CIRCLE
  8
0
 62
    12
  6
CONTINUOUS
 10
-6.627798
 20
0.002349
 30
0.000000
 40
0.197000
  0
CIRCLE
  8
0
 62
    12
  6
CONTINUOUS
 10
-7.181882
 20
0.002404
 30
0.000000
 40
0.197000
  0
CIRCLE
  8
0
 62
    12
  6
CONTINUOUS
 10
-7.735965
 20
0.002459
 30
0.000000
 40
0.197000
  0
CIRCLE
  8
0
 62
     7
  6
CONTINUOUS
 10
-8.293700
 20
-0.553949
 30
0.000000
 40
0.197000
  0
CIRCLE
  8
0
 62
     7
  6
CONTINUOUS
 10
-8.293700
 20
0.002515
 30
0.000000
 40
0.197000
  0
CIRCLE
  8
0
 62
     7
  6
CONTINUOUS
 10
-8.293700
 20
0.002564
 30
0.000000
 40
0.197000
  0
CIRCLE
  8
0
 62
     7
  6
CONTINUOUS
 10
-8.293700
 20
0.559076
 30
0.000000
 40
0.197000
  0
CIRCLE
  8
0
 62
     7
  6
CONTINUOUS
 10
-8.293700
 20
1.115589
 30
0.000000
 40
0.197000
  0
CIRCLE
  8
0
 62
    12
  6
CONTINUOUS
 10
-8.293700
 20
1.672102
 30
0.000000
 40
0.197000
  0
CIRCLE
  8
0
 62
     7
  6
CONTINUOUS
 10
-8.293700
 20
2.228615
 30
0.000000
 40
0.197000
  0
CIRCLE
  8
0
 62
     7
  6
CONTINUOUS
 10
-7.735965
 20
2.228559
 30
0.000000
 40
0.197000
  0
CIRCLE
  8
0
 62
     7
  6
CONTINUOUS
 10
-7.181882
 20
2.228504
 30
0.000000
 40
0.197000
  0
CIRCLE
  8
0
 62
     7
  6
CONTINUOUS
 10
-6.627798
 20
2.228449
 30
0.000000
 40
0.197000
  0
CIRCLE
  8
0
 62
     7
  6
CONTINUOUS
 10
-6.073715
 20
2.228394
 30
0.000000
 40
0.197000
  0
CIRCLE
  8
0
 62
     7
  6
CONTINUOUS
 10
-5.519631
 20
2.228339
 30
0.000000
 40
0.197000
  0
CIRCLE
  8
0
 62
     7
  6
CONTINUOUS
 10
-4.965548
 20
2.228284
 30
0.000000
 40
0.197000
  0
CIRCLE
  8
0
 62
     7
  6
CONTINUOUS
 10
-4.411464
 20
2.228229
 30
0.000000
 40
0.197000
  0
CIRCLE
  8
0
 62
     7
  6
CONTINUOUS
 10
-4.130891
 20
2.707937
 30
0.000000
 40
0.197000
  0
CIRCLE
  8
0
 62
     7
  6
CONTINUOUS
 10
-3.853525
 20
2.227527
 30
0.000000
 40
0.197000
  0
CIRCLE
  8
0
 62
     7
  6
CONTINUOUS
 10
-4.408256
 20
3.188348
 30
0.000000
 40
0.197000
  0
CIRCLE
  8
0
 62
     7
  6
CONTINUOUS
 10
-6.072101
 20
6.070212
 30
0.000000
 40
0.197000
  0
CIRCLE
  8
0
 62
     7
  6
CONTINUOUS
 10
-5.795082
 20
5.590401
 30
0.000000
 40
0.197000
  0
CIRCLE
  8
0
 62
     7
  6
CONTINUOUS
 10
-5.517716
 20
5.109990
 30
0.000000
 40
0.197000
  0
CIRCLE
  8
0
 62
     7
  6
CONTINUOUS
 10
-5.240351
 20
4.629579
 30
0.000000
 40
0.197000
  0
CIRCLE
  8
0
 62
     7
  6
CONTINUOUS
 10
-4.962986
 20
4.149169
 30
0.000000
 40
0.197000
  0
CIRCLE
  8
0
 62
     7
  6
CONTINUOUS
 10
-4.685621
 20
3.668758
 30
0.000000
 40
0.197000
  0
CIRCLE
  8
0
 62
     2
  6
CONTINUOUS
 10
-3.034871
 20
5.261138
 30
0.000000
 40
0.197000
  0
CIRCLE
  8
0
 62
     2
  6
CONTINUOUS
 10
-3.311865
 20
5.741016
 30
0.000000
 40
0.197000
  0
CIRCLE
  8
0
 62
     2
  6
CONTINUOUS
 10
-3.588859
 20
6.220894
 30
0.000000
 40
0.197000
  0
CIRCLE
  8
0
 62
     2
  6
CONTINUOUS
 10
-3.865853
 20
6.700772
 30
0.000000
 40
0.197000
  0
CIRCLE
  8
0
 62
     7
  6
CONTINUOUS
 10
-4.144672
 20
7.183812
 30
0.000000
 40
0.197000
  0
CIRCLE
  8
0
 62
     7
  6
CONTINUOUS
 10
-4.626584
 20
6.905580
 30
0.000000
 40
0.197000
  0
CIRCLE
  8
0
 62
     7
  6
CONTINUOUS
 10
-5.108538
 20
6.627324
 30
0.000000
 40
0.197000
  0
CIRCLE
  8
0
 62
     7
  6
CONTINUOUS
 10
-5.590492
 20
6.349068
 30
0.000000
 40
0.197000
  0
CIRCLE
  8
0
 62
     2
  6
CONTINUOUS
 10
-6.903210
 20
4.630690
 30
0.000000
 40
0.197000
  0
CIRCLE
  8
0
 62
     2
  6
CONTINUOUS
 10
-7.182496
 20
4.146952
 30
0.000000
 40
0.197000
  0
CIRCLE
  8
0
 62
     2
  6
CONTINUOUS
 10
-6.733211
 20
3.895854
 30
0.000000
 40
0.197000
  0
CIRCLE
  8
0
 62
     2
  6
CONTINUOUS
 10
-7.462508
 20
3.661957
 30
0.000000
 40
0.197000
  0
CIRCLE
  8
0
 62
     7
  6
CONTINUOUS
 10
-3.662676
 20
7.462093
 30
0.000000
 40
0.197000
  0
CIRCLE
  8
0
 62
     7
  6
CONTINUOUS
 10
-3.180721
 20
7.740350
 30
0.000000
 40
0.197000
  0
CIRCLE
  8
0
 62
     2
  6
CONTINUOUS
 10
-2.698767
 20
8.018606
 30
0.000000
 40
0.197000
  0
CIRCLE
  8
0
 62
     7
  6
CONTINUOUS
 10
-2.216813
 20
8.296862
 30
0.000000
 40
0.197000
  0
CIRCLE
  8
0
 62
     7
  6
CONTINUOUS
 10
-1.937994
 20
7.813822
 30
0.000000
 40
0.197000
  0
CIRCLE
  8
0
 62
     7
  6
CONTINUOUS
 10
-1.660999
 20
7.333944
 30
0.000000
 40
0.197000
  0
CIRCLE
  8
0
 62
     7
  6
CONTINUOUS
 10
-1.384005
 20
6.854066
 30
0.000000
 40
0.197000
  0
CIRCLE
  8
0
 62
     7
  6
CONTINUOUS
 10
1.111793
 20
6.372656
 30
0.000000
 40
0.197000
  0
CIRCLE
  8
0
 62
     7
  6
CONTINUOUS
 10
1.389158
 20
6.853067
 30
0.000000
 40
0.197000
  0
CIRCLE
  8
0
 62
     7
  6
CONTINUOUS
 10
1.666523
 20
7.333478
 30
0.000000
 40
0.197000
  0
CIRCLE
  8
0
 62
     7
  6
CONTINUOUS
 10
1.943888
 20
7.813888
 30
0.000000
 40
0.197000
  0
CIRCLE
  8
0
 62
     7
  6
CONTINUOUS
 10
2.220908
 20
8.293700
 30
0.000000
 40
0.197000
  0
CIRCLE
  8
0
 62
     7
  6
CONTINUOUS
 10
2.703208
 20
8.016042
 30
0.000000
 40
0.197000
  0
CIRCLE
  8
0
 62
     7
  6
CONTINUOUS
 10
3.185162
 20
7.737786
 30
0.000000
 40
0.197000
  0
CIRCLE
  8
0
 62
     7
  6
CONTINUOUS
 10
3.667116
 20
7.459529
 30
0.000000
 40
0.197000
  0
LINE
  8
0
 62
     7
  6
CONTINUOUS
 10
4.241513
 20
7.341450
 30
0.000000
 11
4.247545
 21
7.351895
 31
0.000000
  0
CIRCLE
  8
0
 62
     7
  6
CONTINUOUS
 10
4.149070
 20
7.181273
 30
0.000000
 40
0.197000
  0
CIRCLE
  8
0
 62
     7
  6
CONTINUOUS
 10
4.149028
 20
7.181297
 30
0.000000
 40
0.197000
  0
CIRCLE
  8
0
 62
     7
  6
CONTINUOUS
 10
4.631024
 20
6.903017
 30
0.000000
 40
0.197000
  0
CIRCLE
  8
0
 62
     7
  6
CONTINUOUS
 10
5.112979
 20
6.624760
 30
0.000000
 40
0.197000
  0
CIRCLE
  8
0
 62
     3
  6
CONTINUOUS
 10
5.594933
 20
6.346504
 30
0.000000
 40
0.197000
  0
LINE
  8
0
 62
     7
  6
CONTINUOUS
 10
6.169372
 20
6.228400
 30
0.000000
 11
6.175404
 21
6.238845
 31
0.000000
  0
CIRCLE
  8
0
 62
     7
  6
CONTINUOUS
 10
6.076887
 20
6.068247
 30
0.000000
 40
0.197000
  0
CIRCLE
  8
0
 62
     7
  6
CONTINUOUS
 10
5.797972
 20
5.585263
 30
0.000000
 40
0.197000
  0
CIRCLE
  8
0
 62
     7
  6
CONTINUOUS
 10
5.520882
 20
5.105440
 30
0.000000
 40
0.197000
  0
CIRCLE
  8
0
 62
     7
  6
CONTINUOUS
 10
5.243793
 20
4.625617
 30
0.000000
 40
0.197000
  0
CIRCLE
  8
0
 62
     7
  6
CONTINUOUS
 10
4.966703
 20
4.145794
 30
0.000000
 40
0.197000
  0
CIRCLE
  8
0
 62
     7
  6
CONTINUOUS
 10
4.689614
 20
3.665971
 30
0.000000
 40
0.197000
  0
CIRCLE
  8
0
 62
     7
  6
CONTINUOUS
 10
4.412524
 20
3.186148
 30
0.000000
 40
0.197000
  0
CIRCLE
  8
0
 62
     7
  6
CONTINUOUS
 10
4.135435
 20
2.706326
 30
0.000000
 40
0.197000
  0
CIRCLE
  8
0
 62
     7
  6
CONTINUOUS
 10
3.855857
 20
2.223488
 30
0.000000
 40
0.197000
  0
CIRCLE
  8
0
 62
     7
  6
CONTINUOUS
 10
4.410588
 20
2.223488
 30
0.000000
 40
0.197000
  0
CIRCLE
  8
0
 62
     7
  6
CONTINUOUS
 10
4.965318
 20
2.223488
 30
0.000000
 40
0.197000
  0
CIRCLE
  8
0
 62
     7
  6
CONTINUOUS
 10
5.520048
 20
2.223488
 30
0.000000
 40
0.197000
  0
CIRCLE
  8
0
 62
     7
  6
CONTINUOUS
 10
6.074779
 20
2.223488
 30
0.000000
 40
0.197000
  0
CIRCLE
  8
0
 62
     7
  6
CONTINUOUS
 10
6.629509
 20
2.223488
 30
0.000000
 40
0.197000
  0
CIRCLE
  8
0
 62
     7
  6
CONTINUOUS
 10
7.184239
 20
2.223488
 30
0.000000
 40
0.197000
  0
CIRCLE
  8
0
 62
     4
  6
CONTINUOUS
 10
7.461900
 20
3.663010
 30
0.000000
 40
0.197000
  0
CIRCLE
  8
0
 62
     4
  6
CONTINUOUS
 10
7.182614
 20
4.146748
 30
0.000000
 40
0.197000
  0
CIRCLE
  8
0
 62
     4
  6
CONTINUOUS
 10
6.740514
 20
3.883205
 30
0.000000
 40
0.197000
  0
CIRCLE
  8
0
 62
     4
  6
CONTINUOUS
 10
6.902602
 20
4.631743
 30
0.000000
 40
0.197000
  0
CIRCLE
  8
0
 62
     3
  6
CONTINUOUS
 10
3.870112
 20
6.698313
 30
0.000000
 40
0.197000
  0
CIRCLE
  8
0
 62
     3
  6
CONTINUOUS
 10
3.593023
 20
6.218490
 30
0.000000
 40
0.197000
  0
CIRCLE
  8
0
 62
     7
  6
CONTINUOUS
 10
7.738970
 20
2.223488
 30
0.000000
 40
0.197000
  0
CIRCLE
  8
0
 62
     7
  6
CONTINUOUS
 10
8.293009
 20
2.223488
 30
0.000000
 40
0.197000
  0
CIRCLE
  8
0
 62
     7
  6
CONTINUOUS
 10
8.293700
 20
1.666975
 30
0.000000
 40
0.197000
  0
CIRCLE
  8
0
 62
     7
  6
CONTINUOUS
 10
8.293700
 20
1.110462
 30
0.000000
 40
0.197000
  0
CIRCLE
  8
0
 62
     7
  6
CONTINUOUS
 10
8.293700
 20
0.553949
 30
0.000000
 40
0.197000
  0
CIRCLE
  8
0
 62
     7
  6
CONTINUOUS
 10
8.293700
 20
-0.002515
 30
0.000000
 40
0.197000
  0
CIRCLE
  8
0
 62
     7
  6
CONTINUOUS
 10
8.293700
 20
-0.002564
 30
0.000000
 40
0.197000
  0
CIRCLE
  8
0
 62
     4
  6
CONTINUOUS
 10
7.735965
 20
-0.002459
 30
0.000000
 40
0.197000
  0
CIRCLE
  8
0
 62
     3
  6
CONTINUOUS
 10
3.315934
 20
5.738667
 30
0.000000
 40
0.197000
  0
CIRCLE
  8
0
 62
     3
  6
CONTINUOUS
 10
3.038844
 20
5.258844
 30
0.000000
 40
0.197000
  0
CIRCLE
  8
0
 62
     7
  6
CONTINUOUS
 10
-1.107011
 20
6.374188
 30
0.000000
 40
0.197000
  0
CIRCLE
  8
0
 62
     7
  6
CONTINUOUS
 10
8.293700
 20
-0.559076
 30
0.000000
 40
0.197000
  0
CIRCLE
  8
0
 62
     7
  6
CONTINUOUS
 10
8.293700
 20
-1.115589
 30
0.000000
 40
0.197000
  0
CIRCLE
  8
0
 62
     4
  6
CONTINUOUS
 10
8.293700
 20
-1.672102
 30
0.000000
 40
0.197000
  0
CIRCLE
  8
0
 62
     7
  6
CONTINUOUS
 10
8.293700
 20
-2.228615
 30
0.000000
 40
0.197000
  0
CIRCLE
  8
0
 62
     7
  6
CONTINUOUS
 10
7.735965
 20
-2.228559
 30
0.000000
 40
0.197000
  0
CIRCLE
  8
0
 62
     7
  6
CONTINUOUS
 10
-0.830017
 20
5.894310
 30
0.000000
 40
0.197000
  0
CIRCLE
  8
0
 62
     7
  6
CONTINUOUS
 10
-0.553023
 20
5.414432
 30
0.000000
 40
0.197000
  0
CIRCLE
  8
0
 62
     7
  6
CONTINUOUS
 10
-0.276029
 20
4.934554
 30
0.000000
 40
0.197000
  0
CIRCLE
  8
0
 62
     7
  6
CONTINUOUS
 10
0.002332
 20
4.451014
 30
0.000000
 40
0.197000
  0
CIRCLE
  8
0
 62
     7
  6
CONTINUOUS
 10
0.279697
 20
4.931425
 30
0.000000
 40
0.197000
  0
CIRCLE
  8
0
 62
     7
  6
CONTINUOUS
 10
0.557062
 20
5.411835
 30
0.000000
 40
0.197000
  0
CIRCLE
  8
0
 62
     7
  6
CONTINUOUS
 10
0.834427
 20
5.892246
 30
0.000000
 40
0.197000
  0
CIRCLE
  8
0
 62
     3
  6
CONTINUOUS
 10
0.007303
 20
7.779059
 30
0.000000
 40
0.197000
  0
CIRCLE
  8
0
 62
     7
  6
CONTINUOUS
 10
4.408256
 20
-3.188348
 30
0.000000
 40
0.197000
  0
CIRCLE
  8
0
 62
     7
  6
CONTINUOUS
 10
4.685621
 20
-3.668758
 30
0.000000
 40
0.197000
  0
CIRCLE
  8
0
 62
     7
  6
CONTINUOUS
 10
4.962986
 20
-4.149169
 30
0.000000
 40
0.197000
  0
CIRCLE
  8
0
 62
     7
  6
CONTINUOUS
 10
5.240351
 20
-4.629579
 30
0.000000
 40
0.197000
  0
CIRCLE
  8
0
 62
     7
  6
CONTINUOUS
 10
5.517716
 20
-5.109990
 30
0.000000
 40
0.197000
  0
CIRCLE
  8
0
 62
     7
  6
CONTINUOUS
 10
5.795082
 20
-5.590401
 30
0.000000
 40
0.197000
  0
CIRCLE
  8
0
 62
     7
  6
CONTINUOUS
 10
6.072101
 20
-6.070212
 30
0.000000
 40
0.197000
  0
CIRCLE
  8
0
 62
     7
  6
CONTINUOUS
 10
5.590492
 20
-6.349068
 30
0.000000
 40
0.197000
  0
CIRCLE
  8
0
 62
     7
  6
CONTINUOUS
 10
5.108538
 20
-6.627324
 30
0.000000
 40
0.197000
  0
CIRCLE
  8
0
 62
     7
  6
CONTINUOUS
 10
4.626584
 20
-6.905580
 30
0.000000
 40
0.197000
  0
CIRCLE
  8
0
 62
     7
  6
CONTINUOUS
 10
4.144672
 20
-7.183812
 30
0.000000
 40
0.197000
  0
CIRCLE
  8
0
 62
     7
  6
CONTINUOUS
 10
4.144630
 20
-7.183837
 30
0.000000
 40
0.197000
  0
CIRCLE
  8
0
 62
     7
  6
CONTINUOUS
 10
3.662676
 20
-7.462093
 30
0.000000
 40
0.197000
  0
CIRCLE
  8
0
 62
     7
  6
CONTINUOUS
 10
3.180721
 20
-7.740350
 30
0.000000
 40
0.197000
  0
CIRCLE
  8
0
 62
     1
  6
CONTINUOUS
 10
2.698767
 20
-8.018606
 30
0.000000
 40
0.197000
  0
CIRCLE
  8
0
 62
     7
  6
CONTINUOUS
 10
2.216813
 20
-8.296862
 30
0.000000
 40
0.197000
  0
CIRCLE
  8
0
 62
     7
  6
CONTINUOUS
 10
1.937994
 20
-7.813822
 30
0.000000
 40
0.197000
  0
CIRCLE
  8
0
 62
     7
  6
CONTINUOUS
 10
1.660999
 20
-7.333944
 30
0.000000
 40
0.197000
  0
CIRCLE
  8
0
 62
     7
  6
CONTINUOUS
 10
1.384005
 20
-6.854066
 30
0.000000
 40
0.197000
  0
CIRCLE
  8
0
 62
     7
  6
CONTINUOUS
 10
1.107011
 20
-6.374188
 30
0.000000
 40
0.197000
  0
CIRCLE
  8
0
 62
     7
  6
CONTINUOUS
 10
0.830017
 20
-5.894310
 30
0.000000
 40
0.197000
  0
CIRCLE
  8
0
 62
     7
  6
CONTINUOUS
 10
0.553023
 20
-5.414432
 30
0.000000
 40
0.197000
  0
CIRCLE
  8
0
 62
     7
  6
CONTINUOUS
 10
0.276029
 20
-4.934554
 30
0.000000
 40
0.197000
  0
CIRCLE
  8
0
 62
     7
  6
CONTINUOUS
 10
-0.002332
 20
-4.451014
 30
0.000000
 40
0.197000
  0
CIRCLE
  8
0
 62
     7
  6
CONTINUOUS
 10
-0.279697
 20
-4.931425
 30
0.000000
 40
0.197000
  0
CIRCLE
  8
0
 62
     7
  6
CONTINUOUS
 10
-0.557062
 20
-5.411835
 30
0.000000
 40
0.197000
  0
CIRCLE
  8
0
 62
     7
  6
CONTINUOUS
 10
-0.834427
 20
-5.892246
 30
0.000000
 40
0.197000
  0
CIRCLE
  8
0
 62
     7
  6
CONTINUOUS
 10
-1.111793
 20
-6.372656
 30
0.000000
 40
0.197000
  0
CIRCLE
  8
0
 62
     7
  6
CONTINUOUS
 10
-1.389158
 20
-6.853067
 30
0.000000
 40
0.197000
  0
CIRCLE
  8
0
 62
     7
  6
CONTINUOUS
 10
-1.666523
 20
-7.333478
 30
0.000000
 40
0.197000
  0
CIRCLE
  8
0
 62
     7
  6
CONTINUOUS
 10
-1.943888
 20
-7.813888
 30
0.000000
 40
0.197000
  0
CIRCLE
  8
0
 62
     7
  6
CONTINUOUS
 10
-2.220908
 20
-8.293700
 30
0.000000
 40
0.197000
  0
CIRCLE
  8
0
 62
     7
  6
CONTINUOUS
 10
-2.703208
 20
-8.016042
 30
0.000000
 40
0.197000
  0
CIRCLE
  8
0
 62
     7
  6
CONTINUOUS
 10
-3.185162
 20
-7.737786
 30
0.000000
 40
0.197000
  0
CIRCLE
  8
0
 62
     5
  6
CONTINUOUS
 10
-0.558691
 20
-8.293700
 30
0.000000
 40
0.197000
  0
CIRCLE
  8
0
 62
     5
  6
CONTINUOUS
 10
-0.000117
 20
-8.293700
 30
0.000000
 40
0.197000
  0
CIRCLE
  8
0
 62
     5
  6
CONTINUOUS
 10
-0.007303
 20
-7.779059
 30
0.000000
 40
0.197000
  0
CIRCLE
  8
0
 62
     5
  6
CONTINUOUS
 10
0.559906
 20
-8.293700
 30
0.000000
 40
0.197000
  0
CIRCLE
  8
0
 62
     1
  6
CONTINUOUS
 10
3.311865
 20
-5.741016
 30
0.000000
 40
0.197000
  0
CIRCLE
  8
0
 62
     1
  6
CONTINUOUS
 10
3.588859
 20
-6.220894
 30
0.000000
 40
0.197000
  0
CIRCLE
  8
0
 62
     1
  6
CONTINUOUS
 10
3.865853
 20
-6.700772
 30
0.000000
 40
0.197000
  0
CIRCLE
  8
0
 62
     1
  6
CONTINUOUS
 10
3.034871
 20
-5.261138
 30
0.000000
 40
0.197000
  0
CIRCLE
  8
0
 62
     1
  6
CONTINUOUS
 10
6.733211
 20
-3.895854
 30
0.000000
 40
0.197000
  0
CIRCLE
  8
0
 62
     1
  6
CONTINUOUS
 10
7.182496
 20
-4.146952
 30
0.000000
 40
0.197000
  0
ARC
  8
0
 62
     7
  6
CONTINUOUS
 10
7.137450
 20
-4.224973
 30
0.000000
 40
0.197000
 50
356.816221
 51
357.226874
  0
CIRCLE
  8
0
 62
     1
  6
CONTINUOUS
 10
7.462508
 20
-3.661957
 30
0.000000
 40
0.197000
  0
CIRCLE
  8
0
 62
     1
  6
CONTINUOUS
 10
6.903210
 20
-4.630690
 30
0.000000
 40
0.197000
  0
CIRCLE
  8
0
 62
     3
  6
CONTINUOUS
 10
0.000117
 20
8.293700
 30
0.000000
 40
0.197000
  0
CIRCLE
  8
0
 62
     3
  6
CONTINUOUS
 10
0.558691
 20
8.293700
 30
0.000000
 40
0.197000
  0
CIRCLE
  8
0
 62
     3
  6
CONTINUOUS
 10
-0.559906
 20
8.293700
 30
0.000000
 40
0.197000
  0
CIRCLE
  8
0
 62
     7
  6
CONTINUOUS
 10
-8.293700
 20
-1.110462
 30
0.000000
 40
0.197000
  0
CIRCLE
  8
0
 62
     7
  6
CONTINUOUS
 10
-8.293700
 20
-1.666975
 30
0.000000
 40
0.197000
  0
CIRCLE
  8
0
 62
     7
  6
CONTINUOUS
 10
3.857381
 20
-2.228174
 30
0.000000
 40
0.197000
  0
CIRCLE
  8
0
 62
     7
  6
CONTINUOUS
 10
4.411464
 20
-2.228229
 30
0.000000
 40
0.197000
  0
CIRCLE
  8
0
 62
     7
  6
CONTINUOUS
 10
4.965548
 20
-2.228284
 30
0.000000
 40
0.197000
  0
CIRCLE
  8
0
 62
     7
  6
CONTINUOUS
 10
5.519631
 20
-2.228339
 30
0.000000
 40
0.197000
  0
CIRCLE
  8
0
 62
     7
  6
CONTINUOUS
 10
6.073715
 20
-2.228394
 30
0.000000
 40
0.197000
  0
CIRCLE
  8
0
 62
     7
  6
CONTINUOUS
 10
6.627798
 20
-2.228449
 30
0.000000
 40
0.197000
  0
CIRCLE
  8
0
 62
     7
  6
CONTINUOUS
 10
7.181882
 20
-2.228504
 30
0.000000
 40
0.197000
  0
CIRCLE
  8
0
 62
     4
  6
CONTINUOUS
 10
7.181882
 20
-0.002404
 30
0.000000
 40
0.197000
  0
CIRCLE
  8
0
 62
     4
  6
CONTINUOUS
 10
6.627798
 20
-0.002349
 30
0.000000
 40
0.197000
  0
CIRCLE
  8
0
 62
     4
  6
CONTINUOUS
 10
6.073715
 20
-0.002294
 30
0.000000
 40
0.197000
  0
CIRCLE
  8
0
 62
     7
  6
CONTINUOUS
 10
4.130891
 20
-2.707937
 30
0.000000
 40
0.197000
  0
CIRCLE
  8
0
 62
    12
  6
CONTINUOUS
 10
-7.461900
 20
-3.663010
 30
0.000000
 40
0.197000
  0
CIRCLE
  8
0
 62
    12
  6
CONTINUOUS
 10
-7.182614
 20
-4.146748
 30
0.000000
 40
0.197000
  0
CIRCLE
  8
0
 62
    12
  6
CONTINUOUS
 10
-6.740514
 20
-3.883205
 30
0.000000
 40
0.197000
  0
CIRCLE
  8
0
 62
    12
  6
CONTINUOUS
 10
-6.902602
 20
-4.631743
 30
0.000000
 40
0.197000
  0
CIRCLE
  8
0
 62
     7
  6
CONTINUOUS
 10
-5.797972
 20
-5.585263
 30
0.000000
 40
0.197000
  0
CIRCLE
  8
0
 62
     7
  6
CONTINUOUS
 10
-5.520882
 20
-5.105440
 30
0.000000
 40
0.197000
  0
CIRCLE
  8
0
 62
     7
  6
CONTINUOUS
 10
-5.243793
 20
-4.625617
 30
0.000000
 40
0.197000
  0
CIRCLE
  8
0
 62
     7
  6
CONTINUOUS
 10
-4.966703
 20
-4.145794
 30
0.000000
 40
0.197000
  0
ENDSEC
  0
EOF
