  0
SECTION
  2
HEADER
  9
$ACADVER
  1
AC1006
  0
ENDSEC
  0
SECTION
  2
TABLES
  0
TABLE
  2
LTYPE
 70
    25
  0
LTYPE
  2
CONTINUOUS
 70
    64
  3
Solid line
 72
    64
 73
     0
 40
0.000000
  0
LTYPE
  2
DASHDOT
 70
    64
  3
__ . __ . __ . __ . __ . __ . __ . __ . __ . __
 72
    65
 73
     4
 40
1.000000
 49
0.500000
 49
-0.250000
 49
0.000000
 49
-0.250000
  0
LTYPE
  2
DASHED
 70
    64
  3
__ __ __ __ __ __ __ __ __ __ __ __ __ __ __ __
 72
    65
 73
     2
 40
0.750000
 49
0.500000
 49
-0.250000
  0
LTYPE
  2
DIVIDE
 70
    64
  3
____ . . ____ . . ____ . . ____ . . ____ . . __
 72
    65
 73
     6
 40
1.250000
 49
0.500000
 49
-0.250000
 49
0.000000
 49
-0.250000
 49
0.000000
 49
-0.250000
  0
LTYPE
  2
DOT
 70
    64
  3
. . . . . . . . . . . . . . . . . . . . . . . . 
 72
    65
 73
     2
 40
0.250000
 49
0.000000
 49
-0.250000
  0
ENDTAB
  0
ENDSEC
  0
SECTION
  2
ENTITIES
  0
CIRCLE
  8
0
 62
     7
  6
CONTINUOUS
 10
8.252149
 20
-2.032405
 30
0.000000
 40
0.196987
  0
LINE
  8
0
 62
     7
  6
CONTINUOUS
 10
8.823410
 20
2.360351
 30
0.000000
 11
8.823410
 21
-2.367282
 31
0.000000
  0
LINE
  8
0
 62
     7
  6
CONTINUOUS
 10
8.821473
 20
-2.367581
 30
0.000000
 11
6.457656
 21
-6.461831
 31
0.000000
  0
LINE
  8
0
 62
     7
  6
CONTINUOUS
 10
6.455829
 20
-6.461121
 30
0.000000
 11
2.361578
 21
-8.824938
 31
0.000000
  0
LINE
  8
0
 62
     7
  6
CONTINUOUS
 10
-2.367282
 20
-8.823410
 30
0.000000
 11
2.360351
 21
-8.823410
 31
0.000000
  0
LINE
  8
0
 62
     7
  6
CONTINUOUS
 10
8.821473
 20
-2.367581
 30
0.000000
 11
6.457656
 21
-6.461831
 31
0.000000
  0
LINE
  8
0
 62
     7
  6
CONTINUOUS
 10
6.455829
 20
-6.461121
 30
0.000000
 11
2.361578
 21
-8.824938
 31
0.000000
  0
LINE
  8
0
 62
     7
  6
CONTINUOUS
 10
2.360351
 20
-8.823410
 30
0.000000
 11
-2.367282
 21
-8.823410
 31
0.000000
  0
LINE
  8
0
 62
     7
  6
CONTINUOUS
 10
-2.367581
 20
-8.821473
 30
0.000000
 11
-6.461831
 21
-6.457656
 31
0.000000
  0
LINE
  8
0
 62
     7
  6
CONTINUOUS
 10
-6.461121
 20
-6.455829
 30
0.000000
 11
-8.824938
 21
-2.361578
 31
0.000000
  0
LINE
  8
0
 62
     7
  6
CONTINUOUS
 10
-8.823410
 20
-2.360351
 30
0.000000
 11
-8.823410
 21
2.367282
 31
0.000000
  0
LINE
  8
0
 62
     7
  6
CONTINUOUS
 10
-8.821473
 20
2.367581
 30
0.000000
 11
-6.457656
 21
6.461831
 31
0.000000
  0
LINE
  8
0
 62
     7
  6
CONTINUOUS
 10
-6.455829
 20
6.461121
 30
0.000000
 11
-2.361578
 21
8.824938
 31
0.000000
  0
CIRCLE
  8
0
 62
     7
  6
CONTINUOUS
 10
7.405153
 20
-2.032405
 30
0.000000
 40
0.196987
  0
CIRCLE
  8
0
 62
     7
  6
CONTINUOUS
 10
6.558158
 20
-2.032405
 30
0.000000
 40
0.196987
  0
CIRCLE
  8
0
 62
     7
  6
CONTINUOUS
 10
5.711163
 20
-2.032405
 30
0.000000
 40
0.196987
  0
CIRCLE
  8
0
 62
     7
  6
CONTINUOUS
 10
4.864167
 20
-2.032405
 30
0.000000
 40
0.196987
  0
CIRCLE
  8
0
 62
     7
  6
CONTINUOUS
 10
4.017172
 20
-2.032405
 30
0.000000
 40
0.196987
  0
CIRCLE
  8
0
 62
     7
  6
CONTINUOUS
 10
3.175665
 20
-2.053344
 30
0.000000
 40
0.196987
  0
CIRCLE
  8
0
 62
     7
  6
CONTINUOUS
 10
2.441494
 20
-2.448011
 30
0.000000
 40
0.196987
  0
CIRCLE
  8
0
 62
     7
  6
CONTINUOUS
 10
2.050092
 20
-3.184202
 30
0.000000
 40
0.196987
  0
CIRCLE
  8
0
 62
     7
  6
CONTINUOUS
 10
2.030465
 20
-4.020008
 30
0.000000
 40
0.196987
  0
CIRCLE
  8
0
 62
     7
  6
CONTINUOUS
 10
2.030465
 20
-4.866009
 30
0.000000
 40
0.196987
  0
CIRCLE
  8
0
 62
     7
  6
CONTINUOUS
 10
2.030465
 20
-5.712011
 30
0.000000
 40
0.196987
  0
CIRCLE
  8
0
 62
     7
  6
CONTINUOUS
 10
2.030465
 20
-6.557420
 30
0.000000
 40
0.196987
  0
CIRCLE
  8
0
 62
     7
  6
CONTINUOUS
 10
2.030465
 20
-7.403422
 30
0.000000
 40
0.196987
  0
CIRCLE
  8
0
 62
     7
  6
CONTINUOUS
 10
2.030465
 20
-8.252149
 30
0.000000
 40
0.196987
  0
CIRCLE
  8
0
 62
     7
  6
CONTINUOUS
 10
1.015995
 20
-8.252149
 30
0.000000
 40
0.196987
  0
CIRCLE
  8
0
 62
     7
  6
CONTINUOUS
 10
0.001525
 20
-8.252149
 30
0.000000
 40
0.196987
  0
CIRCLE
  8
0
 62
     1
  6
CONTINUOUS
 10
6.832804
 20
-4.691075
 30
0.000000
 40
0.196987
  0
CIRCLE
  8
0
 62
     1
  6
CONTINUOUS
 10
6.127971
 20
-5.415638
 30
0.000000
 40
0.196987
  0
CIRCLE
  8
0
 62
     1
  6
CONTINUOUS
 10
5.422995
 20
-6.140348
 30
0.000000
 40
0.196987
  0
CIRCLE
  8
0
 62
     1
  6
CONTINUOUS
 10
4.700787
 20
-6.882771
 30
0.000000
 40
0.196987
  0
CIRCLE
  8
0
 62
     1
  6
CONTINUOUS
 10
-1.012945
 20
-8.252149
 30
0.000000
 40
0.196987
  0
CIRCLE
  8
0
 62
     1
  6
CONTINUOUS
 10
0.001525
 20
-4.192340
 30
0.000000
 40
0.196987
  0
CIRCLE
  8
0
 62
     1
  6
CONTINUOUS
 10
0.001525
 20
-5.207292
 30
0.000000
 40
0.196987
  0
CIRCLE
  8
0
 62
     1
  6
CONTINUOUS
 10
0.001525
 20
-6.222244
 30
0.000000
 40
0.196987
  0
CIRCLE
  8
0
 62
     1
  6
CONTINUOUS
 10
0.001525
 20
-7.237196
 30
0.000000
 40
0.196987
  0
CIRCLE
  8
0
 62
     7
  6
CONTINUOUS
 10
-2.027414
 20
-8.252149
 30
0.000000
 40
0.196987
  0
CIRCLE
  8
0
 62
     7
  6
CONTINUOUS
 10
-2.032405
 20
-8.252149
 30
0.000000
 40
0.196987
  0
LINE
  8
0
 62
     7
  6
CONTINUOUS
 10
2.360351
 20
-8.823410
 30
0.000000
 11
-2.367282
 21
-8.823410
 31
0.000000
  0
LINE
  8
0
 62
     7
  6
CONTINUOUS
 10
-2.367581
 20
-8.821473
 30
0.000000
 11
-6.461831
 21
-6.457656
 31
0.000000
  0
LINE
  8
0
 62
     7
  6
CONTINUOUS
 10
-6.461121
 20
-6.455829
 30
0.000000
 11
-8.824938
 21
-2.361578
 31
0.000000
  0
LINE
  8
0
 62
     7
  6
CONTINUOUS
 10
-8.823410
 20
2.367282
 30
0.000000
 11
-8.823410
 21
-2.360351
 31
0.000000
  0
CIRCLE
  8
0
 62
     7
  6
CONTINUOUS
 10
-2.032405
 20
-7.405153
 30
0.000000
 40
0.196987
  0
CIRCLE
  8
0
 62
     7
  6
CONTINUOUS
 10
-2.032405
 20
-6.558158
 30
0.000000
 40
0.196987
  0
CIRCLE
  8
0
 62
     7
  6
CONTINUOUS
 10
-2.032405
 20
-5.711163
 30
0.000000
 40
0.196987
  0
CIRCLE
  8
0
 62
     7
  6
CONTINUOUS
 10
-2.032405
 20
-4.864167
 30
0.000000
 40
0.196987
  0
CIRCLE
  8
0
 62
     7
  6
CONTINUOUS
 10
-2.032405
 20
-4.017172
 30
0.000000
 40
0.196987
  0
CIRCLE
  8
0
 62
     7
  6
CONTINUOUS
 10
-2.053344
 20
-3.175665
 30
0.000000
 40
0.196987
  0
CIRCLE
  8
0
 62
     7
  6
CONTINUOUS
 10
-2.448011
 20
-2.441494
 30
0.000000
 40
0.196987
  0
CIRCLE
  8
0
 62
     7
  6
CONTINUOUS
 10
-3.184202
 20
-2.050092
 30
0.000000
 40
0.196987
  0
CIRCLE
  8
0
 62
     7
  6
CONTINUOUS
 10
-4.020008
 20
-2.030465
 30
0.000000
 40
0.196987
  0
CIRCLE
  8
0
 62
     7
  6
CONTINUOUS
 10
-4.866009
 20
-2.030465
 30
0.000000
 40
0.196987
  0
CIRCLE
  8
0
 62
     7
  6
CONTINUOUS
 10
-5.712011
 20
-2.030465
 30
0.000000
 40
0.196987
  0
CIRCLE
  8
0
 62
     7
  6
CONTINUOUS
 10
-6.557420
 20
-2.030465
 30
0.000000
 40
0.196987
  0
CIRCLE
  8
0
 62
     7
  6
CONTINUOUS
 10
-7.403422
 20
-2.030465
 30
0.000000
 40
0.196987
  0
CIRCLE
  8
0
 62
     7
  6
CONTINUOUS
 10
-8.252149
 20
-2.030465
 30
0.000000
 40
0.196987
  0
CIRCLE
  8
0
 62
     7
  6
CONTINUOUS
 10
-8.252149
 20
-1.015995
 30
0.000000
 40
0.196987
  0
CIRCLE
  8
0
 62
     7
  6
CONTINUOUS
 10
-8.252149
 20
-0.001525
 30
0.000000
 40
0.196987
  0
CIRCLE
  8
0
 62
     5
  6
CONTINUOUS
 10
-4.192340
 20
-0.001525
 30
0.000000
 40
0.196987
  0
CIRCLE
  8
0
 62
     5
  6
CONTINUOUS
 10
-5.415638
 20
-6.127971
 30
0.000000
 40
0.196987
  0
CIRCLE
  8
0
 62
     5
  6
CONTINUOUS
 10
-4.691075
 20
-6.832804
 30
0.000000
 40
0.196987
  0
CIRCLE
  8
0
 62
     5
  6
CONTINUOUS
 10
-6.140348
 20
-5.422995
 30
0.000000
 40
0.196987
  0
CIRCLE
  8
0
 62
     5
  6
CONTINUOUS
 10
-6.882771
 20
-4.700787
 30
0.000000
 40
0.196987
  0
CIRCLE
  8
0
 62
     5
  6
CONTINUOUS
 10
-5.207292
 20
-0.001525
 30
0.000000
 40
0.196987
  0
CIRCLE
  8
0
 62
     5
  6
CONTINUOUS
 10
-6.222244
 20
-0.001525
 30
0.000000
 40
0.196987
  0
CIRCLE
  8
0
 62
     5
  6
CONTINUOUS
 10
-7.237196
 20
-0.001525
 30
0.000000
 40
0.196987
  0
CIRCLE
  8
0
 62
     5
  6
CONTINUOUS
 10
-8.252149
 20
1.012945
 30
0.000000
 40
0.196987
  0
CIRCLE
  8
0
 62
     7
  6
CONTINUOUS
 10
-8.252149
 20
2.027414
 30
0.000000
 40
0.196987
  0
CIRCLE
  8
0
 62
     7
  6
CONTINUOUS
 10
-8.252149
 20
2.032405
 30
0.000000
 40
0.196987
  0
LINE
  8
0
 62
     7
  6
CONTINUOUS
 10
-8.823410
 20
-2.360351
 30
0.000000
 11
-8.823410
 21
2.367282
 31
0.000000
  0
LINE
  8
0
 62
     7
  6
CONTINUOUS
 10
-8.821473
 20
2.367581
 30
0.000000
 11
-6.457656
 21
6.461831
 31
0.000000
  0
LINE
  8
0
 62
     7
  6
CONTINUOUS
 10
-6.455829
 20
6.461121
 30
0.000000
 11
-2.361578
 21
8.824938
 31
0.000000
  0
LINE
  8
0
 62
     7
  6
CONTINUOUS
 10
2.367282
 20
8.823410
 30
0.000000
 11
-2.360351
 21
8.823410
 31
0.000000
  0
CIRCLE
  8
0
 62
     7
  6
CONTINUOUS
 10
-7.405153
 20
2.032405
 30
0.000000
 40
0.196987
  0
CIRCLE
  8
0
 62
     7
  6
CONTINUOUS
 10
-6.558158
 20
2.032405
 30
0.000000
 40
0.196987
  0
CIRCLE
  8
0
 62
     7
  6
CONTINUOUS
 10
-5.711163
 20
2.032405
 30
0.000000
 40
0.196987
  0
CIRCLE
  8
0
 62
     7
  6
CONTINUOUS
 10
-4.864167
 20
2.032405
 30
0.000000
 40
0.196987
  0
CIRCLE
  8
0
 62
     7
  6
CONTINUOUS
 10
-4.017172
 20
2.032405
 30
0.000000
 40
0.196987
  0
CIRCLE
  8
0
 62
     7
  6
CONTINUOUS
 10
-3.175665
 20
2.053344
 30
0.000000
 40
0.196987
  0
CIRCLE
  8
0
 62
     7
  6
CONTINUOUS
 10
-2.441494
 20
2.448011
 30
0.000000
 40
0.196987
  0
CIRCLE
  8
0
 62
     7
  6
CONTINUOUS
 10
-2.050092
 20
3.184202
 30
0.000000
 40
0.196987
  0
CIRCLE
  8
0
 62
     7
  6
CONTINUOUS
 10
-2.030465
 20
4.020008
 30
0.000000
 40
0.196987
  0
CIRCLE
  8
0
 62
     7
  6
CONTINUOUS
 10
-2.030465
 20
4.866009
 30
0.000000
 40
0.196987
  0
CIRCLE
  8
0
 62
     7
  6
CONTINUOUS
 10
-2.030465
 20
5.712011
 30
0.000000
 40
0.196987
  0
CIRCLE
  8
0
 62
     7
  6
CONTINUOUS
 10
-2.030465
 20
6.557420
 30
0.000000
 40
0.196987
  0
CIRCLE
  8
0
 62
     7
  6
CONTINUOUS
 10
-2.030465
 20
7.403422
 30
0.000000
 40
0.196987
  0
CIRCLE
  8
0
 62
     7
  6
CONTINUOUS
 10
-2.030465
 20
8.252149
 30
0.000000
 40
0.196987
  0
CIRCLE
  8
0
 62
     7
  6
CONTINUOUS
 10
-1.015995
 20
8.252149
 30
0.000000
 40
0.196987
  0
CIRCLE
  8
0
 62
     7
  6
CONTINUOUS
 10
-0.001525
 20
8.252149
 30
0.000000
 40
0.196987
  0
CIRCLE
  8
0
 62
     3
  6
CONTINUOUS
 10
-6.832804
 20
4.691075
 30
0.000000
 40
0.196987
  0
CIRCLE
  8
0
 62
     3
  6
CONTINUOUS
 10
-6.127971
 20
5.415638
 30
0.000000
 40
0.196987
  0
CIRCLE
  8
0
 62
     3
  6
CONTINUOUS
 10
-5.422995
 20
6.140348
 30
0.000000
 40
0.196987
  0
CIRCLE
  8
0
 62
     3
  6
CONTINUOUS
 10
-4.700787
 20
6.882771
 30
0.000000
 40
0.196987
  0
CIRCLE
  8
0
 62
     3
  6
CONTINUOUS
 10
-0.001525
 20
4.192340
 30
0.000000
 40
0.196987
  0
CIRCLE
  8
0
 62
     3
  6
CONTINUOUS
 10
-0.001525
 20
5.207292
 30
0.000000
 40
0.196987
  0
CIRCLE
  8
0
 62
     3
  6
CONTINUOUS
 10
-0.001525
 20
6.222244
 30
0.000000
 40
0.196987
  0
CIRCLE
  8
0
 62
     3
  6
CONTINUOUS
 10
-0.001525
 20
7.237196
 30
0.000000
 40
0.196987
  0
CIRCLE
  8
0
 62
     3
  6
CONTINUOUS
 10
1.012945
 20
8.252149
 30
0.000000
 40
0.196987
  0
CIRCLE
  8
0
 62
     7
  6
CONTINUOUS
 10
2.027414
 20
8.252149
 30
0.000000
 40
0.196987
  0
CIRCLE
  8
0
 62
     7
  6
CONTINUOUS
 10
2.032405
 20
8.252149
 30
0.000000
 40
0.196987
  0
LINE
  8
0
 62
     7
  6
CONTINUOUS
 10
-2.360351
 20
8.823410
 30
0.000000
 11
2.367282
 21
8.823410
 31
0.000000
  0
LINE
  8
0
 62
     7
  6
CONTINUOUS
 10
2.367581
 20
8.821473
 30
0.000000
 11
6.461831
 21
6.457656
 31
0.000000
  0
LINE
  8
0
 62
     7
  6
CONTINUOUS
 10
6.461121
 20
6.455829
 30
0.000000
 11
8.824938
 21
2.361578
 31
0.000000
  0
LINE
  8
0
 62
     7
  6
CONTINUOUS
 10
8.823410
 20
-2.367282
 30
0.000000
 11
8.823410
 21
2.360351
 31
0.000000
  0
CIRCLE
  8
0
 62
     7
  6
CONTINUOUS
 10
2.032405
 20
7.405153
 30
0.000000
 40
0.196987
  0
CIRCLE
  8
0
 62
     7
  6
CONTINUOUS
 10
2.032405
 20
6.558158
 30
0.000000
 40
0.196987
  0
CIRCLE
  8
0
 62
     7
  6
CONTINUOUS
 10
2.032405
 20
5.711163
 30
0.000000
 40
0.196987
  0
CIRCLE
  8
0
 62
     7
  6
CONTINUOUS
 10
2.032405
 20
4.864167
 30
0.000000
 40
0.196987
  0
CIRCLE
  8
0
 62
     7
  6
CONTINUOUS
 10
2.032405
 20
4.017172
 30
0.000000
 40
0.196987
  0
CIRCLE
  8
0
 62
     7
  6
CONTINUOUS
 10
2.053344
 20
3.175665
 30
0.000000
 40
0.196987
  0
CIRCLE
  8
0
 62
     7
  6
CONTINUOUS
 10
2.448011
 20
2.441494
 30
0.000000
 40
0.196987
  0
CIRCLE
  8
0
 62
     7
  6
CONTINUOUS
 10
3.184202
 20
2.050092
 30
0.000000
 40
0.196987
  0
CIRCLE
  8
0
 62
     7
  6
CONTINUOUS
 10
4.020008
 20
2.030465
 30
0.000000
 40
0.196987
  0
CIRCLE
  8
0
 62
     7
  6
CONTINUOUS
 10
4.866009
 20
2.030465
 30
0.000000
 40
0.196987
  0
CIRCLE
  8
0
 62
     7
  6
CONTINUOUS
 10
5.712011
 20
2.030465
 30
0.000000
 40
0.196987
  0
CIRCLE
  8
0
 62
     7
  6
CONTINUOUS
 10
6.557420
 20
2.030465
 30
0.000000
 40
0.196987
  0
CIRCLE
  8
0
 62
     7
  6
CONTINUOUS
 10
7.403422
 20
2.030465
 30
0.000000
 40
0.196987
  0
CIRCLE
  8
0
 62
     7
  6
CONTINUOUS
 10
8.252149
 20
2.030465
 30
0.000000
 40
0.196987
  0
CIRCLE
  8
0
 62
     7
  6
CONTINUOUS
 10
8.252149
 20
1.015995
 30
0.000000
 40
0.196987
  0
CIRCLE
  8
0
 62
     7
  6
CONTINUOUS
 10
8.252149
 20
0.001525
 30
0.000000
 40
0.196987
  0
CIRCLE
  8
0
 62
     2
  6
CONTINUOUS
 10
4.691075
 20
6.832804
 30
0.000000
 40
0.196987
  0
CIRCLE
  8
0
 62
     2
  6
CONTINUOUS
 10
5.415638
 20
6.127971
 30
0.000000
 40
0.196987
  0
CIRCLE
  8
0
 62
     2
  6
CONTINUOUS
 10
6.140348
 20
5.422995
 30
0.000000
 40
0.196987
  0
CIRCLE
  8
0
 62
     2
  6
CONTINUOUS
 10
6.882771
 20
4.700787
 30
0.000000
 40
0.196987
  0
CIRCLE
  8
0
 62
     2
  6
CONTINUOUS
 10
4.192340
 20
0.001525
 30
0.000000
 40
0.196987
  0
CIRCLE
  8
0
 62
     2
  6
CONTINUOUS
 10
5.207292
 20
0.001525
 30
0.000000
 40
0.196987
  0
CIRCLE
  8
0
 62
     2
  6
CONTINUOUS
 10
6.222244
 20
0.001525
 30
0.000000
 40
0.196987
  0
CIRCLE
  8
0
 62
     2
  6
CONTINUOUS
 10
7.237196
 20
0.001525
 30
0.000000
 40
0.196987
  0
CIRCLE
  8
0
 62
     2
  6
CONTINUOUS
 10
8.252149
 20
-1.012945
 30
0.000000
 40
0.196987
  0
CIRCLE
  8
0
 62
     7
  6
CONTINUOUS
 10
8.252149
 20
-2.027414
 30
0.000000
 40
0.196987
  0
ENDSEC
  0
EOF
