  0
SECTION
  2
HEADER
  9
$ACADVER
  1
AC1018
  9
$ACADMAINTVER
 70
     0
  9
$DWGCODEPAGE
  3
ANSI_1252
  9
$INSBASE
 10
0.0
 20
0.0
 30
0.0
  9
$EXTMIN
 10
-102.6423
 20
-138.8583
 30
0.0
  9
$EXTMAX
 10
102.0641
 20
108.6683
 30
0.0
  9
$LIMMIN
 10
0.0
 20
0.0
  9
$LIMMAX
 10
12.0
 20
9.0
  9
$ORTHOMODE
 70
     0
  9
$REGENMODE
 70
     1
  9
$FILLMODE
 70
     1
  9
$QTEXTMODE
 70
     0
  9
$MIRRTEXT
 70
     1
  9
$LTSCALE
 40
1.0
  9
$ATTMODE
 70
     1
  9
$TEXTSIZE
 40
0.2
  9
$TRACEWID
 40
0.05
  9
$TEXTSTYLE
  7
Standard
  9
$CLAYER
  8
0
  9
$CELTYPE
  6
ByLayer
  9
$CECOLOR
 62
   256
  9
$CELTSCALE
 40
1.0
  9
$DISPSILH
 70
     0
  9
$DIMSCALE
 40
1.0
  9
$DIMASZ
 40
0.18
  9
$DIMEXO
 40
0.0625
  9
$DIMDLI
 40
0.38
  9
$DIMRND
 40
0.0
  9
$DIMDLE
 40
0.0
  9
$DIMEXE
 40
0.18
  9
$DIMTP
 40
0.0
  9
$DIMTM
 40
0.0
  9
$DIMTXT
 40
0.18
  9
$DIMCEN
 40
0.09
  9
$DIMTSZ
 40
0.0
  9
$DIMTOL
 70
     0
  9
$DIMLIM
 70
     0
  9
$DIMTIH
 70
     1
  9
$DIMTOH
 70
     1
  9
$DIMSE1
 70
     0
  9
$DIMSE2
 70
     0
  9
$DIMTAD
 70
     0
  9
$DIMZIN
 70
     0
  9
$DIMBLK
  1

  9
$DIMASO
 70
     1
  9
$DIMSHO
 70
     1
  9
$DIMPOST
  1

  9
$DIMAPOST
  1

  9
$DIMALT
 70
     0
  9
$DIMALTD
 70
     2
  9
$DIMALTF
 40
25.4
  9
$DIMLFAC
 40
1.0
  9
$DIMTOFL
 70
     0
  9
$DIMTVP
 40
0.0
  9
$DIMTIX
 70
     0
  9
$DIMSOXD
 70
     0
  9
$DIMSAH
 70
     0
  9
$DIMBLK1
  1

  9
$DIMBLK2
  1

  9
$DIMSTYLE
  2
Standard
  9
$DIMCLRD
 70
     0
  9
$DIMCLRE
 70
     0
  9
$DIMCLRT
 70
     0
  9
$DIMTFAC
 40
1.0
  9
$DIMGAP
 40
0.09
  9
$DIMJUST
 70
     0
  9
$DIMSD1
 70
     0
  9
$DIMSD2
 70
     0
  9
$DIMTOLJ
 70
     1
  9
$DIMTZIN
 70
     0
  9
$DIMALTZ
 70
     0
  9
$DIMALTTZ
 70
     0
  9
$DIMUPT
 70
     0
  9
$DIMDEC
 70
     4
  9
$DIMTDEC
 70
     4
  9
$DIMALTU
 70
     2
  9
$DIMALTTD
 70
     2
  9
$DIMTXSTY
  7
Standard
  9
$DIMAUNIT
 70
     0
  9
$DIMADEC
 70
     0
  9
$DIMALTRND
 40
0.0
  9
$DIMAZIN
 70
     0
  9
$DIMDSEP
 70
    46
  9
$DIMATFIT
 70
     3
  9
$DIMFRAC
 70
     0
  9
$DIMLDRBLK
  1

  9
$DIMLUNIT
 70
     2
  9
$DIMLWD
 70
    -2
  9
$DIMLWE
 70
    -2
  9
$DIMTMOVE
 70
     0
  9
$LUNITS
 70
     2
  9
$LUPREC
 70
     4
  9
$SKETCHINC
 40
0.1
  9
$FILLETRAD
 40
0.5
  9
$AUNITS
 70
     0
  9
$AUPREC
 70
     0
  9
$MENU
  1
.
  9
$ELEVATION
 40
0.0
  9
$PELEVATION
 40
0.0
  9
$THICKNESS
 40
0.0
  9
$LIMCHECK
 70
     0
  9
$CHAMFERA
 40
0.5
  9
$CHAMFERB
 40
0.5
  9
$CHAMFERC
 40
1.0
  9
$CHAMFERD
 40
0.0
  9
$SKPOLY
 70
     0
  9
$TDCREATE
 40
2455271.329691296
  9
$TDUCREATE
 40
2455271.454691296
  9
$TDUPDATE
 40
2455271.329691308
  9
$TDUUPDATE
 40
2455271.454691308
  9
$TDINDWG
 40
0.0000000116
  9
$TDUSRTIMER
 40
0.0000000116
  9
$USRTIMER
 70
     1
  9
$ANGBASE
 50
0.0
  9
$ANGDIR
 70
     0
  9
$PDMODE
 70
     0
  9
$PDSIZE
 40
0.0
  9
$PLINEWID
 40
0.0
  9
$SPLFRAME
 70
     0
  9
$SPLINETYPE
 70
     6
  9
$SPLINESEGS
 70
     8
  9
$HANDSEED
  5
5F
  9
$SURFTAB1
 70
     6
  9
$SURFTAB2
 70
     6
  9
$SURFTYPE
 70
     6
  9
$SURFU
 70
     6
  9
$SURFV
 70
     6
  9
$UCSBASE
  2

  9
$UCSNAME
  2

  9
$UCSORG
 10
0.0
 20
0.0
 30
0.0
  9
$UCSXDIR
 10
1.0
 20
0.0
 30
0.0
  9
$UCSYDIR
 10
0.0
 20
1.0
 30
0.0
  9
$UCSORTHOREF
  2

  9
$UCSORTHOVIEW
 70
     0
  9
$UCSORGTOP
 10
0.0
 20
0.0
 30
0.0
  9
$UCSORGBOTTOM
 10
0.0
 20
0.0
 30
0.0
  9
$UCSORGLEFT
 10
0.0
 20
0.0
 30
0.0
  9
$UCSORGRIGHT
 10
0.0
 20
0.0
 30
0.0
  9
$UCSORGFRONT
 10
0.0
 20
0.0
 30
0.0
  9
$UCSORGBACK
 10
0.0
 20
0.0
 30
0.0
  9
$PUCSBASE
  2

  9
$PUCSNAME
  2

  9
$PUCSORG
 10
0.0
 20
0.0
 30
0.0
  9
$PUCSXDIR
 10
1.0
 20
0.0
 30
0.0
  9
$PUCSYDIR
 10
0.0
 20
1.0
 30
0.0
  9
$PUCSORTHOREF
  2

  9
$PUCSORTHOVIEW
 70
     0
  9
$PUCSORGTOP
 10
0.0
 20
0.0
 30
0.0
  9
$PUCSORGBOTTOM
 10
0.0
 20
0.0
 30
0.0
  9
$PUCSORGLEFT
 10
0.0
 20
0.0
 30
0.0
  9
$PUCSORGRIGHT
 10
0.0
 20
0.0
 30
0.0
  9
$PUCSORGFRONT
 10
0.0
 20
0.0
 30
0.0
  9
$PUCSORGBACK
 10
0.0
 20
0.0
 30
0.0
  9
$USERI1
 70
     0
  9
$USERI2
 70
     0
  9
$USERI3
 70
     0
  9
$USERI4
 70
     0
  9
$USERI5
 70
     0
  9
$USERR1
 40
0.0
  9
$USERR2
 40
0.0
  9
$USERR3
 40
0.0
  9
$USERR4
 40
0.0
  9
$USERR5
 40
0.0
  9
$WORLDVIEW
 70
     1
  9
$SHADEDGE
 70
     3
  9
$SHADEDIF
 70
    70
  9
$TILEMODE
 70
     1
  9
$MAXACTVP
 70
    64
  9
$PINSBASE
 10
0.0
 20
0.0
 30
0.0
  9
$PLIMCHECK
 70
     0
  9
$PEXTMIN
 10
1.000000000000000E+20
 20
1.000000000000000E+20
 30
1.000000000000000E+20
  9
$PEXTMAX
 10
-1.000000000000000E+20
 20
-1.000000000000000E+20
 30
-1.000000000000000E+20
  9
$PLIMMIN
 10
0.0
 20
0.0
  9
$PLIMMAX
 10
12.0
 20
9.0
  9
$UNITMODE
 70
     0
  9
$VISRETAIN
 70
     1
  9
$PLINEGEN
 70
     0
  9
$PSLTSCALE
 70
     1
  9
$TREEDEPTH
 70
  3020
  9
$CMLSTYLE
  2
Standard
  9
$CMLJUST
 70
     0
  9
$CMLSCALE
 40
1.0
  9
$PROXYGRAPHICS
 70
     1
  9
$MEASUREMENT
 70
     0
  9
$CELWEIGHT
370
    -1
  9
$ENDCAPS
280
     0
  9
$JOINSTYLE
280
     0
  9
$LWDISPLAY
290
     0
  9
$INSUNITS
 70
     4
  9
$HYPERLINKBASE
  1

  9
$STYLESHEET
  1

  9
$XEDIT
290
     1
  9
$CEPSNTYPE
380
     0
  9
$PSTYLEMODE
290
     0
  9
$FINGERPRINTGUID
  2
{FAEB1C30-E019-11D5-929B-00C0DF256EC4}
  9
$VERSIONGUID
  2
{FAEB1C32-E019-11D5-929B-00C0DF256EC4}
  9
$EXTNAMES
290
     1
  9
$PSVPSCALE
 40
0.0
  9
$OLESTARTUP
290
     0
  9
$SORTENTS
280
   127
  9
$INDEXCTL
280
     0
  9
$HIDETEXT
280
     1
  9
$XCLIPFRAME
290
     0
  9
$HALOGAP
280
     0
  9
$OBSCOLOR
 70
   257
  9
$OBSLTYPE
280
     0
  9
$INTERSECTIONDISPLAY
280
     0
  9
$INTERSECTIONCOLOR
 70
   257
  9
$DIMASSOC
280
     2
  9
$PROJECTNAME
  1

  0
ENDSEC
  0
SECTION
  2
CLASSES
  0
CLASS
  1
ACDBDICTIONARYWDFLT
  2
AcDbDictionaryWithDefault
  3
ObjectDBX Classes
 90
        0
 91
        1
280
     0
281
     0
  0
ENDSEC
  0
SECTION
  2
TABLES
  0
TABLE
  2
VPORT
  5
8
330
0
100
AcDbSymbolTable
 70
     2
  0
VPORT
  5
29
330
8
100
AcDbSymbolTableRecord
100
AcDbViewportTableRecord
  2
*Active
 70
     0
 10
0.0
 20
0.0
 11
1.0
 21
1.0
 12
10.42990654205607
 22
4.5
 13
0.0
 23
0.0
 14
0.5
 24
0.5
 15
0.5
 25
0.5
 16
0.0
 26
0.0
 36
1.0
 17
0.0
 27
0.0
 37
0.0
 40
9.0
 41
1.972972972850329
 42
50.0
 43
0.0
 44
0.0
 50
0.0
 51
0.0
 71
     0
 72
   100
 73
     1
 74
     3
 75
     0
 76
     0
 77
     0
 78
     0
281
     0
 65
     1
110
0.0
120
0.0
130
0.0
111
1.0
121
0.0
131
0.0
112
0.0
122
1.0
132
0.0
 79
     0
146
0.0
  0
ENDTAB
  0
TABLE
  2
LTYPE
  5
5
330
0
100
AcDbSymbolTable
 70
     1
  0
LTYPE
  5
14
330
5
100
AcDbSymbolTableRecord
100
AcDbLinetypeTableRecord
  2
ByBlock
 70
     0
  3

 72
    65
 73
     0
 40
0.0
  0
LTYPE
  5
15
330
5
100
AcDbSymbolTableRecord
100
AcDbLinetypeTableRecord
  2
ByLayer
 70
     0
  3

 72
    65
 73
     0
 40
0.0
  0
LTYPE
  5
16
330
5
100
AcDbSymbolTableRecord
100
AcDbLinetypeTableRecord
  2
Continuous
 70
     0
  3
Solid line
 72
    65
 73
     0
 40
0.0
  0
ENDTAB
  0
TABLE
  2
LAYER
  5
2
330
0
100
AcDbSymbolTable
 70
     2
  0
LAYER
  5
10
330
2
100
AcDbSymbolTableRecord
100
AcDbLayerTableRecord
  2
0
 70
     0
 62
     7
  6
Continuous
370
    -3
390
F
  0
LAYER
  5
2B
330
2
100
AcDbSymbolTableRecord
100
AcDbLayerTableRecord
  2
Camada 1
 70
     0
 62
     7
  6
Continuous
370
    -3
390
F
  0
ENDTAB
  0
TABLE
  2
STYLE
  5
3
330
0
100
AcDbSymbolTable
 70
     1
  0
STYLE
  5
11
330
3
100
AcDbSymbolTableRecord
100
AcDbTextStyleTableRecord
  2
Standard
 70
     0
 40
0.0
 41
1.0
 50
0.0
 71
     0
 42
0.2
  3
txt
  4

  0
ENDTAB
  0
TABLE
  2
VIEW
  5
6
330
0
100
AcDbSymbolTable
 70
     0
  0
ENDTAB
  0
TABLE
  2
UCS
  5
7
330
0
100
AcDbSymbolTable
 70
     0
  0
ENDTAB
  0
TABLE
  2
APPID
  5
9
330
0
100
AcDbSymbolTable
 70
     2
  0
APPID
  5
12
330
9
100
AcDbSymbolTableRecord
100
AcDbRegAppTableRecord
  2
ACAD
 70
     0
  0
APPID
  5
2A
330
9
100
AcDbSymbolTableRecord
100
AcDbRegAppTableRecord
  2
ODA
 70
     0
  0
ENDTAB
  0
TABLE
  2
DIMSTYLE
  5
A
330
0
100
AcDbSymbolTable
 70
     1
100
AcDbDimStyleTable
  0
DIMSTYLE
105
27
330
A
100
AcDbSymbolTableRecord
100
AcDbDimStyleTableRecord
  2
Standard
 70
     0
340
11
  0
ENDTAB
  0
TABLE
  2
BLOCK_RECORD
  5
1
330
0
100
AcDbSymbolTable
 70
     1
  0
BLOCK_RECORD
  5
1F
330
1
100
AcDbSymbolTableRecord
100
AcDbBlockTableRecord
  2
*Model_Space
340
22
  0
BLOCK_RECORD
  5
1B
330
1
100
AcDbSymbolTableRecord
100
AcDbBlockTableRecord
  2
*Paper_Space
340
1E
  0
BLOCK_RECORD
  5
23
330
1
100
AcDbSymbolTableRecord
100
AcDbBlockTableRecord
  2
*Paper_Space0
340
26
  0
ENDTAB
  0
ENDSEC
  0
SECTION
  2
BLOCKS
  0
BLOCK
  5
20
330
1F
100
AcDbEntity
  8
0
100
AcDbBlockBegin
  2
*Model_Space
 70
     0
 71
     0
 10
0.0
 20
0.0
 30
0.0
  3
*Model_Space
  1

  0
ENDBLK
  5
21
330
1F
100
AcDbEntity
  8
0
100
AcDbBlockEnd
  0
BLOCK
  5
1C
330
1B
100
AcDbEntity
 67
     1
  8
0
100
AcDbBlockBegin
  2
*Paper_Space
 70
     0
 71
     0
 10
0.0
 20
0.0
 30
0.0
  3
*Paper_Space
  1

  0
ENDBLK
  5
1D
330
1B
100
AcDbEntity
 67
     1
  8
0
100
AcDbBlockEnd
  0
BLOCK
  5
24
330
23
100
AcDbEntity
  8
0
100
AcDbBlockBegin
  2
*Paper_Space0
 70
     0
 71
     0
 10
0.0
 20
0.0
 30
0.0
  3
*Paper_Space0
  1

  0
ENDBLK
  5
25
330
23
100
AcDbEntity
  8
0
100
AcDbBlockEnd
  0
ENDSEC
  0
SECTION
  2
ENTITIES
  0
SPLINE
  5
2C
330
1F
100
AcDbEntity
  8
Camada 1
 62
    22
370
     5
100
AcDbSpline
210
0.0
220
0.0
230
1.0
 70
    11
 71
     3
 72
   152
 73
   148
 74
     0
 42
0.0000000001
 43
0.0000000001
 40
0.0
 40
0.0
 40
0.0
 40
0.0
 40
0.027027027027027
 40
0.027027027027027
 40
0.027027027027027
 40
0.027027027027027
 40
0.0540540540540541
 40
0.0540540540540541
 40
0.0540540540540541
 40
0.0540540540540541
 40
0.0810810810810811
 40
0.0810810810810811
 40
0.0810810810810811
 40
0.0810810810810811
 40
0.1081081081081081
 40
0.1081081081081081
 40
0.1081081081081081
 40
0.1081081081081081
 40
0.1351351351351351
 40
0.1351351351351351
 40
0.1351351351351351
 40
0.1351351351351351
 40
0.1621621621621622
 40
0.1621621621621622
 40
0.1621621621621622
 40
0.1621621621621622
 40
0.1891891891891892
 40
0.1891891891891892
 40
0.1891891891891892
 40
0.1891891891891892
 40
0.2162162162162162
 40
0.2162162162162162
 40
0.2162162162162162
 40
0.2162162162162162
 40
0.2432432432432433
 40
0.2432432432432433
 40
0.2432432432432433
 40
0.2432432432432433
 40
0.2702702702702703
 40
0.2702702702702703
 40
0.2702702702702703
 40
0.2702702702702703
 40
0.2972972972972973
 40
0.2972972972972973
 40
0.2972972972972973
 40
0.2972972972972973
 40
0.3243243243243243
 40
0.3243243243243243
 40
0.3243243243243243
 40
0.3243243243243243
 40
0.3513513513513514
 40
0.3513513513513514
 40
0.3513513513513514
 40
0.3513513513513514
 40
0.3783783783783784
 40
0.3783783783783784
 40
0.3783783783783784
 40
0.3783783783783784
 40
0.4054054054054054
 40
0.4054054054054054
 40
0.4054054054054054
 40
0.4054054054054054
 40
0.4324324324324325
 40
0.4324324324324325
 40
0.4324324324324325
 40
0.4324324324324325
 40
0.4594594594594595
 40
0.4594594594594595
 40
0.4594594594594595
 40
0.4594594594594595
 40
0.4864864864864865
 40
0.4864864864864865
 40
0.4864864864864865
 40
0.4864864864864865
 40
0.5135135135135136
 40
0.5135135135135136
 40
0.5135135135135136
 40
0.5135135135135136
 40
0.5405405405405406
 40
0.5405405405405406
 40
0.5405405405405406
 40
0.5405405405405406
 40
0.5675675675675675
 40
0.5675675675675675
 40
0.5675675675675675
 40
0.5675675675675675
 40
0.5945945945945945
 40
0.5945945945945945
 40
0.5945945945945945
 40
0.5945945945945945
 40
0.6216216216216215
 40
0.6216216216216215
 40
0.6216216216216215
 40
0.6216216216216215
 40
0.6486486486486485
 40
0.6486486486486485
 40
0.6486486486486485
 40
0.6486486486486485
 40
0.6756756756756754
 40
0.6756756756756754
 40
0.6756756756756754
 40
0.6756756756756754
 40
0.7027027027027024
 40
0.7027027027027024
 40
0.7027027027027024
 40
0.7027027027027024
 40
0.7297297297297294
 40
0.7297297297297294
 40
0.7297297297297294
 40
0.7297297297297294
 40
0.7567567567567564
 40
0.7567567567567564
 40
0.7567567567567564
 40
0.7567567567567564
 40
0.7837837837837833
 40
0.7837837837837833
 40
0.7837837837837833
 40
0.7837837837837833
 40
0.8108108108108103
 40
0.8108108108108103
 40
0.8108108108108103
 40
0.8108108108108103
 40
0.8378378378378373
 40
0.8378378378378373
 40
0.8378378378378373
 40
0.8378378378378373
 40
0.8648648648648643
 40
0.8648648648648643
 40
0.8648648648648643
 40
0.8648648648648643
 40
0.8918918918918912
 40
0.8918918918918912
 40
0.8918918918918912
 40
0.8918918918918912
 40
0.9189189189189182
 40
0.9189189189189182
 40
0.9189189189189182
 40
0.9189189189189182
 40
0.9459459459459452
 40
0.9459459459459452
 40
0.9459459459459452
 40
0.9459459459459452
 40
0.9729729729729721
 40
0.9729729729729721
 40
0.9729729729729721
 40
0.9729729729729721
 40
1.0
 40
1.0
 40
1.0
 40
1.0
 10
-91.724
 20
108.4098
 30
0.0
 10
-91.724
 20
108.4098
 30
0.0
 10
-53.0245
 20
108.5946
 30
0.0
 10
-53.0245
 20
108.5946
 30
0.0
 10
-53.0245
 20
108.5946
 30
0.0
 10
-53.0245
 20
108.5946
 30
0.0
 10
-49.0287
 20
102.5394
 30
0.0
 10
-49.0287
 20
102.5394
 30
0.0
 10
-49.0287
 20
102.5394
 30
0.0
 10
-49.0287
 20
102.5394
 30
0.0
 10
-48.962
 20
93.9342
 30
0.0
 10
-48.962
 20
93.9342
 30
0.0
 10
-48.962
 20
93.9342
 30
0.0
 10
-48.962
 20
93.9342
 30
0.0
 10
-41.7025
 20
94.00700000000001
 30
0.0
 10
-41.7025
 20
94.00700000000001
 30
0.0
 10
-41.7025
 20
94.00700000000001
 30
0.0
 10
-41.7025
 20
94.00700000000001
 30
0.0
 10
-41.7025
 20
104.9061
 30
0.0
 10
-41.7025
 20
104.9061
 30
0.0
 10
-41.7025
 20
104.9061
 30
0.0
 10
-41.6879
 20
105.2579
 30
0.0
 10
-41.5039
 20
105.4215
 30
0.0
 10
-41.1792
 20
105.4294
 30
0.0
 10
-41.1792
 20
105.4294
 30
0.0
 10
-41.1792
 20
105.4294
 30
0.0
 10
-31.8645
 20
105.4294
 30
0.0
 10
-31.8645
 20
105.4294
 30
0.0
 10
-31.8645
 20
105.4294
 30
0.0
 10
-31.5316
 20
105.4133
 30
0.0
 10
-31.3572
 20
105.2389
 30
0.0
 10
-31.3412
 20
104.9061
 30
0.0
 10
-31.3412
 20
104.9061
 30
0.0
 10
-31.3412
 20
104.9061
 30
0.0
 10
-31.3389
 20
94.0433
 30
0.0
 10
-31.3389
 20
94.0433
 30
0.0
 10
-31.3389
 20
94.0433
 30
0.0
 10
-31.3389
 20
94.0433
 30
0.0
 10
-20.9682
 20
94.00700000000001
 30
0.0
 10
-20.9682
 20
94.00700000000001
 30
0.0
 10
-20.9682
 20
94.00700000000001
 30
0.0
 10
-20.9682
 20
94.00700000000001
 30
0.0
 10
-20.9682
 20
105.0574
 30
0.0
 10
-20.9682
 20
105.0574
 30
0.0
 10
-20.9682
 20
105.0574
 30
0.0
 10
-20.9749
 20
105.3541
 30
0.0
 10
-20.8247
 20
105.5448
 30
0.0
 10
-20.4449
 20
105.5807
 30
0.0
 10
-20.4449
 20
105.5807
 30
0.0
 10
-20.4449
 20
105.5807
 30
0.0
 10
-11.1302
 20
105.5807
 30
0.0
 10
-11.1302
 20
105.5807
 30
0.0
 10
-11.1302
 20
105.5807
 30
0.0
 10
-10.8198
 20
105.5134
 30
0.0
 10
-10.6065
 20
105.3498
 30
0.0
 10
-10.6069
 20
104.9742
 30
0.0
 10
-10.6069
 20
104.9742
 30
0.0
 10
-10.6069
 20
104.9742
 30
0.0
 10
-10.6069
 20
96.91470000000001
 30
0.0
 10
-10.6069
 20
96.91470000000001
 30
0.0
 10
-10.6069
 20
96.91470000000001
 30
0.0
 10
-10.6069
 20
96.91470000000001
 30
0.0
 10
-6.344700000000001
 20
97.00720000000001
 30
0.0
 10
-6.344700000000001
 20
97.00720000000001
 30
0.0
 10
-6.344700000000001
 20
97.00720000000001
 30
0.0
 10
-5.325600000000001
 20
96.5283
 30
0.0
 10
-4.9753
 20
95.79010000000001
 30
0.0
 10
-5.0827
 20
94.8741
 30
0.0
 10
-5.0827
 20
94.8741
 30
0.0
 10
-5.0827
 20
94.8741
 30
0.0
 10
-10.4578
 20
91.67140000000001
 30
0.0
 10
-10.4578
 20
91.67140000000001
 30
0.0
 10
-10.4578
 20
91.67140000000001
 30
0.0
 10
-10.4578
 20
91.67140000000001
 30
0.0
 10
-9.359500000000001
 20
89.82820000000001
 30
0.0
 10
-9.359500000000001
 20
89.82820000000001
 30
0.0
 10
-9.359500000000001
 20
89.82820000000001
 30
0.0
 10
-9.359500000000001
 20
89.82820000000001
 30
0.0
 10
-4.864100000000001
 20
92.5069
 30
0.0
 10
-4.864100000000001
 20
92.5069
 30
0.0
 10
-4.864100000000001
 20
92.5069
 30
0.0
 10
-1.6432
 20
90.0411
 30
0.0
 10
2.001
 20
90.2311
 30
0.0
 10
5.1306
 20
93.846
 30
0.0
 10
5.1306
 20
93.846
 30
0.0
 10
6.1475
 20
94.6152
 30
0.0
 10
7.6219
 20
93.6224
 30
0.0
 10
7.343500000000001
 20
92.34570000000001
 30
0.0
 10
7.343500000000001
 20
92.34570000000001
 30
0.0
 10
6.4977
 20
88.31830000000001
 30
0.0
 10
-0.9653000000000001
 20
85.15600000000001
 30
0.0
 10
-6.389600000000001
 20
87.20180000000001
 30
0.0
 10
-6.389600000000001
 20
87.20180000000001
 30
0.0
 10
-6.389600000000001
 20
87.20180000000001
 30
0.0
 10
-32.1738
 20
87.2265
 30
0.0
 10
-32.1738
 20
87.2265
 30
0.0
 10
-32.1738
 20
87.2265
 30
0.0
 10
-32.1738
 20
87.2265
 30
0.0
 10
-32.1738
 20
82.1127
 30
0.0
 10
-32.1738
 20
82.1127
 30
0.0
 10
-32.1738
 20
82.1127
 30
0.0
 10
-32.1738
 20
82.1127
 30
0.0
 10
-33.7436
 20
80.56310000000001
 30
0.0
 10
-33.7436
 20
80.56310000000001
 30
0.0
 10
-33.7436
 20
80.56310000000001
 30
0.0
 10
-33.7436
 20
80.56310000000001
 30
0.0
 10
-51.5459
 20
80.7963
 30
0.0
 10
-51.5459
 20
80.7963
 30
0.0
 10
-51.5459
 20
80.7963
 30
0.0
 10
-51.5459
 20
80.7963
 30
0.0
 10
-53.1058
 20
82.38330000000001
 30
0.0
 10
-53.1058
 20
82.38330000000001
 30
0.0
 10
-53.1058
 20
82.38330000000001
 30
0.0
 10
-53.1058
 20
82.38330000000001
 30
0.0
 10
-53.1058
 20
87.1973
 30
0.0
 10
-53.1058
 20
87.1973
 30
0.0
 10
-53.1058
 20
87.1973
 30
0.0
 10
-53.1058
 20
87.1973
 30
0.0
 10
-78.7475
 20
86.9158
 30
0.0
 10
-78.7475
 20
86.9158
 30
0.0
 10
-78.7475
 20
86.9158
 30
0.0
 10
-78.7475
 20
86.9158
 30
0.0
 10
-78.7646
 20
84.74900000000001
 30
0.0
 10
-78.7646
 20
84.74900000000001
 30
0.0
 10
-78.7646
 20
84.74900000000001
 30
0.0
 10
-78.8738
 20
84.4902
 30
0.0
 10
-79.0479
 20
84.3601
 30
0.0
 10
-79.2865
 20
84.35850000000001
 30
0.0
 10
-79.2865
 20
84.35850000000001
 30
0.0
 10
-79.2865
 20
84.35850000000001
 30
0.0
 10
-85.5308
 20
84.54560000000001
 30
0.0
 10
-85.5308
 20
84.54560000000001
 30
0.0
 10
-85.5308
 20
84.54560000000001
 30
0.0
 10
-86.48520000000001
 20
84.7329
 30
0.0
 10
-86.79860000000001
 20
85.22120000000001
 30
0.0
 10
-86.6733
 20
85.91540000000001
 30
0.0
 10
-86.6733
 20
85.91540000000001
 30
0.0
 10
-87.41680000000001
 20
90.105
 30
0.0
 10
-93.43600000000001
 20
91.57480000000001
 30
0.0
 10
-99.46390000000001
 20
92.3083
 30
0.0
 10
-99.46390000000001
 20
92.3083
 30
0.0
 10
-101.5195
 20
92.4033
 30
0.0
 10
-102.476
 20
93.28930000000001
 30
0.0
 10
-102.6041
 20
94.7711
 30
0.0
 10
-102.6041
 20
94.7711
 30
0.0
 10
-102.118
 20
101.9824
 30
0.0
 10
-97.22660000000001
 20
106.8491
 30
0.0
 10
-91.724
 20
108.4098
 30
0.0
  0
SPLINE
  5
2D
330
1F
100
AcDbEntity
  8
Camada 1
 62
    22
370
     5
100
AcDbSpline
210
0.0
220
0.0
230
1.0
 70
    11
 71
     3
 72
    60
 73
    56
 74
     0
 42
0.0000000001
 43
0.0000000001
 40
0.0
 40
0.0
 40
0.0
 40
0.0
 40
0.0714285714285714
 40
0.0714285714285714
 40
0.0714285714285714
 40
0.0714285714285714
 40
0.1428571428571429
 40
0.1428571428571429
 40
0.1428571428571429
 40
0.1428571428571429
 40
0.2142857142857143
 40
0.2142857142857143
 40
0.2142857142857143
 40
0.2142857142857143
 40
0.2857142857142857
 40
0.2857142857142857
 40
0.2857142857142857
 40
0.2857142857142857
 40
0.3571428571428571
 40
0.3571428571428571
 40
0.3571428571428571
 40
0.3571428571428571
 40
0.4285714285714285
 40
0.4285714285714285
 40
0.4285714285714285
 40
0.4285714285714285
 40
0.4999999999999999
 40
0.4999999999999999
 40
0.4999999999999999
 40
0.4999999999999999
 40
0.5714285714285713
 40
0.5714285714285713
 40
0.5714285714285713
 40
0.5714285714285713
 40
0.6428571428571427
 40
0.6428571428571427
 40
0.6428571428571427
 40
0.6428571428571427
 40
0.7142857142857141
 40
0.7142857142857141
 40
0.7142857142857141
 40
0.7142857142857141
 40
0.7857142857142855
 40
0.7857142857142855
 40
0.7857142857142855
 40
0.7857142857142855
 40
0.8571428571428569
 40
0.8571428571428569
 40
0.8571428571428569
 40
0.8571428571428569
 40
0.9285714285714283
 40
0.9285714285714283
 40
0.9285714285714283
 40
0.9285714285714283
 40
1.0
 40
1.0
 40
1.0
 40
1.0
 10
14.3602
 20
108.1069
 30
0.0
 10
14.3742
 20
108.3691
 30
0.0
 10
14.5026
 20
108.5687
 30
0.0
 10
14.8835
 20
108.6302
 30
0.0
 10
14.8835
 20
108.6302
 30
0.0
 10
14.8835
 20
108.6302
 30
0.0
 10
32.3844
 20
108.6302
 30
0.0
 10
32.3844
 20
108.6302
 30
0.0
 10
32.3844
 20
108.6302
 30
0.0
 10
32.69770000000001
 20
108.6374
 30
0.0
 10
32.9228
 20
108.4124
 30
0.0
 10
32.9077
 20
108.1069
 30
0.0
 10
32.9077
 20
108.1069
 30
0.0
 10
32.9077
 20
108.1069
 30
0.0
 10
32.9077
 20
96.533
 30
0.0
 10
32.9077
 20
96.533
 30
0.0
 10
32.9077
 20
96.533
 30
0.0
 10
32.9077
 20
96.533
 30
0.0
 10
36.6729
 20
96.533
 30
0.0
 10
36.6729
 20
96.533
 30
0.0
 10
36.6729
 20
96.533
 30
0.0
 10
36.9833
 20
96.5202
 30
0.0
 10
37.1665
 20
96.3562
 30
0.0
 10
37.19620000000001
 20
96.00970000000001
 30
0.0
 10
37.19620000000001
 20
96.00970000000001
 30
0.0
 10
37.19620000000001
 20
96.00970000000001
 30
0.0
 10
37.19620000000001
 20
90.41880000000001
 30
0.0
 10
37.19620000000001
 20
90.41880000000001
 30
0.0
 10
37.19620000000001
 20
90.41880000000001
 30
0.0
 10
37.1637
 20
90.07210000000001
 30
0.0
 10
36.9725
 20
89.91800000000001
 30
0.0
 10
36.6729
 20
89.8955
 30
0.0
 10
36.6729
 20
89.8955
 30
0.0
 10
36.6729
 20
89.8955
 30
0.0
 10
10.5951
 20
89.8955
 30
0.0
 10
10.5951
 20
89.8955
 30
0.0
 10
10.5951
 20
89.8955
 30
0.0
 10
10.2452
 20
89.9252
 30
0.0
 10
10.1098
 20
90.1319
 30
0.0
 10
10.0718
 20
90.41880000000001
 30
0.0
 10
10.0718
 20
90.41880000000001
 30
0.0
 10
10.0718
 20
90.41880000000001
 30
0.0
 10
10.0718
 20
96.00970000000001
 30
0.0
 10
10.0718
 20
96.00970000000001
 30
0.0
 10
10.0718
 20
96.00970000000001
 30
0.0
 10
10.1181
 20
96.32650000000001
 30
0.0
 10
10.2755
 20
96.52000000000001
 30
0.0
 10
10.5951
 20
96.533
 30
0.0
 10
10.5951
 20
96.533
 30
0.0
 10
10.5951
 20
96.533
 30
0.0
 10
14.3602
 20
96.533
 30
0.0
 10
14.3602
 20
96.533
 30
0.0
 10
14.3602
 20
96.533
 30
0.0
 10
14.3602
 20
96.533
 30
0.0
 10
14.3602
 20
108.1069
 30
0.0
 10
14.3602
 20
108.1069
 30
0.0
  0
SPLINE
  5
2E
330
1F
100
AcDbEntity
  8
Camada 1
 62
    22
370
     5
100
AcDbSpline
210
0.0
220
0.0
230
1.0
 70
    11
 71
     3
 72
    60
 73
    56
 74
     0
 42
0.0000000001
 43
0.0000000001
 40
0.0
 40
0.0
 40
0.0
 40
0.0
 40
0.0714285714285714
 40
0.0714285714285714
 40
0.0714285714285714
 40
0.0714285714285714
 40
0.1428571428571429
 40
0.1428571428571429
 40
0.1428571428571429
 40
0.1428571428571429
 40
0.2142857142857143
 40
0.2142857142857143
 40
0.2142857142857143
 40
0.2142857142857143
 40
0.2857142857142857
 40
0.2857142857142857
 40
0.2857142857142857
 40
0.2857142857142857
 40
0.3571428571428571
 40
0.3571428571428571
 40
0.3571428571428571
 40
0.3571428571428571
 40
0.4285714285714285
 40
0.4285714285714285
 40
0.4285714285714285
 40
0.4285714285714285
 40
0.4999999999999999
 40
0.4999999999999999
 40
0.4999999999999999
 40
0.4999999999999999
 40
0.5714285714285713
 40
0.5714285714285713
 40
0.5714285714285713
 40
0.5714285714285713
 40
0.6428571428571427
 40
0.6428571428571427
 40
0.6428571428571427
 40
0.6428571428571427
 40
0.7142857142857141
 40
0.7142857142857141
 40
0.7142857142857141
 40
0.7142857142857141
 40
0.7857142857142855
 40
0.7857142857142855
 40
0.7857142857142855
 40
0.7857142857142855
 40
0.8571428571428569
 40
0.8571428571428569
 40
0.8571428571428569
 40
0.8571428571428569
 40
0.9285714285714283
 40
0.9285714285714283
 40
0.9285714285714283
 40
0.9285714285714283
 40
1.0
 40
1.0
 40
1.0
 40
1.0
 10
47.715
 20
90.2388
 30
0.0
 10
47.729
 20
89.97660000000001
 30
0.0
 10
47.85740000000001
 20
89.777
 30
0.0
 10
48.2383
 20
89.71550000000001
 30
0.0
 10
48.2383
 20
89.71550000000001
 30
0.0
 10
48.2383
 20
89.71550000000001
 30
0.0
 10
65.7392
 20
89.71550000000001
 30
0.0
 10
65.7392
 20
89.71550000000001
 30
0.0
 10
65.7392
 20
89.71550000000001
 30
0.0
 10
66.05250000000001
 20
89.70830000000001
 30
0.0
 10
66.27760000000001
 20
89.9333
 30
0.0
 10
66.2625
 20
90.2388
 30
0.0
 10
66.2625
 20
90.2388
 30
0.0
 10
66.2625
 20
90.2388
 30
0.0
 10
66.2625
 20
101.8127
 30
0.0
 10
66.2625
 20
101.8127
 30
0.0
 10
66.2625
 20
101.8127
 30
0.0
 10
66.2625
 20
101.8127
 30
0.0
 10
70.02770000000001
 20
101.8127
 30
0.0
 10
70.02770000000001
 20
101.8127
 30
0.0
 10
70.02770000000001
 20
101.8127
 30
0.0
 10
70.3381
 20
101.8255
 30
0.0
 10
70.5213
 20
101.9895
 30
0.0
 10
70.551
 20
102.336
 30
0.0
 10
70.551
 20
102.336
 30
0.0
 10
70.551
 20
102.336
 30
0.0
 10
70.551
 20
107.9269
 30
0.0
 10
70.551
 20
107.9269
 30
0.0
 10
70.551
 20
107.9269
 30
0.0
 10
70.5185
 20
108.2736
 30
0.0
 10
70.32730000000001
 20
108.4277
 30
0.0
 10
70.02770000000001
 20
108.4502
 30
0.0
 10
70.02770000000001
 20
108.4502
 30
0.0
 10
70.02770000000001
 20
108.4502
 30
0.0
 10
43.9499
 20
108.4502
 30
0.0
 10
43.9499
 20
108.4502
 30
0.0
 10
43.9499
 20
108.4502
 30
0.0
 10
43.6
 20
108.4205
 30
0.0
 10
43.4646
 20
108.2138
 30
0.0
 10
43.4266
 20
107.9269
 30
0.0
 10
43.4266
 20
107.9269
 30
0.0
 10
43.4266
 20
107.9269
 30
0.0
 10
43.4266
 20
102.336
 30
0.0
 10
43.4266
 20
102.336
 30
0.0
 10
43.4266
 20
102.336
 30
0.0
 10
43.4729
 20
102.0192
 30
0.0
 10
43.63030000000001
 20
101.8257
 30
0.0
 10
43.9499
 20
101.8127
 30
0.0
 10
43.9499
 20
101.8127
 30
0.0
 10
43.9499
 20
101.8127
 30
0.0
 10
47.715
 20
101.8127
 30
0.0
 10
47.715
 20
101.8127
 30
0.0
 10
47.715
 20
101.8127
 30
0.0
 10
47.715
 20
101.8127
 30
0.0
 10
47.715
 20
90.2388
 30
0.0
 10
47.715
 20
90.2388
 30
0.0
  0
SPLINE
  5
2F
330
1F
100
AcDbEntity
  8
Camada 1
 62
    22
370
     5
100
AcDbSpline
210
0.0
220
0.0
230
1.0
 70
    11
 71
     3
 72
    32
 73
    28
 74
     0
 42
0.0000000001
 43
0.0000000001
 40
0.0
 40
0.0
 40
0.0
 40
0.0
 40
0.1428571428571429
 40
0.1428571428571429
 40
0.1428571428571429
 40
0.1428571428571429
 40
0.2857142857142857
 40
0.2857142857142857
 40
0.2857142857142857
 40
0.2857142857142857
 40
0.4285714285714286
 40
0.4285714285714286
 40
0.4285714285714286
 40
0.4285714285714286
 40
0.5714285714285714
 40
0.5714285714285714
 40
0.5714285714285714
 40
0.5714285714285714
 40
0.7142857142857142
 40
0.7142857142857142
 40
0.7142857142857142
 40
0.7142857142857142
 40
0.857142857142857
 40
0.857142857142857
 40
0.857142857142857
 40
0.857142857142857
 40
1.0
 40
1.0
 40
1.0
 40
1.0
 10
86.08800000000001
 20
85.60980000000001
 30
0.0
 10
86.08800000000001
 20
85.60980000000001
 30
0.0
 10
95.2886
 20
85.64630000000001
 30
0.0
 10
95.2886
 20
85.64630000000001
 30
0.0
 10
95.2886
 20
85.64630000000001
 30
0.0
 10
95.65480000000001
 20
85.24590000000001
 30
0.0
 10
95.90730000000001
 20
84.7273
 30
0.0
 10
96.04650000000001
 20
84.09010000000001
 30
0.0
 10
96.04650000000001
 20
84.09010000000001
 30
0.0
 10
96.04650000000001
 20
84.09010000000001
 30
0.0
 10
96.3827
 20
52.3395
 30
0.0
 10
96.3827
 20
52.3395
 30
0.0
 10
96.3827
 20
52.3395
 30
0.0
 10
95.38470000000001
 20
44.6238
 30
0.0
 10
91.557
 20
40.0355
 30
0.0
 10
85.992
 20
37.3611
 30
0.0
 10
85.992
 20
37.3611
 30
0.0
 10
84.5562
 20
37.2252
 30
0.0
 10
83.4192
 20
38.2449
 30
0.0
 10
83.49210000000001
 20
39.68980000000001
 30
0.0
 10
83.49210000000001
 20
39.68980000000001
 30
0.0
 10
83.49210000000001
 20
39.68980000000001
 30
0.0
 10
82.9354
 20
82.3133
 30
0.0
 10
82.9354
 20
82.3133
 30
0.0
 10
82.9354
 20
82.3133
 30
0.0
 10
82.9354
 20
82.3133
 30
0.0
 10
86.08800000000001
 20
85.60980000000001
 30
0.0
 10
86.08800000000001
 20
85.60980000000001
 30
0.0
  0
SPLINE
  5
30
330
1F
100
AcDbEntity
  8
Camada 1
 62
    22
370
     5
100
AcDbSpline
210
0.0
220
0.0
230
1.0
 70
    11
 71
     3
 72
    20
 73
    16
 74
     0
 42
0.0000000001
 43
0.0000000001
 40
0.0
 40
0.0
 40
0.0
 40
0.0
 40
0.25
 40
0.25
 40
0.25
 40
0.25
 40
0.5
 40
0.5
 40
0.5
 40
0.5
 40
0.75
 40
0.75
 40
0.75
 40
0.75
 40
1.0
 40
1.0
 40
1.0
 40
1.0
 10
87.74120000000001
 20
72.1245
 30
0.0
 10
87.74120000000001
 20
72.1245
 30
0.0
 10
89.8862
 20
72.1733
 30
0.0
 10
89.8862
 20
72.1733
 30
0.0
 10
89.8862
 20
72.1733
 30
0.0
 10
89.8862
 20
72.1733
 30
0.0
 10
90.36250000000001
 20
51.2467
 30
0.0
 10
90.36250000000001
 20
51.2467
 30
0.0
 10
90.36250000000001
 20
51.2467
 30
0.0
 10
90.36250000000001
 20
51.2467
 30
0.0
 10
88.2175
 20
51.1979
 30
0.0
 10
88.2175
 20
51.1979
 30
0.0
 10
88.2175
 20
51.1979
 30
0.0
 10
88.2175
 20
51.1979
 30
0.0
 10
87.74120000000001
 20
72.1245
 30
0.0
 10
87.74120000000001
 20
72.1245
 30
0.0
  0
SPLINE
  5
31
330
1F
100
AcDbEntity
  8
Camada 1
 62
    22
370
     5
100
AcDbSpline
210
0.0
220
0.0
230
1.0
 70
    11
 71
     3
 72
    32
 73
    28
 74
     0
 42
0.0000000001
 43
0.0000000001
 40
0.0
 40
0.0
 40
0.0
 40
0.0
 40
0.1428571428571429
 40
0.1428571428571429
 40
0.1428571428571429
 40
0.1428571428571429
 40
0.2857142857142857
 40
0.2857142857142857
 40
0.2857142857142857
 40
0.2857142857142857
 40
0.4285714285714286
 40
0.4285714285714286
 40
0.4285714285714286
 40
0.4285714285714286
 40
0.5714285714285714
 40
0.5714285714285714
 40
0.5714285714285714
 40
0.5714285714285714
 40
0.7142857142857142
 40
0.7142857142857142
 40
0.7142857142857142
 40
0.7142857142857142
 40
0.857142857142857
 40
0.857142857142857
 40
0.857142857142857
 40
0.857142857142857
 40
1.0
 40
1.0
 40
1.0
 40
1.0
 10
-73.6447
 20
72.7363
 30
0.0
 10
-73.6447
 20
72.7363
 30
0.0
 10
-82.84490000000001
 20
72.6392
 30
0.0
 10
-82.84490000000001
 20
72.6392
 30
0.0
 10
-82.84490000000001
 20
72.6392
 30
0.0
 10
-83.2111
 20
72.2388
 30
0.0
 10
-83.4409
 20
71.7094
 30
0.0
 10
-83.5801
 20
71.07220000000001
 30
0.0
 10
-83.5801
 20
71.07220000000001
 30
0.0
 10
-83.5801
 20
71.07220000000001
 30
0.0
 10
-83.4555
 20
39.3201
 30
0.0
 10
-83.4555
 20
39.3201
 30
0.0
 10
-83.4555
 20
39.3201
 30
0.0
 10
-82.45750000000001
 20
31.6044
 30
0.0
 10
-78.4135
 20
27.1685
 30
0.0
 10
-72.8485
 20
24.4941
 30
0.0
 10
-72.8485
 20
24.4941
 30
0.0
 10
-71.4127
 20
24.3582
 30
0.0
 10
-70.30980000000001
 20
25.4139
 30
0.0
 10
-70.3827
 20
26.8588
 30
0.0
 10
-70.3827
 20
26.8588
 30
0.0
 10
-70.3827
 20
26.8588
 30
0.0
 10
-70.44460000000001
 20
69.4859
 30
0.0
 10
-70.44460000000001
 20
69.4859
 30
0.0
 10
-70.44460000000001
 20
69.4859
 30
0.0
 10
-70.44460000000001
 20
69.4859
 30
0.0
 10
-73.6447
 20
72.7363
 30
0.0
 10
-73.6447
 20
72.7363
 30
0.0
  0
SPLINE
  5
32
330
1F
100
AcDbEntity
  8
Camada 1
 62
    22
370
     5
100
AcDbSpline
210
0.0
220
0.0
230
1.0
 70
    11
 71
     3
 72
    20
 73
    16
 74
     0
 42
0.0000000001
 43
0.0000000001
 40
0.0
 40
0.0
 40
0.0
 40
0.0
 40
0.25
 40
0.25
 40
0.25
 40
0.25
 40
0.5
 40
0.5
 40
0.5
 40
0.5
 40
0.75
 40
0.75
 40
0.75
 40
0.75
 40
1.0
 40
1.0
 40
1.0
 40
1.0
 10
-75.09440000000001
 20
59.2072
 30
0.0
 10
-75.09440000000001
 20
59.2072
 30
0.0
 10
-77.2394
 20
59.256
 30
0.0
 10
-77.2394
 20
59.256
 30
0.0
 10
-77.2394
 20
59.256
 30
0.0
 10
-77.2394
 20
59.256
 30
0.0
 10
-77.42
 20
38.31480000000001
 30
0.0
 10
-77.42
 20
38.31480000000001
 30
0.0
 10
-77.42
 20
38.31480000000001
 30
0.0
 10
-77.42
 20
38.31480000000001
 30
0.0
 10
-75.2745
 20
38.2971
 30
0.0
 10
-75.2745
 20
38.2971
 30
0.0
 10
-75.2745
 20
38.2971
 30
0.0
 10
-75.2745
 20
38.2971
 30
0.0
 10
-75.09440000000001
 20
59.2072
 30
0.0
 10
-75.09440000000001
 20
59.2072
 30
0.0
  0
SPLINE
  5
33
330
1F
100
AcDbEntity
  8
Camada 1
 62
    22
370
     5
100
AcDbSpline
210
0.0
220
0.0
230
1.0
 70
    11
 71
     3
 72
    32
 73
    28
 74
     0
 42
0.0000000001
 43
0.0000000001
 40
0.0
 40
0.0
 40
0.0
 40
0.0
 40
0.1428571428571429
 40
0.1428571428571429
 40
0.1428571428571429
 40
0.1428571428571429
 40
0.2857142857142857
 40
0.2857142857142857
 40
0.2857142857142857
 40
0.2857142857142857
 40
0.4285714285714286
 40
0.4285714285714286
 40
0.4285714285714286
 40
0.4285714285714286
 40
0.5714285714285714
 40
0.5714285714285714
 40
0.5714285714285714
 40
0.5714285714285714
 40
0.7142857142857142
 40
0.7142857142857142
 40
0.7142857142857142
 40
0.7142857142857142
 40
0.857142857142857
 40
0.857142857142857
 40
0.857142857142857
 40
0.857142857142857
 40
1.0
 40
1.0
 40
1.0
 40
1.0
 10
-46.6463
 20
72.9328
 30
0.0
 10
-46.6463
 20
72.9328
 30
0.0
 10
-57.7899
 20
72.8152
 30
0.0
 10
-57.7899
 20
72.8152
 30
0.0
 10
-57.7899
 20
72.8152
 30
0.0
 10
-58.1309
 20
72.48130000000001
 30
0.0
 10
-58.3273
 20
72.2889
 30
0.0
 10
-58.472
 20
72.14740000000001
 30
0.0
 10
-58.472
 20
72.14740000000001
 30
0.0
 10
-58.472
 20
72.14740000000001
 30
0.0
 10
-58.563
 20
39.1829
 30
0.0
 10
-58.563
 20
39.1829
 30
0.0
 10
-58.563
 20
39.1829
 30
0.0
 10
-57.5365
 20
31.2461
 30
0.0
 10
-52.0512
 20
24.3243
 30
0.0
 10
-46.3266
 20
21.5733
 30
0.0
 10
-46.3266
 20
21.5733
 30
0.0
 10
-44.23110000000001
 20
20.2499
 30
0.0
 10
-43.3044
 20
22.1622
 30
0.0
 10
-43.3794
 20
23.6485
 30
0.0
 10
-43.3794
 20
23.6485
 30
0.0
 10
-43.3794
 20
23.6485
 30
0.0
 10
-43.44620000000001
 20
69.6824
 30
0.0
 10
-43.44620000000001
 20
69.6824
 30
0.0
 10
-43.44620000000001
 20
69.6824
 30
0.0
 10
-43.44620000000001
 20
69.6824
 30
0.0
 10
-46.6463
 20
72.9328
 30
0.0
 10
-46.6463
 20
72.9328
 30
0.0
  0
SPLINE
  5
34
330
1F
100
AcDbEntity
  8
Camada 1
 62
    22
370
     5
100
AcDbSpline
210
0.0
220
0.0
230
1.0
 70
    11
 71
     3
 72
    20
 73
    16
 74
     0
 42
0.0000000001
 43
0.0000000001
 40
0.0
 40
0.0
 40
0.0
 40
0.0
 40
0.25
 40
0.25
 40
0.25
 40
0.25
 40
0.5
 40
0.5
 40
0.5
 40
0.5
 40
0.75
 40
0.75
 40
0.75
 40
0.75
 40
1.0
 40
1.0
 40
1.0
 40
1.0
 10
-48.1036
 20
59.4249
 30
0.0
 10
-48.1036
 20
59.4249
 30
0.0
 10
-50.24910000000001
 20
59.4425
 30
0.0
 10
-50.24910000000001
 20
59.4425
 30
0.0
 10
-50.24910000000001
 20
59.4425
 30
0.0
 10
-50.24910000000001
 20
59.4425
 30
0.0
 10
-50.42160000000001
 20
38.5112
 30
0.0
 10
-50.42160000000001
 20
38.5112
 30
0.0
 10
-50.42160000000001
 20
38.5112
 30
0.0
 10
-50.42160000000001
 20
38.5112
 30
0.0
 10
-48.2762
 20
38.4936
 30
0.0
 10
-48.2762
 20
38.4936
 30
0.0
 10
-48.2762
 20
38.4936
 30
0.0
 10
-48.2762
 20
38.4936
 30
0.0
 10
-48.1036
 20
59.4249
 30
0.0
 10
-48.1036
 20
59.4249
 30
0.0
  0
SPLINE
  5
35
330
1F
100
AcDbEntity
  8
Camada 1
 62
    22
370
     5
100
AcDbSpline
210
0.0
220
0.0
230
1.0
 70
    11
 71
     3
 72
    32
 73
    28
 74
     0
 42
0.0000000001
 43
0.0000000001
 40
0.0
 40
0.0
 40
0.0
 40
0.0
 40
0.1428571428571429
 40
0.1428571428571429
 40
0.1428571428571429
 40
0.1428571428571429
 40
0.2857142857142857
 40
0.2857142857142857
 40
0.2857142857142857
 40
0.2857142857142857
 40
0.4285714285714286
 40
0.4285714285714286
 40
0.4285714285714286
 40
0.4285714285714286
 40
0.5714285714285714
 40
0.5714285714285714
 40
0.5714285714285714
 40
0.5714285714285714
 40
0.7142857142857142
 40
0.7142857142857142
 40
0.7142857142857142
 40
0.7142857142857142
 40
0.857142857142857
 40
0.857142857142857
 40
0.857142857142857
 40
0.857142857142857
 40
1.0
 40
1.0
 40
1.0
 40
1.0
 10
59.0895
 20
85.4144
 30
0.0
 10
59.0895
 20
85.4144
 30
0.0
 10
70.2337
 20
85.4585
 30
0.0
 10
70.2337
 20
85.4585
 30
0.0
 10
70.2337
 20
85.4585
 30
0.0
 10
70.5797
 20
85.12960000000001
 30
0.0
 10
70.8031
 20
84.93770000000001
 30
0.0
 10
70.9256
 20
84.8006
 30
0.0
 10
70.9256
 20
84.8006
 30
0.0
 10
70.9256
 20
84.8006
 30
0.0
 10
71.4948
 20
51.841
 30
0.0
 10
71.4948
 20
51.841
 30
0.0
 10
71.4948
 20
51.841
 30
0.0
 10
70.8995
 20
43.8503
 30
0.0
 10
65.15000000000001
 20
37.08770000000001
 30
0.0
 10
59.6411
 20
34.1211
 30
0.0
 10
59.6411
 20
34.1211
 30
0.0
 10
57.5455
 20
32.7978
 30
0.0
 10
56.8722
 20
33.8256
 30
0.0
 10
56.5383
 20
36.08790000000001
 30
0.0
 10
56.5383
 20
36.08790000000001
 30
0.0
 10
56.5383
 20
36.08790000000001
 30
0.0
 10
55.93700000000001
 20
82.11790000000001
 30
0.0
 10
55.93700000000001
 20
82.11790000000001
 30
0.0
 10
55.93700000000001
 20
82.11790000000001
 30
0.0
 10
55.93700000000001
 20
82.11790000000001
 30
0.0
 10
59.0895
 20
85.4144
 30
0.0
 10
59.0895
 20
85.4144
 30
0.0
  0
SPLINE
  5
36
330
1F
100
AcDbEntity
  8
Camada 1
 62
    22
370
     5
100
AcDbSpline
210
0.0
220
0.0
230
1.0
 70
    11
 71
     3
 72
    20
 73
    16
 74
     0
 42
0.0000000001
 43
0.0000000001
 40
0.0
 40
0.0
 40
0.0
 40
0.0
 40
0.25
 40
0.25
 40
0.25
 40
0.25
 40
0.5
 40
0.5
 40
0.5
 40
0.5
 40
0.75
 40
0.75
 40
0.75
 40
0.75
 40
1.0
 40
1.0
 40
1.0
 40
1.0
 10
60.74290000000001
 20
71.929
 30
0.0
 10
60.74290000000001
 20
71.929
 30
0.0
 10
62.88780000000001
 20
71.97790000000001
 30
0.0
 10
62.88780000000001
 20
71.97790000000001
 30
0.0
 10
62.88780000000001
 20
71.97790000000001
 30
0.0
 10
62.88780000000001
 20
71.97790000000001
 30
0.0
 10
63.3641
 20
51.0512
 30
0.0
 10
63.3641
 20
51.0512
 30
0.0
 10
63.3641
 20
51.0512
 30
0.0
 10
63.3641
 20
51.0512
 30
0.0
 10
61.21910000000001
 20
51.0024
 30
0.0
 10
61.21910000000001
 20
51.0024
 30
0.0
 10
61.21910000000001
 20
51.0024
 30
0.0
 10
61.21910000000001
 20
51.0024
 30
0.0
 10
60.74290000000001
 20
71.929
 30
0.0
 10
60.74290000000001
 20
71.929
 30
0.0
  0
SPLINE
  5
37
330
1F
100
AcDbEntity
  8
Camada 1
 62
    22
370
     5
100
AcDbSpline
210
0.0
220
0.0
230
1.0
 70
    11
 71
     3
 72
    32
 73
    28
 74
     0
 42
0.0000000001
 43
0.0000000001
 40
0.0
 40
0.0
 40
0.0
 40
0.0
 40
0.1428571428571429
 40
0.1428571428571429
 40
0.1428571428571429
 40
0.1428571428571429
 40
0.2857142857142857
 40
0.2857142857142857
 40
0.2857142857142857
 40
0.2857142857142857
 40
0.4285714285714286
 40
0.4285714285714286
 40
0.4285714285714286
 40
0.4285714285714286
 40
0.5714285714285714
 40
0.5714285714285714
 40
0.5714285714285714
 40
0.5714285714285714
 40
0.7142857142857142
 40
0.7142857142857142
 40
0.7142857142857142
 40
0.7142857142857142
 40
0.857142857142857
 40
0.857142857142857
 40
0.857142857142857
 40
0.857142857142857
 40
1.0
 40
1.0
 40
1.0
 40
1.0
 10
-23.1662
 20
72.8828
 30
0.0
 10
-23.1662
 20
72.8828
 30
0.0
 10
-36.9775
 20
72.7371
 30
0.0
 10
-36.9775
 20
72.7371
 30
0.0
 10
-36.9775
 20
72.7371
 30
0.0
 10
-37.15
 20
72.29610000000001
 30
0.0
 10
-37.2381
 20
72.07080000000001
 30
0.0
 10
-37.7375
 20
70.795
 30
0.0
 10
-37.7375
 20
70.795
 30
0.0
 10
-37.7375
 20
70.795
 30
0.0
 10
-37.3247
 20
38.2751
 30
0.0
 10
-37.3247
 20
38.2751
 30
0.0
 10
-37.3247
 20
38.2751
 30
0.0
 10
-36.57
 20
29.9933
 30
0.0
 10
-30.0131
 20
21.2265
 30
0.0
 10
-21.9526
 20
18.7685
 30
0.0
 10
-21.9526
 20
18.7685
 30
0.0
 10
-20.8545
 20
18.4008
 30
0.0
 10
-19.8171
 20
19.8136
 30
0.0
 10
-19.896
 20
21.3746
 30
0.0
 10
-19.896
 20
21.3746
 30
0.0
 10
-19.896
 20
21.3746
 30
0.0
 10
-19.9661
 20
69.6323
 30
0.0
 10
-19.9661
 20
69.6323
 30
0.0
 10
-19.9661
 20
69.6323
 30
0.0
 10
-19.9661
 20
69.6323
 30
0.0
 10
-23.1662
 20
72.8828
 30
0.0
 10
-23.1662
 20
72.8828
 30
0.0
  0
SPLINE
  5
38
330
1F
100
AcDbEntity
  8
Camada 1
 62
    22
370
     5
100
AcDbSpline
210
0.0
220
0.0
230
1.0
 70
    11
 71
     3
 72
    20
 73
    16
 74
     0
 42
0.0000000001
 43
0.0000000001
 40
0.0
 40
0.0
 40
0.0
 40
0.0
 40
0.25
 40
0.25
 40
0.25
 40
0.25
 40
0.5
 40
0.5
 40
0.5
 40
0.5
 40
0.75
 40
0.75
 40
0.75
 40
0.75
 40
1.0
 40
1.0
 40
1.0
 40
1.0
 10
-24.6237
 20
59.3749
 30
0.0
 10
-24.6237
 20
59.3749
 30
0.0
 10
-26.7691
 20
59.3926
 30
0.0
 10
-26.7691
 20
59.3926
 30
0.0
 10
-26.7691
 20
59.3926
 30
0.0
 10
-26.7691
 20
59.3926
 30
0.0
 10
-26.9416
 20
38.4613
 30
0.0
 10
-26.9416
 20
38.4613
 30
0.0
 10
-26.9416
 20
38.4613
 30
0.0
 10
-26.9416
 20
38.4613
 30
0.0
 10
-24.7961
 20
38.4435
 30
0.0
 10
-24.7961
 20
38.4435
 30
0.0
 10
-24.7961
 20
38.4435
 30
0.0
 10
-24.7961
 20
38.4435
 30
0.0
 10
-24.6237
 20
59.3749
 30
0.0
 10
-24.6237
 20
59.3749
 30
0.0
  0
SPLINE
  5
39
330
1F
100
AcDbEntity
  8
Camada 1
 62
    22
370
     5
100
AcDbSpline
210
0.0
220
0.0
230
1.0
 70
    11
 71
     3
 72
    32
 73
    28
 74
     0
 42
0.0000000001
 43
0.0000000001
 40
0.0
 40
0.0
 40
0.0
 40
0.0
 40
0.1428571428571429
 40
0.1428571428571429
 40
0.1428571428571429
 40
0.1428571428571429
 40
0.2857142857142857
 40
0.2857142857142857
 40
0.2857142857142857
 40
0.2857142857142857
 40
0.4285714285714286
 40
0.4285714285714286
 40
0.4285714285714286
 40
0.4285714285714286
 40
0.5714285714285714
 40
0.5714285714285714
 40
0.5714285714285714
 40
0.5714285714285714
 40
0.7142857142857142
 40
0.7142857142857142
 40
0.7142857142857142
 40
0.7142857142857142
 40
0.857142857142857
 40
0.857142857142857
 40
0.857142857142857
 40
0.857142857142857
 40
1.0
 40
1.0
 40
1.0
 40
1.0
 10
35.6126
 20
85.0239
 30
0.0
 10
35.6126
 20
85.0239
 30
0.0
 10
49.42460000000001
 20
85.07860000000001
 30
0.0
 10
49.42460000000001
 20
85.07860000000001
 30
0.0
 10
49.42460000000001
 20
85.07860000000001
 30
0.0
 10
49.64870000000001
 20
84.5292
 30
0.0
 10
49.9498
 20
83.79170000000001
 30
0.0
 10
50.2128
 20
83.1476
 30
0.0
 10
50.2128
 20
83.1476
 30
0.0
 10
50.2128
 20
83.1476
 30
0.0
 10
50.28420000000001
 20
50.7672
 30
0.0
 10
50.28420000000001
 20
50.7672
 30
0.0
 10
50.28420000000001
 20
50.7672
 30
0.0
 10
49.52950000000001
 20
40.5989
 30
0.0
 10
42.111
 20
33.456
 30
0.0
 10
35.6676
 20
31.1057
 30
0.0
 10
35.6676
 20
31.1057
 30
0.0
 10
34.1122
 20
30.1731
 30
0.0
 10
33.0112
 20
31.9323
 30
0.0
 10
33.0901
 20
33.4932
 30
0.0
 10
33.0901
 20
33.4932
 30
0.0
 10
33.0901
 20
33.4932
 30
0.0
 10
32.4601
 20
81.7274
 30
0.0
 10
32.4601
 20
81.7274
 30
0.0
 10
32.4601
 20
81.7274
 30
0.0
 10
32.4601
 20
81.7274
 30
0.0
 10
35.6126
 20
85.0239
 30
0.0
 10
35.6126
 20
85.0239
 30
0.0
  0
SPLINE
  5
3A
330
1F
100
AcDbEntity
  8
Camada 1
 62
    22
370
     5
100
AcDbSpline
210
0.0
220
0.0
230
1.0
 70
    11
 71
     3
 72
    20
 73
    16
 74
     0
 42
0.0000000001
 43
0.0000000001
 40
0.0
 40
0.0
 40
0.0
 40
0.0
 40
0.25
 40
0.25
 40
0.25
 40
0.25
 40
0.5
 40
0.5
 40
0.5
 40
0.5
 40
0.75
 40
0.75
 40
0.75
 40
0.75
 40
1.0
 40
1.0
 40
1.0
 40
1.0
 10
37.2659
 20
71.5385
 30
0.0
 10
37.2659
 20
71.5385
 30
0.0
 10
39.4108
 20
71.58720000000001
 30
0.0
 10
39.4108
 20
71.58720000000001
 30
0.0
 10
39.4108
 20
71.58720000000001
 30
0.0
 10
39.4108
 20
71.58720000000001
 30
0.0
 10
39.8872
 20
50.6606
 30
0.0
 10
39.8872
 20
50.6606
 30
0.0
 10
39.8872
 20
50.6606
 30
0.0
 10
39.8872
 20
50.6606
 30
0.0
 10
37.7422
 20
50.6118
 30
0.0
 10
37.7422
 20
50.6118
 30
0.0
 10
37.7422
 20
50.6118
 30
0.0
 10
37.7422
 20
50.6118
 30
0.0
 10
37.2659
 20
71.5385
 30
0.0
 10
37.2659
 20
71.5385
 30
0.0
  0
SPLINE
  5
3B
330
1F
100
AcDbEntity
  8
Camada 1
 62
    22
370
     5
100
AcDbSpline
210
0.0
220
0.0
230
1.0
 70
    11
 71
     3
 72
    32
 73
    28
 74
     0
 42
0.0000000001
 43
0.0000000001
 40
0.0
 40
0.0
 40
0.0
 40
0.0
 40
0.1428571428571429
 40
0.1428571428571429
 40
0.1428571428571429
 40
0.1428571428571429
 40
0.2857142857142857
 40
0.2857142857142857
 40
0.2857142857142857
 40
0.2857142857142857
 40
0.4285714285714286
 40
0.4285714285714286
 40
0.4285714285714286
 40
0.4285714285714286
 40
0.5714285714285714
 40
0.5714285714285714
 40
0.5714285714285714
 40
0.5714285714285714
 40
0.7142857142857142
 40
0.7142857142857142
 40
0.7142857142857142
 40
0.7142857142857142
 40
0.857142857142857
 40
0.857142857142857
 40
0.857142857142857
 40
0.857142857142857
 40
1.0
 40
1.0
 40
1.0
 40
1.0
 10
-0.2731
 20
72.8245
 30
0.0
 10
-0.2731
 20
72.8245
 30
0.0
 10
-15.394
 20
72.6648
 30
0.0
 10
-15.394
 20
72.6648
 30
0.0
 10
-15.394
 20
72.6648
 30
0.0
 10
-15.7482
 20
72.3107
 30
0.0
 10
-16.9264
 20
71.13330000000001
 30
0.0
 10
-17.0461
 20
71.0136
 30
0.0
 10
-17.0461
 20
71.0136
 30
0.0
 10
-17.0461
 20
71.0136
 30
0.0
 10
-16.8926
 20
37.9195
 30
0.0
 10
-16.8926
 20
37.9195
 30
0.0
 10
-16.8926
 20
37.9195
 30
0.0
 10
-16.0515
 20
29.3226
 30
0.0
 10
-9.3459
 20
19.0949
 30
0.0
 10
0.7704000000000001
 20
16.4356
 30
0.0
 10
0.7704000000000001
 20
16.4356
 30
0.0
 10
1.9405
 20
15.8117
 30
0.0
 10
3.0901
 20
16.0347
 30
0.0
 10
3.0022
 20
17.655
 30
0.0
 10
3.0022
 20
17.655
 30
0.0
 10
3.0022
 20
17.655
 30
0.0
 10
2.9269
 20
69.574
 30
0.0
 10
2.9269
 20
69.574
 30
0.0
 10
2.9269
 20
69.574
 30
0.0
 10
2.9269
 20
69.574
 30
0.0
 10
-0.2731
 20
72.8245
 30
0.0
 10
-0.2731
 20
72.8245
 30
0.0
  0
SPLINE
  5
3C
330
1F
100
AcDbEntity
  8
Camada 1
 62
    22
370
     5
100
AcDbSpline
210
0.0
220
0.0
230
1.0
 70
    11
 71
     3
 72
    20
 73
    16
 74
     0
 42
0.0000000001
 43
0.0000000001
 40
0.0
 40
0.0
 40
0.0
 40
0.0
 40
0.25
 40
0.25
 40
0.25
 40
0.25
 40
0.5
 40
0.5
 40
0.5
 40
0.5
 40
0.75
 40
0.75
 40
0.75
 40
0.75
 40
1.0
 40
1.0
 40
1.0
 40
1.0
 10
16.521
 20
71.1965
 30
0.0
 10
16.521
 20
71.1965
 30
0.0
 10
14.376
 20
71.1477
 30
0.0
 10
14.376
 20
71.1477
 30
0.0
 10
14.376
 20
71.1477
 30
0.0
 10
14.376
 20
71.1477
 30
0.0
 10
14.8523
 20
50.2211
 30
0.0
 10
14.8523
 20
50.2211
 30
0.0
 10
14.8523
 20
50.2211
 30
0.0
 10
14.8523
 20
50.2211
 30
0.0
 10
16.9973
 20
50.2699
 30
0.0
 10
16.9973
 20
50.2699
 30
0.0
 10
16.9973
 20
50.2699
 30
0.0
 10
16.9973
 20
50.2699
 30
0.0
 10
16.521
 20
71.1965
 30
0.0
 10
16.521
 20
71.1965
 30
0.0
  0
SPLINE
  5
3D
330
1F
100
AcDbEntity
  8
Camada 1
 62
    22
370
     5
100
AcDbSpline
210
0.0
220
0.0
230
1.0
 70
    11
 71
     3
 72
    32
 73
    28
 74
     0
 42
0.0000000001
 43
0.0000000001
 40
0.0
 40
0.0
 40
0.0
 40
0.0
 40
0.1428571428571429
 40
0.1428571428571429
 40
0.1428571428571429
 40
0.1428571428571429
 40
0.2857142857142857
 40
0.2857142857142857
 40
0.2857142857142857
 40
0.2857142857142857
 40
0.4285714285714286
 40
0.4285714285714286
 40
0.4285714285714286
 40
0.4285714285714286
 40
0.5714285714285714
 40
0.5714285714285714
 40
0.5714285714285714
 40
0.5714285714285714
 40
0.7142857142857142
 40
0.7142857142857142
 40
0.7142857142857142
 40
0.7142857142857142
 40
0.857142857142857
 40
0.857142857142857
 40
0.857142857142857
 40
0.857142857142857
 40
1.0
 40
1.0
 40
1.0
 40
1.0
 10
-93.5215
 20
72.1874
 30
0.0
 10
-93.5215
 20
72.1874
 30
0.0
 10
-100.5487
 20
72.11320000000001
 30
0.0
 10
-100.5487
 20
72.11320000000001
 30
0.0
 10
-100.5487
 20
72.11320000000001
 30
0.0
 10
-100.776
 20
71.7165
 30
0.0
 10
-100.776
 20
71.7165
 30
0.0
 10
-101.0034
 20
71.2842
 30
0.0
 10
-101.0034
 20
71.2842
 30
0.0
 10
-101.0034
 20
71.2842
 30
0.0
 10
-101.0963
 20
38.214
 30
0.0
 10
-101.0963
 20
38.214
 30
0.0
 10
-101.0963
 20
38.214
 30
0.0
 10
-99.46040000000001
 20
31.1451
 30
0.0
 10
-97.3395
 20
29.0445
 30
0.0
 10
-92.6717
 20
25.885
 30
0.0
 10
-92.6717
 20
25.885
 30
0.0
 10
-91.3199
 20
25.6146
 30
0.0
 10
-90.09230000000001
 20
26.3867
 30
0.0
 10
-90.15270000000001
 20
27.8316
 30
0.0
 10
-90.15270000000001
 20
27.8316
 30
0.0
 10
-90.15270000000001
 20
27.8316
 30
0.0
 10
-90.3215
 20
68.937
 30
0.0
 10
-90.3215
 20
68.937
 30
0.0
 10
-90.3215
 20
68.937
 30
0.0
 10
-90.3215
 20
68.937
 30
0.0
 10
-93.5215
 20
72.1874
 30
0.0
 10
-93.5215
 20
72.1874
 30
0.0
  0
SPLINE
  5
3E
330
1F
100
AcDbEntity
  8
Camada 1
 62
    22
370
     5
100
AcDbSpline
210
0.0
220
0.0
230
1.0
 70
    11
 71
     3
 72
    32
 73
    28
 74
     0
 42
0.0000000001
 43
0.0000000001
 40
0.0
 40
0.0
 40
0.0
 40
0.0
 40
0.1428571428571429
 40
0.1428571428571429
 40
0.1428571428571429
 40
0.1428571428571429
 40
0.2857142857142857
 40
0.2857142857142857
 40
0.2857142857142857
 40
0.2857142857142857
 40
0.4285714285714286
 40
0.4285714285714286
 40
0.4285714285714286
 40
0.4285714285714286
 40
0.5714285714285714
 40
0.5714285714285714
 40
0.5714285714285714
 40
0.5714285714285714
 40
0.7142857142857142
 40
0.7142857142857142
 40
0.7142857142857142
 40
0.7142857142857142
 40
0.857142857142857
 40
0.857142857142857
 40
0.857142857142857
 40
0.857142857142857
 40
1.0
 40
1.0
 40
1.0
 40
1.0
 10
12.7227
 20
84.6062
 30
0.0
 10
12.7227
 20
84.6062
 30
0.0
 10
27.8445
 20
84.66600000000001
 30
0.0
 10
27.8445
 20
84.66600000000001
 30
0.0
 10
27.8445
 20
84.66600000000001
 30
0.0
 10
28.1987
 20
84.312
 30
0.0
 10
29.4006
 20
83.15870000000001
 30
0.0
 10
29.5203
 20
83.039
 30
0.0
 10
29.5203
 20
83.039
 30
0.0
 10
29.5203
 20
83.039
 30
0.0
 10
29.824
 20
49.7105
 30
0.0
 10
29.824
 20
49.7105
 30
0.0
 10
29.824
 20
49.7105
 30
0.0
 10
28.9828
 20
41.11360000000001
 30
0.0
 10
22.5641
 20
31.0093
 30
0.0
 10
12.6095
 20
28.2422
 30
0.0
 10
12.6095
 20
28.2422
 30
0.0
 10
11.4394
 20
27.6183
 30
0.0
 10
10.1603
 20
27.7747
 30
0.0
 10
10.2482
 20
29.3949
 30
0.0
 10
10.2482
 20
29.3949
 30
0.0
 10
10.2482
 20
29.3949
 30
0.0
 10
9.5702
 20
81.3096
 30
0.0
 10
9.5702
 20
81.3096
 30
0.0
 10
9.5702
 20
81.3096
 30
0.0
 10
9.5702
 20
81.3096
 30
0.0
 10
12.7227
 20
84.6062
 30
0.0
 10
12.7227
 20
84.6062
 30
0.0
  0
SPLINE
  5
3F
330
1F
100
AcDbEntity
  8
Camada 1
 62
    22
370
     5
100
AcDbSpline
210
0.0
220
0.0
230
1.0
 70
    11
 71
     3
 72
    32
 73
    28
 74
     0
 42
0.0000000001
 43
0.0000000001
 40
0.0
 40
0.0
 40
0.0
 40
0.0
 40
0.1428571428571429
 40
0.1428571428571429
 40
0.1428571428571429
 40
0.1428571428571429
 40
0.2857142857142857
 40
0.2857142857142857
 40
0.2857142857142857
 40
0.2857142857142857
 40
0.4285714285714286
 40
0.4285714285714286
 40
0.4285714285714286
 40
0.4285714285714286
 40
0.5714285714285714
 40
0.5714285714285714
 40
0.5714285714285714
 40
0.5714285714285714
 40
0.7142857142857142
 40
0.7142857142857142
 40
0.7142857142857142
 40
0.7142857142857142
 40
0.857142857142857
 40
0.857142857142857
 40
0.857142857142857
 40
0.857142857142857
 40
1.0
 40
1.0
 40
1.0
 40
1.0
 10
64.03750000000001
 20
20.117
 30
0.0
 10
64.03750000000001
 20
20.117
 30
0.0
 10
71.0651
 20
20.1448
 30
0.0
 10
71.0651
 20
20.1448
 30
0.0
 10
71.0651
 20
20.1448
 30
0.0
 10
71.2923
 20
19.7481
 30
0.0
 10
71.3036
 20
19.7905
 30
0.0
 10
71.53100000000001
 20
19.3582
 30
0.0
 10
71.53100000000001
 20
19.3582
 30
0.0
 10
71.53100000000001
 20
19.3582
 30
0.0
 10
72.1045
 20
-13.7429
 30
0.0
 10
72.1045
 20
-13.7429
 30
0.0
 10
72.1045
 20
-13.7429
 30
0.0
 10
71.00660000000001
 20
-19.9241
 30
0.0
 10
68.1319
 20
-23.7574
 30
0.0
 10
63.78680000000001
 20
-26.2175
 30
0.0
 10
63.78680000000001
 20
-26.2175
 30
0.0
 10
62.435
 20
-26.4879
 30
0.0
 10
61.30670000000001
 20
-25.7534
 30
0.0
 10
61.4207
 20
-24.2013
 30
0.0
 10
61.4207
 20
-24.2013
 30
0.0
 10
61.4207
 20
-24.2013
 30
0.0
 10
60.8849
 20
16.8205
 30
0.0
 10
60.8849
 20
16.8205
 30
0.0
 10
60.8849
 20
16.8205
 30
0.0
 10
60.8849
 20
16.8205
 30
0.0
 10
64.03750000000001
 20
20.117
 30
0.0
 10
64.03750000000001
 20
20.117
 30
0.0
  0
SPLINE
  5
40
330
1F
100
AcDbEntity
  8
Camada 1
 62
    22
370
     5
100
AcDbSpline
210
0.0
220
0.0
230
1.0
 70
    11
 71
     3
 72
    96
 73
    92
 74
     0
 42
0.0000000001
 43
0.0000000001
 40
0.0
 40
0.0
 40
0.0
 40
0.0
 40
0.0434782608695652
 40
0.0434782608695652
 40
0.0434782608695652
 40
0.0434782608695652
 40
0.0869565217391304
 40
0.0869565217391304
 40
0.0869565217391304
 40
0.0869565217391304
 40
0.1304347826086957
 40
0.1304347826086957
 40
0.1304347826086957
 40
0.1304347826086957
 40
0.1739130434782609
 40
0.1739130434782609
 40
0.1739130434782609
 40
0.1739130434782609
 40
0.2173913043478261
 40
0.2173913043478261
 40
0.2173913043478261
 40
0.2173913043478261
 40
0.2608695652173913
 40
0.2608695652173913
 40
0.2608695652173913
 40
0.2608695652173913
 40
0.3043478260869565
 40
0.3043478260869565
 40
0.3043478260869565
 40
0.3043478260869565
 40
0.3478260869565217
 40
0.3478260869565217
 40
0.3478260869565217
 40
0.3478260869565217
 40
0.3913043478260869
 40
0.3913043478260869
 40
0.3913043478260869
 40
0.3913043478260869
 40
0.4347826086956521
 40
0.4347826086956521
 40
0.4347826086956521
 40
0.4347826086956521
 40
0.4782608695652173
 40
0.4782608695652173
 40
0.4782608695652173
 40
0.4782608695652173
 40
0.5217391304347825
 40
0.5217391304347825
 40
0.5217391304347825
 40
0.5217391304347825
 40
0.5652173913043477
 40
0.5652173913043477
 40
0.5652173913043477
 40
0.5652173913043477
 40
0.6086956521739129
 40
0.6086956521739129
 40
0.6086956521739129
 40
0.6086956521739129
 40
0.6521739130434781
 40
0.6521739130434781
 40
0.6521739130434781
 40
0.6521739130434781
 40
0.6956521739130432
 40
0.6956521739130432
 40
0.6956521739130432
 40
0.6956521739130432
 40
0.7391304347826084
 40
0.7391304347826084
 40
0.7391304347826084
 40
0.7391304347826084
 40
0.7826086956521736
 40
0.7826086956521736
 40
0.7826086956521736
 40
0.7826086956521736
 40
0.8260869565217388
 40
0.8260869565217388
 40
0.8260869565217388
 40
0.8260869565217388
 40
0.869565217391304
 40
0.869565217391304
 40
0.869565217391304
 40
0.869565217391304
 40
0.9130434782608692
 40
0.9130434782608692
 40
0.9130434782608692
 40
0.9130434782608692
 40
0.9565217391304344
 40
0.9565217391304344
 40
0.9565217391304344
 40
0.9565217391304344
 40
1.0
 40
1.0
 40
1.0
 40
1.0
 10
-5.7346
 20
10.667
 30
0.0
 10
-5.666
 20
11.3578
 30
0.0
 10
-5.299
 20
11.701
 30
0.0
 10
-4.6336
 20
11.6966
 30
0.0
 10
-4.6336
 20
11.6966
 30
0.0
 10
-0.4973
 20
11.178
 30
0.0
 10
2.9982
 20
12.3002
 30
0.0
 10
6.3223
 20
13.8618
 30
0.0
 10
6.3223
 20
13.8618
 30
0.0
 10
6.3223
 20
13.8618
 30
0.0
 10
9.718200000000001
 20
12.2929
 30
0.0
 10
9.718200000000001
 20
12.2929
 30
0.0
 10
9.718200000000001
 20
12.2929
 30
0.0
 10
9.718200000000001
 20
12.2929
 30
0.0
 10
11.3258
 20
12.24
 30
0.0
 10
11.3258
 20
12.24
 30
0.0
 10
11.3258
 20
12.24
 30
0.0
 10
11.3258
 20
12.24
 30
0.0
 10
14.8074
 20
13.8618
 30
0.0
 10
14.8074
 20
13.8618
 30
0.0
 10
14.8074
 20
13.8618
 30
0.0
 10
18.8107
 20
12.2715
 30
0.0
 10
22.4488
 20
11.0614
 30
0.0
 10
25.7636
 20
11.6966
 30
0.0
 10
25.7636
 20
11.6966
 30
0.0
 10
26.4349
 20
11.7273
 30
0.0
 10
26.7661
 20
11.3403
 30
0.0
 10
26.8646
 20
10.667
 30
0.0
 10
26.8646
 20
10.667
 30
0.0
 10
26.9992
 20
8.395100000000001
 30
0.0
 10
28.3775
 20
6.6001
 30
0.0
 10
28.9077
 20
4.846600000000001
 30
0.0
 10
28.9077
 20
4.846600000000001
 30
0.0
 10
28.9252
 20
4.1502
 30
0.0
 10
28.6249
 20
3.6293
 30
0.0
 10
27.8605
 20
3.3648
 30
0.0
 10
27.8605
 20
3.3648
 30
0.0
 10
25.2574
 20
3.3501
 30
0.0
 10
23.7168
 20
2.3074
 30
0.0
 10
22.0663
 20
0.3675
 30
0.0
 10
22.0663
 20
0.3675
 30
0.0
 10
21.87
 20
0.1367
 30
0.0
 10
21.7398
 20
-0.063
 30
0.0
 10
21.7258
 20
-0.2884
 30
0.0
 10
21.7258
 20
-0.2884
 30
0.0
 10
21.7258
 20
-0.2884
 30
0.0
 10
21.3709
 20
-3.8641
 30
0.0
 10
21.3709
 20
-3.8641
 30
0.0
 10
21.3709
 20
-3.8641
 30
0.0
 10
21.1648
 20
-4.2824
 30
0.0
 10
20.8505
 20
-4.5232
 30
0.0
 10
20.4467
 20
-4.6172
 30
0.0
 10
20.4467
 20
-4.6172
 30
0.0
 10
20.4467
 20
-4.6172
 30
0.0
 10
15.2124
 20
-4.571800000000001
 30
0.0
 10
15.2124
 20
-4.571800000000001
 30
0.0
 10
15.2124
 20
-4.571800000000001
 30
0.0
 10
13.7807
 20
-3.8229
 30
0.0
 10
12.2558
 20
-3.1592
 30
0.0
 10
10.5649
 20
-2.6473
 30
0.0
 10
10.5649
 20
-2.6473
 30
0.0
 10
8.949
 20
-3.1558
 30
0.0
 10
7.419700000000001
 20
-3.7919
 30
0.0
 10
5.985600000000001
 20
-4.5686
 30
0.0
 10
5.985600000000001
 20
-4.5686
 30
0.0
 10
5.985600000000001
 20
-4.5686
 30
0.0
 10
0.6914
 20
-4.6129
 30
0.0
 10
0.6914
 20
-4.6129
 30
0.0
 10
0.6914
 20
-4.6129
 30
0.0
 10
0.2525
 20
-4.491400000000001
 30
0.0
 10
-0.0544
 20
-4.2377
 30
0.0
 10
-0.241
 20
-3.8641
 30
0.0
 10
-0.241
 20
-3.8641
 30
0.0
 10
-0.241
 20
-3.8641
 30
0.0
 10
-0.5932000000000001
 20
-0.331
 30
0.0
 10
-0.5932000000000001
 20
-0.331
 30
0.0
 10
-0.5932000000000001
 20
-0.331
 30
0.0
 10
-0.606
 20
-0.0257
 30
0.0
 10
-0.6915
 20
0.2279
 30
0.0
 10
-0.9363
 20
0.3675
 30
0.0
 10
-0.9363
 20
0.3675
 30
0.0
 10
-2.0932
 20
2.0254
 30
0.0
 10
-3.7991
 20
3.2164
 30
0.0
 10
-6.7305
 20
3.3648
 30
0.0
 10
-6.7305
 20
3.3648
 30
0.0
 10
-7.8975
 20
3.8204
 30
0.0
 10
-8.042
 20
4.7339
 30
0.0
 10
-7.3399
 20
6.026800000000001
 30
0.0
 10
-7.3399
 20
6.026800000000001
 30
0.0
 10
-6.5667
 20
7.362600000000001
 30
0.0
 10
-6.0162
 20
8.895800000000001
 30
0.0
 10
-5.7346
 20
10.667
 30
0.0
  0
SPLINE
  5
41
330
1F
100
AcDbEntity
  8
Camada 1
 62
    22
370
     5
100
AcDbSpline
210
0.0
220
0.0
230
1.0
 70
    11
 71
     3
 72
   100
 73
    96
 74
     0
 42
0.0000000001
 43
0.0000000001
 40
0.0
 40
0.0
 40
0.0
 40
0.0
 40
0.0416666666666667
 40
0.0416666666666667
 40
0.0416666666666667
 40
0.0416666666666667
 40
0.0833333333333333
 40
0.0833333333333333
 40
0.0833333333333333
 40
0.0833333333333333
 40
0.125
 40
0.125
 40
0.125
 40
0.125
 40
0.1666666666666667
 40
0.1666666666666667
 40
0.1666666666666667
 40
0.1666666666666667
 40
0.2083333333333333
 40
0.2083333333333333
 40
0.2083333333333333
 40
0.2083333333333333
 40
0.25
 40
0.25
 40
0.25
 40
0.25
 40
0.2916666666666666
 40
0.2916666666666666
 40
0.2916666666666666
 40
0.2916666666666666
 40
0.3333333333333333
 40
0.3333333333333333
 40
0.3333333333333333
 40
0.3333333333333333
 40
0.375
 40
0.375
 40
0.375
 40
0.375
 40
0.4166666666666667
 40
0.4166666666666667
 40
0.4166666666666667
 40
0.4166666666666667
 40
0.4583333333333334
 40
0.4583333333333334
 40
0.4583333333333334
 40
0.4583333333333334
 40
0.5
 40
0.5
 40
0.5
 40
0.5
 40
0.5416666666666666
 40
0.5416666666666666
 40
0.5416666666666666
 40
0.5416666666666666
 40
0.5833333333333333
 40
0.5833333333333333
 40
0.5833333333333333
 40
0.5833333333333333
 40
0.6249999999999999
 40
0.6249999999999999
 40
0.6249999999999999
 40
0.6249999999999999
 40
0.6666666666666665
 40
0.6666666666666665
 40
0.6666666666666665
 40
0.6666666666666665
 40
0.7083333333333332
 40
0.7083333333333332
 40
0.7083333333333332
 40
0.7083333333333332
 40
0.7499999999999998
 40
0.7499999999999998
 40
0.7499999999999998
 40
0.7499999999999998
 40
0.7916666666666664
 40
0.7916666666666664
 40
0.7916666666666664
 40
0.7916666666666664
 40
0.833333333333333
 40
0.833333333333333
 40
0.833333333333333
 40
0.833333333333333
 40
0.8749999999999997
 40
0.8749999999999997
 40
0.8749999999999997
 40
0.8749999999999997
 40
0.9166666666666663
 40
0.9166666666666663
 40
0.9166666666666663
 40
0.9166666666666663
 40
0.9583333333333329
 40
0.9583333333333329
 40
0.9583333333333329
 40
0.9583333333333329
 40
1.0
 40
1.0
 40
1.0
 40
1.0
 10
-49.6379
 20
13.9471
 30
0.0
 10
-49.56200000000001
 20
14.7113
 30
0.0
 10
-49.4085
 20
14.7713
 30
0.0
 10
-48.6724
 20
14.7664
 30
0.0
 10
-48.6724
 20
14.7664
 30
0.0
 10
-46.4723
 20
14.2949
 30
0.0
 10
-44.2654
 20
13.8336
 30
0.0
 10
-42.3948
 20
14.1845
 30
0.0
 10
-42.3948
 20
14.1845
 30
0.0
 10
-40.4145
 20
14.5561
 30
0.0
 10
-40.01620000000001
 20
14.2891
 30
0.0
 10
-36.4011
 20
16.5335
 30
0.0
 10
-36.4011
 20
16.5335
 30
0.0
 10
-35.9896
 20
16.828
 30
0.0
 10
-35.5146
 20
16.9346
 30
0.0
 10
-34.9465
 20
16.767
 30
0.0
 10
-34.9465
 20
16.767
 30
0.0
 10
-31.8551
 20
13.5732
 30
0.0
 10
-30.4371
 20
14.773
 30
0.0
 10
-28.0726
 20
16.7669
 30
0.0
 10
-28.0726
 20
16.7669
 30
0.0
 10
-27.562
 20
16.9558
 30
0.0
 10
-27.0773
 20
16.878
 30
0.0
 10
-26.6182
 20
16.5335
 30
0.0
 10
-26.6182
 20
16.5335
 30
0.0
 10
-22.2702
 20
13.3485
 30
0.0
 10
-18.0139
 20
14.0637
 30
0.0
 10
-14.3468
 20
14.7664
 30
0.0
 10
-14.3468
 20
14.7664
 30
0.0
 10
-13.6042
 20
14.8004
 30
0.0
 10
-13.5196
 20
14.5882
 30
0.0
 10
-13.3858
 20
14.0658
 30
0.0
 10
-13.3858
 20
14.0658
 30
0.0
 10
-13.4311
 20
12.3434
 30
0.0
 10
-13.5559
 20
8.759400000000001
 30
0.0
 10
-11.2007
 20
6.390700000000001
 30
0.0
 10
-11.2007
 20
6.390700000000001
 30
0.0
 10
-10.79
 20
6.0327
 30
0.0
 10
-10.6442
 20
4.994800000000001
 30
0.0
 10
-11.2266
 20
4.4452
 30
0.0
 10
-11.2266
 20
4.4452
 30
0.0
 10
-12.7395
 20
3.0354
 30
0.0
 10
-14.1893
 20
2.6334
 30
0.0
 10
-16.7841
 20
2.3329
 30
0.0
 10
-16.7841
 20
2.3329
 30
0.0
 10
-17.1949
 20
2.2853
 30
0.0
 10
-18.2605
 20
1.6573
 30
0.0
 10
-18.7059
 20
0.2578
 30
0.0
 10
-18.7059
 20
0.2578
 30
0.0
 10
-18.7059
 20
0.2578
 30
0.0
 10
-18.7001
 20
-2.113
 30
0.0
 10
-18.7001
 20
-2.113
 30
0.0
 10
-18.7001
 20
-2.113
 30
0.0
 10
-18.486
 20
-3.5674
 30
0.0
 10
-19.4178
 20
-4.648000000000001
 30
0.0
 10
-20.8795
 20
-4.627
 30
0.0
 10
-20.8795
 20
-4.627
 30
0.0
 10
-20.8795
 20
-4.627
 30
0.0
 10
-26.1775
 20
-4.7308
 30
0.0
 10
-26.1775
 20
-4.7308
 30
0.0
 10
-26.1775
 20
-4.7308
 30
0.0
 10
-29.0706
 20
-4.761
 30
0.0
 10
-29.6488
 20
-2.574
 30
0.0
 10
-31.5097
 20
-2.9591
 30
0.0
 10
-31.5097
 20
-2.9591
 30
0.0
 10
-33.1366
 20
-2.6908
 30
0.0
 10
-33.4839
 20
-3.8044
 30
0.0
 10
-35.1643
 20
-4.409100000000001
 30
0.0
 10
-35.1643
 20
-4.409100000000001
 30
0.0
 10
-37.3688
 20
-5.0713
 30
0.0
 10
-39.8685
 20
-4.6811
 30
0.0
 10
-42.1396
 20
-4.627
 30
0.0
 10
-42.1396
 20
-4.627
 30
0.0
 10
-43.5766
 20
-4.6936
 30
0.0
 10
-44.6375
 20
-3.5401
 30
0.0
 10
-44.32120000000001
 20
-2.1888
 30
0.0
 10
-44.32120000000001
 20
-2.1888
 30
0.0
 10
-44.32120000000001
 20
-2.1888
 30
0.0
 10
-44.31330000000001
 20
0.2574
 30
0.0
 10
-44.31330000000001
 20
0.2574
 30
0.0
 10
-44.31330000000001
 20
0.2574
 30
0.0
 10
-44.3274
 20
0.5952000000000001
 30
0.0
 10
-45.33450000000001
 20
2.0981
 30
0.0
 10
-46.2351
 20
2.3329
 30
0.0
 10
-46.2351
 20
2.3329
 30
0.0
 10
-47.7086
 20
2.5895
 30
0.0
 10
-49.8946
 20
2.7209
 30
0.0
 10
-51.7926
 20
4.4452
 30
0.0
 10
-51.7926
 20
4.4452
 30
0.0
 10
-52.6011
 20
5.2441
 30
0.0
 10
-51.9483
 20
6.2298
 30
0.0
 10
-51.8186
 20
6.3906
 30
0.0
 10
-51.8186
 20
6.3906
 30
0.0
 10
-49.941
 20
8.460100000000001
 30
0.0
 10
-49.4921
 20
11.4766
 30
0.0
 10
-49.6379
 20
13.9471
 30
0.0
  0
LWPOLYLINE
  5
42
330
1F
100
AcDbEntity
  8
Camada 1
 62
    22
370
     5
100
AcDbPolyline
 90
        5
 70
     1
 43
0.0
 10
-32.5824
 20
0.9460000000000001
 10
-30.4368
 20
0.9460000000000001
 10
-30.4368
 20
11.412
 10
-32.5824
 20
11.412
 10
-32.5824
 20
0.9460000000000001
  0
SPLINE
  5
43
330
1F
100
AcDbEntity
  8
Camada 1
 62
    22
370
     5
100
AcDbSpline
210
0.0
220
0.0
230
1.0
 70
    11
 71
     3
 72
    56
 73
    52
 74
     0
 42
0.0000000001
 43
0.0000000001
 40
0.0
 40
0.0
 40
0.0
 40
0.0
 40
0.0769230769230769
 40
0.0769230769230769
 40
0.0769230769230769
 40
0.0769230769230769
 40
0.1538461538461539
 40
0.1538461538461539
 40
0.1538461538461539
 40
0.1538461538461539
 40
0.2307692307692308
 40
0.2307692307692308
 40
0.2307692307692308
 40
0.2307692307692308
 40
0.3076923076923077
 40
0.3076923076923077
 40
0.3076923076923077
 40
0.3076923076923077
 40
0.3846153846153846
 40
0.3846153846153846
 40
0.3846153846153846
 40
0.3846153846153846
 40
0.4615384615384616
 40
0.4615384615384616
 40
0.4615384615384616
 40
0.4615384615384616
 40
0.5384615384615386
 40
0.5384615384615386
 40
0.5384615384615386
 40
0.5384615384615386
 40
0.6153846153846154
 40
0.6153846153846154
 40
0.6153846153846154
 40
0.6153846153846154
 40
0.6923076923076923
 40
0.6923076923076923
 40
0.6923076923076923
 40
0.6923076923076923
 40
0.7692307692307692
 40
0.7692307692307692
 40
0.7692307692307692
 40
0.7692307692307692
 40
0.846153846153846
 40
0.846153846153846
 40
0.846153846153846
 40
0.846153846153846
 40
0.9230769230769229
 40
0.9230769230769229
 40
0.9230769230769229
 40
0.9230769230769229
 40
1.0
 40
1.0
 40
1.0
 40
1.0
 10
7.1916
 20
-123.8261
 30
0.0
 10
9.8064
 20
-123.2545
 30
0.0
 10
12.4397
 20
-122.8428
 30
0.0
 10
15.0979
 20
-122.6435
 30
0.0
 10
15.0979
 20
-122.6435
 30
0.0
 10
16.3234
 20
-121.6713
 30
0.0
 10
17.3817
 20
-120.5541
 30
0.0
 10
18.273
 20
-119.2916
 30
0.0
 10
18.273
 20
-119.2916
 30
0.0
 10
18.7157
 20
-119.0061
 30
0.0
 10
19.1877
 20
-118.9566
 30
0.0
 10
19.7024
 20
-119.2519
 30
0.0
 10
19.7024
 20
-119.2519
 30
0.0
 10
20.6941
 20
-120.4852
 30
0.0
 10
21.8129
 20
-121.5419
 30
0.0
 10
23.0588
 20
-122.4221
 30
0.0
 10
23.0588
 20
-122.4221
 30
0.0
 10
25.7109
 20
-122.5071
 30
0.0
 10
28.3641
 20
-122.7437
 30
0.0
 10
31.0187
 20
-123.1635
 30
0.0
 10
31.0187
 20
-123.1635
 30
0.0
 10
31.9756
 20
-124.0177
 30
0.0
 10
31.48
 20
-126.6743
 30
0.0
 10
33.8896
 20
-129.5192
 30
0.0
 10
33.8896
 20
-129.5192
 30
0.0
 10
31.9326
 20
-132.2604
 30
0.0
 10
33.2305
 20
-135.2976
 30
0.0
 10
31.7309
 20
-136.6132
 30
0.0
 10
31.7309
 20
-136.6132
 30
0.0
 10
31.7309
 20
-136.6132
 30
0.0
 10
25.0508
 20
-136.4086
 30
0.0
 10
25.0508
 20
-136.4086
 30
0.0
 10
25.0508
 20
-136.4086
 30
0.0
 10
23.2103
 20
-136.7866
 30
0.0
 10
21.3634
 20
-137.3242
 30
0.0
 10
19.5096
 20
-138.037
 30
0.0
 10
19.5096
 20
-138.037
 30
0.0
 10
17.6924
 20
-137.4835
 30
0.0
 10
15.8255
 20
-137.0289
 30
0.0
 10
13.8864
 20
-136.7191
 30
0.0
 10
13.8864
 20
-136.7191
 30
0.0
 10
13.8864
 20
-136.7191
 30
0.0
 10
7.228000000000001
 20
-137.2946
 30
0.0
 10
7.228000000000001
 20
-137.2946
 30
0.0
 10
7.228000000000001
 20
-137.2946
 30
0.0
 10
5.9208
 20
-136.5338
 30
0.0
 10
6.7926
 20
-132.7602
 30
0.0
 10
4.6784
 20
-130.3316
 30
0.0
 10
4.6784
 20
-130.3316
 30
0.0
 10
6.8213
 20
-127.3822
 30
0.0
 10
5.908700000000001
 20
-125.7661
 30
0.0
 10
7.1916
 20
-123.8261
 30
0.0
  0
SPLINE
  5
44
330
1F
100
AcDbEntity
  8
Camada 1
 62
    22
370
     5
100
AcDbSpline
210
0.0
220
0.0
230
1.0
 70
    11
 71
     3
 72
    60
 73
    56
 74
     0
 42
0.0000000001
 43
0.0000000001
 40
0.0
 40
0.0
 40
0.0
 40
0.0
 40
0.0714285714285714
 40
0.0714285714285714
 40
0.0714285714285714
 40
0.0714285714285714
 40
0.1428571428571429
 40
0.1428571428571429
 40
0.1428571428571429
 40
0.1428571428571429
 40
0.2142857142857143
 40
0.2142857142857143
 40
0.2142857142857143
 40
0.2142857142857143
 40
0.2857142857142857
 40
0.2857142857142857
 40
0.2857142857142857
 40
0.2857142857142857
 40
0.3571428571428571
 40
0.3571428571428571
 40
0.3571428571428571
 40
0.3571428571428571
 40
0.4285714285714285
 40
0.4285714285714285
 40
0.4285714285714285
 40
0.4285714285714285
 40
0.4999999999999999
 40
0.4999999999999999
 40
0.4999999999999999
 40
0.4999999999999999
 40
0.5714285714285713
 40
0.5714285714285713
 40
0.5714285714285713
 40
0.5714285714285713
 40
0.6428571428571427
 40
0.6428571428571427
 40
0.6428571428571427
 40
0.6428571428571427
 40
0.7142857142857141
 40
0.7142857142857141
 40
0.7142857142857141
 40
0.7142857142857141
 40
0.7857142857142855
 40
0.7857142857142855
 40
0.7857142857142855
 40
0.7857142857142855
 40
0.8571428571428569
 40
0.8571428571428569
 40
0.8571428571428569
 40
0.8571428571428569
 40
0.9285714285714283
 40
0.9285714285714283
 40
0.9285714285714283
 40
0.9285714285714283
 40
1.0
 40
1.0
 40
1.0
 40
1.0
 10
-29.2272
 20
-121.6997
 30
0.0
 10
-26.0037
 20
-121.8858
 30
0.0
 10
-22.5126
 20
-121.5323
 30
0.0
 10
-19.5426
 20
-121.106
 30
0.0
 10
-19.5426
 20
-121.106
 30
0.0
 10
-18.1842
 20
-120.0911
 30
0.0
 10
-17.5056
 20
-119.3141
 30
0.0
 10
-16.3387
 20
-118.1247
 30
0.0
 10
-16.3387
 20
-118.1247
 30
0.0
 10
-15.781
 20
-117.905
 30
0.0
 10
-15.5939
 20
-117.828
 30
0.0
 10
-15.0121
 20
-118.1403
 30
0.0
 10
-15.0121
 20
-118.1403
 30
0.0
 10
-13.8912
 20
-119.4449
 30
0.0
 10
-13.0763
 20
-120.1326
 30
0.0
 10
-11.8792
 20
-121.196
 30
0.0
 10
-11.8792
 20
-121.196
 30
0.0
 10
-8.885900000000001
 20
-121.6962
 30
0.0
 10
-5.399900000000001
 20
-122.2724
 30
0.0
 10
-2.2111
 20
-122.0169
 30
0.0
 10
-2.2111
 20
-122.0169
 30
0.0
 10
-1.7057
 20
-123.2154
 30
0.0
 10
-1.1699
 20
-125.4435
 30
0.0
 10
1.2187
 20
-128.4392
 30
0.0
 10
1.2187
 20
-128.4392
 30
0.0
 10
-0.8593000000000001
 20
-131.3924
 30
0.0
 10
-0.7651
 20
-133.5256
 30
0.0
 10
-0.901
 20
-135.4615
 30
0.0
 10
-0.901
 20
-135.4615
 30
0.0
 10
-1.1121
 20
-136.467
 30
0.0
 10
-1.6351
 20
-136.9756
 30
0.0
 10
-2.6138
 20
-136.7574
 30
0.0
 10
-2.6138
 20
-136.7574
 30
0.0
 10
-4.7055
 20
-136.0696
 30
0.0
 10
-6.923
 20
-135.8855
 30
0.0
 10
-9.235200000000001
 20
-136.0804
 30
0.0
 10
-9.235200000000001
 20
-136.0804
 30
0.0
 10
-11.3155
 20
-136.4802
 30
0.0
 10
-13.7348
 20
-137.3091
 30
0.0
 10
-15.9079
 20
-137.9323
 30
0.0
 10
-15.9079
 20
-137.9323
 30
0.0
 10
-17.9619
 20
-137.3469
 30
0.0
 10
-19.3181
 20
-136.8533
 30
0.0
 10
-21.5049
 20
-136.1212
 30
0.0
 10
-21.5049
 20
-136.1212
 30
0.0
 10
-27.3012
 20
-134.991
 30
0.0
 10
-28.7933
 20
-136.9004
 30
0.0
 10
-30.097
 20
-136.3618
 30
0.0
 10
-30.097
 20
-136.3618
 30
0.0
 10
-31.709
 20
-135.6647
 30
0.0
 10
-30.2289
 20
-130.9851
 30
0.0
 10
-32.8069
 20
-128.0395
 30
0.0
 10
-32.8069
 20
-128.0395
 30
0.0
 10
-30.3848
 20
-124.9198
 30
0.0
 10
-30.1524
 20
-123.9137
 30
0.0
 10
-29.2272
 20
-121.6997
 30
0.0
  0
SPLINE
  5
45
330
1F
100
AcDbEntity
  8
Camada 1
 62
    22
370
     5
100
AcDbSpline
210
0.0
220
0.0
230
1.0
 70
    11
 71
     3
 72
    20
 73
    16
 74
     0
 42
0.0000000001
 43
0.0000000001
 40
0.0
 40
0.0
 40
0.0
 40
0.0
 40
0.25
 40
0.25
 40
0.25
 40
0.25
 40
0.5
 40
0.5
 40
0.5
 40
0.5
 40
0.75
 40
0.75
 40
0.75
 40
0.75
 40
1.0
 40
1.0
 40
1.0
 40
1.0
 10
-16.7289
 20
-124.0863
 30
0.0
 10
-16.7289
 20
-124.0863
 30
0.0
 10
-14.5835
 20
-124.1115
 30
0.0
 10
-14.5835
 20
-124.1115
 30
0.0
 10
-14.5835
 20
-124.1115
 30
0.0
 10
-14.5835
 20
-124.1115
 30
0.0
 10
-14.7064
 20
-134.5767
 30
0.0
 10
-14.7064
 20
-134.5767
 30
0.0
 10
-14.7064
 20
-134.5767
 30
0.0
 10
-14.7064
 20
-134.5767
 30
0.0
 10
-16.8518
 20
-134.5515
 30
0.0
 10
-16.8518
 20
-134.5515
 30
0.0
 10
-16.8518
 20
-134.5515
 30
0.0
 10
-16.8518
 20
-134.5515
 30
0.0
 10
-16.7289
 20
-124.0863
 30
0.0
 10
-16.7289
 20
-124.0863
 30
0.0
  0
SPLINE
  5
46
330
1F
100
AcDbEntity
  8
Camada 1
 62
    22
370
     5
100
AcDbSpline
210
0.0
220
0.0
230
1.0
 70
    11
 71
     3
 72
    64
 73
    60
 74
     0
 42
0.0000000001
 43
0.0000000001
 40
0.0
 40
0.0
 40
0.0
 40
0.0
 40
0.0666666666666667
 40
0.0666666666666667
 40
0.0666666666666667
 40
0.0666666666666667
 40
0.1333333333333333
 40
0.1333333333333333
 40
0.1333333333333333
 40
0.1333333333333333
 40
0.2
 40
0.2
 40
0.2
 40
0.2
 40
0.2666666666666667
 40
0.2666666666666667
 40
0.2666666666666667
 40
0.2666666666666667
 40
0.3333333333333333
 40
0.3333333333333333
 40
0.3333333333333333
 40
0.3333333333333333
 40
0.4
 40
0.4
 40
0.4
 40
0.4
 40
0.4666666666666666
 40
0.4666666666666666
 40
0.4666666666666666
 40
0.4666666666666666
 40
0.5333333333333333
 40
0.5333333333333333
 40
0.5333333333333333
 40
0.5333333333333333
 40
0.6
 40
0.6
 40
0.6
 40
0.6
 40
0.6666666666666666
 40
0.6666666666666666
 40
0.6666666666666666
 40
0.6666666666666666
 40
0.7333333333333333
 40
0.7333333333333333
 40
0.7333333333333333
 40
0.7333333333333333
 40
0.7999999999999999
 40
0.7999999999999999
 40
0.7999999999999999
 40
0.7999999999999999
 40
0.8666666666666666
 40
0.8666666666666666
 40
0.8666666666666666
 40
0.8666666666666666
 40
0.9333333333333332
 40
0.9333333333333332
 40
0.9333333333333332
 40
0.9333333333333332
 40
1.0
 40
1.0
 40
1.0
 40
1.0
 10
-7.993600000000001
 20
-101.7713
 30
0.0
 10
-4.8371
 20
-100.939
 30
0.0
 10
-1.0926
 20
-100.5273
 30
0.0
 10
1.9711
 20
-100.3958
 30
0.0
 10
1.9711
 20
-100.3958
 30
0.0
 10
3.6109
 20
-99.40770000000001
 30
0.0
 10
4.7478
 20
-98.12230000000001
 30
0.0
 10
5.8156
 20
-96.8605
 30
0.0
 10
5.8156
 20
-96.8605
 30
0.0
 10
6.3733
 20
-96.6408
 30
0.0
 10
6.560400000000001
 20
-96.5638
 30
0.0
 10
7.142200000000001
 20
-96.87610000000001
 30
0.0
 10
7.142200000000001
 20
-96.87610000000001
 30
0.0
 10
8.2631
 20
-98.1807
 30
0.0
 10
9.6723
 20
-99.2757
 30
0.0
 10
11.0947
 20
-100.2362
 30
0.0
 10
11.0947
 20
-100.2362
 30
0.0
 10
14.1687
 20
-100.1984
 30
0.0
 10
17.3873
 20
-100.6639
 30
0.0
 10
21.1016
 20
-101.2623
 30
0.0
 10
21.1016
 20
-101.2623
 30
0.0
 10
21.607
 20
-102.4608
 30
0.0
 10
22.4915
 20
-104.4207
 30
0.0
 10
24.4349
 20
-107.273
 30
0.0
 10
24.4349
 20
-107.273
 30
0.0
 10
22.3569
 20
-110.2262
 30
0.0
 10
22.3003
 20
-114.0831
 30
0.0
 10
22.2789
 20
-116.0042
 30
0.0
 10
22.2789
 20
-116.0042
 30
0.0
 10
22.0678
 20
-116.7685
 30
0.0
 10
21.0997
 20
-116.8394
 30
0.0
 10
20.5842
 20
-116.6914
 30
0.0
 10
20.5842
 20
-116.6914
 30
0.0
 10
18.4925
 20
-116.0036
 30
0.0
 10
15.2816
 20
-115.239
 30
0.0
 10
12.7003
 20
-115.7029
 30
0.0
 10
12.7003
 20
-115.7029
 30
0.0
 10
10.62
 20
-116.1027
 30
0.0
 10
8.9039
 20
-116.8787
 30
0.0
 10
6.7744
 20
-117.5881
 30
0.0
 10
6.7744
 20
-117.5881
 30
0.0
 10
4.720400000000001
 20
-117.0027
 30
0.0
 10
3.3095
 20
-116.2378
 30
0.0
 10
0.9075000000000001
 20
-115.9092
 30
0.0
 10
0.9075000000000001
 20
-115.9092
 30
0.0
 10
-4.6466
 20
-115.317
 30
0.0
 10
-6.614
 20
-117.8738
 30
0.0
 10
-8.052300000000001
 20
-117.1469
 30
0.0
 10
-8.052300000000001
 20
-117.1469
 30
0.0
 10
-9.1349
 20
-116.7089
 30
0.0
 10
-8.3146
 20
-115.4689
 30
0.0
 10
-9.0672
 20
-112.7321
 30
0.0
 10
-9.0672
 20
-112.7321
 30
0.0
 10
-9.5268
 20
-111.0609
 30
0.0
 10
-10.2252
 20
-109.2712
 30
0.0
 10
-11.1147
 20
-107.8949
 30
0.0
 10
-11.1147
 20
-107.8949
 30
0.0
 10
-9.0573
 20
-104.6441
 30
0.0
 10
-8.918800000000001
 20
-103.9853
 30
0.0
 10
-7.993600000000001
 20
-101.7713
 30
0.0
  0
SPLINE
  5
47
330
1F
100
AcDbEntity
  8
Camada 1
 62
    22
370
     5
100
AcDbSpline
210
0.0
220
0.0
230
1.0
 70
    11
 71
     3
 72
    20
 73
    16
 74
     0
 42
0.0000000001
 43
0.0000000001
 40
0.0
 40
0.0
 40
0.0
 40
0.0
 40
0.25
 40
0.25
 40
0.25
 40
0.25
 40
0.5
 40
0.5
 40
0.5
 40
0.5
 40
0.75
 40
0.75
 40
0.75
 40
0.75
 40
1.0
 40
1.0
 40
1.0
 40
1.0
 10
13.649
 20
-51.0063
 30
0.0
 10
13.649
 20
-51.0063
 30
0.0
 10
15.7962
 20
-50.9622
 30
0.0
 10
15.7962
 20
-50.9622
 30
0.0
 10
15.7962
 20
-50.9622
 30
0.0
 10
15.7962
 20
-50.9622
 30
0.0
 10
16.2293
 20
-72.09910000000001
 30
0.0
 10
16.2293
 20
-72.09910000000001
 30
0.0
 10
16.2293
 20
-72.09910000000001
 30
0.0
 10
16.2293
 20
-72.09910000000001
 30
0.0
 10
14.083
 20
-72.1431
 30
0.0
 10
14.083
 20
-72.1431
 30
0.0
 10
14.083
 20
-72.1431
 30
0.0
 10
14.083
 20
-72.1431
 30
0.0
 10
13.649
 20
-51.0063
 30
0.0
 10
13.649
 20
-51.0063
 30
0.0
  0
SPLINE
  5
48
330
1F
100
AcDbEntity
  8
Camada 1
 62
    22
370
     5
100
AcDbSpline
210
0.0
220
0.0
230
1.0
 70
    11
 71
     3
 72
    64
 73
    60
 74
     0
 42
0.0000000001
 43
0.0000000001
 40
0.0
 40
0.0
 40
0.0
 40
0.0
 40
0.0666666666666667
 40
0.0666666666666667
 40
0.0666666666666667
 40
0.0666666666666667
 40
0.1333333333333333
 40
0.1333333333333333
 40
0.1333333333333333
 40
0.1333333333333333
 40
0.2
 40
0.2
 40
0.2
 40
0.2
 40
0.2666666666666667
 40
0.2666666666666667
 40
0.2666666666666667
 40
0.2666666666666667
 40
0.3333333333333333
 40
0.3333333333333333
 40
0.3333333333333333
 40
0.3333333333333333
 40
0.4
 40
0.4
 40
0.4
 40
0.4
 40
0.4666666666666666
 40
0.4666666666666666
 40
0.4666666666666666
 40
0.4666666666666666
 40
0.5333333333333333
 40
0.5333333333333333
 40
0.5333333333333333
 40
0.5333333333333333
 40
0.6
 40
0.6
 40
0.6
 40
0.6
 40
0.6666666666666666
 40
0.6666666666666666
 40
0.6666666666666666
 40
0.6666666666666666
 40
0.7333333333333333
 40
0.7333333333333333
 40
0.7333333333333333
 40
0.7333333333333333
 40
0.7999999999999999
 40
0.7999999999999999
 40
0.7999999999999999
 40
0.7999999999999999
 40
0.8666666666666666
 40
0.8666666666666666
 40
0.8666666666666666
 40
0.8666666666666666
 40
0.9333333333333332
 40
0.9333333333333332
 40
0.9333333333333332
 40
0.9333333333333332
 40
1.0
 40
1.0
 40
1.0
 40
1.0
 10
-10.6838
 20
-65.59960000000001
 30
0.0
 10
-9.705300000000001
 20
-68.71390000000001
 30
0.0
 10
-8.7652
 20
-74.34350000000001
 30
0.0
 10
-8.491100000000001
 20
-77.3978
 30
0.0
 10
-8.491100000000001
 20
-77.3978
 30
0.0
 10
-7.0019
 20
-78.6383
 30
0.0
 10
-6.176600000000001
 20
-79.333
 30
0.0
 10
-5.2422
 20
-80.65090000000001
 30
0.0
 10
-5.2422
 20
-80.65090000000001
 30
0.0
 10
-4.996700000000001
 20
-81.1978
 30
0.0
 10
-4.8296
 20
-81.2039
 30
0.0
 10
-5.114500000000001
 20
-81.7996
 30
0.0
 10
-5.114500000000001
 20
-81.7996
 30
0.0
 10
-5.963
 20
-83.3455
 30
0.0
 10
-6.7926
 20
-84.49340000000001
 30
0.0
 10
-8.075800000000001
 20
-85.6048
 30
0.0
 10
-8.075800000000001
 20
-85.6048
 30
0.0
 10
-7.894900000000001
 20
-88.67370000000001
 30
0.0
 10
-8.345800000000001
 20
-93.85260000000001
 30
0.0
 10
-9.0665
 20
-97.5638
 30
0.0
 10
-9.0665
 20
-97.5638
 30
0.0
 10
-10.1193
 20
-98.703
 30
0.0
 10
-11.3074
 20
-100.2557
 30
0.0
 10
-14.362
 20
-101.7381
 30
0.0
 10
-14.362
 20
-101.7381
 30
0.0
 10
-16.6285
 20
-98.80460000000001
 30
0.0
 10
-22.8503
 20
-99.28310000000001
 30
0.0
 10
-24.9102
 20
-99.2347
 30
0.0
 10
-24.9102
 20
-99.2347
 30
0.0
 10
-25.6835
 20
-99.05940000000001
 30
0.0
 10
-25.5166
 20
-98.71940000000001
 30
0.0
 10
-25.5215
 20
-98.36320000000001
 30
0.0
 10
-25.5215
 20
-98.36320000000001
 30
0.0
 10
-24.9318
 20
-96.24160000000001
 30
0.0
 10
-23.6549
 20
-91.25460000000001
 30
0.0
 10
-24.5075
 20
-88.29430000000001
 30
0.0
 10
-24.5075
 20
-88.29430000000001
 30
0.0
 10
-25.0037
 20
-86.23490000000001
 30
0.0
 10
-25.5053
 20
-84.4984
 30
0.0
 10
-26.6628
 20
-82.43090000000001
 30
0.0
 10
-26.6628
 20
-82.43090000000001
 30
0.0
 10
-25.935
 20
-80.3698
 30
0.0
 10
-25.2636
 20
-78.1799
 30
0.0
 10
-25.0473
 20
-75.76520000000001
 30
0.0
 10
-25.0473
 20
-75.76520000000001
 30
0.0
 10
-24.4992
 20
-71.9918
 30
0.0
 10
-27.5491
 20
-67.063
 30
0.0
 10
-27.1052
 20
-65.9152
 30
0.0
 10
-27.1052
 20
-65.9152
 30
0.0
 10
-26.7987
 20
-65.0411
 30
0.0
 10
-23.5763
 20
-65.37650000000001
 30
0.0
 10
-20.8778
 20
-64.6181
 30
0.0
 10
-20.8778
 20
-64.6181
 30
0.0
 10
-19.2096
 20
-64.1493
 30
0.0
 10
-18.7155
 20
-64.62830000000001
 30
0.0
 10
-16.3868
 20
-61.981
 30
0.0
 10
-16.3868
 20
-61.981
 30
0.0
 10
-12.9375
 20
-63.5107
 30
0.0
 10
-12.4963
 20
-63.9878
 30
0.0
 10
-10.6838
 20
-65.59960000000001
 30
0.0
  0
SPLINE
  5
49
330
1F
100
AcDbEntity
  8
Camada 1
 62
    22
370
     5
100
AcDbSpline
210
0.0
220
0.0
230
1.0
 70
    11
 71
     3
 72
    20
 73
    16
 74
     0
 42
0.0000000001
 43
0.0000000001
 40
0.0
 40
0.0
 40
0.0
 40
0.0
 40
0.25
 40
0.25
 40
0.25
 40
0.25
 40
0.5
 40
0.5
 40
0.5
 40
0.5
 40
0.75
 40
0.75
 40
0.75
 40
0.75
 40
1.0
 40
1.0
 40
1.0
 40
1.0
 10
-11.5476
 20
-80.59220000000001
 30
0.0
 10
-11.5476
 20
-80.59220000000001
 30
0.0
 10
-11.4392
 20
-82.73490000000001
 30
0.0
 10
-11.4392
 20
-82.73490000000001
 30
0.0
 10
-11.4392
 20
-82.73490000000001
 30
0.0
 10
-11.4392
 20
-82.73490000000001
 30
0.0
 10
-21.8919
 20
-83.2638
 30
0.0
 10
-21.8919
 20
-83.2638
 30
0.0
 10
-21.8919
 20
-83.2638
 30
0.0
 10
-21.8919
 20
-83.2638
 30
0.0
 10
-22.0003
 20
-81.12100000000001
 30
0.0
 10
-22.0003
 20
-81.12100000000001
 30
0.0
 10
-22.0003
 20
-81.12100000000001
 30
0.0
 10
-22.0003
 20
-81.12100000000001
 30
0.0
 10
-11.5476
 20
-80.59220000000001
 30
0.0
 10
-11.5476
 20
-80.59220000000001
 30
0.0
  0
SPLINE
  5
4A
330
1F
100
AcDbEntity
  8
Camada 1
 62
    22
370
     5
100
AcDbSpline
210
0.0
220
0.0
230
1.0
 70
    11
 71
     3
 72
   228
 73
   224
 74
     0
 42
0.0000000001
 43
0.0000000001
 40
0.0
 40
0.0
 40
0.0
 40
0.0
 40
0.0178571428571429
 40
0.0178571428571429
 40
0.0178571428571429
 40
0.0178571428571429
 40
0.0357142857142857
 40
0.0357142857142857
 40
0.0357142857142857
 40
0.0357142857142857
 40
0.0535714285714286
 40
0.0535714285714286
 40
0.0535714285714286
 40
0.0535714285714286
 40
0.0714285714285714
 40
0.0714285714285714
 40
0.0714285714285714
 40
0.0714285714285714
 40
0.0892857142857143
 40
0.0892857142857143
 40
0.0892857142857143
 40
0.0892857142857143
 40
0.1071428571428571
 40
0.1071428571428571
 40
0.1071428571428571
 40
0.1071428571428571
 40
0.125
 40
0.125
 40
0.125
 40
0.125
 40
0.1428571428571428
 40
0.1428571428571428
 40
0.1428571428571428
 40
0.1428571428571428
 40
0.1607142857142857
 40
0.1607142857142857
 40
0.1607142857142857
 40
0.1607142857142857
 40
0.1785714285714285
 40
0.1785714285714285
 40
0.1785714285714285
 40
0.1785714285714285
 40
0.1964285714285714
 40
0.1964285714285714
 40
0.1964285714285714
 40
0.1964285714285714
 40
0.2142857142857142
 40
0.2142857142857142
 40
0.2142857142857142
 40
0.2142857142857142
 40
0.2321428571428571
 40
0.2321428571428571
 40
0.2321428571428571
 40
0.2321428571428571
 40
0.2499999999999999
 40
0.2499999999999999
 40
0.2499999999999999
 40
0.2499999999999999
 40
0.2678571428571428
 40
0.2678571428571428
 40
0.2678571428571428
 40
0.2678571428571428
 40
0.2857142857142856
 40
0.2857142857142856
 40
0.2857142857142856
 40
0.2857142857142856
 40
0.3035714285714285
 40
0.3035714285714285
 40
0.3035714285714285
 40
0.3035714285714285
 40
0.3214285714285713
 40
0.3214285714285713
 40
0.3214285714285713
 40
0.3214285714285713
 40
0.3392857142857142
 40
0.3392857142857142
 40
0.3392857142857142
 40
0.3392857142857142
 40
0.357142857142857
 40
0.357142857142857
 40
0.357142857142857
 40
0.357142857142857
 40
0.3749999999999999
 40
0.3749999999999999
 40
0.3749999999999999
 40
0.3749999999999999
 40
0.3928571428571427
 40
0.3928571428571427
 40
0.3928571428571427
 40
0.3928571428571427
 40
0.4107142857142856
 40
0.4107142857142856
 40
0.4107142857142856
 40
0.4107142857142856
 40
0.4285714285714284
 40
0.4285714285714284
 40
0.4285714285714284
 40
0.4285714285714284
 40
0.4464285714285713
 40
0.4464285714285713
 40
0.4464285714285713
 40
0.4464285714285713
 40
0.4642857142857141
 40
0.4642857142857141
 40
0.4642857142857141
 40
0.4642857142857141
 40
0.482142857142857
 40
0.482142857142857
 40
0.482142857142857
 40
0.482142857142857
 40
0.4999999999999998
 40
0.4999999999999998
 40
0.4999999999999998
 40
0.4999999999999998
 40
0.5178571428571427
 40
0.5178571428571427
 40
0.5178571428571427
 40
0.5178571428571427
 40
0.5357142857142856
 40
0.5357142857142856
 40
0.5357142857142856
 40
0.5357142857142856
 40
0.5535714285714285
 40
0.5535714285714285
 40
0.5535714285714285
 40
0.5535714285714285
 40
0.5714285714285714
 40
0.5714285714285714
 40
0.5714285714285714
 40
0.5714285714285714
 40
0.5892857142857143
 40
0.5892857142857143
 40
0.5892857142857143
 40
0.5892857142857143
 40
0.6071428571428572
 40
0.6071428571428572
 40
0.6071428571428572
 40
0.6071428571428572
 40
0.6250000000000001
 40
0.6250000000000001
 40
0.6250000000000001
 40
0.6250000000000001
 40
0.642857142857143
 40
0.642857142857143
 40
0.642857142857143
 40
0.642857142857143
 40
0.6607142857142859
 40
0.6607142857142859
 40
0.6607142857142859
 40
0.6607142857142859
 40
0.6785714285714288
 40
0.6785714285714288
 40
0.6785714285714288
 40
0.6785714285714288
 40
0.6964285714285717
 40
0.6964285714285717
 40
0.6964285714285717
 40
0.6964285714285717
 40
0.7142857142857146
 40
0.7142857142857146
 40
0.7142857142857146
 40
0.7142857142857146
 40
0.7321428571428575
 40
0.7321428571428575
 40
0.7321428571428575
 40
0.7321428571428575
 40
0.7500000000000004
 40
0.7500000000000004
 40
0.7500000000000004
 40
0.7500000000000004
 40
0.7678571428571434
 40
0.7678571428571434
 40
0.7678571428571434
 40
0.7678571428571434
 40
0.7857142857142863
 40
0.7857142857142863
 40
0.7857142857142863
 40
0.7857142857142863
 40
0.8035714285714292
 40
0.8035714285714292
 40
0.8035714285714292
 40
0.8035714285714292
 40
0.8214285714285721
 40
0.8214285714285721
 40
0.8214285714285721
 40
0.8214285714285721
 40
0.839285714285715
 40
0.839285714285715
 40
0.839285714285715
 40
0.839285714285715
 40
0.8571428571428579
 40
0.8571428571428579
 40
0.8571428571428579
 40
0.8571428571428579
 40
0.8750000000000008
 40
0.8750000000000008
 40
0.8750000000000008
 40
0.8750000000000008
 40
0.8928571428571437
 40
0.8928571428571437
 40
0.8928571428571437
 40
0.8928571428571437
 40
0.9107142857142866
 40
0.9107142857142866
 40
0.9107142857142866
 40
0.9107142857142866
 40
0.9285714285714295
 40
0.9285714285714295
 40
0.9285714285714295
 40
0.9285714285714295
 40
0.9464285714285724
 40
0.9464285714285724
 40
0.9464285714285724
 40
0.9464285714285724
 40
0.9642857142857153
 40
0.9642857142857153
 40
0.9642857142857153
 40
0.9642857142857153
 40
0.9821428571428582
 40
0.9821428571428582
 40
0.9821428571428582
 40
0.9821428571428582
 40
1.0
 40
1.0
 40
1.0
 40
1.0
 10
12.8209
 20
-9.7805
 30
0.0
 10
12.8209
 20
-9.7805
 30
0.0
 10
13.1247
 20
-25.4746
 30
0.0
 10
13.1247
 20
-25.4746
 30
0.0
 10
13.1247
 20
-25.4746
 30
0.0
 10
13.1247
 20
-25.4746
 30
0.0
 10
15.2731
 20
-25.4306
 30
0.0
 10
15.2731
 20
-25.4306
 30
0.0
 10
15.2731
 20
-25.4306
 30
0.0
 10
15.2731
 20
-25.4306
 30
0.0
 10
14.9515
 20
-9.7349
 30
0.0
 10
14.9515
 20
-9.7349
 30
0.0
 10
14.9515
 20
-9.7349
 30
0.0
 10
18.9311
 20
-8.017100000000001
 30
0.0
 10
29.0247
 20
-19.8304
 30
0.0
 10
29.2074
 20
-29.7046
 30
0.0
 10
29.2074
 20
-29.7046
 30
0.0
 10
29.3872
 20
-31.2252
 30
0.0
 10
30.5644
 20
-32.3892
 30
0.0
 10
32.424
 20
-33.3091
 30
0.0
 10
32.424
 20
-33.3091
 30
0.0
 10
32.424
 20
-33.3091
 30
0.0
 10
28.6796
 20
-36.9647
 30
0.0
 10
28.6796
 20
-36.9647
 30
0.0
 10
28.6796
 20
-36.9647
 30
0.0
 10
28.6796
 20
-36.9647
 30
0.0
 10
30.1784
 20
-38.4999
 30
0.0
 10
30.1784
 20
-38.4999
 30
0.0
 10
30.1784
 20
-38.4999
 30
0.0
 10
30.1784
 20
-38.4999
 30
0.0
 10
34.1991
 20
-34.5745
 30
0.0
 10
34.1991
 20
-34.5745
 30
0.0
 10
34.1991
 20
-34.5745
 30
0.0
 10
35.0609
 20
-35.3628
 30
0.0
 10
35.7021
 20
-36.1599
 30
0.0
 10
36.1924
 20
-36.9632
 30
0.0
 10
36.1924
 20
-36.9632
 30
0.0
 10
36.552
 20
-37.8017
 30
0.0
 10
36.3393
 20
-38.4628
 30
0.0
 10
35.4361
 20
-38.9103
 30
0.0
 10
35.4361
 20
-38.9103
 30
0.0
 10
33.9063
 20
-39.828
 30
0.0
 10
32.615
 20
-40.9975
 30
0.0
 10
31.6346
 20
-42.4953
 30
0.0
 10
31.6346
 20
-42.4953
 30
0.0
 10
31.255
 20
-43.1437
 30
0.0
 10
31.3627
 20
-43.8303
 30
0.0
 10
31.804
 20
-44.5433
 30
0.0
 10
31.804
 20
-44.5433
 30
0.0
 10
32.428
 20
-46.27050000000001
 30
0.0
 10
33.2086
 20
-47.5983
 30
0.0
 10
34.0333
 20
-48.8145
 30
0.0
 10
34.0333
 20
-48.8145
 30
0.0
 10
34.0333
 20
-48.8145
 30
0.0
 10
29.3147
 20
-51.44900000000001
 30
0.0
 10
29.3147
 20
-51.44900000000001
 30
0.0
 10
29.3147
 20
-51.44900000000001
 30
0.0
 10
29.3147
 20
-51.44900000000001
 30
0.0
 10
30.3606
 20
-53.32230000000001
 30
0.0
 10
30.3606
 20
-53.32230000000001
 30
0.0
 10
30.3606
 20
-53.32230000000001
 30
0.0
 10
30.3606
 20
-53.32230000000001
 30
0.0
 10
34.9297
 20
-50.7713
 30
0.0
 10
34.9297
 20
-50.7713
 30
0.0
 10
34.9297
 20
-50.7713
 30
0.0
 10
35.689
 20
-52.3203
 30
0.0
 10
36.0532
 20
-53.7834
 30
0.0
 10
35.0074
 20
-54.9403
 30
0.0
 10
35.0074
 20
-54.9403
 30
0.0
 10
35.0074
 20
-54.9403
 30
0.0
 10
31.1843
 20
-58.0866
 30
0.0
 10
31.1843
 20
-58.0866
 30
0.0
 10
31.1843
 20
-58.0866
 30
0.0
 10
30.1161
 20
-58.7653
 30
0.0
 10
30.0724
 20
-60.16950000000001
 30
0.0
 10
31.2677
 20
-60.8061
 30
0.0
 10
31.2677
 20
-60.8061
 30
0.0
 10
31.2677
 20
-60.8061
 30
0.0
 10
35.7459
 20
-65.21770000000001
 30
0.0
 10
35.7459
 20
-65.21770000000001
 30
0.0
 10
35.7459
 20
-65.21770000000001
 30
0.0
 10
35.9799
 20
-65.6934
 30
0.0
 10
36.1402
 20
-66.1902
 30
0.0
 10
36.139
 20
-66.7341
 30
0.0
 10
36.139
 20
-66.7341
 30
0.0
 10
35.8845
 20
-67.9855
 30
0.0
 10
35.2797
 20
-69.11020000000001
 30
0.0
 10
34.38500000000001
 20
-70.1305
 30
0.0
 10
34.38500000000001
 20
-70.1305
 30
0.0
 10
34.38500000000001
 20
-70.1305
 30
0.0
 10
30.3599
 20
-66.77210000000001
 30
0.0
 10
30.3599
 20
-66.77210000000001
 30
0.0
 10
30.3599
 20
-66.77210000000001
 30
0.0
 10
30.3599
 20
-66.77210000000001
 30
0.0
 10
28.9884
 20
-68.4221
 30
0.0
 10
28.9884
 20
-68.4221
 30
0.0
 10
28.9884
 20
-68.4221
 30
0.0
 10
28.9884
 20
-68.4221
 30
0.0
 10
33.0999
 20
-71.83970000000001
 30
0.0
 10
33.0999
 20
-71.83970000000001
 30
0.0
 10
33.0999
 20
-71.83970000000001
 30
0.0
 10
32.2901
 20
-73.0288
 30
0.0
 10
31.4554
 20
-74.10170000000001
 30
0.0
 10
30.5298
 20
-74.9804
 30
0.0
 10
30.5298
 20
-74.9804
 30
0.0
 10
29.6468
 20
-75.78540000000001
 30
0.0
 10
28.9367
 20
-75.97290000000001
 30
0.0
 10
27.871
 20
-75.893
 30
0.0
 10
27.871
 20
-75.893
 30
0.0
 10
27.3903
 20
-75.92740000000001
 30
0.0
 10
27.1438
 20
-76.1523
 30
0.0
 10
27.1315
 20
-76.56790000000001
 30
0.0
 10
27.1315
 20
-76.56790000000001
 30
0.0
 10
25.5416
 20
-82.69550000000001
 30
0.0
 10
25.8731
 20
-89.29940000000001
 30
0.0
 10
20.1162
 20
-93.75420000000001
 30
0.0
 10
20.1162
 20
-93.75420000000001
 30
0.0
 10
18.6141
 20
-93.4616
 30
0.0
 10
17.0987
 20
-92.9002
 30
0.0
 10
15.562
 20
-91.9059
 30
0.0
 10
15.562
 20
-91.9059
 30
0.0
 10
14.2438
 20
-92.81310000000001
 30
0.0
 10
12.809
 20
-93.56610000000001
 30
0.0
 10
11.0874
 20
-93.93940000000001
 30
0.0
 10
11.0874
 20
-93.93940000000001
 30
0.0
 10
5.9973
 20
-91.1199
 30
0.0
 10
5.1578
 20
-84.1781
 30
0.0
 10
3.3732
 20
-77.0552
 30
0.0
 10
3.3732
 20
-77.0552
 30
0.0
 10
3.3267
 20
-76.62090000000001
 30
0.0
 10
3.0753
 20
-76.41250000000001
 30
0.0
 10
2.619
 20
-76.43000000000001
 30
0.0
 10
2.619
 20
-76.43000000000001
 30
0.0
 10
0.6987
 20
-76.8858
 30
0.0
 10
-1.0595
 20
-74.97620000000001
 30
0.0
 10
-2.784
 20
-72.5758
 30
0.0
 10
-2.784
 20
-72.5758
 30
0.0
 10
-2.784
 20
-72.5758
 30
0.0
 10
1.1838
 20
-68.9924
 30
0.0
 10
1.1838
 20
-68.9924
 30
0.0
 10
1.1838
 20
-68.9924
 30
0.0
 10
1.1838
 20
-68.9924
 30
0.0
 10
-0.2541
 20
-67.40010000000001
 30
0.0
 10
-0.2541
 20
-67.40010000000001
 30
0.0
 10
-0.2541
 20
-67.40010000000001
 30
0.0
 10
-0.2541
 20
-67.40010000000001
 30
0.0
 10
-4.1378
 20
-70.90740000000001
 30
0.0
 10
-4.1378
 20
-70.90740000000001
 30
0.0
 10
-4.1378
 20
-70.90740000000001
 30
0.0
 10
-4.928
 20
-70.09860000000001
 30
0.0
 10
-5.5857
 20
-69.0455
 30
0.0
 10
-6.029800000000001
 20
-67.599
 30
0.0
 10
-6.029800000000001
 20
-67.599
 30
0.0
 10
-6.024100000000001
 20
-67.1225
 30
0.0
 10
-5.928900000000001
 20
-66.61660000000001
 30
0.0
 10
-5.7031
 20
-66.06790000000001
 30
0.0
 10
-5.7031
 20
-66.06790000000001
 30
0.0
 10
-5.7031
 20
-66.06790000000001
 30
0.0
 10
-1.4057
 20
-61.4763
 30
0.0
 10
-1.4057
 20
-61.4763
 30
0.0
 10
-1.4057
 20
-61.4763
 30
0.0
 10
-0.4073
 20
-61.0
 30
0.0
 10
-0.2569
 20
-59.4059
 30
0.0
 10
-1.434
 20
-58.7557
 30
0.0
 10
-1.434
 20
-58.7557
 30
0.0
 10
-1.434
 20
-58.7557
 30
0.0
 10
-5.5732
 20
-55.6399
 30
0.0
 10
-5.5732
 20
-55.6399
 30
0.0
 10
-5.5732
 20
-55.6399
 30
0.0
 10
-6.3015
 20
-54.7169
 30
0.0
 10
-6.223
 20
-53.3446
 30
0.0
 10
-5.4762
 20
-51.60010000000001
 30
0.0
 10
-5.4762
 20
-51.60010000000001
 30
0.0
 10
-5.4762
 20
-51.60010000000001
 30
0.0
 10
-0.8063
 20
-53.9616
 30
0.0
 10
-0.8063
 20
-53.9616
 30
0.0
 10
-0.8063
 20
-53.9616
 30
0.0
 10
-0.8063
 20
-53.9616
 30
0.0
 10
0.1804
 20
-52.0485
 30
0.0
 10
0.1804
 20
-52.0485
 30
0.0
 10
0.1804
 20
-52.0485
 30
0.0
 10
0.1804
 20
-52.0485
 30
0.0
 10
-4.6608
 20
-49.6082
 30
0.0
 10
-4.6608
 20
-49.6082
 30
0.0
 10
-4.6608
 20
-49.6082
 30
0.0
 10
-3.7427
 20
-48.0368
 30
0.0
 10
-2.9283
 20
-46.4387
 30
0.0
 10
-2.3989
 20
-44.7665
 30
0.0
 10
-2.3989
 20
-44.7665
 30
0.0
 10
-2.2722
 20
-44.3354
 30
0.0
 10
-2.2385
 20
-43.8746
 30
0.0
 10
-2.4087
 20
-43.3491
 30
0.0
 10
-2.4087
 20
-43.3491
 30
0.0
 10
-3.4011
 20
-41.9373
 30
0.0
 10
-4.7225
 20
-40.725
 30
0.0
 10
-6.468500000000001
 20
-39.7699
 30
0.0
 10
-6.468500000000001
 20
-39.7699
 30
0.0
 10
-8.7515
 20
-38.621
 30
0.0
 10
-6.5383
 20
-36.6621
 30
0.0
 10
-5.4103
 20
-35.387
 30
0.0
 10
-5.4103
 20
-35.387
 30
0.0
 10
-5.4103
 20
-35.387
 30
0.0
 10
-1.2321
 20
-39.14420000000001
 30
0.0
 10
-1.2321
 20
-39.14420000000001
 30
0.0
 10
-1.2321
 20
-39.14420000000001
 30
0.0
 10
-1.2321
 20
-39.14420000000001
 30
0.0
 10
0.2026
 20
-37.5488
 30
0.0
 10
0.2026
 20
-37.5488
 30
0.0
 10
0.2026
 20
-37.5488
 30
0.0
 10
0.2026
 20
-37.5488
 30
0.0
 10
-3.6886
 20
-34.04980000000001
 30
0.0
 10
-3.6886
 20
-34.04980000000001
 30
0.0
 10
-3.6886
 20
-34.04980000000001
 30
0.0
 10
-2.6233
 20
-33.3545
 30
0.0
 10
-1.7032
 20
-32.62900000000001
 30
0.0
 10
-1.0414
 20
-31.8501
 30
0.0
 10
-1.0414
 20
-31.8501
 30
0.0
 10
-0.7798000000000001
 20
-31.3614
 30
0.0
 10
-0.6402
 20
-30.8502
 30
0.0
 10
-0.6226
 20
-30.3165
 30
0.0
 10
-0.6226
 20
-30.3165
 30
0.0
 10
-0.6748000000000001
 20
-20.5278
 30
0.0
 10
8.4518
 20
-8.220500000000001
 30
0.0
 10
12.8209
 20
-9.7805
 30
0.0
  0
SPLINE
  5
4B
330
1F
100
AcDbEntity
  8
Camada 1
 62
    22
370
     5
100
AcDbSpline
210
0.0
220
0.0
230
1.0
 70
    11
 71
     3
 72
    20
 73
    16
 74
     0
 42
0.0000000001
 43
0.0000000001
 40
0.0
 40
0.0
 40
0.0
 40
0.0
 40
0.25
 40
0.25
 40
0.25
 40
0.25
 40
0.5
 40
0.5
 40
0.5
 40
0.5
 40
0.75
 40
0.75
 40
0.75
 40
0.75
 40
1.0
 40
1.0
 40
1.0
 40
1.0
 10
5.5349
 20
-103.4111
 30
0.0
 10
5.5349
 20
-103.4111
 30
0.0
 10
7.638500000000001
 20
-103.3682
 30
0.0
 10
7.638500000000001
 20
-103.3682
 30
0.0
 10
7.638500000000001
 20
-103.3682
 30
0.0
 10
7.638500000000001
 20
-103.3682
 30
0.0
 10
7.791200000000001
 20
-113.8332
 30
0.0
 10
7.791200000000001
 20
-113.8332
 30
0.0
 10
7.791200000000001
 20
-113.8332
 30
0.0
 10
7.791200000000001
 20
-113.8332
 30
0.0
 10
5.7466
 20
-113.7961
 30
0.0
 10
5.7466
 20
-113.7961
 30
0.0
 10
5.7466
 20
-113.7961
 30
0.0
 10
5.7466
 20
-113.7961
 30
0.0
 10
5.5349
 20
-103.4111
 30
0.0
 10
5.5349
 20
-103.4111
 30
0.0
  0
SPLINE
  5
4C
330
1F
100
AcDbEntity
  8
Camada 1
 62
    22
370
     5
100
AcDbSpline
210
0.0
220
0.0
230
1.0
 70
    11
 71
     3
 72
    20
 73
    16
 74
     0
 42
0.0000000001
 43
0.0000000001
 40
0.0
 40
0.0
 40
0.0
 40
0.0
 40
0.25
 40
0.25
 40
0.25
 40
0.25
 40
0.5
 40
0.5
 40
0.5
 40
0.5
 40
0.75
 40
0.75
 40
0.75
 40
0.75
 40
1.0
 40
1.0
 40
1.0
 40
1.0
 10
41.6126
 20
-90.6982
 30
0.0
 10
41.6126
 20
-90.6982
 30
0.0
 10
43.7578
 20
-90.6615
 30
0.0
 10
43.7578
 20
-90.6615
 30
0.0
 10
43.7578
 20
-90.6615
 30
0.0
 10
43.7578
 20
-90.6615
 30
0.0
 10
44.116
 20
-111.5904
 30
0.0
 10
44.116
 20
-111.5904
 30
0.0
 10
44.116
 20
-111.5904
 30
0.0
 10
44.116
 20
-111.5904
 30
0.0
 10
41.9708
 20
-111.6271
 30
0.0
 10
41.9708
 20
-111.6271
 30
0.0
 10
41.9708
 20
-111.6271
 30
0.0
 10
41.9708
 20
-111.6271
 30
0.0
 10
41.6126
 20
-90.6982
 30
0.0
 10
41.6126
 20
-90.6982
 30
0.0
  0
SPLINE
  5
4D
330
1F
100
AcDbEntity
  8
Camada 1
 62
    22
370
     5
100
AcDbSpline
210
0.0
220
0.0
230
1.0
 70
    11
 71
     3
 72
    20
 73
    16
 74
     0
 42
0.0000000001
 43
0.0000000001
 40
0.0
 40
0.0
 40
0.0
 40
0.0
 40
0.25
 40
0.25
 40
0.25
 40
0.25
 40
0.5
 40
0.5
 40
0.5
 40
0.5
 40
0.75
 40
0.75
 40
0.75
 40
0.75
 40
1.0
 40
1.0
 40
1.0
 40
1.0
 10
55.3211
 20
-90.46350000000001
 30
0.0
 10
55.3211
 20
-90.46350000000001
 30
0.0
 10
57.4663
 20
-90.4268
 30
0.0
 10
57.4663
 20
-90.4268
 30
0.0
 10
57.4663
 20
-90.4268
 30
0.0
 10
57.4663
 20
-90.4268
 30
0.0
 10
57.8245
 20
-111.3557
 30
0.0
 10
57.8245
 20
-111.3557
 30
0.0
 10
57.8245
 20
-111.3557
 30
0.0
 10
57.8245
 20
-111.3557
 30
0.0
 10
55.67930000000001
 20
-111.3924
 30
0.0
 10
55.67930000000001
 20
-111.3924
 30
0.0
 10
55.67930000000001
 20
-111.3924
 30
0.0
 10
55.67930000000001
 20
-111.3924
 30
0.0
 10
55.3211
 20
-90.46350000000001
 30
0.0
 10
55.3211
 20
-90.46350000000001
 30
0.0
  0
SPLINE
  5
4E
330
1F
100
AcDbEntity
  8
Camada 1
 62
    22
370
     5
100
AcDbSpline
210
0.0
220
0.0
230
1.0
 70
    11
 71
     3
 72
    20
 73
    16
 74
     0
 42
0.0000000001
 43
0.0000000001
 40
0.0
 40
0.0
 40
0.0
 40
0.0
 40
0.25
 40
0.25
 40
0.25
 40
0.25
 40
0.5
 40
0.5
 40
0.5
 40
0.5
 40
0.75
 40
0.75
 40
0.75
 40
0.75
 40
1.0
 40
1.0
 40
1.0
 40
1.0
 10
47.9911
 20
-62.7834
 30
0.0
 10
47.9911
 20
-62.7834
 30
0.0
 10
50.13630000000001
 20
-62.7467
 30
0.0
 10
50.13630000000001
 20
-62.7467
 30
0.0
 10
50.13630000000001
 20
-62.7467
 30
0.0
 10
50.13630000000001
 20
-62.7467
 30
0.0
 10
50.3154
 20
-73.2294
 30
0.0
 10
50.3154
 20
-73.2294
 30
0.0
 10
50.3154
 20
-73.2294
 30
0.0
 10
50.3154
 20
-73.2294
 30
0.0
 10
48.1702
 20
-73.2478
 30
0.0
 10
48.1702
 20
-73.2478
 30
0.0
 10
48.1702
 20
-73.2478
 30
0.0
 10
48.1702
 20
-73.2478
 30
0.0
 10
47.9911
 20
-62.7834
 30
0.0
 10
47.9911
 20
-62.7834
 30
0.0
  0
SPLINE
  5
4F
330
1F
100
AcDbEntity
  8
Camada 1
 62
    22
370
     5
100
AcDbSpline
210
0.0
220
0.0
230
1.0
 70
    11
 71
     3
 72
    68
 73
    64
 74
     0
 42
0.0000000001
 43
0.0000000001
 40
0.0
 40
0.0
 40
0.0
 40
0.0
 40
0.0625
 40
0.0625
 40
0.0625
 40
0.0625
 40
0.125
 40
0.125
 40
0.125
 40
0.125
 40
0.1875
 40
0.1875
 40
0.1875
 40
0.1875
 40
0.25
 40
0.25
 40
0.25
 40
0.25
 40
0.3125
 40
0.3125
 40
0.3125
 40
0.3125
 40
0.375
 40
0.375
 40
0.375
 40
0.375
 40
0.4375
 40
0.4375
 40
0.4375
 40
0.4375
 40
0.5
 40
0.5
 40
0.5
 40
0.5
 40
0.5625
 40
0.5625
 40
0.5625
 40
0.5625
 40
0.625
 40
0.625
 40
0.625
 40
0.625
 40
0.6875
 40
0.6875
 40
0.6875
 40
0.6875
 40
0.75
 40
0.75
 40
0.75
 40
0.75
 40
0.8125
 40
0.8125
 40
0.8125
 40
0.8125
 40
0.875
 40
0.875
 40
0.875
 40
0.875
 40
0.9375
 40
0.9375
 40
0.9375
 40
0.9375
 40
1.0
 40
1.0
 40
1.0
 40
1.0
 10
47.6693
 20
-43.9792
 30
0.0
 10
47.6693
 20
-43.9792
 30
0.0
 10
47.8477
 20
-54.402
 30
0.0
 10
47.8477
 20
-54.402
 30
0.0
 10
47.8477
 20
-54.402
 30
0.0
 10
47.8477
 20
-54.402
 30
0.0
 10
49.99290000000001
 20
-54.36530000000001
 30
0.0
 10
49.99290000000001
 20
-54.36530000000001
 30
0.0
 10
49.99290000000001
 20
-54.36530000000001
 30
0.0
 10
49.99290000000001
 20
-54.36530000000001
 30
0.0
 10
49.7942
 20
-43.9556
 30
0.0
 10
49.7942
 20
-43.9556
 30
0.0
 10
49.7942
 20
-43.9556
 30
0.0
 10
53.6649
 20
-43.9731
 30
0.0
 10
56.1369
 20
-45.4769
 30
0.0
 10
56.5647
 20
-49.15320000000001
 30
0.0
 10
56.5647
 20
-49.15320000000001
 30
0.0
 10
56.5647
 20
-49.15320000000001
 30
0.0
 10
57.1127
 20
-78.37870000000001
 30
0.0
 10
57.1127
 20
-78.37870000000001
 30
0.0
 10
57.1127
 20
-78.37870000000001
 30
0.0
 10
57.69560000000001
 20
-82.11280000000001
 30
0.0
 10
63.50680000000001
 20
-84.01430000000001
 30
0.0
 10
63.389
 20
-90.06610000000001
 30
0.0
 10
63.389
 20
-90.06610000000001
 30
0.0
 10
63.389
 20
-90.06610000000001
 30
0.0
 10
63.5988
 20
-109.1616
 30
0.0
 10
63.5988
 20
-109.1616
 30
0.0
 10
63.5988
 20
-109.1616
 30
0.0
 10
63.05560000000001
 20
-114.5747
 30
0.0
 10
59.0946
 20
-118.993
 30
0.0
 10
51.10720000000001
 20
-119.4763
 30
0.0
 10
51.10720000000001
 20
-119.4763
 30
0.0
 10
51.10720000000001
 20
-119.4763
 30
0.0
 10
50.3719
 20
-76.5119
 30
0.0
 10
50.3719
 20
-76.5119
 30
0.0
 10
50.3719
 20
-76.5119
 30
0.0
 10
50.3719
 20
-76.5119
 30
0.0
 10
48.2267
 20
-76.5487
 30
0.0
 10
48.2267
 20
-76.5487
 30
0.0
 10
48.2267
 20
-76.5487
 30
0.0
 10
48.2267
 20
-76.5487
 30
0.0
 10
48.962
 20
-119.5131
 30
0.0
 10
48.962
 20
-119.5131
 30
0.0
 10
48.962
 20
-119.5131
 30
0.0
 10
42.5228
 20
-119.3941
 30
0.0
 10
37.1041
 20
-116.3233
 30
0.0
 10
36.141
 20
-109.803
 30
0.0
 10
36.141
 20
-109.803
 30
0.0
 10
36.141
 20
-109.803
 30
0.0
 10
35.67480000000001
 20
-90.83880000000001
 30
0.0
 10
35.67480000000001
 20
-90.83880000000001
 30
0.0
 10
35.67480000000001
 20
-90.83880000000001
 30
0.0
 10
35.7537
 20
-84.28580000000001
 30
0.0
 10
40.3787
 20
-82.8169
 30
0.0
 10
41.56050000000001
 20
-79.08850000000001
 30
0.0
 10
41.56050000000001
 20
-79.08850000000001
 30
0.0
 10
41.56050000000001
 20
-79.08850000000001
 30
0.0
 10
41.1013
 20
-49.4178
 30
0.0
 10
41.1013
 20
-49.4178
 30
0.0
 10
41.1013
 20
-49.4178
 30
0.0
 10
41.2504
 20
-45.52540000000001
 30
0.0
 10
43.7894
 20
-44.069
 30
0.0
 10
47.6693
 20
-43.9792
 30
0.0
  0
SPLINE
  5
50
330
1F
100
AcDbEntity
  8
Camada 1
 62
    22
370
     5
100
AcDbSpline
210
0.0
220
0.0
230
1.0
 70
    11
 71
     3
 72
    76
 73
    72
 74
     0
 42
0.0000000001
 43
0.0000000001
 40
0.0
 40
0.0
 40
0.0
 40
0.0
 40
0.0555555555555556
 40
0.0555555555555556
 40
0.0555555555555556
 40
0.0555555555555556
 40
0.1111111111111111
 40
0.1111111111111111
 40
0.1111111111111111
 40
0.1111111111111111
 40
0.1666666666666667
 40
0.1666666666666667
 40
0.1666666666666667
 40
0.1666666666666667
 40
0.2222222222222222
 40
0.2222222222222222
 40
0.2222222222222222
 40
0.2222222222222222
 40
0.2777777777777778
 40
0.2777777777777778
 40
0.2777777777777778
 40
0.2777777777777778
 40
0.3333333333333334
 40
0.3333333333333334
 40
0.3333333333333334
 40
0.3333333333333334
 40
0.388888888888889
 40
0.388888888888889
 40
0.388888888888889
 40
0.388888888888889
 40
0.4444444444444445
 40
0.4444444444444445
 40
0.4444444444444445
 40
0.4444444444444445
 40
0.5000000000000001
 40
0.5000000000000001
 40
0.5000000000000001
 40
0.5000000000000001
 40
0.5555555555555557
 40
0.5555555555555557
 40
0.5555555555555557
 40
0.5555555555555557
 40
0.6111111111111113
 40
0.6111111111111113
 40
0.6111111111111113
 40
0.6111111111111113
 40
0.6666666666666669
 40
0.6666666666666669
 40
0.6666666666666669
 40
0.6666666666666669
 40
0.7222222222222224
 40
0.7222222222222224
 40
0.7222222222222224
 40
0.7222222222222224
 40
0.777777777777778
 40
0.777777777777778
 40
0.777777777777778
 40
0.777777777777778
 40
0.8333333333333336
 40
0.8333333333333336
 40
0.8333333333333336
 40
0.8333333333333336
 40
0.8888888888888892
 40
0.8888888888888892
 40
0.8888888888888892
 40
0.8888888888888892
 40
0.9444444444444448
 40
0.9444444444444448
 40
0.9444444444444448
 40
0.9444444444444448
 40
1.0
 40
1.0
 40
1.0
 40
1.0
 10
-98.3687
 20
-25.2608
 30
0.0
 10
-98.00500000000001
 20
-23.7377
 30
0.0
 10
-96.8819
 20
-22.96
 30
0.0
 10
-95.47460000000001
 20
-23.942
 30
0.0
 10
-95.47460000000001
 20
-23.942
 30
0.0
 10
-93.6519
 20
-26.3509
 30
0.0
 10
-94.57300000000001
 20
-31.1002
 30
0.0
 10
-91.13630000000001
 20
-31.7338
 30
0.0
 10
-91.13630000000001
 20
-31.7338
 30
0.0
 10
-91.13630000000001
 20
-31.7338
 30
0.0
 10
-61.1633
 20
-45.5409
 30
0.0
 10
-61.1633
 20
-45.5409
 30
0.0
 10
-61.1633
 20
-45.5409
 30
0.0
 10
-58.9485
 20
-46.8672
 30
0.0
 10
-59.3699
 20
-49.66840000000001
 30
0.0
 10
-61.36980000000001
 20
-50.7333
 30
0.0
 10
-61.36980000000001
 20
-50.7333
 30
0.0
 10
-61.36980000000001
 20
-50.7333
 30
0.0
 10
-77.9444
 20
-55.43190000000001
 30
0.0
 10
-77.9444
 20
-55.43190000000001
 30
0.0
 10
-77.9444
 20
-55.43190000000001
 30
0.0
 10
-79.5689
 20
-57.0521
 30
0.0
 10
-80.0377
 20
-58.55130000000001
 30
0.0
 10
-79.9812
 20
-59.9955
 30
0.0
 10
-79.9812
 20
-59.9955
 30
0.0
 10
-77.00870000000001
 20
-64.5074
 30
0.0
 10
-75.7008
 20
-69.0993
 30
0.0
 10
-77.36020000000001
 20
-73.83460000000001
 30
0.0
 10
-77.36020000000001
 20
-73.83460000000001
 30
0.0
 10
-77.8291
 20
-76.0245
 30
0.0
 10
-79.19850000000001
 20
-76.31180000000001
 30
0.0
 10
-81.7008
 20
-75.81740000000001
 30
0.0
 10
-81.7008
 20
-75.81740000000001
 30
0.0
 10
-81.7008
 20
-75.81740000000001
 30
0.0
 10
-81.58160000000001
 20
-70.63510000000001
 30
0.0
 10
-81.58160000000001
 20
-70.63510000000001
 30
0.0
 10
-81.58160000000001
 20
-70.63510000000001
 30
0.0
 10
-81.58160000000001
 20
-70.63510000000001
 30
0.0
 10
-83.7265
 20
-70.5857
 30
0.0
 10
-83.7265
 20
-70.5857
 30
0.0
 10
-83.7265
 20
-70.5857
 30
0.0
 10
-83.7265
 20
-70.5857
 30
0.0
 10
-83.84690000000001
 20
-75.81740000000001
 30
0.0
 10
-83.84690000000001
 20
-75.81740000000001
 30
0.0
 10
-83.84690000000001
 20
-75.81740000000001
 30
0.0
 10
-86.2072
 20
-76.3824
 30
0.0
 10
-87.84610000000001
 20
-75.91850000000001
 30
0.0
 10
-88.5269
 20
-74.0895
 30
0.0
 10
-88.5269
 20
-74.0895
 30
0.0
 10
-89.25630000000001
 20
-69.4778
 30
0.0
 10
-89.22150000000001
 20
-64.8678
 30
0.0
 10
-88.6636
 20
-60.2592
 30
0.0
 10
-88.6636
 20
-60.2592
 30
0.0
 10
-88.5882
 20
-56.12000000000001
 30
0.0
 10
-86.83030000000001
 20
-53.5185
 30
0.0
 10
-83.92110000000001
 20
-51.9694
 30
0.0
 10
-83.92110000000001
 20
-51.9694
 30
0.0
 10
-83.92110000000001
 20
-51.9694
 30
0.0
 10
-71.8288
 20
-48.2852
 30
0.0
 10
-71.8288
 20
-48.2852
 30
0.0
 10
-71.8288
 20
-48.2852
 30
0.0
 10
-69.7932
 20
-47.32230000000001
 30
0.0
 10
-69.71690000000001
 20
-46.2318
 30
0.0
 10
-70.9808
 20
-45.05410000000001
 30
0.0
 10
-70.9808
 20
-45.05410000000001
 30
0.0
 10
-70.9808
 20
-45.05410000000001
 30
0.0
 10
-94.4302
 20
-34.1117
 30
0.0
 10
-94.4302
 20
-34.1117
 30
0.0
 10
-94.4302
 20
-34.1117
 30
0.0
 10
-97.0471
 20
-31.6563
 30
0.0
 10
-98.36
 20
-28.7059
 30
0.0
 10
-98.3687
 20
-25.2608
 30
0.0
  0
SPLINE
  5
51
330
1F
100
AcDbEntity
  8
Camada 1
 62
    22
370
     5
100
AcDbSpline
210
0.0
220
0.0
230
1.0
 70
    11
 71
     3
 72
    76
 73
    72
 74
     0
 42
0.0000000001
 43
0.0000000001
 40
0.0
 40
0.0
 40
0.0
 40
0.0
 40
0.0555555555555556
 40
0.0555555555555556
 40
0.0555555555555556
 40
0.0555555555555556
 40
0.1111111111111111
 40
0.1111111111111111
 40
0.1111111111111111
 40
0.1111111111111111
 40
0.1666666666666667
 40
0.1666666666666667
 40
0.1666666666666667
 40
0.1666666666666667
 40
0.2222222222222222
 40
0.2222222222222222
 40
0.2222222222222222
 40
0.2222222222222222
 40
0.2777777777777778
 40
0.2777777777777778
 40
0.2777777777777778
 40
0.2777777777777778
 40
0.3333333333333334
 40
0.3333333333333334
 40
0.3333333333333334
 40
0.3333333333333334
 40
0.388888888888889
 40
0.388888888888889
 40
0.388888888888889
 40
0.388888888888889
 40
0.4444444444444445
 40
0.4444444444444445
 40
0.4444444444444445
 40
0.4444444444444445
 40
0.5000000000000001
 40
0.5000000000000001
 40
0.5000000000000001
 40
0.5000000000000001
 40
0.5555555555555557
 40
0.5555555555555557
 40
0.5555555555555557
 40
0.5555555555555557
 40
0.6111111111111113
 40
0.6111111111111113
 40
0.6111111111111113
 40
0.6111111111111113
 40
0.6666666666666669
 40
0.6666666666666669
 40
0.6666666666666669
 40
0.6666666666666669
 40
0.7222222222222224
 40
0.7222222222222224
 40
0.7222222222222224
 40
0.7222222222222224
 40
0.777777777777778
 40
0.777777777777778
 40
0.777777777777778
 40
0.777777777777778
 40
0.8333333333333336
 40
0.8333333333333336
 40
0.8333333333333336
 40
0.8333333333333336
 40
0.8888888888888892
 40
0.8888888888888892
 40
0.8888888888888892
 40
0.8888888888888892
 40
0.9444444444444448
 40
0.9444444444444448
 40
0.9444444444444448
 40
0.9444444444444448
 40
1.0
 40
1.0
 40
1.0
 40
1.0
 10
-75.58240000000001
 20
-28.1864
 30
0.0
 10
-75.2187
 20
-26.6633
 30
0.0
 10
-74.09560000000001
 20
-25.8856
 30
0.0
 10
-72.6883
 20
-26.8676
 30
0.0
 10
-72.6883
 20
-26.8676
 30
0.0
 10
-70.8656
 20
-29.2765
 30
0.0
 10
-71.78670000000001
 20
-34.0258
 30
0.0
 10
-68.35000000000001
 20
-34.65940000000001
 30
0.0
 10
-68.35000000000001
 20
-34.65940000000001
 30
0.0
 10
-68.35000000000001
 20
-34.65940000000001
 30
0.0
 10
-38.377
 20
-48.4665
 30
0.0
 10
-38.377
 20
-48.4665
 30
0.0
 10
-38.377
 20
-48.4665
 30
0.0
 10
-36.1622
 20
-49.7928
 30
0.0
 10
-36.5836
 20
-52.594
 30
0.0
 10
-38.5835
 20
-53.6589
 30
0.0
 10
-38.5835
 20
-53.6589
 30
0.0
 10
-38.5835
 20
-53.6589
 30
0.0
 10
-55.15810000000001
 20
-58.3575
 30
0.0
 10
-55.15810000000001
 20
-58.3575
 30
0.0
 10
-55.15810000000001
 20
-58.3575
 30
0.0
 10
-56.7826
 20
-59.97770000000001
 30
0.0
 10
-57.2514
 20
-61.4769
 30
0.0
 10
-57.1949
 20
-62.9211
 30
0.0
 10
-57.1949
 20
-62.9211
 30
0.0
 10
-54.2224
 20
-67.43300000000001
 30
0.0
 10
-52.9145
 20
-72.0249
 30
0.0
 10
-54.5739
 20
-76.7602
 30
0.0
 10
-54.5739
 20
-76.7602
 30
0.0
 10
-55.0428
 20
-78.95010000000001
 30
0.0
 10
-56.41220000000001
 20
-79.23740000000001
 30
0.0
 10
-58.9145
 20
-78.74300000000001
 30
0.0
 10
-58.9145
 20
-78.74300000000001
 30
0.0
 10
-58.9145
 20
-78.74300000000001
 30
0.0
 10
-58.79530000000001
 20
-73.5607
 30
0.0
 10
-58.79530000000001
 20
-73.5607
 30
0.0
 10
-58.79530000000001
 20
-73.5607
 30
0.0
 10
-58.79530000000001
 20
-73.5607
 30
0.0
 10
-60.9402
 20
-73.51130000000001
 30
0.0
 10
-60.9402
 20
-73.51130000000001
 30
0.0
 10
-60.9402
 20
-73.51130000000001
 30
0.0
 10
-60.9402
 20
-73.51130000000001
 30
0.0
 10
-61.0606
 20
-78.74300000000001
 30
0.0
 10
-61.0606
 20
-78.74300000000001
 30
0.0
 10
-61.0606
 20
-78.74300000000001
 30
0.0
 10
-63.4209
 20
-79.30800000000001
 30
0.0
 10
-65.05980000000001
 20
-78.8441
 30
0.0
 10
-65.7406
 20
-77.0151
 30
0.0
 10
-65.7406
 20
-77.0151
 30
0.0
 10
-66.47
 20
-72.40340000000001
 30
0.0
 10
-66.43520000000001
 20
-67.79340000000001
 30
0.0
 10
-65.87730000000001
 20
-63.1848
 30
0.0
 10
-65.87730000000001
 20
-63.1848
 30
0.0
 10
-65.8019
 20
-59.0456
 30
0.0
 10
-64.044
 20
-56.44410000000001
 30
0.0
 10
-61.13480000000001
 20
-54.895
 30
0.0
 10
-61.13480000000001
 20
-54.895
 30
0.0
 10
-61.13480000000001
 20
-54.895
 30
0.0
 10
-49.0425
 20
-51.2108
 30
0.0
 10
-49.0425
 20
-51.2108
 30
0.0
 10
-49.0425
 20
-51.2108
 30
0.0
 10
-47.0069
 20
-50.2479
 30
0.0
 10
-46.93060000000001
 20
-49.1574
 30
0.0
 10
-48.19450000000001
 20
-47.9797
 30
0.0
 10
-48.19450000000001
 20
-47.9797
 30
0.0
 10
-48.19450000000001
 20
-47.9797
 30
0.0
 10
-71.6439
 20
-37.0373
 30
0.0
 10
-71.6439
 20
-37.0373
 30
0.0
 10
-71.6439
 20
-37.0373
 30
0.0
 10
-74.2608
 20
-34.58190000000001
 30
0.0
 10
-75.5737
 20
-31.6315
 30
0.0
 10
-75.58240000000001
 20
-28.1864
 30
0.0
  0
SPLINE
  5
52
330
1F
100
AcDbEntity
  8
Camada 1
 62
    22
370
     5
100
AcDbSpline
210
0.0
220
0.0
230
1.0
 70
    11
 71
     3
 72
    76
 73
    72
 74
     0
 42
0.0000000001
 43
0.0000000001
 40
0.0
 40
0.0
 40
0.0
 40
0.0
 40
0.0555555555555556
 40
0.0555555555555556
 40
0.0555555555555556
 40
0.0555555555555556
 40
0.1111111111111111
 40
0.1111111111111111
 40
0.1111111111111111
 40
0.1111111111111111
 40
0.1666666666666667
 40
0.1666666666666667
 40
0.1666666666666667
 40
0.1666666666666667
 40
0.2222222222222222
 40
0.2222222222222222
 40
0.2222222222222222
 40
0.2222222222222222
 40
0.2777777777777778
 40
0.2777777777777778
 40
0.2777777777777778
 40
0.2777777777777778
 40
0.3333333333333334
 40
0.3333333333333334
 40
0.3333333333333334
 40
0.3333333333333334
 40
0.388888888888889
 40
0.388888888888889
 40
0.388888888888889
 40
0.388888888888889
 40
0.4444444444444445
 40
0.4444444444444445
 40
0.4444444444444445
 40
0.4444444444444445
 40
0.5000000000000001
 40
0.5000000000000001
 40
0.5000000000000001
 40
0.5000000000000001
 40
0.5555555555555557
 40
0.5555555555555557
 40
0.5555555555555557
 40
0.5555555555555557
 40
0.6111111111111113
 40
0.6111111111111113
 40
0.6111111111111113
 40
0.6111111111111113
 40
0.6666666666666669
 40
0.6666666666666669
 40
0.6666666666666669
 40
0.6666666666666669
 40
0.7222222222222224
 40
0.7222222222222224
 40
0.7222222222222224
 40
0.7222222222222224
 40
0.777777777777778
 40
0.777777777777778
 40
0.777777777777778
 40
0.777777777777778
 40
0.8333333333333336
 40
0.8333333333333336
 40
0.8333333333333336
 40
0.8333333333333336
 40
0.8888888888888892
 40
0.8888888888888892
 40
0.8888888888888892
 40
0.8888888888888892
 40
0.9444444444444448
 40
0.9444444444444448
 40
0.9444444444444448
 40
0.9444444444444448
 40
1.0
 40
1.0
 40
1.0
 40
1.0
 10
-53.94430000000001
 20
-30.7593
 30
0.0
 10
-53.5806
 20
-29.2362
 30
0.0
 10
-52.4575
 20
-28.4585
 30
0.0
 10
-51.0502
 20
-29.4405
 30
0.0
 10
-51.0502
 20
-29.4405
 30
0.0
 10
-49.2275
 20
-31.8494
 30
0.0
 10
-50.1486
 20
-36.5987
 30
0.0
 10
-46.7119
 20
-37.2323
 30
0.0
 10
-46.7119
 20
-37.2323
 30
0.0
 10
-46.7119
 20
-37.2323
 30
0.0
 10
-16.7389
 20
-51.0394
 30
0.0
 10
-16.7389
 20
-51.0394
 30
0.0
 10
-16.7389
 20
-51.0394
 30
0.0
 10
-14.5241
 20
-52.3657
 30
0.0
 10
-14.9455
 20
-55.16690000000001
 30
0.0
 10
-16.9454
 20
-56.2318
 30
0.0
 10
-16.9454
 20
-56.2318
 30
0.0
 10
-16.9454
 20
-56.2318
 30
0.0
 10
-33.52
 20
-60.93040000000001
 30
0.0
 10
-33.52
 20
-60.93040000000001
 30
0.0
 10
-33.52
 20
-60.93040000000001
 30
0.0
 10
-35.1445
 20
-62.5506
 30
0.0
 10
-35.6133
 20
-64.04980000000001
 30
0.0
 10
-35.5568
 20
-65.494
 30
0.0
 10
-35.5568
 20
-65.494
 30
0.0
 10
-32.5843
 20
-70.0059
 30
0.0
 10
-31.2764
 20
-74.59780000000001
 30
0.0
 10
-32.9358
 20
-79.3331
 30
0.0
 10
-32.9358
 20
-79.3331
 30
0.0
 10
-33.4047
 20
-81.52300000000001
 30
0.0
 10
-34.7741
 20
-81.8103
 30
0.0
 10
-37.2764
 20
-81.3159
 30
0.0
 10
-37.2764
 20
-81.3159
 30
0.0
 10
-37.2764
 20
-81.3159
 30
0.0
 10
-37.1572
 20
-76.1336
 30
0.0
 10
-37.1572
 20
-76.1336
 30
0.0
 10
-37.1572
 20
-76.1336
 30
0.0
 10
-37.1572
 20
-76.1336
 30
0.0
 10
-39.3021
 20
-76.08420000000001
 30
0.0
 10
-39.3021
 20
-76.08420000000001
 30
0.0
 10
-39.3021
 20
-76.08420000000001
 30
0.0
 10
-39.3021
 20
-76.08420000000001
 30
0.0
 10
-39.4225
 20
-81.3159
 30
0.0
 10
-39.4225
 20
-81.3159
 30
0.0
 10
-39.4225
 20
-81.3159
 30
0.0
 10
-41.7828
 20
-81.8809
 30
0.0
 10
-43.4217
 20
-81.417
 30
0.0
 10
-44.1025
 20
-79.58800000000001
 30
0.0
 10
-44.1025
 20
-79.58800000000001
 30
0.0
 10
-44.83190000000001
 20
-74.97630000000001
 30
0.0
 10
-44.7971
 20
-70.36630000000001
 30
0.0
 10
-44.2392
 20
-65.7577
 30
0.0
 10
-44.2392
 20
-65.7577
 30
0.0
 10
-44.1638
 20
-61.6185
 30
0.0
 10
-42.4059
 20
-59.017
 30
0.0
 10
-39.4967
 20
-57.4679
 30
0.0
 10
-39.4967
 20
-57.4679
 30
0.0
 10
-39.4967
 20
-57.4679
 30
0.0
 10
-27.4044
 20
-53.7837
 30
0.0
 10
-27.4044
 20
-53.7837
 30
0.0
 10
-27.4044
 20
-53.7837
 30
0.0
 10
-25.3688
 20
-52.82080000000001
 30
0.0
 10
-25.2925
 20
-51.7303
 30
0.0
 10
-26.5564
 20
-50.55260000000001
 30
0.0
 10
-26.5564
 20
-50.55260000000001
 30
0.0
 10
-26.5564
 20
-50.55260000000001
 30
0.0
 10
-50.0058
 20
-39.6102
 30
0.0
 10
-50.0058
 20
-39.6102
 30
0.0
 10
-50.0058
 20
-39.6102
 30
0.0
 10
-52.6227
 20
-37.1548
 30
0.0
 10
-53.9356
 20
-34.2044
 30
0.0
 10
-53.94430000000001
 20
-30.7593
 30
0.0
  0
SPLINE
  5
53
330
1F
100
AcDbEntity
  8
Camada 1
 62
    22
370
     5
100
AcDbSpline
210
0.0
220
0.0
230
1.0
 70
    11
 71
     3
 72
    76
 73
    72
 74
     0
 42
0.0000000001
 43
0.0000000001
 40
0.0
 40
0.0
 40
0.0
 40
0.0
 40
0.0555555555555556
 40
0.0555555555555556
 40
0.0555555555555556
 40
0.0555555555555556
 40
0.1111111111111111
 40
0.1111111111111111
 40
0.1111111111111111
 40
0.1111111111111111
 40
0.1666666666666667
 40
0.1666666666666667
 40
0.1666666666666667
 40
0.1666666666666667
 40
0.2222222222222222
 40
0.2222222222222222
 40
0.2222222222222222
 40
0.2222222222222222
 40
0.2777777777777778
 40
0.2777777777777778
 40
0.2777777777777778
 40
0.2777777777777778
 40
0.3333333333333334
 40
0.3333333333333334
 40
0.3333333333333334
 40
0.3333333333333334
 40
0.388888888888889
 40
0.388888888888889
 40
0.388888888888889
 40
0.388888888888889
 40
0.4444444444444445
 40
0.4444444444444445
 40
0.4444444444444445
 40
0.4444444444444445
 40
0.5000000000000001
 40
0.5000000000000001
 40
0.5000000000000001
 40
0.5000000000000001
 40
0.5555555555555557
 40
0.5555555555555557
 40
0.5555555555555557
 40
0.5555555555555557
 40
0.6111111111111113
 40
0.6111111111111113
 40
0.6111111111111113
 40
0.6111111111111113
 40
0.6666666666666669
 40
0.6666666666666669
 40
0.6666666666666669
 40
0.6666666666666669
 40
0.7222222222222224
 40
0.7222222222222224
 40
0.7222222222222224
 40
0.7222222222222224
 40
0.777777777777778
 40
0.777777777777778
 40
0.777777777777778
 40
0.777777777777778
 40
0.8333333333333336
 40
0.8333333333333336
 40
0.8333333333333336
 40
0.8333333333333336
 40
0.8888888888888892
 40
0.8888888888888892
 40
0.8888888888888892
 40
0.8888888888888892
 40
0.9444444444444448
 40
0.9444444444444448
 40
0.9444444444444448
 40
0.9444444444444448
 40
1.0
 40
1.0
 40
1.0
 40
1.0
 10
-58.1837
 20
-88.0381
 30
0.0
 10
-57.82
 20
-86.515
 30
0.0
 10
-56.6969
 20
-85.73730000000001
 30
0.0
 10
-55.2896
 20
-86.7193
 30
0.0
 10
-55.2896
 20
-86.7193
 30
0.0
 10
-53.4669
 20
-89.12820000000001
 30
0.0
 10
-54.38800000000001
 20
-93.8775
 30
0.0
 10
-50.9513
 20
-94.5111
 30
0.0
 10
-50.9513
 20
-94.5111
 30
0.0
 10
-50.9513
 20
-94.5111
 30
0.0
 10
-20.9783
 20
-108.3182
 30
0.0
 10
-20.9783
 20
-108.3182
 30
0.0
 10
-20.9783
 20
-108.3182
 30
0.0
 10
-18.7635
 20
-109.6445
 30
0.0
 10
-19.1849
 20
-112.4457
 30
0.0
 10
-21.1848
 20
-113.5106
 30
0.0
 10
-21.1848
 20
-113.5106
 30
0.0
 10
-21.1848
 20
-113.5106
 30
0.0
 10
-37.7594
 20
-118.2092
 30
0.0
 10
-37.7594
 20
-118.2092
 30
0.0
 10
-37.7594
 20
-118.2092
 30
0.0
 10
-39.3839
 20
-119.8294
 30
0.0
 10
-39.8527
 20
-121.3286
 30
0.0
 10
-39.7962
 20
-122.7728
 30
0.0
 10
-39.7962
 20
-122.7728
 30
0.0
 10
-36.8237
 20
-127.2847
 30
0.0
 10
-35.5158
 20
-131.8766
 30
0.0
 10
-37.1752
 20
-136.6119
 30
0.0
 10
-37.1752
 20
-136.6119
 30
0.0
 10
-37.6441
 20
-138.8018
 30
0.0
 10
-39.0135
 20
-139.0891
 30
0.0
 10
-41.5158
 20
-138.5947
 30
0.0
 10
-41.5158
 20
-138.5947
 30
0.0
 10
-41.5158
 20
-138.5947
 30
0.0
 10
-41.3966
 20
-133.4124
 30
0.0
 10
-41.3966
 20
-133.4124
 30
0.0
 10
-41.3966
 20
-133.4124
 30
0.0
 10
-41.3966
 20
-133.4124
 30
0.0
 10
-43.5415
 20
-133.363
 30
0.0
 10
-43.5415
 20
-133.363
 30
0.0
 10
-43.5415
 20
-133.363
 30
0.0
 10
-43.5415
 20
-133.363
 30
0.0
 10
-43.6619
 20
-138.5947
 30
0.0
 10
-43.6619
 20
-138.5947
 30
0.0
 10
-43.6619
 20
-138.5947
 30
0.0
 10
-46.02220000000001
 20
-139.1597
 30
0.0
 10
-47.66110000000001
 20
-138.6958
 30
0.0
 10
-48.3419
 20
-136.8668
 30
0.0
 10
-48.3419
 20
-136.8668
 30
0.0
 10
-49.0713
 20
-132.2551
 30
0.0
 10
-49.0365
 20
-127.6451
 30
0.0
 10
-48.4786
 20
-123.0365
 30
0.0
 10
-48.4786
 20
-123.0365
 30
0.0
 10
-48.40320000000001
 20
-118.8973
 30
0.0
 10
-46.6453
 20
-116.2958
 30
0.0
 10
-43.7361
 20
-114.7467
 30
0.0
 10
-43.7361
 20
-114.7467
 30
0.0
 10
-43.7361
 20
-114.7467
 30
0.0
 10
-31.6438
 20
-111.0625
 30
0.0
 10
-31.6438
 20
-111.0625
 30
0.0
 10
-31.6438
 20
-111.0625
 30
0.0
 10
-29.6082
 20
-110.0996
 30
0.0
 10
-29.5319
 20
-109.0091
 30
0.0
 10
-30.7958
 20
-107.8314
 30
0.0
 10
-30.7958
 20
-107.8314
 30
0.0
 10
-30.7958
 20
-107.8314
 30
0.0
 10
-54.2452
 20
-96.88900000000001
 30
0.0
 10
-54.2452
 20
-96.88900000000001
 30
0.0
 10
-54.2452
 20
-96.88900000000001
 30
0.0
 10
-56.86210000000001
 20
-94.4336
 30
0.0
 10
-58.175
 20
-91.48320000000001
 30
0.0
 10
-58.1837
 20
-88.0381
 30
0.0
  0
SPLINE
  5
54
330
1F
100
AcDbEntity
  8
Camada 1
 62
    22
370
     5
100
AcDbSpline
210
0.0
220
0.0
230
1.0
 70
    11
 71
     3
 72
    76
 73
    72
 74
     0
 42
0.0000000001
 43
0.0000000001
 40
0.0
 40
0.0
 40
0.0
 40
0.0
 40
0.0555555555555556
 40
0.0555555555555556
 40
0.0555555555555556
 40
0.0555555555555556
 40
0.1111111111111111
 40
0.1111111111111111
 40
0.1111111111111111
 40
0.1111111111111111
 40
0.1666666666666667
 40
0.1666666666666667
 40
0.1666666666666667
 40
0.1666666666666667
 40
0.2222222222222222
 40
0.2222222222222222
 40
0.2222222222222222
 40
0.2222222222222222
 40
0.2777777777777778
 40
0.2777777777777778
 40
0.2777777777777778
 40
0.2777777777777778
 40
0.3333333333333334
 40
0.3333333333333334
 40
0.3333333333333334
 40
0.3333333333333334
 40
0.388888888888889
 40
0.388888888888889
 40
0.388888888888889
 40
0.388888888888889
 40
0.4444444444444445
 40
0.4444444444444445
 40
0.4444444444444445
 40
0.4444444444444445
 40
0.5000000000000001
 40
0.5000000000000001
 40
0.5000000000000001
 40
0.5000000000000001
 40
0.5555555555555557
 40
0.5555555555555557
 40
0.5555555555555557
 40
0.5555555555555557
 40
0.6111111111111113
 40
0.6111111111111113
 40
0.6111111111111113
 40
0.6111111111111113
 40
0.6666666666666669
 40
0.6666666666666669
 40
0.6666666666666669
 40
0.6666666666666669
 40
0.7222222222222224
 40
0.7222222222222224
 40
0.7222222222222224
 40
0.7222222222222224
 40
0.777777777777778
 40
0.777777777777778
 40
0.777777777777778
 40
0.777777777777778
 40
0.8333333333333336
 40
0.8333333333333336
 40
0.8333333333333336
 40
0.8333333333333336
 40
0.8888888888888892
 40
0.8888888888888892
 40
0.8888888888888892
 40
0.8888888888888892
 40
0.9444444444444448
 40
0.9444444444444448
 40
0.9444444444444448
 40
0.9444444444444448
 40
1.0
 40
1.0
 40
1.0
 40
1.0
 10
-101.4575
 20
-82.7389
 30
0.0
 10
-101.0938
 20
-81.2158
 30
0.0
 10
-99.97070000000001
 20
-80.43810000000001
 30
0.0
 10
-98.5634
 20
-81.42010000000001
 30
0.0
 10
-98.5634
 20
-81.42010000000001
 30
0.0
 10
-96.7407
 20
-83.82900000000001
 30
0.0
 10
-97.6618
 20
-88.5783
 30
0.0
 10
-94.2251
 20
-89.2119
 30
0.0
 10
-94.2251
 20
-89.2119
 30
0.0
 10
-94.2251
 20
-89.2119
 30
0.0
 10
-64.2521
 20
-103.019
 30
0.0
 10
-64.2521
 20
-103.019
 30
0.0
 10
-64.2521
 20
-103.019
 30
0.0
 10
-62.0373
 20
-104.3453
 30
0.0
 10
-62.4587
 20
-107.1465
 30
0.0
 10
-64.4586
 20
-108.2114
 30
0.0
 10
-64.4586
 20
-108.2114
 30
0.0
 10
-64.4586
 20
-108.2114
 30
0.0
 10
-81.03320000000001
 20
-112.91
 30
0.0
 10
-81.03320000000001
 20
-112.91
 30
0.0
 10
-81.03320000000001
 20
-112.91
 30
0.0
 10
-82.65770000000001
 20
-114.5302
 30
0.0
 10
-83.12650000000001
 20
-116.0294
 30
0.0
 10
-83.07000000000001
 20
-117.4736
 30
0.0
 10
-83.07000000000001
 20
-117.4736
 30
0.0
 10
-80.09750000000001
 20
-121.9855
 30
0.0
 10
-78.78960000000001
 20
-126.5774
 30
0.0
 10
-80.449
 20
-131.3127
 30
0.0
 10
-80.449
 20
-131.3127
 30
0.0
 10
-80.9179
 20
-133.5026
 30
0.0
 10
-82.2873
 20
-133.7899
 30
0.0
 10
-84.78960000000001
 20
-133.2955
 30
0.0
 10
-84.78960000000001
 20
-133.2955
 30
0.0
 10
-84.78960000000001
 20
-133.2955
 30
0.0
 10
-84.6704
 20
-128.1132
 30
0.0
 10
-84.6704
 20
-128.1132
 30
0.0
 10
-84.6704
 20
-128.1132
 30
0.0
 10
-84.6704
 20
-128.1132
 30
0.0
 10
-86.81530000000001
 20
-128.0638
 30
0.0
 10
-86.81530000000001
 20
-128.0638
 30
0.0
 10
-86.81530000000001
 20
-128.0638
 30
0.0
 10
-86.81530000000001
 20
-128.0638
 30
0.0
 10
-86.9357
 20
-133.2955
 30
0.0
 10
-86.9357
 20
-133.2955
 30
0.0
 10
-86.9357
 20
-133.2955
 30
0.0
 10
-89.29600000000001
 20
-133.8605
 30
0.0
 10
-90.9349
 20
-133.3966
 30
0.0
 10
-91.6157
 20
-131.5676
 30
0.0
 10
-91.6157
 20
-131.5676
 30
0.0
 10
-92.3451
 20
-126.9559
 30
0.0
 10
-92.3103
 20
-122.3459
 30
0.0
 10
-91.75240000000001
 20
-117.7373
 30
0.0
 10
-91.75240000000001
 20
-117.7373
 30
0.0
 10
-91.67700000000001
 20
-113.5981
 30
0.0
 10
-89.9191
 20
-110.9966
 30
0.0
 10
-87.0099
 20
-109.4475
 30
0.0
 10
-87.0099
 20
-109.4475
 30
0.0
 10
-87.0099
 20
-109.4475
 30
0.0
 10
-74.91760000000001
 20
-105.7633
 30
0.0
 10
-74.91760000000001
 20
-105.7633
 30
0.0
 10
-74.91760000000001
 20
-105.7633
 30
0.0
 10
-72.88200000000001
 20
-104.8004
 30
0.0
 10
-72.8057
 20
-103.7099
 30
0.0
 10
-74.06960000000001
 20
-102.5322
 30
0.0
 10
-74.06960000000001
 20
-102.5322
 30
0.0
 10
-74.06960000000001
 20
-102.5322
 30
0.0
 10
-97.51900000000001
 20
-91.58980000000001
 30
0.0
 10
-97.51900000000001
 20
-91.58980000000001
 30
0.0
 10
-97.51900000000001
 20
-91.58980000000001
 30
0.0
 10
-100.1359
 20
-89.1344
 30
0.0
 10
-101.4488
 20
-86.184
 30
0.0
 10
-101.4575
 20
-82.7389
 30
0.0
  0
SPLINE
  5
55
330
1F
100
AcDbEntity
  8
Camada 1
 62
    22
370
     5
100
AcDbSpline
210
0.0
220
0.0
230
1.0
 70
    11
 71
     3
 72
    76
 73
    72
 74
     0
 42
0.0000000001
 43
0.0000000001
 40
0.0
 40
0.0
 40
0.0
 40
0.0
 40
0.0555555555555556
 40
0.0555555555555556
 40
0.0555555555555556
 40
0.0555555555555556
 40
0.1111111111111111
 40
0.1111111111111111
 40
0.1111111111111111
 40
0.1111111111111111
 40
0.1666666666666667
 40
0.1666666666666667
 40
0.1666666666666667
 40
0.1666666666666667
 40
0.2222222222222222
 40
0.2222222222222222
 40
0.2222222222222222
 40
0.2222222222222222
 40
0.2777777777777778
 40
0.2777777777777778
 40
0.2777777777777778
 40
0.2777777777777778
 40
0.3333333333333334
 40
0.3333333333333334
 40
0.3333333333333334
 40
0.3333333333333334
 40
0.388888888888889
 40
0.388888888888889
 40
0.388888888888889
 40
0.388888888888889
 40
0.4444444444444445
 40
0.4444444444444445
 40
0.4444444444444445
 40
0.4444444444444445
 40
0.5000000000000001
 40
0.5000000000000001
 40
0.5000000000000001
 40
0.5000000000000001
 40
0.5555555555555557
 40
0.5555555555555557
 40
0.5555555555555557
 40
0.5555555555555557
 40
0.6111111111111113
 40
0.6111111111111113
 40
0.6111111111111113
 40
0.6111111111111113
 40
0.6666666666666669
 40
0.6666666666666669
 40
0.6666666666666669
 40
0.6666666666666669
 40
0.7222222222222224
 40
0.7222222222222224
 40
0.7222222222222224
 40
0.7222222222222224
 40
0.777777777777778
 40
0.777777777777778
 40
0.777777777777778
 40
0.777777777777778
 40
0.8333333333333336
 40
0.8333333333333336
 40
0.8333333333333336
 40
0.8333333333333336
 40
0.8888888888888892
 40
0.8888888888888892
 40
0.8888888888888892
 40
0.8888888888888892
 40
0.9444444444444448
 40
0.9444444444444448
 40
0.9444444444444448
 40
0.9444444444444448
 40
1.0
 40
1.0
 40
1.0
 40
1.0
 10
-78.67360000000001
 20
-85.8181
 30
0.0
 10
-78.3099
 20
-84.295
 30
0.0
 10
-77.18680000000001
 20
-83.51730000000001
 30
0.0
 10
-75.7795
 20
-84.49930000000001
 30
0.0
 10
-75.7795
 20
-84.49930000000001
 30
0.0
 10
-73.9568
 20
-86.90820000000001
 30
0.0
 10
-74.8779
 20
-91.6575
 30
0.0
 10
-71.44120000000001
 20
-92.2911
 30
0.0
 10
-71.44120000000001
 20
-92.2911
 30
0.0
 10
-71.44120000000001
 20
-92.2911
 30
0.0
 10
-41.4682
 20
-106.0982
 30
0.0
 10
-41.4682
 20
-106.0982
 30
0.0
 10
-41.4682
 20
-106.0982
 30
0.0
 10
-39.2534
 20
-107.4245
 30
0.0
 10
-39.67480000000001
 20
-110.2257
 30
0.0
 10
-41.6747
 20
-111.2906
 30
0.0
 10
-41.6747
 20
-111.2906
 30
0.0
 10
-41.6747
 20
-111.2906
 30
0.0
 10
-58.24930000000001
 20
-115.9892
 30
0.0
 10
-58.24930000000001
 20
-115.9892
 30
0.0
 10
-58.24930000000001
 20
-115.9892
 30
0.0
 10
-59.8738
 20
-117.6094
 30
0.0
 10
-60.3426
 20
-119.1086
 30
0.0
 10
-60.28610000000001
 20
-120.5528
 30
0.0
 10
-60.28610000000001
 20
-120.5528
 30
0.0
 10
-57.3136
 20
-125.0647
 30
0.0
 10
-56.0057
 20
-129.6566
 30
0.0
 10
-57.6651
 20
-134.3919
 30
0.0
 10
-57.6651
 20
-134.3919
 30
0.0
 10
-58.134
 20
-136.5818
 30
0.0
 10
-59.50340000000001
 20
-136.8691
 30
0.0
 10
-62.0057
 20
-136.3747
 30
0.0
 10
-62.0057
 20
-136.3747
 30
0.0
 10
-62.0057
 20
-136.3747
 30
0.0
 10
-61.88650000000001
 20
-131.1924
 30
0.0
 10
-61.88650000000001
 20
-131.1924
 30
0.0
 10
-61.88650000000001
 20
-131.1924
 30
0.0
 10
-61.88650000000001
 20
-131.1924
 30
0.0
 10
-64.03140000000001
 20
-131.143
 30
0.0
 10
-64.03140000000001
 20
-131.143
 30
0.0
 10
-64.03140000000001
 20
-131.143
 30
0.0
 10
-64.03140000000001
 20
-131.143
 30
0.0
 10
-64.15180000000001
 20
-136.3747
 30
0.0
 10
-64.15180000000001
 20
-136.3747
 30
0.0
 10
-64.15180000000001
 20
-136.3747
 30
0.0
 10
-66.5121
 20
-136.9397
 30
0.0
 10
-68.151
 20
-136.4758
 30
0.0
 10
-68.8318
 20
-134.6468
 30
0.0
 10
-68.8318
 20
-134.6468
 30
0.0
 10
-69.5612
 20
-130.0351
 30
0.0
 10
-69.52640000000001
 20
-125.4251
 30
0.0
 10
-68.96850000000001
 20
-120.8165
 30
0.0
 10
-68.96850000000001
 20
-120.8165
 30
0.0
 10
-68.8931
 20
-116.6773
 30
0.0
 10
-67.1352
 20
-114.0758
 30
0.0
 10
-64.226
 20
-112.5267
 30
0.0
 10
-64.226
 20
-112.5267
 30
0.0
 10
-64.226
 20
-112.5267
 30
0.0
 10
-52.13370000000001
 20
-108.8425
 30
0.0
 10
-52.13370000000001
 20
-108.8425
 30
0.0
 10
-52.13370000000001
 20
-108.8425
 30
0.0
 10
-50.0981
 20
-107.8796
 30
0.0
 10
-50.0218
 20
-106.7891
 30
0.0
 10
-51.28570000000001
 20
-105.6114
 30
0.0
 10
-51.28570000000001
 20
-105.6114
 30
0.0
 10
-51.28570000000001
 20
-105.6114
 30
0.0
 10
-74.7351
 20
-94.66900000000001
 30
0.0
 10
-74.7351
 20
-94.66900000000001
 30
0.0
 10
-74.7351
 20
-94.66900000000001
 30
0.0
 10
-77.352
 20
-92.2136
 30
0.0
 10
-78.6649
 20
-89.2632
 30
0.0
 10
-78.67360000000001
 20
-85.8181
 30
0.0
  0
SPLINE
  5
56
330
1F
100
AcDbEntity
  8
Camada 1
 62
    22
370
     5
100
AcDbSpline
210
0.0
220
0.0
230
1.0
 70
    11
 71
     3
 72
    20
 73
    16
 74
     0
 42
0.0000000001
 43
0.0000000001
 40
0.0
 40
0.0
 40
0.0
 40
0.0
 40
0.25
 40
0.25
 40
0.25
 40
0.25
 40
0.5
 40
0.5
 40
0.5
 40
0.5
 40
0.75
 40
0.75
 40
0.75
 40
0.75
 40
1.0
 40
1.0
 40
1.0
 40
1.0
 10
-3.876
 20
59.3341
 30
0.0
 10
-3.876
 20
59.3341
 30
0.0
 10
-1.7304
 20
59.31650000000001
 30
0.0
 10
-1.7304
 20
59.31650000000001
 30
0.0
 10
-1.7304
 20
59.31650000000001
 30
0.0
 10
-1.7304
 20
59.31650000000001
 30
0.0
 10
-1.9029
 20
38.38520000000001
 30
0.0
 10
-1.9029
 20
38.38520000000001
 30
0.0
 10
-1.9029
 20
38.38520000000001
 30
0.0
 10
-1.9029
 20
38.38520000000001
 30
0.0
 10
-4.0485
 20
38.4028
 30
0.0
 10
-4.0485
 20
38.4028
 30
0.0
 10
-4.0485
 20
38.4028
 30
0.0
 10
-4.0485
 20
38.4028
 30
0.0
 10
-3.876
 20
59.3341
 30
0.0
 10
-3.876
 20
59.3341
 30
0.0
  0
SPLINE
  5
57
330
1F
100
AcDbEntity
  8
Camada 1
 62
    22
370
     5
100
AcDbSpline
210
0.0
220
0.0
230
1.0
 70
    11
 71
     3
 72
   180
 73
   176
 74
     0
 42
0.0000000001
 43
0.0000000001
 40
0.0
 40
0.0
 40
0.0
 40
0.0
 40
0.0227272727272727
 40
0.0227272727272727
 40
0.0227272727272727
 40
0.0227272727272727
 40
0.0454545454545455
 40
0.0454545454545455
 40
0.0454545454545455
 40
0.0454545454545455
 40
0.0681818181818182
 40
0.0681818181818182
 40
0.0681818181818182
 40
0.0681818181818182
 40
0.0909090909090909
 40
0.0909090909090909
 40
0.0909090909090909
 40
0.0909090909090909
 40
0.1136363636363637
 40
0.1136363636363637
 40
0.1136363636363637
 40
0.1136363636363637
 40
0.1363636363636364
 40
0.1363636363636364
 40
0.1363636363636364
 40
0.1363636363636364
 40
0.1590909090909091
 40
0.1590909090909091
 40
0.1590909090909091
 40
0.1590909090909091
 40
0.1818181818181819
 40
0.1818181818181819
 40
0.1818181818181819
 40
0.1818181818181819
 40
0.2045454545454546
 40
0.2045454545454546
 40
0.2045454545454546
 40
0.2045454545454546
 40
0.2272727272727273
 40
0.2272727272727273
 40
0.2272727272727273
 40
0.2272727272727273
 40
0.2500000000000001
 40
0.2500000000000001
 40
0.2500000000000001
 40
0.2500000000000001
 40
0.2727272727272728
 40
0.2727272727272728
 40
0.2727272727272728
 40
0.2727272727272728
 40
0.2954545454545455
 40
0.2954545454545455
 40
0.2954545454545455
 40
0.2954545454545455
 40
0.3181818181818182
 40
0.3181818181818182
 40
0.3181818181818182
 40
0.3181818181818182
 40
0.3409090909090909
 40
0.3409090909090909
 40
0.3409090909090909
 40
0.3409090909090909
 40
0.3636363636363636
 40
0.3636363636363636
 40
0.3636363636363636
 40
0.3636363636363636
 40
0.3863636363636363
 40
0.3863636363636363
 40
0.3863636363636363
 40
0.3863636363636363
 40
0.409090909090909
 40
0.409090909090909
 40
0.409090909090909
 40
0.409090909090909
 40
0.4318181818181817
 40
0.4318181818181817
 40
0.4318181818181817
 40
0.4318181818181817
 40
0.4545454545454544
 40
0.4545454545454544
 40
0.4545454545454544
 40
0.4545454545454544
 40
0.4772727272727271
 40
0.4772727272727271
 40
0.4772727272727271
 40
0.4772727272727271
 40
0.4999999999999998
 40
0.4999999999999998
 40
0.4999999999999998
 40
0.4999999999999998
 40
0.5227272727272726
 40
0.5227272727272726
 40
0.5227272727272726
 40
0.5227272727272726
 40
0.5454545454545453
 40
0.5454545454545453
 40
0.5454545454545453
 40
0.5454545454545453
 40
0.568181818181818
 40
0.568181818181818
 40
0.568181818181818
 40
0.568181818181818
 40
0.5909090909090907
 40
0.5909090909090907
 40
0.5909090909090907
 40
0.5909090909090907
 40
0.6136363636363634
 40
0.6136363636363634
 40
0.6136363636363634
 40
0.6136363636363634
 40
0.6363636363636361
 40
0.6363636363636361
 40
0.6363636363636361
 40
0.6363636363636361
 40
0.6590909090909088
 40
0.6590909090909088
 40
0.6590909090909088
 40
0.6590909090909088
 40
0.6818181818181816
 40
0.6818181818181816
 40
0.6818181818181816
 40
0.6818181818181816
 40
0.7045454545454543
 40
0.7045454545454543
 40
0.7045454545454543
 40
0.7045454545454543
 40
0.727272727272727
 40
0.727272727272727
 40
0.727272727272727
 40
0.727272727272727
 40
0.7499999999999997
 40
0.7499999999999997
 40
0.7499999999999997
 40
0.7499999999999997
 40
0.7727272727272724
 40
0.7727272727272724
 40
0.7727272727272724
 40
0.7727272727272724
 40
0.7954545454545451
 40
0.7954545454545451
 40
0.7954545454545451
 40
0.7954545454545451
 40
0.8181818181818178
 40
0.8181818181818178
 40
0.8181818181818178
 40
0.8181818181818178
 40
0.8409090909090905
 40
0.8409090909090905
 40
0.8409090909090905
 40
0.8409090909090905
 40
0.8636363636363632
 40
0.8636363636363632
 40
0.8636363636363632
 40
0.8636363636363632
 40
0.8863636363636359
 40
0.8863636363636359
 40
0.8863636363636359
 40
0.8863636363636359
 40
0.9090909090909086
 40
0.9090909090909086
 40
0.9090909090909086
 40
0.9090909090909086
 40
0.9318181818181813
 40
0.9318181818181813
 40
0.9318181818181813
 40
0.9318181818181813
 40
0.954545454545454
 40
0.954545454545454
 40
0.954545454545454
 40
0.954545454545454
 40
0.9772727272727267
 40
0.9772727272727267
 40
0.9772727272727267
 40
0.9772727272727267
 40
1.0
 40
1.0
 40
1.0
 40
1.0
 10
39.2227
 20
22.8412
 30
0.0
 10
39.3453
 20
24.865
 30
0.0
 10
41.8692
 20
24.6335
 30
0.0
 10
42.0808
 20
22.9808
 30
0.0
 10
42.0808
 20
22.9808
 30
0.0
 10
43.4084
 20
19.0
 30
0.0
 10
42.1505
 20
13.5926
 30
0.0
 10
46.05560000000001
 20
12.3142
 30
0.0
 10
46.05560000000001
 20
12.3142
 30
0.0
 10
48.11190000000001
 20
11.8691
 30
0.0
 10
50.16690000000001
 20
11.6973
 30
0.0
 10
52.2211
 20
11.6949
 30
0.0
 10
52.2211
 20
11.6949
 30
0.0
 10
53.7922
 20
11.2274
 30
0.0
 10
53.7417
 20
9.3889
 30
0.0
 10
52.3123
 20
8.799900000000001
 30
0.0
 10
52.3123
 20
8.799900000000001
 30
0.0
 10
52.3123
 20
8.799900000000001
 30
0.0
 10
47.5653
 20
8.3261
 30
0.0
 10
47.5653
 20
8.3261
 30
0.0
 10
47.5653
 20
8.3261
 30
0.0
 10
44.8936
 20
7.0784
 30
0.0
 10
42.5358
 20
6.242
 30
0.0
 10
42.0061
 20
4.093500000000001
 30
0.0
 10
42.0061
 20
4.093500000000001
 30
0.0
 10
41.58000000000001
 20
2.3653
 30
0.0
 10
41.6311
 20
-0.2377
 30
0.0
 10
41.65770000000001
 20
-3.0119
 30
0.0
 10
41.65770000000001
 20
-3.0119
 30
0.0
 10
41.6628
 20
-5.8135
 30
0.0
 10
43.2203
 20
-7.172000000000001
 30
0.0
 10
45.3939
 20
-6.9062
 30
0.0
 10
45.3939
 20
-6.9062
 30
0.0
 10
45.3939
 20
-6.9062
 30
0.0
 10
48.52220000000001
 20
-5.655200000000001
 30
0.0
 10
48.52220000000001
 20
-5.655200000000001
 30
0.0
 10
48.52220000000001
 20
-5.655200000000001
 30
0.0
 10
49.4805
 20
-5.3048
 30
0.0
 10
50.88820000000001
 20
-6.627000000000001
 30
0.0
 10
50.3333
 20
-7.880000000000001
 30
0.0
 10
50.3333
 20
-7.880000000000001
 30
0.0
 10
48.4181
 20
-9.676600000000001
 30
0.0
 10
45.965
 20
-11.2311
 30
0.0
 10
44.58790000000001
 20
-13.2698
 30
0.0
 10
44.58790000000001
 20
-13.2698
 30
0.0
 10
42.2743
 20
-17.6834
 30
0.0
 10
48.4168
 20
-28.6266
 30
0.0
 10
53.935
 20
-29.5535
 30
0.0
 10
53.935
 20
-29.5535
 30
0.0
 10
57.00850000000001
 20
-29.9723
 30
0.0
 10
59.806
 20
-30.7769
 30
0.0
 10
61.3417
 20
-33.348
 30
0.0
 10
61.3417
 20
-33.348
 30
0.0
 10
62.28720000000001
 20
-35.5201
 30
0.0
 10
69.38900000000001
 20
-35.54810000000001
 30
0.0
 10
71.0967
 20
-33.3889
 30
0.0
 10
71.0967
 20
-33.3889
 30
0.0
 10
72.13770000000001
 20
-31.5232
 30
0.0
 10
73.92180000000001
 20
-30.5971
 30
0.0
 10
76.21430000000001
 20
-30.3141
 30
0.0
 10
76.21430000000001
 20
-30.3141
 30
0.0
 10
81.2757
 20
-29.2413
 30
0.0
 10
85.0616
 20
-26.1041
 30
0.0
 10
87.30840000000001
 20
-20.4754
 30
0.0
 10
87.30840000000001
 20
-20.4754
 30
0.0
 10
90.35950000000001
 20
-13.3243
 30
0.0
 10
87.5445
 20
-12.8824
 30
0.0
 10
82.318
 20
-8.014000000000001
 30
0.0
 10
82.318
 20
-8.014000000000001
 30
0.0
 10
81.93430000000001
 20
-6.4783
 30
0.0
 10
82.92710000000001
 20
-5.454400000000001
 30
0.0
 10
84.35520000000001
 20
-5.8602
 30
0.0
 10
84.35520000000001
 20
-5.8602
 30
0.0
 10
84.35520000000001
 20
-5.8602
 30
0.0
 10
87.2655
 20
-7.081600000000001
 30
0.0
 10
87.2655
 20
-7.081600000000001
 30
0.0
 10
87.2655
 20
-7.081600000000001
 30
0.0
 10
90.39630000000001
 20
-7.3974
 30
0.0
 10
91.28970000000001
 20
-4.8718
 30
0.0
 10
91.08710000000001
 20
-1.7017
 30
0.0
 10
91.08710000000001
 20
-1.7017
 30
0.0
 10
91.8122
 20
7.1839
 30
0.0
 10
87.75750000000001
 20
7.967300000000001
 30
0.0
 10
80.4392
 20
8.692600000000001
 30
0.0
 10
80.4392
 20
8.692600000000001
 30
0.0
 10
79.16460000000001
 20
8.9085
 30
0.0
 10
78.86530000000001
 20
11.1035
 30
0.0
 10
80.5943
 20
11.5761
 30
0.0
 10
80.5943
 20
11.5761
 30
0.0
 10
82.83680000000001
 20
11.5068
 30
0.0
 10
84.8824
 20
11.7117
 30
0.0
 10
86.76480000000001
 20
12.1436
 30
0.0
 10
86.76480000000001
 20
12.1436
 30
0.0
 10
89.4897
 20
13.2969
 30
0.0
 10
89.94420000000001
 20
15.4092
 30
0.0
 10
89.9276
 20
17.7204
 30
0.0
 10
89.9276
 20
17.7204
 30
0.0
 10
90.11530000000001
 20
19.5424
 30
0.0
 10
90.40830000000001
 20
21.3203
 30
0.0
 10
90.8888
 20
23.0197
 30
0.0
 10
90.8888
 20
23.0197
 30
0.0
 10
91.51940000000001
 20
24.6901
 30
0.0
 10
93.90130000000001
 20
24.1206
 30
0.0
 10
93.66680000000001
 20
22.4059
 30
0.0
 10
93.66680000000001
 20
22.4059
 30
0.0
 10
93.9829
 20
20.401
 30
0.0
 10
94.1395
 20
18.3881
 30
0.0
 10
94.2514
 20
16.3728
 30
0.0
 10
94.2514
 20
16.3728
 30
0.0
 10
96.64020000000001
 20
7.3169
 30
0.0
 10
98.36490000000001
 20
-3.0031
 30
0.0
 10
95.84570000000001
 20
-13.4348
 30
0.0
 10
95.84570000000001
 20
-13.4348
 30
0.0
 10
93.19150000000001
 20
-25.9386
 30
0.0
 10
87.84580000000001
 20
-31.8102
 30
0.0
 10
85.16290000000001
 20
-33.113
 30
0.0
 10
85.16290000000001
 20
-33.113
 30
0.0
 10
82.11240000000001
 20
-34.6292
 30
0.0
 10
78.97030000000001
 20
-36.0464
 30
0.0
 10
75.5759
 20
-37.1896
 30
0.0
 10
75.5759
 20
-37.1896
 30
0.0
 10
74.1696
 20
-37.8936
 30
0.0
 10
73.22920000000001
 20
-38.9432
 30
0.0
 10
72.96940000000001
 20
-40.4976
 30
0.0
 10
72.96940000000001
 20
-40.4976
 30
0.0
 10
72.96940000000001
 20
-40.4976
 30
0.0
 10
72.5621
 20
-44.8271
 30
0.0
 10
72.5621
 20
-44.8271
 30
0.0
 10
72.5621
 20
-44.8271
 30
0.0
 10
72.3241
 20
-45.5854
 30
0.0
 10
71.93220000000001
 20
-46.1783
 30
0.0
 10
70.9918
 20
-46.1816
 30
0.0
 10
70.9918
 20
-46.1816
 30
0.0
 10
70.9918
 20
-46.1816
 30
0.0
 10
67.2381
 20
-46.233
 30
0.0
 10
67.2381
 20
-46.233
 30
0.0
 10
67.2381
 20
-46.233
 30
0.0
 10
67.2381
 20
-46.233
 30
0.0
 10
67.26000000000001
 20
-41.0
 30
0.0
 10
67.26000000000001
 20
-41.0
 30
0.0
 10
67.26000000000001
 20
-41.0
 30
0.0
 10
67.26000000000001
 20
-41.0
 30
0.0
 10
65.11450000000001
 20
-40.991
 30
0.0
 10
65.11450000000001
 20
-40.991
 30
0.0
 10
65.11450000000001
 20
-40.991
 30
0.0
 10
65.11450000000001
 20
-40.991
 30
0.0
 10
65.1031
 20
-46.2161
 30
0.0
 10
65.1031
 20
-46.2161
 30
0.0
 10
65.1031
 20
-46.2161
 30
0.0
 10
65.1031
 20
-46.2161
 30
0.0
 10
61.3271
 20
-46.1862
 30
0.0
 10
61.3271
 20
-46.1862
 30
0.0
 10
61.3271
 20
-46.1862
 30
0.0
 10
60.5653
 20
-46.0197
 30
0.0
 10
59.9693
 20
-45.6482
 30
0.0
 10
59.7805
 20
-44.7736
 30
0.0
 10
59.7805
 20
-44.7736
 30
0.0
 10
59.596
 20
-43.6612
 30
0.0
 10
59.48110000000001
 20
-42.2895
 30
0.0
 10
59.4361
 20
-40.6589
 30
0.0
 10
59.4361
 20
-40.6589
 30
0.0
 10
59.2393
 20
-38.5895
 30
0.0
 10
57.9018
 20
-37.2726
 30
0.0
 10
55.5258
 20
-36.6411
 30
0.0
 10
55.5258
 20
-36.6411
 30
0.0
 10
50.5226
 20
-34.5248
 30
0.0
 10
44.9882
 20
-32.643
 30
0.0
 10
42.20670000000001
 20
-27.7823
 30
0.0
 10
42.20670000000001
 20
-27.7823
 30
0.0
 10
35.694
 20
-15.6493
 30
0.0
 10
34.2503
 20
-4.6308
 30
0.0
 10
36.2747
 20
5.6252
 30
0.0
 10
36.2747
 20
5.6252
 30
0.0
 10
37.6705
 20
11.348
 30
0.0
 10
38.7387
 20
17.0835
 30
0.0
 10
39.2227
 20
22.8412
 30
0.0
  0
SPLINE
  5
58
330
1F
100
AcDbEntity
  8
Camada 1
 62
    22
370
     5
100
AcDbSpline
210
0.0
220
0.0
230
1.0
 70
    11
 71
     3
 72
   108
 73
   104
 74
     0
 42
0.0000000001
 43
0.0000000001
 40
0.0
 40
0.0
 40
0.0
 40
0.0
 40
0.0384615384615385
 40
0.0384615384615385
 40
0.0384615384615385
 40
0.0384615384615385
 40
0.0769230769230769
 40
0.0769230769230769
 40
0.0769230769230769
 40
0.0769230769230769
 40
0.1153846153846154
 40
0.1153846153846154
 40
0.1153846153846154
 40
0.1153846153846154
 40
0.1538461538461539
 40
0.1538461538461539
 40
0.1538461538461539
 40
0.1538461538461539
 40
0.1923076923076923
 40
0.1923076923076923
 40
0.1923076923076923
 40
0.1923076923076923
 40
0.2307692307692308
 40
0.2307692307692308
 40
0.2307692307692308
 40
0.2307692307692308
 40
0.2692307692307693
 40
0.2692307692307693
 40
0.2692307692307693
 40
0.2692307692307693
 40
0.3076923076923077
 40
0.3076923076923077
 40
0.3076923076923077
 40
0.3076923076923077
 40
0.3461538461538462
 40
0.3461538461538462
 40
0.3461538461538462
 40
0.3461538461538462
 40
0.3846153846153846
 40
0.3846153846153846
 40
0.3846153846153846
 40
0.3846153846153846
 40
0.423076923076923
 40
0.423076923076923
 40
0.423076923076923
 40
0.423076923076923
 40
0.4615384615384615
 40
0.4615384615384615
 40
0.4615384615384615
 40
0.4615384615384615
 40
0.4999999999999999
 40
0.4999999999999999
 40
0.4999999999999999
 40
0.4999999999999999
 40
0.5384615384615383
 40
0.5384615384615383
 40
0.5384615384615383
 40
0.5384615384615383
 40
0.5769230769230768
 40
0.5769230769230768
 40
0.5769230769230768
 40
0.5769230769230768
 40
0.6153846153846152
 40
0.6153846153846152
 40
0.6153846153846152
 40
0.6153846153846152
 40
0.6538461538461536
 40
0.6538461538461536
 40
0.6538461538461536
 40
0.6538461538461536
 40
0.6923076923076921
 40
0.6923076923076921
 40
0.6923076923076921
 40
0.6923076923076921
 40
0.7307692307692305
 40
0.7307692307692305
 40
0.7307692307692305
 40
0.7307692307692305
 40
0.7692307692307689
 40
0.7692307692307689
 40
0.7692307692307689
 40
0.7692307692307689
 40
0.8076923076923074
 40
0.8076923076923074
 40
0.8076923076923074
 40
0.8076923076923074
 40
0.8461538461538458
 40
0.8461538461538458
 40
0.8461538461538458
 40
0.8461538461538458
 40
0.8846153846153843
 40
0.8846153846153843
 40
0.8846153846153843
 40
0.8846153846153843
 40
0.9230769230769227
 40
0.9230769230769227
 40
0.9230769230769227
 40
0.9230769230769227
 40
0.9615384615384611
 40
0.9615384615384611
 40
0.9615384615384611
 40
0.9615384615384611
 40
1.0
 40
1.0
 40
1.0
 40
1.0
 10
68.49250000000001
 20
-51.4161
 30
0.0
 10
70.6823
 20
-49.896
 30
0.0
 10
81.30940000000001
 20
-54.0178
 30
0.0
 10
81.3121
 20
-58.9665
 30
0.0
 10
81.3121
 20
-58.9665
 30
0.0
 10
79.77130000000001
 20
-69.79810000000001
 30
0.0
 10
81.23480000000001
 20
-76.09400000000001
 30
0.0
 10
91.0038
 20
-69.84960000000001
 30
0.0
 10
91.0038
 20
-69.84960000000001
 30
0.0
 10
93.30640000000001
 20
-68.72880000000001
 30
0.0
 10
96.3591
 20
-72.7642
 30
0.0
 10
97.0686
 20
-77.6323
 30
0.0
 10
97.0686
 20
-77.6323
 30
0.0
 10
97.0686
 20
-77.6323
 30
0.0
 10
99.38250000000001
 20
-77.68140000000001
 30
0.0
 10
99.38250000000001
 20
-77.68140000000001
 30
0.0
 10
99.38250000000001
 20
-77.68140000000001
 30
0.0
 10
102.4858
 20
-82.6812
 30
0.0
 10
101.9047
 20
-86.8862
 30
0.0
 10
99.99090000000001
 20
-90.80370000000001
 30
0.0
 10
99.99090000000001
 20
-90.80370000000001
 30
0.0
 10
99.41980000000001
 20
-92.2187
 30
0.0
 10
99.35040000000001
 20
-93.5626
 30
0.0
 10
100.1752
 20
-94.77980000000001
 30
0.0
 10
100.1752
 20
-94.77980000000001
 30
0.0
 10
102.383
 20
-98.01440000000001
 30
0.0
 10
102.924
 20
-103.3659
 30
0.0
 10
100.0875
 20
-107.7277
 30
0.0
 10
100.0875
 20
-107.7277
 30
0.0
 10
100.0875
 20
-107.7277
 30
0.0
 10
97.77850000000001
 20
-107.8852
 30
0.0
 10
97.77850000000001
 20
-107.8852
 30
0.0
 10
97.77850000000001
 20
-107.8852
 30
0.0
 10
96.9868
 20
-111.8727
 30
0.0
 10
95.83340000000001
 20
-116.3042
 30
0.0
 10
92.08540000000001
 20
-115.9438
 30
0.0
 10
92.08540000000001
 20
-115.9438
 30
0.0
 10
81.79210000000001
 20
-110.5551
 30
0.0
 10
80.2705
 20
-116.0708
 30
0.0
 10
82.8981
 20
-127.1894
 30
0.0
 10
82.8981
 20
-127.1894
 30
0.0
 10
83.2698
 20
-131.2032
 30
0.0
 10
75.84230000000001
 20
-135.8431
 30
0.0
 10
70.46350000000001
 20
-135.4129
 30
0.0
 10
70.46350000000001
 20
-135.4129
 30
0.0
 10
66.45400000000001
 20
-133.6364
 30
0.0
 10
70.6148
 20
-127.5601
 30
0.0
 10
74.19070000000001
 20
-130.8345
 30
0.0
 10
74.19070000000001
 20
-130.8345
 30
0.0
 10
77.01690000000001
 20
-129.7388
 30
0.0
 10
79.0878
 20
-128.1758
 30
0.0
 10
79.07090000000001
 20
-125.321
 30
0.0
 10
79.07090000000001
 20
-125.321
 30
0.0
 10
78.3929
 20
-122.7846
 30
0.0
 10
78.0857
 20
-120.2176
 30
0.0
 10
78.3207
 20
-117.6058
 30
0.0
 10
78.3207
 20
-117.6058
 30
0.0
 10
78.4238
 20
-113.0484
 30
0.0
 10
81.27420000000001
 20
-109.1778
 30
0.0
 10
80.6906
 20
-104.176
 30
0.0
 10
80.6906
 20
-104.176
 30
0.0
 10
79.33110000000001
 20
-99.3814
 30
0.0
 10
78.2368
 20
-99.64890000000001
 30
0.0
 10
75.54770000000001
 20
-101.3587
 30
0.0
 10
75.54770000000001
 20
-101.3587
 30
0.0
 10
72.86530000000001
 20
-102.1954
 30
0.0
 10
70.18900000000001
 20
-102.3203
 30
0.0
 10
67.52070000000001
 20
-101.5864
 30
0.0
 10
67.52070000000001
 20
-101.5864
 30
0.0
 10
66.3839
 20
-100.7471
 30
0.0
 10
66.50370000000001
 20
-99.52260000000001
 30
0.0
 10
67.82470000000001
 20
-98.6906
 30
0.0
 10
67.82470000000001
 20
-98.6906
 30
0.0
 10
72.9145
 20
-98.25070000000001
 30
0.0
 10
76.76730000000001
 20
-96.6562
 30
0.0
 10
78.62520000000001
 20
-93.1999
 30
0.0
 10
78.62520000000001
 20
-93.1999
 30
0.0
 10
76.09100000000001
 20
-89.47150000000001
 30
0.0
 10
72.4884
 20
-87.82380000000001
 30
0.0
 10
67.8173
 20
-88.2572
 30
0.0
 10
67.8173
 20
-88.2572
 30
0.0
 10
66.4148
 20
-87.6816
 30
0.0
 10
65.99160000000001
 20
-86.3167
 30
0.0
 10
67.1395
 20
-85.3434
 30
0.0
 10
67.1395
 20
-85.3434
 30
0.0
 10
70.55280000000001
 20
-84.07420000000001
 30
0.0
 10
73.85560000000001
 20
-84.29900000000001
 30
0.0
 10
77.048
 20
-86.01780000000001
 30
0.0
 10
77.048
 20
-86.01780000000001
 30
0.0
 10
81.3549
 20
-86.72150000000001
 30
0.0
 10
80.9811
 20
-79.03360000000001
 30
0.0
 10
77.6841
 20
-71.4768
 30
0.0
 10
77.6841
 20
-71.4768
 30
0.0
 10
76.74720000000001
 20
-67.9282
 30
0.0
 10
76.8608
 20
-64.4819
 30
0.0
 10
77.5637
 20
-61.0932
 30
0.0
 10
77.5637
 20
-61.0932
 30
0.0
 10
77.5146
 20
-58.33640000000001
 30
0.0
 10
75.5667
 20
-56.7209
 30
0.0
 10
72.3197
 20
-55.88650000000001
 30
0.0
 10
72.3197
 20
-55.88650000000001
 30
0.0
 10
69.1619
 20
-59.0964
 30
0.0
 10
64.32350000000001
 20
-53.5889
 30
0.0
 10
68.49250000000001
 20
-51.4161
 30
0.0
  0
SPLINE
  5
59
330
1F
100
AcDbEntity
  8
Camada 1
 62
    22
370
     5
100
AcDbSpline
210
0.0
220
0.0
230
1.0
 70
    11
 71
     3
 72
    20
 73
    16
 74
     0
 42
0.0000000001
 43
0.0000000001
 40
0.0
 40
0.0
 40
0.0
 40
0.0
 40
0.25
 40
0.25
 40
0.25
 40
0.25
 40
0.5
 40
0.5
 40
0.5
 40
0.5
 40
0.75
 40
0.75
 40
0.75
 40
0.75
 40
1.0
 40
1.0
 40
1.0
 40
1.0
 10
84.9286
 20
-91.97890000000001
 30
0.0
 10
84.9286
 20
-91.97890000000001
 30
0.0
 10
95.3917
 20
-91.7334
 30
0.0
 10
95.3917
 20
-91.7334
 30
0.0
 10
95.3917
 20
-91.7334
 30
0.0
 10
95.3917
 20
-91.7334
 30
0.0
 10
95.44200000000001
 20
-93.87830000000001
 30
0.0
 10
95.44200000000001
 20
-93.87830000000001
 30
0.0
 10
95.44200000000001
 20
-93.87830000000001
 30
0.0
 10
95.44200000000001
 20
-93.87830000000001
 30
0.0
 10
84.97890000000001
 20
-94.1238
 30
0.0
 10
84.97890000000001
 20
-94.1238
 30
0.0
 10
84.97890000000001
 20
-94.1238
 30
0.0
 10
84.97890000000001
 20
-94.1238
 30
0.0
 10
84.9286
 20
-91.97890000000001
 30
0.0
 10
84.9286
 20
-91.97890000000001
 30
0.0
  0
LWPOLYLINE
  5
5A
330
1F
100
AcDbEntity
  8
Camada 1
 62
    22
370
     5
100
AcDbPolyline
 90
        5
 70
     1
 43
0.0
 10
-79.56140000000001
 20
-16.6367
 10
-77.3848
 20
-16.6367
 10
-77.3848
 20
-6.1771
 10
-79.56140000000001
 20
-6.1771
 10
-79.56140000000001
 20
-16.6367
  0
LWPOLYLINE
  5
5B
330
1F
100
AcDbEntity
  8
Camada 1
 62
    22
370
     5
100
AcDbPolyline
 90
        5
 70
     1
 43
0.0
 10
-30.0375
 20
-25.8794
 10
-27.8609
 20
-25.8794
 10
-27.8609
 20
-15.4198
 10
-30.0375
 20
-15.4198
 10
-30.0375
 20
-25.8794
  0
LWPOLYLINE
  5
5C
330
1F
100
AcDbEntity
  8
Camada 1
 62
    22
370
     5
100
AcDbPolyline
 90
        5
 70
     1
 43
0.0
 10
-79.5412
 20
2.7385
 10
-77.36460000000001
 20
2.7385
 10
-77.36460000000001
 20
13.1981
 10
-79.5412
 20
13.1981
 10
-79.5412
 20
2.7385
  0
SPLINE
  5
5D
330
1F
100
AcDbEntity
  8
Camada 1
 62
    22
370
     5
100
AcDbSpline
210
0.0
220
0.0
230
1.0
 70
    11
 71
     3
 72
   104
 73
   100
 74
     0
 42
0.0000000001
 43
0.0000000001
 40
0.0
 40
0.0
 40
0.0
 40
0.0
 40
0.04
 40
0.04
 40
0.04
 40
0.04
 40
0.08
 40
0.08
 40
0.08
 40
0.08
 40
0.12
 40
0.12
 40
0.12
 40
0.12
 40
0.16
 40
0.16
 40
0.16
 40
0.16
 40
0.2
 40
0.2
 40
0.2
 40
0.2
 40
0.24
 40
0.24
 40
0.24
 40
0.24
 40
0.28
 40
0.28
 40
0.28
 40
0.28
 40
0.32
 40
0.32
 40
0.32
 40
0.32
 40
0.36
 40
0.36
 40
0.36
 40
0.36
 40
0.4
 40
0.4
 40
0.4
 40
0.4
 40
0.44
 40
0.44
 40
0.44
 40
0.44
 40
0.4799999999999999
 40
0.4799999999999999
 40
0.4799999999999999
 40
0.4799999999999999
 40
0.5199999999999999
 40
0.5199999999999999
 40
0.5199999999999999
 40
0.5199999999999999
 40
0.5599999999999999
 40
0.5599999999999999
 40
0.5599999999999999
 40
0.5599999999999999
 40
0.6
 40
0.6
 40
0.6
 40
0.6
 40
0.64
 40
0.64
 40
0.64
 40
0.64
 40
0.6800000000000001
 40
0.6800000000000001
 40
0.6800000000000001
 40
0.6800000000000001
 40
0.7200000000000001
 40
0.7200000000000001
 40
0.7200000000000001
 40
0.7200000000000001
 40
0.7600000000000001
 40
0.7600000000000001
 40
0.7600000000000001
 40
0.7600000000000001
 40
0.8000000000000002
 40
0.8000000000000002
 40
0.8000000000000002
 40
0.8000000000000002
 40
0.8400000000000002
 40
0.8400000000000002
 40
0.8400000000000002
 40
0.8400000000000002
 40
0.8800000000000002
 40
0.8800000000000002
 40
0.8800000000000002
 40
0.8800000000000002
 40
0.9200000000000003
 40
0.9200000000000003
 40
0.9200000000000003
 40
0.9200000000000003
 40
0.9600000000000003
 40
0.9600000000000003
 40
0.9600000000000003
 40
0.9600000000000003
 40
1.0
 40
1.0
 40
1.0
 40
1.0
 10
-98.52300000000001
 20
19.565
 30
0.0
 10
-93.90810000000001
 20
16.8086
 30
0.0
 10
-88.4135
 20
16.693
 30
0.0
 10
-84.49040000000001
 20
19.487
 30
0.0
 10
-84.49040000000001
 20
19.487
 30
0.0
 10
-83.85470000000001
 20
19.9994
 30
0.0
 10
-83.2411
 20
20.0253
 30
0.0
 10
-82.6494
 20
19.5645
 30
0.0
 10
-82.6494
 20
19.5645
 30
0.0
 10
-80.1842
 20
17.5543
 30
0.0
 10
-77.41210000000001
 20
17.1266
 30
0.0
 10
-74.1553
 20
19.6863
 30
0.0
 10
-74.1553
 20
19.6863
 30
0.0
 10
-73.7269
 20
19.9688
 30
0.0
 10
-73.27120000000001
 20
19.9939
 30
0.0
 10
-72.7882
 20
19.7616
 30
0.0
 10
-72.7882
 20
19.7616
 30
0.0
 10
-67.6237
 20
16.5346
 30
0.0
 10
-62.7792
 20
16.942
 30
0.0
 10
-58.1535
 20
19.836
 30
0.0
 10
-58.1535
 20
19.836
 30
0.0
 10
-57.0423
 20
20.2138
 30
0.0
 10
-56.0521
 20
19.1892
 30
0.0
 10
-56.4879
 20
17.9128
 30
0.0
 10
-56.4879
 20
17.9128
 30
0.0
 10
-57.4073
 20
15.3355
 30
0.0
 10
-58.237
 20
12.948
 30
0.0
 10
-56.3159
 20
10.8503
 30
0.0
 10
-56.3159
 20
10.8503
 30
0.0
 10
-55.0626
 20
8.630900000000001
 30
0.0
 10
-54.4555
 20
6.4345
 30
0.0
 10
-56.1568
 20
4.3198
 30
0.0
 10
-56.1568
 20
4.3198
 30
0.0
 10
-58.3031
 20
2.5494
 30
0.0
 10
-60.765
 20
1.6205
 30
0.0
 10
-63.3701
 20
1.0739
 30
0.0
 10
-63.3701
 20
1.0739
 30
0.0
 10
-63.0737
 20
-2.5569
 30
0.0
 10
-61.7649
 20
-2.4256
 30
0.0
 10
-61.7822
 20
-4.3425
 30
0.0
 10
-61.7822
 20
-4.3425
 30
0.0
 10
-61.90940000000001
 20
-7.8312
 30
0.0
 10
-60.88500000000001
 20
-11.0652
 30
0.0
 10
-58.849
 20
-12.1951
 30
0.0
 10
-58.849
 20
-12.1951
 30
0.0
 10
-58.3907
 20
-12.242
 30
0.0
 10
-58.2263
 20
-12.7658
 30
0.0
 10
-58.8046
 20
-12.9036
 30
0.0
 10
-58.8046
 20
-12.9036
 30
0.0
 10
-60.4185
 20
-14.0452
 30
0.0
 10
-61.5458
 20
-15.4856
 30
0.0
 10
-62.0853
 20
-17.2872
 30
0.0
 10
-62.0853
 20
-17.2872
 30
0.0
 10
-65.47370000000001
 20
-18.436
 30
0.0
 10
-69.1583
 20
-18.9945
 30
0.0
 10
-73.1388
 20
-18.9629
 30
0.0
 10
-73.1388
 20
-18.9629
 30
0.0
 10
-75.04000000000001
 20
-18.6869
 30
0.0
 10
-76.1657
 20
-19.8619
 30
0.0
 10
-76.9388
 20
-21.6967
 30
0.0
 10
-76.9388
 20
-21.6967
 30
0.0
 10
-77.9469
 20
-22.5952
 30
0.0
 10
-78.96980000000001
 20
-22.7834
 30
0.0
 10
-80.02500000000001
 20
-21.4095
 30
0.0
 10
-80.02500000000001
 20
-21.4095
 30
0.0
 10
-80.711
 20
-19.7779
 30
0.0
 10
-81.7637
 20
-18.7146
 30
0.0
 10
-83.682
 20
-18.9949
 30
0.0
 10
-83.682
 20
-18.9949
 30
0.0
 10
-87.6887
 20
-19.015
 30
0.0
 10
-91.34150000000001
 20
-18.4443
 30
0.0
 10
-94.70100000000001
 20
-17.3841
 30
0.0
 10
-94.70100000000001
 20
-17.3841
 30
0.0
 10
-95.2491
 20
-15.8697
 30
0.0
 10
-96.13860000000001
 20
-14.3642
 30
0.0
 10
-98.0
 20
-12.9915
 30
0.0
 10
-98.0
 20
-12.9915
 30
0.0
 10
-98.47620000000001
 20
-13.0764
 30
0.0
 10
-98.46050000000001
 20
-12.292
 30
0.0
 10
-97.9676
 20
-12.3113
 30
0.0
 10
-97.9676
 20
-12.3113
 30
0.0
 10
-95.9265
 20
-11.1969
 30
0.0
 10
-94.9405
 20
-8.056000000000001
 30
0.0
 10
-95.08970000000001
 20
-4.3387
 30
0.0
 10
-95.08970000000001
 20
-4.3387
 30
0.0
 10
-95.07440000000001
 20
-2.5643
 30
0.0
 10
-93.45960000000001
 20
-1.8243
 30
0.0
 10
-93.5253
 20
0.9843000000000001
 30
0.0
 10
-93.5253
 20
0.9843000000000001
 30
0.0
 10
-100.6867
 20
2.6336
 30
0.0
 10
-104.3966
 20
5.5456
 30
0.0
 10
-99.64020000000001
 20
12.5444
 30
0.0
 10
-99.64020000000001
 20
12.5444
 30
0.0
 10
-99.1575
 20
14.1728
 30
0.0
 10
-100.002
 20
16.1434
 30
0.0
 10
-100.6192
 20
18.1849
 30
0.0
 10
-100.6192
 20
18.1849
 30
0.0
 10
-100.7056
 20
19.3972
 30
0.0
 10
-99.64750000000001
 20
20.1222
 30
0.0
 10
-98.52300000000001
 20
19.565
 30
0.0
  0
SPLINE
  5
5E
330
1F
100
AcDbEntity
  8
Camada 1
 62
    22
370
     5
100
AcDbSpline
210
0.0
220
0.0
230
1.0
 70
    11
 71
     3
 72
   172
 73
   168
 74
     0
 42
0.0000000001
 43
0.0000000001
 40
0.0
 40
0.0
 40
0.0
 40
0.0
 40
0.0238095238095238
 40
0.0238095238095238
 40
0.0238095238095238
 40
0.0238095238095238
 40
0.0476190476190476
 40
0.0476190476190476
 40
0.0476190476190476
 40
0.0476190476190476
 40
0.0714285714285714
 40
0.0714285714285714
 40
0.0714285714285714
 40
0.0714285714285714
 40
0.0952380952380952
 40
0.0952380952380952
 40
0.0952380952380952
 40
0.0952380952380952
 40
0.119047619047619
 40
0.119047619047619
 40
0.119047619047619
 40
0.119047619047619
 40
0.1428571428571429
 40
0.1428571428571429
 40
0.1428571428571429
 40
0.1428571428571429
 40
0.1666666666666667
 40
0.1666666666666667
 40
0.1666666666666667
 40
0.1666666666666667
 40
0.1904761904761905
 40
0.1904761904761905
 40
0.1904761904761905
 40
0.1904761904761905
 40
0.2142857142857143
 40
0.2142857142857143
 40
0.2142857142857143
 40
0.2142857142857143
 40
0.2380952380952381
 40
0.2380952380952381
 40
0.2380952380952381
 40
0.2380952380952381
 40
0.2619047619047619
 40
0.2619047619047619
 40
0.2619047619047619
 40
0.2619047619047619
 40
0.2857142857142857
 40
0.2857142857142857
 40
0.2857142857142857
 40
0.2857142857142857
 40
0.3095238095238095
 40
0.3095238095238095
 40
0.3095238095238095
 40
0.3095238095238095
 40
0.3333333333333334
 40
0.3333333333333334
 40
0.3333333333333334
 40
0.3333333333333334
 40
0.3571428571428572
 40
0.3571428571428572
 40
0.3571428571428572
 40
0.3571428571428572
 40
0.380952380952381
 40
0.380952380952381
 40
0.380952380952381
 40
0.380952380952381
 40
0.4047619047619049
 40
0.4047619047619049
 40
0.4047619047619049
 40
0.4047619047619049
 40
0.4285714285714287
 40
0.4285714285714287
 40
0.4285714285714287
 40
0.4285714285714287
 40
0.4523809523809526
 40
0.4523809523809526
 40
0.4523809523809526
 40
0.4523809523809526
 40
0.4761904761904764
 40
0.4761904761904764
 40
0.4761904761904764
 40
0.4761904761904764
 40
0.5000000000000002
 40
0.5000000000000002
 40
0.5000000000000002
 40
0.5000000000000002
 40
0.5238095238095241
 40
0.5238095238095241
 40
0.5238095238095241
 40
0.5238095238095241
 40
0.5476190476190479
 40
0.5476190476190479
 40
0.5476190476190479
 40
0.5476190476190479
 40
0.5714285714285717
 40
0.5714285714285717
 40
0.5714285714285717
 40
0.5714285714285717
 40
0.5952380952380956
 40
0.5952380952380956
 40
0.5952380952380956
 40
0.5952380952380956
 40
0.6190476190476194
 40
0.6190476190476194
 40
0.6190476190476194
 40
0.6190476190476194
 40
0.6428571428571432
 40
0.6428571428571432
 40
0.6428571428571432
 40
0.6428571428571432
 40
0.6666666666666671
 40
0.6666666666666671
 40
0.6666666666666671
 40
0.6666666666666671
 40
0.6904761904761909
 40
0.6904761904761909
 40
0.6904761904761909
 40
0.6904761904761909
 40
0.7142857142857148
 40
0.7142857142857148
 40
0.7142857142857148
 40
0.7142857142857148
 40
0.7380952380952386
 40
0.7380952380952386
 40
0.7380952380952386
 40
0.7380952380952386
 40
0.7619047619047624
 40
0.7619047619047624
 40
0.7619047619047624
 40
0.7619047619047624
 40
0.7857142857142863
 40
0.7857142857142863
 40
0.7857142857142863
 40
0.7857142857142863
 40
0.8095238095238101
 40
0.8095238095238101
 40
0.8095238095238101
 40
0.8095238095238101
 40
0.8333333333333339
 40
0.8333333333333339
 40
0.8333333333333339
 40
0.8333333333333339
 40
0.8571428571428578
 40
0.8571428571428578
 40
0.8571428571428578
 40
0.8571428571428578
 40
0.8809523809523816
 40
0.8809523809523816
 40
0.8809523809523816
 40
0.8809523809523816
 40
0.9047619047619054
 40
0.9047619047619054
 40
0.9047619047619054
 40
0.9047619047619054
 40
0.9285714285714293
 40
0.9285714285714293
 40
0.9285714285714293
 40
0.9285714285714293
 40
0.9523809523809531
 40
0.9523809523809531
 40
0.9523809523809531
 40
0.9523809523809531
 40
0.9761904761904769
 40
0.9761904761904769
 40
0.9761904761904769
 40
0.9761904761904769
 40
1.0
 40
1.0
 40
1.0
 40
1.0
 10
-52.0763
 20
-14.6231
 30
0.0
 10
-51.2447
 20
-15.4859
 30
0.0
 10
-50.29640000000001
 20
-16.3005
 30
0.0
 10
-49.2072
 20
-17.0572
 30
0.0
 10
-49.2072
 20
-17.0572
 30
0.0
 10
-49.0544
 20
-17.1328
 30
0.0
 10
-48.9502
 20
-17.0929
 30
0.0
 10
-48.86810000000001
 20
-17.0007
 30
0.0
 10
-48.86810000000001
 20
-17.0007
 30
0.0
 10
-48.86810000000001
 20
-17.0007
 30
0.0
 10
-48.1618
 20
-15.9543
 30
0.0
 10
-48.1618
 20
-15.9543
 30
0.0
 10
-48.1618
 20
-15.9543
 30
0.0
 10
-48.1391
 20
-14.6293
 30
0.0
 10
-48.43380000000001
 20
-13.2885
 30
0.0
 10
-49.1114
 20
-11.929
 30
0.0
 10
-49.1114
 20
-11.929
 30
0.0
 10
-49.46720000000001
 20
-11.0482
 30
0.0
 10
-48.5608
 20
-9.554400000000001
 30
0.0
 10
-47.0443
 20
-10.4164
 30
0.0
 10
-47.0443
 20
-10.4164
 30
0.0
 10
-42.29340000000001
 20
-12.4258
 30
0.0
 10
-38.875
 20
-11.9751
 30
0.0
 10
-34.8856
 20
-9.611500000000001
 30
0.0
 10
-34.8856
 20
-9.611500000000001
 30
0.0
 10
-33.81650000000001
 20
-8.271700000000001
 30
0.0
 10
-32.6889
 20
-8.104800000000001
 30
0.0
 10
-31.4841
 20
-9.478300000000001
 30
0.0
 10
-31.4841
 20
-9.478300000000001
 30
0.0
 10
-30.9912
 20
-9.894
 30
0.0
 10
-30.5765
 20
-10.0943
 30
0.0
 10
-30.2229
 20
-10.3951
 30
0.0
 10
-30.2229
 20
-10.3951
 30
0.0
 10
-29.4355
 20
-11.065
 30
0.0
 10
-28.4561
 20
-10.9903
 30
0.0
 10
-27.7209
 20
-10.3864
 30
0.0
 10
-27.7209
 20
-10.3864
 30
0.0
 10
-27.3105
 20
-10.0493
 30
0.0
 10
-26.8237
 20
-9.721600000000001
 30
0.0
 10
-26.2706
 20
-9.274100000000001
 30
0.0
 10
-26.2706
 20
-9.274100000000001
 30
0.0
 10
-26.2706
 20
-9.274100000000001
 30
0.0
 10
-25.5153
 20
-8.713700000000001
 30
0.0
 10
-25.5153
 20
-8.713700000000001
 30
0.0
 10
-25.5153
 20
-8.713700000000001
 30
0.0
 10
-25.0338
 20
-8.412900000000001
 30
0.0
 10
-24.5634
 20
-8.367100000000001
 30
0.0
 10
-24.1088
 20
-8.693800000000001
 30
0.0
 10
-24.1088
 20
-8.693800000000001
 30
0.0
 10
-24.1088
 20
-8.693800000000001
 30
0.0
 10
-23.0976
 20
-9.5015
 30
0.0
 10
-23.0976
 20
-9.5015
 30
0.0
 10
-23.0976
 20
-9.5015
 30
0.0
 10
-18.8594
 20
-12.3021
 30
0.0
 10
-14.2911
 20
-12.0728
 30
0.0
 10
-10.8997
 20
-10.2904
 30
0.0
 10
-10.8997
 20
-10.2904
 30
0.0
 10
-10.6591
 20
-10.1504
 30
0.0
 10
-10.3684
 20
-10.0433
 30
0.0
 10
-9.9879
 20
-9.995200000000001
 30
0.0
 10
-9.9879
 20
-9.995200000000001
 30
0.0
 10
-9.2235
 20
-10.0272
 30
0.0
 10
-8.536300000000001
 20
-10.9899
 30
0.0
 10
-8.822100000000001
 20
-11.7884
 30
0.0
 10
-8.822100000000001
 20
-11.7884
 30
0.0
 10
-9.4305
 20
-13.1259
 30
0.0
 10
-9.800000000000001
 20
-14.4683
 30
0.0
 10
-9.743500000000001
 20
-15.8202
 30
0.0
 10
-9.743500000000001
 20
-15.8202
 30
0.0
 10
-9.743500000000001
 20
-15.8202
 30
0.0
 10
-9.030000000000001
 20
-16.8617
 30
0.0
 10
-9.030000000000001
 20
-16.8617
 30
0.0
 10
-9.030000000000001
 20
-16.8617
 30
0.0
 10
-8.9184
 20
-16.9992
 30
0.0
 10
-8.791500000000001
 20
-16.981
 30
0.0
 10
-8.657400000000001
 20
-16.8919
 30
0.0
 10
-8.657400000000001
 20
-16.8919
 30
0.0
 10
-7.667000000000001
 20
-16.2074
 30
0.0
 10
-6.7319
 20
-15.386
 30
0.0
 10
-5.8384
 20
-14.4618
 30
0.0
 10
-5.8384
 20
-14.4618
 30
0.0
 10
-1.9681
 20
-13.013
 30
0.0
 10
0.0042
 20
-18.126
 30
0.0
 10
-3.5245
 20
-19.8709
 30
0.0
 10
-3.5245
 20
-19.8709
 30
0.0
 10
-3.5245
 20
-19.8709
 30
0.0
 10
-6.3765
 20
-19.8709
 30
0.0
 10
-6.3765
 20
-19.8709
 30
0.0
 10
-6.3765
 20
-19.8709
 30
0.0
 10
-7.0712
 20
-19.9375
 30
0.0
 10
-7.4076
 20
-20.3173
 30
0.0
 10
-7.3857
 20
-21.0103
 30
0.0
 10
-7.3857
 20
-21.0103
 30
0.0
 10
-7.444
 20
-22.0697
 30
0.0
 10
-7.618300000000001
 20
-23.0214
 30
0.0
 10
-7.8684
 20
-23.9027
 30
0.0
 10
-7.8684
 20
-23.9027
 30
0.0
 10
-7.917400000000001
 20
-23.9857
 30
0.0
 10
-7.9881
 20
-24.0596
 30
0.0
 10
-8.0877
 20
-24.1219
 30
0.0
 10
-8.0877
 20
-24.1219
 30
0.0
 10
-10.1865
 20
-25.007
 30
0.0
 10
-12.3044
 20
-25.6821
 30
0.0
 10
-14.45
 20
-26.0502
 30
0.0
 10
-14.45
 20
-26.0502
 30
0.0
 10
-14.7481
 20
-26.0986
 30
0.0
 10
-14.9637
 20
-26.2627
 30
0.0
 10
-15.0586
 20
-26.5965
 30
0.0
 10
-15.0586
 20
-26.5965
 30
0.0
 10
-15.0586
 20
-26.5965
 30
0.0
 10
-15.0776
 20
-29.7821
 30
0.0
 10
-15.0776
 20
-29.7821
 30
0.0
 10
-15.0776
 20
-29.7821
 30
0.0
 10
-15.4112
 20
-30.3519
 30
0.0
 10
-15.8305
 20
-30.8696
 30
0.0
 10
-16.4378
 20
-31.2722
 30
0.0
 10
-16.4378
 20
-31.2722
 30
0.0
 10
-19.2586
 20
-32.2701
 30
0.0
 10
-22.3236
 20
-32.273
 30
0.0
 10
-25.6326
 20
-31.2809
 30
0.0
 10
-25.6326
 20
-31.2809
 30
0.0
 10
-26.6559
 20
-30.7668
 30
0.0
 10
-27.8738
 20
-29.8872
 30
0.0
 10
-29.0058
 20
-29.9616
 30
0.0
 10
-29.0058
 20
-29.9616
 30
0.0
 10
-30.2006
 20
-30.0313
 30
0.0
 10
-30.8965
 20
-30.3896
 30
0.0
 10
-31.5338
 20
-30.9838
 30
0.0
 10
-31.5338
 20
-30.9838
 30
0.0
 10
-34.44150000000001
 20
-32.26940000000001
 30
0.0
 10
-37.6931
 20
-32.4692
 30
0.0
 10
-41.36
 20
-31.3591
 30
0.0
 10
-41.36
 20
-31.3591
 30
0.0
 10
-41.9224
 20
-31.0035
 30
0.0
 10
-42.3933
 20
-30.5283
 30
0.0
 10
-42.7305
 20
-29.8786
 30
0.0
 10
-42.7305
 20
-29.8786
 30
0.0
 10
-42.7305
 20
-29.8786
 30
0.0
 10
-42.7516
 20
-26.8547
 30
0.0
 10
-42.7516
 20
-26.8547
 30
0.0
 10
-42.7516
 20
-26.8547
 30
0.0
 10
-42.7823
 20
-26.4798
 30
0.0
 10
-42.9814
 20
-26.2361
 30
0.0
 10
-43.3841
 20
-26.1511
 30
0.0
 10
-43.3841
 20
-26.1511
 30
0.0
 10
-45.61510000000001
 20
-25.7461
 30
0.0
 10
-47.7323
 20
-25.1012
 30
0.0
 10
-49.7597
 20
-24.2672
 30
0.0
 10
-49.7597
 20
-24.2672
 30
0.0
 10
-49.8603
 20
-24.2164
 30
0.0
 10
-49.9348
 20
-24.1388
 30
0.0
 10
-49.9814
 20
-24.0447
 30
0.0
 10
-49.9814
 20
-24.0447
 30
0.0
 10
-50.24290000000001
 20
-23.1205
 30
0.0
 10
-50.4196
 20
-22.1627
 30
0.0
 10
-50.4834
 20
-21.1606
 30
0.0
 10
-50.4834
 20
-21.1606
 30
0.0
 10
-50.4806
 20
-20.447
 30
0.0
 10
-50.8403
 20
-20.09
 30
0.0
 10
-51.5005
 20
-20.0283
 30
0.0
 10
-51.5005
 20
-20.0283
 30
0.0
 10
-51.5005
 20
-20.0283
 30
0.0
 10
-54.3525
 20
-20.0482
 30
0.0
 10
-54.3525
 20
-20.0482
 30
0.0
 10
-54.3525
 20
-20.0482
 30
0.0
 10
-57.9011
 20
-18.5335
 30
0.0
 10
-55.8402
 20
-13.0564
 30
0.0
 10
-52.0763
 20
-14.6231
 30
0.0
  0
ENDSEC
  0
SECTION
  2
OBJECTS
  0
DICTIONARY
  5
C
330
0
100
AcDbDictionary
281
     1
  3
ACAD_GROUP
350
D
  3
ACAD_LAYOUT
350
1A
  3
ACAD_MLINESTYLE
350
17
  3
ACAD_PLOTSETTINGS
350
19
  3
ACAD_PLOTSTYLENAME
350
E
  0
DICTIONARY
  5
D
102
{ACAD_REACTORS
330
C
102
}
330
C
100
AcDbDictionary
281
     1
  0
DICTIONARY
  5
1A
102
{ACAD_REACTORS
330
C
102
}
330
C
100
AcDbDictionary
281
     1
  3
Layout1
350
1E
  3
Layout2
350
26
  3
Model
350
22
  0
DICTIONARY
  5
17
102
{ACAD_REACTORS
330
C
102
}
330
C
100
AcDbDictionary
281
     1
  3
Standard
350
18
  0
DICTIONARY
  5
19
102
{ACAD_REACTORS
330
C
102
}
330
C
100
AcDbDictionary
281
     1
  0
ACDBDICTIONARYWDFLT
  5
E
102
{ACAD_REACTORS
330
C
102
}
330
C
100
AcDbDictionary
281
     1
  3
Normal
350
F
100
AcDbDictionaryWithDefault
340
F
  0
LAYOUT
  5
1E
102
{ACAD_REACTORS
330
1A
102
}
330
1A
100
AcDbPlotSettings
  1

  2

  4

  6

 40
0.0
 41
0.0
 42
0.0
 43
0.0
 44
0.0
 45
0.0
 46
0.0
 47
0.0
 48
0.0
 49
0.0
140
0.0
141
0.0
142
1.0
143
1.0
 70
   688
 72
     0
 73
     0
 74
     5
  7

 75
    16
 76
     0
 77
     2
 78
   300
147
1.0
148
0.0
149
0.0
100
AcDbLayout
  1
Layout1
 70
     1
 71
     1
 10
0.0
 20
0.0
 11
12.0
 21
9.0
 12
0.0
 22
0.0
 32
0.0
 14
1.000000000000000E+20
 24
1.000000000000000E+20
 34
1.000000000000000E+20
 15
-1.000000000000000E+20
 25
-1.000000000000000E+20
 35
-1.000000000000000E+20
146
0.0
 13
0.0
 23
0.0
 33
0.0
 16
1.0
 26
0.0
 36
0.0
 17
0.0
 27
1.0
 37
0.0
 76
     0
330
1B
  0
LAYOUT
  5
26
102
{ACAD_REACTORS
330
1A
102
}
330
1A
100
AcDbPlotSettings
  1

  2

  4

  6

 40
0.0
 41
0.0
 42
0.0
 43
0.0
 44
0.0
 45
0.0
 46
0.0
 47
0.0
 48
0.0
 49
0.0
140
0.0
141
0.0
142
1.0
143
1.0
 70
   688
 72
     0
 73
     0
 74
     5
  7

 75
    16
 76
     0
 77
     2
 78
   300
147
1.0
148
0.0
149
0.0
100
AcDbLayout
  1
Layout2
 70
     1
 71
     2
 10
0.0
 20
0.0
 11
0.0
 21
0.0
 12
0.0
 22
0.0
 32
0.0
 14
0.0
 24
0.0
 34
0.0
 15
0.0
 25
0.0
 35
0.0
146
0.0
 13
0.0
 23
0.0
 33
0.0
 16
1.0
 26
0.0
 36
0.0
 17
0.0
 27
1.0
 37
0.0
 76
     0
330
23
  0
LAYOUT
  5
22
102
{ACAD_REACTORS
330
1A
102
}
330
1A
100
AcDbPlotSettings
  1

  2

  4

  6

 40
0.0
 41
0.0
 42
0.0
 43
0.0
 44
0.0
 45
0.0
 46
0.0
 47
0.0
 48
0.0
 49
0.0
140
0.0
141
0.0
142
1.0
143
1.0
 70
  1712
 72
     0
 73
     0
 74
     0
  7

 75
     0
 76
     0
 77
     2
 78
   300
147
1.0
148
0.0
149
0.0
100
AcDbLayout
  1
Model
 70
     1
 71
     0
 10
0.0
 20
0.0
 11
0.0
 21
0.0
 12
0.0
 22
0.0
 32
0.0
 14
-102.6423
 24
-138.8583
 34
0.0
 15
102.0641
 25
108.6683
 35
0.0
146
0.0
 13
0.0
 23
0.0
 33
0.0
 16
1.0
 26
0.0
 36
0.0
 17
0.0
 27
1.0
 37
0.0
 76
     0
330
1F
  0
MLINESTYLE
  5
18
102
{ACAD_REACTORS
330
17
102
}
330
17
100
AcDbMlineStyle
  2
Standard
 70
     0
  3

 62
   256
 51
90.0
 52
90.0
 71
     2
 49
0.5
 62
   256
  6
BYLAYER
 49
-0.5
 62
   256
  6
BYLAYER
  0
ACDBPLACEHOLDER
  5
F
102
{ACAD_REACTORS
330
E
102
}
330
E
  0
ENDSEC
  0
EOF
