  0
SECTION
  2
HEADER
  9
$ACADVER
  1
AC1009
  9
$EXTMIN
 10
0.32900000
 20
0.32850000
 30
0.0
  9
$EXTMAX
 10
19.71000000
 20
19.70950000
 30
0.0
  0
ENDSEC
  0
SECTION
  2
TABLES
  0
TABLE
  2
LAYER
 70
1
 0
LAYER
 2
Default_Layer
 70
0
 62
1
 6
CONTINUOUS
 0
ENDTAB
 0
ENDSEC
  0
SECTION
  2
ENTITIES
  0
POLYLINE
  8
Default_Layer
 66
   1
 39
0.000000
 70
    1
  0
VERTEX
  8
0
 10
6.27643522
 20
14.45213047
  0
VERTEX
  8
0
 10
8.03772555
 20
14.45213047
  0
VERTEX
  8
0
 10
8.24119030
 20
13.88211853
  0
VERTEX
  8
0
 10
8.10451169
 20
13.83086405
  0
VERTEX
  8
0
 10
8.04976258
 20
13.95550562
  0
VERTEX
  8
0
 10
7.99113056
 20
14.04986046
  0
VERTEX
  8
0
 10
7.92473271
 20
14.12441243
  0
VERTEX
  8
0
 10
7.84668612
 20
14.18653908
  0
VERTEX
  8
0
 10
7.76126199
 20
14.23313406
  0
VERTEX
  8
0
 10
7.67583785
 20
14.26109105
  0
VERTEX
  8
0
 10
7.36365147
 20
14.27972904
  0
VERTEX
  8
0
 10
6.83868134
 20
14.27972904
  0
VERTEX
  8
0
 10
6.83868134
 20
13.48606118
  0
VERTEX
  8
0
 10
7.10029275
 20
13.48606118
  0
VERTEX
  8
0
 10
7.22666951
 20
13.49809822
  0
VERTEX
  8
0
 10
7.31860966
 20
13.53420933
  0
VERTEX
  8
0
 10
7.38034801
 20
13.58973501
  0
VERTEX
  8
0
 10
7.41956545
 20
13.65690945
  0
VERTEX
  8
0
 10
7.43703857
 20
13.73146142
  0
VERTEX
  8
0
 10
7.44286294
 20
13.84639571
  0
VERTEX
  8
0
 10
7.44286294
 20
13.88211853
  0
VERTEX
  8
0
 10
7.59507322
 20
13.88211853
  0
VERTEX
  8
0
 10
7.59507322
 20
12.93158089
  0
VERTEX
  8
0
 10
7.44286294
 20
12.93158089
  0
VERTEX
  8
0
 10
7.44286294
 20
13.01389869
  0
VERTEX
  8
0
 10
7.42577812
 20
13.17076847
  0
VERTEX
  8
0
 10
7.36520464
 20
13.26085210
  0
VERTEX
  8
0
 10
7.27201467
 20
13.31987241
  0
VERTEX
  8
0
 10
7.09961324
 20
13.33540407
  0
VERTEX
  8
0
 10
6.83868134
 20
13.33540407
  0
VERTEX
  8
0
 10
6.83868134
 20
12.63150435
  0
VERTEX
  8
0
 10
6.84800034
 20
12.49669439
  0
VERTEX
  8
0
 10
6.88216999
 20
12.46097157
  0
VERTEX
  8
0
 10
7.00952961
 20
12.45165258
  0
VERTEX
  8
0
 10
7.33486936
 20
12.45165258
  0
VERTEX
  8
0
 10
7.57652623
 20
12.46796082
  0
VERTEX
  8
0
 10
7.75970882
 20
12.51688555
  0
VERTEX
  8
0
 10
7.90415326
 20
12.59920335
  0
VERTEX
  8
0
 10
8.02995972
 20
12.71569081
  0
VERTEX
  8
0
 10
8.11965506
 20
12.84305043
  0
VERTEX
  8
0
 10
8.20546748
 20
13.01389869
  0
VERTEX
  8
0
 10
8.34680559
 20
12.96419738
  0
VERTEX
  8
0
 10
8.10451169
 20
12.28546381
  0
VERTEX
  8
0
 10
6.27643522
 20
12.28546381
  0
VERTEX
  8
0
 10
6.27643522
 20
12.41592976
  0
VERTEX
  8
0
 10
6.33856187
 20
12.41592976
  0
VERTEX
  8
0
 10
6.47368731
 20
12.42835509
  0
VERTEX
  8
0
 10
6.50941013
 20
12.45475891
  0
VERTEX
  8
0
 10
6.53581396
 20
12.49358806
  0
VERTEX
  8
0
 10
6.55134562
 20
12.62871351
  0
VERTEX
  8
0
 10
6.55134562
 20
14.12130610
  0
VERTEX
  8
0
 10
6.53115446
 20
14.25643155
  0
VERTEX
  8
0
 10
6.50358576
 20
14.28671829
  0
VERTEX
  8
0
 10
6.46126199
 20
14.30923920
  0
VERTEX
  8
0
 10
6.27643522
 20
14.32166452
  0
VERTEX
  8
0
 10
6.27643522
 20
14.45213047
  0
SEQEND
  0
POLYLINE
  8
Default_Layer
 66
   1
 39
0.000000
 70
    1
  0
VERTEX
  8
0
 10
14.95176655
 20
6.16924942
 42
0.16116107
  0
VERTEX
  8
0
 10
14.51298083
 20
6.01017058
 42
0.17153184
  0
VERTEX
  8
0
 10
14.15041626
 20
5.32337967
 42
0.04380391
  0
VERTEX
  8
0
 10
13.94245999
 20
5.15230221
 42
-0.11627934
  0
VERTEX
  8
0
 10
13.70522166
 20
5.01174345
  0
VERTEX
  8
0
 10
12.36963786
 20
9.19657271
 42
-0.26888442
  0
VERTEX
  8
0
 10
12.39346881
 20
9.28319336
  0
VERTEX
  8
0
 10
15.97571413
 20
11.82322086
 42
-0.03408175
  0
VERTEX
  8
0
 10
16.10927251
 20
11.24446788
 42
-0.21538897
  0
VERTEX
  8
0
 10
14.95150717
 20
6.17811746
  0
VERTEX
  8
0
 10
14.95176655
 20
6.16924942
  0
SEQEND
  0
POLYLINE
  8
Default_Layer
 66
   1
 39
0.000000
 70
    1
  0
VERTEX
  8
0
 10
8.68912362
 20
11.81572570
  0
VERTEX
  8
0
 10
9.83202863
 20
10.13148137
  0
VERTEX
  8
0
 10
4.44517394
 20
11.82322086
 42
-0.23222119
  0
VERTEX
  8
0
 10
4.51381209
 20
11.86646325
  0
VERTEX
  8
0
 10
8.68912362
 20
11.81572570
  0
SEQEND
  0
POLYLINE
  8
Default_Layer
 66
   1
 39
0.000000
 70
    1
  0
VERTEX
  8
0
 10
15.09469993
 20
4.97893095
 42
0.09874051
  0
VERTEX
  8
0
 10
15.22000796
 20
5.17010939
 42
0.06588722
  0
VERTEX
  8
0
 10
15.29581445
 20
5.30671327
 42
0.47362592
  0
VERTEX
  8
0
 10
15.12984439
 20
5.59049644
 42
-0.27783925
  0
VERTEX
  8
0
 10
14.77368871
 20
4.96722399
 42
-0.08193784
  0
VERTEX
  8
0
 10
14.67087460
 20
4.94282312
 42
0.30632144
  0
VERTEX
  8
0
 10
14.59561087
 20
4.87818507
 42
-0.07857330
  0
VERTEX
  8
0
 10
14.81901476
 20
4.79138740
 42
0.13495210
  0
VERTEX
  8
0
 10
14.95176655
 20
4.78914615
 42
0.04330027
  0
VERTEX
  8
0
 10
15.09469993
 20
4.97893095
  0
SEQEND
  0
POLYLINE
  8
Default_Layer
 66
   1
 39
0.000000
 70
    1
  0
VERTEX
  8
0
 10
9.96558701
 20
10.17600083
 42
-0.24538562
  0
VERTEX
  8
0
 10
9.90584826
 20
10.18287767
  0
VERTEX
  8
0
 10
8.76356158
 20
11.86774032
 42
0.00191996
  0
VERTEX
  8
0
 10
9.96558701
 20
15.74093336
 42
-0.58247399
  0
VERTEX
  8
0
 10
10.01010647
 20
15.69641390
  0
VERTEX
  8
0
 10
9.96558701
 20
10.17600083
  0
SEQEND
  0
POLYLINE
  8
Default_Layer
 66
   1
 39
0.000000
 70
    1
  0
VERTEX
  8
0
 10
16.91062279
 20
4.96722399
 42
0.06334277
  0
VERTEX
  8
0
 10
17.14796874
 20
5.12216046
 42
0.01913684
  0
VERTEX
  8
0
 10
17.25998291
 20
5.36592467
 42
0.31012744
  0
VERTEX
  8
0
 10
17.22225902
 20
5.41241859
 42
-0.02691660
  0
VERTEX
  8
0
 10
16.95514226
 20
5.10078237
  0
VERTEX
  8
0
 10
16.86610333
 20
5.10078237
 42
-0.22412265
  0
VERTEX
  8
0
 10
16.74458772
 20
4.95121894
 42
0.29954868
  0
VERTEX
  8
0
 10
16.73254495
 20
4.83366561
 42
0.43108566
  0
VERTEX
  8
0
 10
16.82955700
 20
4.86236032
 42
-0.07552543
  0
VERTEX
  8
0
 10
16.91062279
 20
4.96722399
  0
SEQEND
  0
POLYLINE
  8
Default_Layer
 66
   1
 39
0.000000
 70
    1
  0
VERTEX
  8
0
 10
16.94576726
 20
7.52122768
 42
-0.42287960
  0
VERTEX
  8
0
 10
16.99028672
 20
7.61026660
  0
VERTEX
  8
0
 10
16.99028672
 20
7.20959146
  0
VERTEX
  8
0
 10
17.01473462
 20
7.13031362
  0
VERTEX
  8
0
 10
17.03142628
 20
7.19719638
  0
VERTEX
  8
0
 10
17.03480618
 20
7.43218876
 42
0.24309638
  0
VERTEX
  8
0
 10
17.05995213
 20
7.67223182
 42
0.12285409
  0
VERTEX
  8
0
 10
16.94576726
 20
7.87738336
 42
0.18348503
  0
VERTEX
  8
0
 10
16.90014077
 20
7.58628075
 42
0.23769805
  0
VERTEX
  8
0
 10
16.94576726
 20
7.52122768
  0
SEQEND
  0
POLYLINE
  8
Default_Layer
 66
   1
 39
0.000000
 70
    1
  0
VERTEX
  8
0
 10
17.25740348
 20
7.19084146
 42
-0.11963005
  0
VERTEX
  8
0
 10
17.12384510
 20
7.01276362
 42
-0.04812224
  0
VERTEX
  8
0
 10
17.05467546
 20
6.82369696
 42
0.52568322
  0
VERTEX
  8
0
 10
17.07932564
 20
6.79016632
 42
-0.42945105
  0
VERTEX
  8
0
 10
17.16836456
 20
6.83468578
 42
-0.22020450
  0
VERTEX
  8
0
 10
17.30192294
 20
6.96824416
 42
-0.14847875
  0
VERTEX
  8
0
 10
17.43548132
 20
7.19084146
 42
0.20257411
  0
VERTEX
  8
0
 10
17.48908062
 20
7.03129466
 42
0.24517731
  0
VERTEX
  8
0
 10
17.56903970
 20
7.01276362
 42
0.04447343
  0
VERTEX
  8
0
 10
17.55208971
 20
7.47517685
 42
0.10480343
  0
VERTEX
  8
0
 10
17.48000078
 20
7.63603606
 42
-0.10726216
  0
VERTEX
  8
0
 10
17.25740348
 20
7.19084146
  0
SEQEND
  0
POLYLINE
  8
Default_Layer
 66
   1
 39
0.000000
 70
    1
  0
VERTEX
  8
0
 10
16.55446711
 20
7.09478308
 42
0.12735510
  0
VERTEX
  8
0
 10
16.50149199
 20
6.84065652
 42
0.20957374
  0
VERTEX
  8
0
 10
16.55446711
 20
6.78314686
 42
-0.13041081
  0
VERTEX
  8
0
 10
16.64350603
 20
6.91670524
 42
0.09792928
  0
VERTEX
  8
0
 10
16.82158387
 20
6.64958848
 42
0.09223446
  0
VERTEX
  8
0
 10
16.65534306
 20
7.16798127
 42
-0.12734604
  0
VERTEX
  8
0
 10
16.65031498
 20
7.34229762
 42
0.30489973
  0
VERTEX
  8
0
 10
16.59898657
 20
7.45093876
 42
0.03500193
  0
VERTEX
  8
0
 10
16.55446711
 20
7.09478308
  0
SEQEND
  0
POLYLINE
  8
Default_Layer
 66
   1
 39
0.000000
 70
    1
  0
VERTEX
  8
0
 10
16.04600305
 20
6.31920226
 42
0.04676540
  0
VERTEX
  8
0
 10
16.09592520
 20
5.61198473
 42
0.40652463
  0
VERTEX
  8
0
 10
16.13504197
 20
5.56237144
 42
0.14180870
  0
VERTEX
  8
0
 10
16.13504197
 20
6.40824118
 42
0.10859889
  0
VERTEX
  8
0
 10
16.17956143
 20
6.85343578
 42
-0.09335853
  0
VERTEX
  8
0
 10
16.09052251
 20
6.94247470
 42
-0.06820780
  0
VERTEX
  8
0
 10
16.04600305
 20
6.31920226
  0
SEQEND
  0
POLYLINE
  8
Default_Layer
 66
   1
 39
0.000000
 70
    1
  0
VERTEX
  8
0
 10
17.29254794
 20
6.35434672
  0
VERTEX
  8
0
 10
16.75831441
 20
5.82011320
 42
0.23963107
  0
VERTEX
  8
0
 10
16.51229331
 20
5.63113980
 42
-0.28154101
  0
VERTEX
  8
0
 10
16.40215873
 20
5.59751590
  0
VERTEX
  8
0
 10
16.31349723
 20
5.41719620
 42
0.32193108
  0
VERTEX
  8
0
 10
16.35763927
 20
5.37491859
 42
-0.01312591
  0
VERTEX
  8
0
 10
17.02543118
 20
5.90915212
  0
VERTEX
  8
0
 10
17.47301200
 20
6.40634028
 42
-0.06454790
  0
VERTEX
  8
0
 10
17.64870362
 20
6.53242456
 42
-0.10761200
  0
VERTEX
  8
0
 10
17.65566700
 20
6.69796236
 42
0.34565457
  0
VERTEX
  8
0
 10
17.67458436
 20
6.72922562
 42
0.34565457
  0
VERTEX
  8
0
 10
17.64870362
 20
6.75502186
 42
-0.11745257
  0
VERTEX
  8
0
 10
17.29254794
 20
6.35434672
  0
SEQEND
  0
POLYLINE
  8
Default_Layer
 66
   1
 39
0.000000
 70
    1
  0
VERTEX
  8
0
 10
15.88667521
 20
5.76857428
 42
0.24359949
  0
VERTEX
  8
0
 10
15.91822306
 20
6.03685491
 42
-0.02815161
  0
VERTEX
  8
0
 10
15.87366075
 20
6.41272771
 42
0.39590977
  0
VERTEX
  8
0
 10
15.84810459
 20
6.41707886
 42
0.39590977
  0
VERTEX
  8
0
 10
15.84215575
 20
6.39184672
 42
0.09220739
  0
VERTEX
  8
0
 10
15.82029994
 20
5.90049919
 42
0.11345139
  0
VERTEX
  8
0
 10
15.88667521
 20
5.76857428
  0
SEQEND
  0
POLYLINE
  8
Default_Layer
 66
   1
 39
0.000000
 70
    1
  0
VERTEX
  8
0
 10
17.22927848
 20
5.74746874
 42
-0.07247328
  0
VERTEX
  8
0
 10
17.03559064
 20
5.42977519
 42
-0.19342290
  0
VERTEX
  8
0
 10
16.91764226
 20
5.39131305
 42
-0.23046201
  0
VERTEX
  8
0
 10
16.69269467
 20
5.20176904
 42
0.17095248
  0
VERTEX
  8
0
 10
16.60600603
 20
5.07967683
 42
0.27727467
  0
VERTEX
  8
0
 10
16.82860333
 20
5.21323521
  0
VERTEX
  8
0
 10
16.91764226
 20
5.21323521
 42
0.04365194
  0
VERTEX
  8
0
 10
17.42704140
 20
5.83881735
 42
0.38315014
  0
VERTEX
  8
0
 10
17.42986313
 20
5.88028053
 42
0.38315014
  0
VERTEX
  8
0
 10
17.38893994
 20
5.88752278
 42
0.16339145
  0
VERTEX
  8
0
 10
17.22927848
 20
5.74746874
  0
SEQEND
  0
POLYLINE
  8
Default_Layer
 66
   1
 39
0.000000
 70
    1
  0
VERTEX
  8
0
 10
10.05462593
 20
7.68291106
  0
VERTEX
  8
0
 10
10.05462593
 20
9.73080623
 42
-0.08807725
  0
VERTEX
  8
0
 10
10.18818431
 20
9.68628677
  0
VERTEX
  8
0
 10
13.43810490
 20
5.27886021
 42
-0.23272220
  0
VERTEX
  8
0
 10
13.37556832
 20
5.25057559
  0
VERTEX
  8
0
 10
10.05462593
 20
7.68291106
  0
SEQEND
  0
POLYLINE
  8
Default_Layer
 66
   1
 39
0.000000
 70
    1
  0
VERTEX
  8
0
 10
6.41423232
 20
4.89348826
  0
VERTEX
  8
0
 10
6.49306911
 20
5.01174345
  0
VERTEX
  8
0
 10
9.96558701
 20
7.54935268
  0
VERTEX
  8
0
 10
10.09914539
 20
7.54935268
  0
VERTEX
  8
0
 10
13.57792497
 20
4.90724160
  0
VERTEX
  8
0
 10
13.24035970
 20
4.66390466
  0
VERTEX
  8
0
 10
12.91095096
 20
4.47110877
  0
VERTEX
  8
0
 10
12.56700596
 20
4.30545887
  0
VERTEX
  8
0
 10
12.18494536
 20
4.15575094
  0
VERTEX
  8
0
 10
11.79308211
 20
4.03382091
  0
VERTEX
  8
0
 10
11.36793634
 20
3.93295200
  0
VERTEX
  8
0
 10
10.93697575
 20
3.86071094
  0
VERTEX
  8
0
 10
10.48384996
 20
3.81476995
  0
VERTEX
  8
0
 10
10.25202478
 20
3.80259066
  0
VERTEX
  8
0
 10
10.13492227
 20
3.79927808
  0
VERTEX
  8
0
 10
9.98750000
 20
3.79780000
  0
VERTEX
  8
0
 10
9.45276378
 20
3.81751336
  0
VERTEX
  8
0
 10
8.93622857
 20
3.87517158
  0
VERTEX
  8
0
 10
8.44137639
 20
3.96855191
  0
VERTEX
  8
0
 10
7.97168928
 20
4.09543158
  0
VERTEX
  8
0
 10
7.53064929
 20
4.25358781
  0
VERTEX
  8
0
 10
7.12173844
 20
4.44079784
  0
VERTEX
  8
0
 10
6.74843877
 20
4.65483892
  0
VERTEX
  8
0
 10
6.41423232
 20
4.89348826
  0
SEQEND
  0
POLYLINE
  8
Default_Layer
 66
   1
 39
0.000000
 70
    1
  0
VERTEX
  8
0
 10
10.21543380
 20
9.72810693
 42
-0.48844840
  0
VERTEX
  8
0
 10
10.23270377
 20
9.86436461
 42
0.01287552
  0
VERTEX
  8
0
 10
12.19156002
 20
9.28561163
  0
VERTEX
  8
0
 10
13.48262436
 20
5.36789913
  0
VERTEX
  8
0
 10
13.43028079
 20
5.33902789
  0
VERTEX
  8
0
 10
10.21543380
 20
9.72810693
  0
SEQEND
  0
POLYLINE
  8
Default_Layer
 66
   1
 39
0.000000
 70
    1
  0
VERTEX
  8
0
 10
9.92106755
 20
9.77532569
 42
0.65484760
  0
VERTEX
  8
0
 10
9.96558701
 20
9.73080623
 42
0.01218125
  0
VERTEX
  8
0
 10
10.02144693
 20
7.96960328
 42
-0.15196735
  0
VERTEX
  8
0
 10
9.97710611
 20
7.68971611
  0
VERTEX
  8
0
 10
6.68881586
 20
5.30382197
  0
VERTEX
  8
0
 10
9.92106755
 20
9.77532569
  0
SEQEND
  0
POLYLINE
  8
Default_Layer
 66
   1
 39
0.000000
 70
    1
  0
VERTEX
  8
0
 10
6.58210803
 20
5.27886021
 42
-0.33230716
  0
VERTEX
  8
0
 10
6.55838534
 20
5.28675277
 42
-0.15583762
  0
VERTEX
  8
0
 10
6.58210803
 20
5.36789913
 42
0.00189472
  0
VERTEX
  8
0
 10
7.82865292
 20
9.24109217
 42
0.02332817
  0
VERTEX
  8
0
 10
8.83003161
 20
9.55241923
 42
-0.02312208
  0
VERTEX
  8
0
 10
9.83202863
 20
9.86436461
 42
0.07525226
  0
VERTEX
  8
0
 10
9.80509802
 20
9.72071420
  0
VERTEX
  8
0
 10
6.58210803
 20
5.27886021
  0
SEQEND
  0
POLYLINE
  8
Default_Layer
 66
   1
 39
0.000000
 70
    1
  0
VERTEX
  8
0
 10
3.86642096
 20
8.75137811
  0
VERTEX
  8
0
 10
3.77738204
 20
9.37465055
 42
-0.09182268
  0
VERTEX
  8
0
 10
4.04449880
 20
11.86774032
  0
VERTEX
  8
0
 10
7.73961400
 20
9.24109217
 42
0.00633297
  0
VERTEX
  8
0
 10
6.35951073
 20
4.96722399
 42
-0.16181562
  0
VERTEX
  8
0
 10
6.18911751
 20
5.02565094
 42
0.17499088
  0
VERTEX
  8
0
 10
5.91431613
 20
5.23434075
 42
0.10830056
  0
VERTEX
  8
0
 10
5.76481780
 20
5.77318284
 42
0.30973072
  0
VERTEX
  8
0
 10
5.02392693
 20
6.21376888
 42
-0.07227425
  0
VERTEX
  8
0
 10
4.13353772
 20
7.86098890
  0
VERTEX
  8
0
 10
3.97626867
 20
8.30077789
  0
VERTEX
  8
0
 10
3.91157750
 20
8.52405033
  0
VERTEX
  8
0
 10
3.86642096
 20
8.75137811
  0
SEQEND
  0
POLYLINE
  8
Default_Layer
 66
   1
 39
0.000000
 70
    1
  0
VERTEX
  8
0
 10
8.36288644
 20
3.80971803
 42
0.01806971
  0
VERTEX
  8
0
 10
9.64483822
 20
3.63306887
 42
0.19828612
  0
VERTEX
  8
0
 10
14.15276001
 20
5.19333692
 42
-0.09719737
  0
VERTEX
  8
0
 10
14.19493572
 20
5.14530183
 42
0.14823465
  0
VERTEX
  8
0
 10
14.72973321
 20
4.76978202
  0
VERTEX
  8
0
 10
14.52779757
 20
4.51851518
  0
VERTEX
  8
0
 10
14.30581993
 20
4.28442571
  0
VERTEX
  8
0
 10
14.06658100
 20
4.06771347
  0
VERTEX
  8
0
 10
13.81286150
 20
3.86857832
  0
VERTEX
  8
0
 10
13.43109400
 20
3.61500259
  0
VERTEX
  8
0
 10
13.02875923
 20
3.39503451
  0
VERTEX
  8
0
 10
12.58528484
 20
3.19784410
  0
VERTEX
  8
0
 10
12.12754607
 20
3.03617687
  0
VERTEX
  8
0
 10
11.63339948
 20
2.90314256
  0
VERTEX
  8
0
 10
11.13063512
 20
2.80748755
  0
VERTEX
  8
0
 10
10.60298413
 20
2.74679557
  0
VERTEX
  8
0
 10
10.33303094
 20
2.73070542
  0
VERTEX
  8
0
 10
10.19666871
 20
2.72632894
  0
VERTEX
  8
0
 10
10.02500000
 20
2.72437650
  0
VERTEX
  8
0
 10
9.64993900
 20
2.73378041
  0
VERTEX
  8
0
 10
9.28188091
 20
2.76157809
  0
VERTEX
  8
0
 10
8.92168698
 20
2.80714850
  0
VERTEX
  8
0
 10
8.57021847
 20
2.86987059
  0
VERTEX
  8
0
 10
8.22833666
 20
2.94912330
  0
VERTEX
  8
0
 10
7.89690280
 20
3.04428557
  0
VERTEX
  8
0
 10
7.57677815
 20
3.15473637
  0
VERTEX
  8
0
 10
7.26882399
 20
3.27985463
  0
VERTEX
  8
0
 10
6.97390157
 20
3.41901930
  0
VERTEX
  8
0
 10
6.69287216
 20
3.57160934
  0
VERTEX
  8
0
 10
6.42659701
 20
3.73700368
  0
VERTEX
  8
0
 10
6.17593740
 20
3.91458128
  0
VERTEX
  8
0
 10
5.94175459
 20
4.10372109
  0
VERTEX
  8
0
 10
5.72490983
 20
4.30380205
  0
VERTEX
  8
0
 10
5.52626440
 20
4.51420311
  0
VERTEX
  8
0
 10
5.34667955
 20
4.73430322
 42
-0.05936751
  0
VERTEX
  8
0
 10
5.41220908
 20
4.78993092
 42
0.03014153
  0
VERTEX
  8
0
 10
5.72793149
 20
4.98618648
 42
0.14939023
  0
VERTEX
  8
0
 10
5.85340221
 20
5.14530183
 42
-0.17654318
  0
VERTEX
  8
0
 10
5.94691297
 20
5.09735407
 42
0.10393726
  0
VERTEX
  8
0
 10
8.14028914
 20
3.89875695
  0
VERTEX
  8
0
 10
8.25101562
 20
3.85067150
  0
VERTEX
  8
0
 10
8.36288644
 20
3.80971803
  0
SEQEND
  0
POLYLINE
  8
Default_Layer
 66
   1
 39
0.000000
 70
    1
  0
VERTEX
  8
0
 10
10.11313831
 20
10.17855787
  0
VERTEX
  8
0
 10
10.09212593
 20
15.77372228
 42
0.09343558
  0
VERTEX
  8
0
 10
10.18116485
 20
15.68468336
  0
VERTEX
  8
0
 10
11.38587953
 20
11.91995823
  0
VERTEX
  8
0
 10
10.16712593
 20
10.17600083
  0
VERTEX
  8
0
 10
10.11313831
 20
10.17855787
  0
SEQEND
  0
POLYLINE
  8
Default_Layer
 66
   1
 39
0.000000
 70
    1
  0
VERTEX
  8
0
 10
10.18818431
 20
10.08696191
  0
VERTEX
  8
0
 10
11.43472919
 20
11.82322086
  0
VERTEX
  8
0
 10
15.53051953
 20
11.82322086
  0
VERTEX
  8
0
 10
10.18818431
 20
10.08696191
  0
SEQEND
  0
POLYLINE
  8
Default_Layer
 66
   1
 39
0.000000
 70
    1
  0
VERTEX
  8
0
 10
9.83040000
 20
9.95620000
  0
VERTEX
  8
0
 10
9.84520541
 20
10.02953378
  0
VERTEX
  8
0
 10
9.88558108
 20
10.08941892
  0
VERTEX
  8
0
 10
9.94546622
 20
10.12979459
  0
VERTEX
  8
0
 10
10.01880000
 20
10.14460000
  0
VERTEX
  8
0
 10
10.09213378
 20
10.12979459
  0
VERTEX
  8
0
 10
10.15201892
 20
10.08941892
  0
VERTEX
  8
0
 10
10.19239459
 20
10.02953378
  0
VERTEX
  8
0
 10
10.20720000
 20
9.95620000
  0
VERTEX
  8
0
 10
10.19239459
 20
9.88286622
  0
VERTEX
  8
0
 10
10.15201892
 20
9.82298108
  0
VERTEX
  8
0
 10
10.09213378
 20
9.78260541
  0
VERTEX
  8
0
 10
10.01880000
 20
9.76780000
  0
VERTEX
  8
0
 10
9.94546622
 20
9.78260541
  0
VERTEX
  8
0
 10
9.88558108
 20
9.82298108
  0
VERTEX
  8
0
 10
9.84520541
 20
9.88286622
  0
VERTEX
  8
0
 10
9.83040000
 20
9.95620000
  0
SEQEND
  0
POLYLINE
  8
Default_Layer
 66
   1
 39
0.000000
 70
    1
  0
VERTEX
  8
0
 10
4.53421286
 20
11.68966248
 42
-0.47496501
  0
VERTEX
  8
0
 10
4.59342065
 20
11.72226878
  0
VERTEX
  8
0
 10
9.78750917
 20
9.90888407
  0
VERTEX
  8
0
 10
7.91769184
 20
9.33013109
  0
VERTEX
  8
0
 10
4.53421286
 20
11.68966248
  0
SEQEND
  0
POLYLINE
  8
Default_Layer
 66
   1
 39
0.000000
 70
    1
  0
VERTEX
  8
0
 10
10.23270377
 20
9.95340353
 42
-0.16027307
  0
VERTEX
  8
0
 10
10.28652721
 20
10.02717219
  0
VERTEX
  8
0
 10
15.55696198
 20
11.71873492
  0
VERTEX
  8
0
 10
12.36963786
 20
9.37465055
 42
-0.18568563
  0
VERTEX
  8
0
 10
12.17116924
 20
9.35566381
  0
VERTEX
  8
0
 10
10.23270377
 20
9.95340353
  0
SEQEND
  0
POLYLINE
  8
Default_Layer
 66
   1
 39
0.000000
 70
    1
  0
VERTEX
  8
0
 10
0.32900000
 20
10.01900000
  0
VERTEX
  8
0
 10
0.34160922
 20
10.51767184
  0
VERTEX
  8
0
 10
0.37903096
 20
11.00979733
  0
VERTEX
  8
0
 10
0.44065635
 20
11.49476759
  0
VERTEX
  8
0
 10
0.52587652
 20
11.97197375
  0
VERTEX
  8
0
 10
0.63408259
 20
12.44080693
  0
VERTEX
  8
0
 10
0.76466570
 20
12.90065827
  0
VERTEX
  8
0
 10
0.91701697
 20
13.35091889
  0
VERTEX
  8
0
 10
1.09052753
 20
13.79097992
  0
VERTEX
  8
0
 10
1.28458850
 20
14.22023249
  0
VERTEX
  8
0
 10
1.49859102
 20
14.63806772
  0
VERTEX
  8
0
 10
1.73192621
 20
15.04387675
  0
VERTEX
  8
0
 10
1.98398521
 20
15.43705070
  0
VERTEX
  8
0
 10
2.25415913
 20
15.81698070
  0
VERTEX
  8
0
 10
2.54183910
 20
16.18305787
  0
VERTEX
  8
0
 10
2.84641626
 20
16.53467335
  0
VERTEX
  8
0
 10
3.16728174
 20
16.87121826
  0
VERTEX
  8
0
 10
3.50382665
 20
17.19208374
  0
VERTEX
  8
0
 10
3.85544213
 20
17.49666090
  0
VERTEX
  8
0
 10
4.22151930
 20
17.78434087
  0
VERTEX
  8
0
 10
4.60144930
 20
18.05451479
  0
VERTEX
  8
0
 10
4.99462325
 20
18.30657379
  0
VERTEX
  8
0
 10
5.40043228
 20
18.53990898
  0
VERTEX
  8
0
 10
5.81826751
 20
18.75391150
  0
VERTEX
  8
0
 10
6.24752008
 20
18.94797247
  0
VERTEX
  8
0
 10
6.68758111
 20
19.12148303
  0
VERTEX
  8
0
 10
7.13784173
 20
19.27383430
  0
VERTEX
  8
0
 10
7.59769307
 20
19.40441741
  0
VERTEX
  8
0
 10
8.06652625
 20
19.51262348
  0
VERTEX
  8
0
 10
8.54373241
 20
19.59784365
  0
VERTEX
  8
0
 10
9.02870267
 20
19.65946904
  0
VERTEX
  8
0
 10
9.52082816
 20
19.69689078
  0
VERTEX
  8
0
 10
10.01950000
 20
19.70950000
  0
VERTEX
  8
0
 10
10.51817184
 20
19.69689078
  0
VERTEX
  8
0
 10
11.01029733
 20
19.65946904
  0
VERTEX
  8
0
 10
11.49526759
 20
19.59784365
  0
VERTEX
  8
0
 10
11.97247375
 20
19.51262348
  0
VERTEX
  8
0
 10
12.44130693
 20
19.40441741
  0
VERTEX
  8
0
 10
12.90115827
 20
19.27383430
  0
VERTEX
  8
0
 10
13.35141889
 20
19.12148303
  0
VERTEX
  8
0
 10
13.79147992
 20
18.94797247
  0
VERTEX
  8
0
 10
14.22073249
 20
18.75391150
  0
VERTEX
  8
0
 10
14.63856772
 20
18.53990898
  0
VERTEX
  8
0
 10
15.04437675
 20
18.30657379
  0
VERTEX
  8
0
 10
15.43755070
 20
18.05451479
  0
VERTEX
  8
0
 10
15.81748070
 20
17.78434087
  0
VERTEX
  8
0
 10
16.18355787
 20
17.49666090
  0
VERTEX
  8
0
 10
16.53517335
 20
17.19208374
  0
VERTEX
  8
0
 10
16.87171826
 20
16.87121826
  0
VERTEX
  8
0
 10
17.19258374
 20
16.53467335
  0
VERTEX
  8
0
 10
17.49716090
 20
16.18305787
  0
VERTEX
  8
0
 10
17.78484087
 20
15.81698070
  0
VERTEX
  8
0
 10
18.05501479
 20
15.43705070
  0
VERTEX
  8
0
 10
18.30707379
 20
15.04387675
  0
VERTEX
  8
0
 10
18.54040898
 20
14.63806772
  0
VERTEX
  8
0
 10
18.75441150
 20
14.22023249
  0
VERTEX
  8
0
 10
18.94847247
 20
13.79097992
  0
VERTEX
  8
0
 10
19.12198303
 20
13.35091889
  0
VERTEX
  8
0
 10
19.27433430
 20
12.90065827
  0
VERTEX
  8
0
 10
19.40491741
 20
12.44080693
  0
VERTEX
  8
0
 10
19.51312348
 20
11.97197375
  0
VERTEX
  8
0
 10
19.59834365
 20
11.49476759
  0
VERTEX
  8
0
 10
19.65996904
 20
11.00979733
  0
VERTEX
  8
0
 10
19.69739078
 20
10.51767184
  0
VERTEX
  8
0
 10
19.71000000
 20
10.01900000
  0
VERTEX
  8
0
 10
19.69739078
 20
9.52032816
  0
VERTEX
  8
0
 10
19.65996904
 20
9.02820267
  0
VERTEX
  8
0
 10
19.59834365
 20
8.54323241
  0
VERTEX
  8
0
 10
19.51312348
 20
8.06602625
  0
VERTEX
  8
0
 10
19.40491741
 20
7.59719307
  0
VERTEX
  8
0
 10
19.27433430
 20
7.13734173
  0
VERTEX
  8
0
 10
19.12198303
 20
6.68708111
  0
VERTEX
  8
0
 10
18.94847247
 20
6.24702008
  0
VERTEX
  8
0
 10
18.75441150
 20
5.81776751
  0
VERTEX
  8
0
 10
18.54040898
 20
5.39993228
  0
VERTEX
  8
0
 10
18.30707379
 20
4.99412325
  0
VERTEX
  8
0
 10
18.05501479
 20
4.60094930
  0
VERTEX
  8
0
 10
17.78484087
 20
4.22101930
  0
VERTEX
  8
0
 10
17.49716090
 20
3.85494213
  0
VERTEX
  8
0
 10
17.19258374
 20
3.50332665
  0
VERTEX
  8
0
 10
16.87171826
 20
3.16678174
  0
VERTEX
  8
0
 10
16.53517335
 20
2.84591626
  0
VERTEX
  8
0
 10
16.18355787
 20
2.54133910
  0
VERTEX
  8
0
 10
15.81748070
 20
2.25365913
  0
VERTEX
  8
0
 10
15.43755070
 20
1.98348521
  0
VERTEX
  8
0
 10
15.04437675
 20
1.73142621
  0
VERTEX
  8
0
 10
14.63856772
 20
1.49809102
  0
VERTEX
  8
0
 10
14.22073249
 20
1.28408850
  0
VERTEX
  8
0
 10
13.79147992
 20
1.09002753
  0
VERTEX
  8
0
 10
13.35141889
 20
0.91651697
  0
VERTEX
  8
0
 10
12.90115827
 20
0.76416570
  0
VERTEX
  8
0
 10
12.44130693
 20
0.63358259
  0
VERTEX
  8
0
 10
11.97247375
 20
0.52537652
  0
VERTEX
  8
0
 10
11.49526759
 20
0.44015635
  0
VERTEX
  8
0
 10
11.01029733
 20
0.37853096
  0
VERTEX
  8
0
 10
10.51817184
 20
0.34110922
  0
VERTEX
  8
0
 10
10.01950000
 20
0.32850000
  0
VERTEX
  8
0
 10
9.52082816
 20
0.34110922
  0
VERTEX
  8
0
 10
9.02870267
 20
0.37853096
  0
VERTEX
  8
0
 10
8.54373241
 20
0.44015635
  0
VERTEX
  8
0
 10
8.06652625
 20
0.52537652
  0
VERTEX
  8
0
 10
7.59769307
 20
0.63358259
  0
VERTEX
  8
0
 10
7.13784173
 20
0.76416570
  0
VERTEX
  8
0
 10
6.68758111
 20
0.91651697
  0
VERTEX
  8
0
 10
6.24752008
 20
1.09002753
  0
VERTEX
  8
0
 10
5.81826751
 20
1.28408850
  0
VERTEX
  8
0
 10
5.40043228
 20
1.49809102
  0
VERTEX
  8
0
 10
4.99462325
 20
1.73142621
  0
VERTEX
  8
0
 10
4.60144930
 20
1.98348521
  0
VERTEX
  8
0
 10
4.22151930
 20
2.25365913
  0
VERTEX
  8
0
 10
3.85544213
 20
2.54133910
  0
VERTEX
  8
0
 10
3.50382665
 20
2.84591626
  0
VERTEX
  8
0
 10
3.16728174
 20
3.16678174
  0
VERTEX
  8
0
 10
2.84641626
 20
3.50332665
  0
VERTEX
  8
0
 10
2.54183910
 20
3.85494213
  0
VERTEX
  8
0
 10
2.25415913
 20
4.22101930
  0
VERTEX
  8
0
 10
1.98398521
 20
4.60094930
  0
VERTEX
  8
0
 10
1.73192621
 20
4.99412325
  0
VERTEX
  8
0
 10
1.49859102
 20
5.39993228
  0
VERTEX
  8
0
 10
1.28458850
 20
5.81776751
  0
VERTEX
  8
0
 10
1.09052753
 20
6.24702008
  0
VERTEX
  8
0
 10
0.91701697
 20
6.68708111
  0
VERTEX
  8
0
 10
0.76466570
 20
7.13734173
  0
VERTEX
  8
0
 10
0.63408259
 20
7.59719307
  0
VERTEX
  8
0
 10
0.52587652
 20
8.06602625
  0
VERTEX
  8
0
 10
0.44065635
 20
8.54323241
  0
VERTEX
  8
0
 10
0.37903096
 20
9.02820267
  0
VERTEX
  8
0
 10
0.34160922
 20
9.52032816
  0
VERTEX
  8
0
 10
0.32900000
 20
10.01900000
  0
SEQEND
  0
POLYLINE
  8
Default_Layer
 66
   1
 39
0.000000
 70
    1
  0
VERTEX
  8
0
 10
0.68560000
 20
9.95620000
  0
VERTEX
  8
0
 10
0.69774430
 20
10.43648523
  0
VERTEX
  8
0
 10
0.73378626
 20
10.91046548
  0
VERTEX
  8
0
 10
0.79313945
 20
11.37755432
  0
VERTEX
  8
0
 10
0.87521745
 20
11.83716534
  0
VERTEX
  8
0
 10
0.97943384
 20
12.28871210
  0
VERTEX
  8
0
 10
1.10520220
 20
12.73160818
  0
VERTEX
  8
0
 10
1.25193610
 20
13.16526717
  0
VERTEX
  8
0
 10
1.41904912
 20
13.58910264
  0
VERTEX
  8
0
 10
1.60595484
 20
14.00252816
  0
VERTEX
  8
0
 10
1.81206684
 20
14.40495733
  0
VERTEX
  8
0
 10
2.03679869
 20
14.79580370
  0
VERTEX
  8
0
 10
2.27956398
 20
15.17448087
  0
VERTEX
  8
0
 10
2.53977627
 20
15.54040241
  0
VERTEX
  8
0
 10
2.81684915
 20
15.89298189
  0
VERTEX
  8
0
 10
3.11019620
 20
16.23163290
  0
VERTEX
  8
0
 10
3.41923099
 20
16.55576901
  0
VERTEX
  8
0
 10
3.74336710
 20
16.86480380
  0
VERTEX
  8
0
 10
4.08201811
 20
17.15815085
  0
VERTEX
  8
0
 10
4.43459759
 20
17.43522373
  0
VERTEX
  8
0
 10
4.80051913
 20
17.69543602
  0
VERTEX
  8
0
 10
5.17919630
 20
17.93820131
  0
VERTEX
  8
0
 10
5.57004267
 20
18.16293316
  0
VERTEX
  8
0
 10
5.97247184
 20
18.36904516
  0
VERTEX
  8
0
 10
6.38589736
 20
18.55595088
  0
VERTEX
  8
0
 10
6.80973283
 20
18.72306390
  0
VERTEX
  8
0
 10
7.24339182
 20
18.86979780
  0
VERTEX
  8
0
 10
7.68628790
 20
18.99556616
  0
VERTEX
  8
0
 10
8.13783466
 20
19.09978255
  0
VERTEX
  8
0
 10
8.59744568
 20
19.18186055
  0
VERTEX
  8
0
 10
9.06453452
 20
19.24121374
  0
VERTEX
  8
0
 10
9.53851477
 20
19.27725570
  0
VERTEX
  8
0
 10
10.01880000
 20
19.28940000
  0
VERTEX
  8
0
 10
10.49908523
 20
19.27725570
  0
VERTEX
  8
0
 10
10.97306548
 20
19.24121374
  0
VERTEX
  8
0
 10
11.44015432
 20
19.18186055
  0
VERTEX
  8
0
 10
11.89976534
 20
19.09978255
  0
VERTEX
  8
0
 10
12.35131210
 20
18.99556616
  0
VERTEX
  8
0
 10
12.79420818
 20
18.86979780
  0
VERTEX
  8
0
 10
13.22786717
 20
18.72306390
  0
VERTEX
  8
0
 10
13.65170264
 20
18.55595088
  0
VERTEX
  8
0
 10
14.06512816
 20
18.36904516
  0
VERTEX
  8
0
 10
14.46755733
 20
18.16293316
  0
VERTEX
  8
0
 10
14.85840370
 20
17.93820131
  0
VERTEX
  8
0
 10
15.23708087
 20
17.69543602
  0
VERTEX
  8
0
 10
15.60300241
 20
17.43522373
  0
VERTEX
  8
0
 10
15.95558189
 20
17.15815085
  0
VERTEX
  8
0
 10
16.29423290
 20
16.86480380
  0
VERTEX
  8
0
 10
16.61836901
 20
16.55576901
  0
VERTEX
  8
0
 10
16.92740380
 20
16.23163290
  0
VERTEX
  8
0
 10
17.22075085
 20
15.89298189
  0
VERTEX
  8
0
 10
17.49782373
 20
15.54040241
  0
VERTEX
  8
0
 10
17.75803602
 20
15.17448087
  0
VERTEX
  8
0
 10
18.00080131
 20
14.79580370
  0
VERTEX
  8
0
 10
18.22553316
 20
14.40495733
  0
VERTEX
  8
0
 10
18.43164516
 20
14.00252816
  0
VERTEX
  8
0
 10
18.61855088
 20
13.58910264
  0
VERTEX
  8
0
 10
18.78566390
 20
13.16526717
  0
VERTEX
  8
0
 10
18.93239780
 20
12.73160818
  0
VERTEX
  8
0
 10
19.05816616
 20
12.28871210
  0
VERTEX
  8
0
 10
19.16238255
 20
11.83716534
  0
VERTEX
  8
0
 10
19.24446055
 20
11.37755432
  0
VERTEX
  8
0
 10
19.30381374
 20
10.91046548
  0
VERTEX
  8
0
 10
19.33985570
 20
10.43648523
  0
VERTEX
  8
0
 10
19.35200000
 20
9.95620000
  0
VERTEX
  8
0
 10
19.33985570
 20
9.47591477
  0
VERTEX
  8
0
 10
19.30381374
 20
9.00193452
  0
VERTEX
  8
0
 10
19.24446055
 20
8.53484568
  0
VERTEX
  8
0
 10
19.16238255
 20
8.07523466
  0
VERTEX
  8
0
 10
19.05816616
 20
7.62368790
  0
VERTEX
  8
0
 10
18.93239780
 20
7.18079182
  0
VERTEX
  8
0
 10
18.78566390
 20
6.74713283
  0
VERTEX
  8
0
 10
18.61855088
 20
6.32329736
  0
VERTEX
  8
0
 10
18.43164516
 20
5.90987184
  0
VERTEX
  8
0
 10
18.22553316
 20
5.50744267
  0
VERTEX
  8
0
 10
18.00080131
 20
5.11659630
  0
VERTEX
  8
0
 10
17.75803602
 20
4.73791913
  0
VERTEX
  8
0
 10
17.49782373
 20
4.37199759
  0
VERTEX
  8
0
 10
17.22075085
 20
4.01941811
  0
VERTEX
  8
0
 10
16.92740380
 20
3.68076710
  0
VERTEX
  8
0
 10
16.61836901
 20
3.35663099
  0
VERTEX
  8
0
 10
16.29423290
 20
3.04759620
  0
VERTEX
  8
0
 10
15.95558189
 20
2.75424915
  0
VERTEX
  8
0
 10
15.60300241
 20
2.47717627
  0
VERTEX
  8
0
 10
15.23708087
 20
2.21696398
  0
VERTEX
  8
0
 10
14.85840370
 20
1.97419869
  0
VERTEX
  8
0
 10
14.46755733
 20
1.74946684
  0
VERTEX
  8
0
 10
14.06512816
 20
1.54335484
  0
VERTEX
  8
0
 10
13.65170264
 20
1.35644912
  0
VERTEX
  8
0
 10
13.22786717
 20
1.18933610
  0
VERTEX
  8
0
 10
12.79420818
 20
1.04260220
  0
VERTEX
  8
0
 10
12.35131210
 20
0.91683384
  0
VERTEX
  8
0
 10
11.89976534
 20
0.81261745
  0
VERTEX
  8
0
 10
11.44015432
 20
0.73053945
  0
VERTEX
  8
0
 10
10.97306548
 20
0.67118626
  0
VERTEX
  8
0
 10
10.49908523
 20
0.63514430
  0
VERTEX
  8
0
 10
10.01880000
 20
0.62300000
  0
VERTEX
  8
0
 10
9.53851477
 20
0.63514430
  0
VERTEX
  8
0
 10
9.06453452
 20
0.67118626
  0
VERTEX
  8
0
 10
8.59744568
 20
0.73053945
  0
VERTEX
  8
0
 10
8.13783466
 20
0.81261745
  0
VERTEX
  8
0
 10
7.68628790
 20
0.91683384
  0
VERTEX
  8
0
 10
7.24339182
 20
1.04260220
  0
VERTEX
  8
0
 10
6.80973283
 20
1.18933610
  0
VERTEX
  8
0
 10
6.38589736
 20
1.35644912
  0
VERTEX
  8
0
 10
5.97247184
 20
1.54335484
  0
VERTEX
  8
0
 10
5.57004267
 20
1.74946684
  0
VERTEX
  8
0
 10
5.17919630
 20
1.97419869
  0
VERTEX
  8
0
 10
4.80051913
 20
2.21696398
  0
VERTEX
  8
0
 10
4.43459759
 20
2.47717627
  0
VERTEX
  8
0
 10
4.08201811
 20
2.75424915
  0
VERTEX
  8
0
 10
3.74336710
 20
3.04759620
  0
VERTEX
  8
0
 10
3.41923099
 20
3.35663099
  0
VERTEX
  8
0
 10
3.11019620
 20
3.68076710
  0
VERTEX
  8
0
 10
2.81684915
 20
4.01941811
  0
VERTEX
  8
0
 10
2.53977627
 20
4.37199759
  0
VERTEX
  8
0
 10
2.27956398
 20
4.73791913
  0
VERTEX
  8
0
 10
2.03679869
 20
5.11659630
  0
VERTEX
  8
0
 10
1.81206684
 20
5.50744267
  0
VERTEX
  8
0
 10
1.60595484
 20
5.90987184
  0
VERTEX
  8
0
 10
1.41904912
 20
6.32329736
  0
VERTEX
  8
0
 10
1.25193610
 20
6.74713283
  0
VERTEX
  8
0
 10
1.10520220
 20
7.18079182
  0
VERTEX
  8
0
 10
0.97943384
 20
7.62368790
  0
VERTEX
  8
0
 10
0.87521745
 20
8.07523466
  0
VERTEX
  8
0
 10
0.79313945
 20
8.53484568
  0
VERTEX
  8
0
 10
0.73378626
 20
9.00193452
  0
VERTEX
  8
0
 10
0.69774430
 20
9.47591477
  0
VERTEX
  8
0
 10
0.68560000
 20
9.95620000
  0
SEQEND
  0
POLYLINE
  8
Default_Layer
 66
   1
 39
0.000000
 70
    1
  0
VERTEX
  8
0
 10
3.06019722
 20
4.94847399
 42
-0.06334277
  0
VERTEX
  8
0
 10
2.82285127
 20
5.10341046
 42
-0.01913684
  0
VERTEX
  8
0
 10
2.71083711
 20
5.34717467
 42
-0.31012744
  0
VERTEX
  8
0
 10
2.74856100
 20
5.39366859
 42
0.02691660
  0
VERTEX
  8
0
 10
3.01567776
 20
5.08203237
  0
VERTEX
  8
0
 10
3.10471668
 20
5.08203237
 42
0.22412265
  0
VERTEX
  8
0
 10
3.22623230
 20
4.93246894
 42
-0.29954868
  0
VERTEX
  8
0
 10
3.23827506
 20
4.81491561
 42
-0.43108566
  0
VERTEX
  8
0
 10
3.14126301
 20
4.84361032
 42
0.07552543
  0
VERTEX
  8
0
 10
3.06019722
 20
4.94847399
  0
SEQEND
  0
POLYLINE
  8
Default_Layer
 66
   1
 39
0.000000
 70
    1
  0
VERTEX
  8
0
 10
3.02505276
 20
7.50247768
 42
0.42287960
  0
VERTEX
  8
0
 10
2.98053330
 20
7.59151660
  0
VERTEX
  8
0
 10
2.98053330
 20
7.19084146
  0
VERTEX
  8
0
 10
2.95608539
 20
7.11156362
  0
VERTEX
  8
0
 10
2.93939373
 20
7.17844638
  0
VERTEX
  8
0
 10
2.93601384
 20
7.41343876
 42
-0.24309638
  0
VERTEX
  8
0
 10
2.91086789
 20
7.65348182
 42
-0.12285409
  0
VERTEX
  8
0
 10
3.02505276
 20
7.85863336
 42
-0.18348503
  0
VERTEX
  8
0
 10
3.07067925
 20
7.56753075
 42
-0.23769805
  0
VERTEX
  8
0
 10
3.02505276
 20
7.50247768
  0
SEQEND
  0
POLYLINE
  8
Default_Layer
 66
   1
 39
0.000000
 70
    1
  0
VERTEX
  8
0
 10
2.71341654
 20
7.17209146
 42
0.11963005
  0
VERTEX
  8
0
 10
2.84697492
 20
6.99401362
 42
0.04812224
  0
VERTEX
  8
0
 10
2.91614456
 20
6.80494696
 42
-0.52568322
  0
VERTEX
  8
0
 10
2.89149438
 20
6.77141632
 42
0.42945105
  0
VERTEX
  8
0
 10
2.80245546
 20
6.81593578
 42
0.22020450
  0
VERTEX
  8
0
 10
2.66889708
 20
6.94949416
 42
0.14847875
  0
VERTEX
  8
0
 10
2.53533870
 20
7.17209146
 42
-0.20257411
  0
VERTEX
  8
0
 10
2.48173939
 20
7.01254466
 42
-0.24517731
  0
VERTEX
  8
0
 10
2.40178032
 20
6.99401362
 42
-0.04447343
  0
VERTEX
  8
0
 10
2.41873031
 20
7.45642685
 42
-0.10480343
  0
VERTEX
  8
0
 10
2.49081924
 20
7.61728606
 42
0.10726216
  0
VERTEX
  8
0
 10
2.71341654
 20
7.17209146
  0
SEQEND
  0
POLYLINE
  8
Default_Layer
 66
   1
 39
0.000000
 70
    1
  0
VERTEX
  8
0
 10
3.41635290
 20
7.07603308
 42
-0.12735510
  0
VERTEX
  8
0
 10
3.46932802
 20
6.82190652
 42
-0.20957374
  0
VERTEX
  8
0
 10
3.41635290
 20
6.76439686
 42
0.13041081
  0
VERTEX
  8
0
 10
3.32731398
 20
6.89795524
 42
-0.09792928
  0
VERTEX
  8
0
 10
3.14923614
 20
6.63083848
 42
-0.09223446
  0
VERTEX
  8
0
 10
3.31547696
 20
7.14923127
 42
0.12734604
  0
VERTEX
  8
0
 10
3.32050504
 20
7.32354762
 42
-0.30489973
  0
VERTEX
  8
0
 10
3.37183344
 20
7.43218876
 42
-0.03500193
  0
VERTEX
  8
0
 10
3.41635290
 20
7.07603308
  0
SEQEND
  0
POLYLINE
  8
Default_Layer
 66
   1
 39
0.000000
 70
    1
  0
VERTEX
  8
0
 10
3.92481696
 20
6.30045226
 42
-0.04676540
  0
VERTEX
  8
0
 10
3.87489482
 20
5.59323473
 42
-0.40652463
  0
VERTEX
  8
0
 10
3.83577804
 20
5.54362144
 42
-0.14180870
  0
VERTEX
  8
0
 10
3.83577804
 20
6.38949118
 42
-0.10859889
  0
VERTEX
  8
0
 10
3.79125858
 20
6.83468578
 42
0.09335853
  0
VERTEX
  8
0
 10
3.88029750
 20
6.92372470
 42
0.06820780
  0
VERTEX
  8
0
 10
3.92481696
 20
6.30045226
  0
SEQEND
  0
POLYLINE
  8
Default_Layer
 66
   1
 39
0.000000
 70
    1
  0
VERTEX
  8
0
 10
2.67827208
 20
6.33559672
  0
VERTEX
  8
0
 10
3.21250560
 20
5.80136320
 42
-0.23963107
  0
VERTEX
  8
0
 10
3.45852671
 20
5.61238980
 42
0.28154101
  0
VERTEX
  8
0
 10
3.56866128
 20
5.57876590
  0
VERTEX
  8
0
 10
3.65732278
 20
5.39844620
 42
-0.32193108
  0
VERTEX
  8
0
 10
3.61318074
 20
5.35616859
 42
0.01312591
  0
VERTEX
  8
0
 10
2.94538884
 20
5.89040212
  0
VERTEX
  8
0
 10
2.49780802
 20
6.38759028
 42
0.06454790
  0
VERTEX
  8
0
 10
2.32211640
 20
6.51367456
 42
0.10761200
  0
VERTEX
  8
0
 10
2.31515302
 20
6.67921236
 42
-0.34565457
  0
VERTEX
  8
0
 10
2.29623566
 20
6.71047562
 42
-0.34565457
  0
VERTEX
  8
0
 10
2.32211640
 20
6.73627186
 42
0.11745257
  0
VERTEX
  8
0
 10
2.67827208
 20
6.33559672
  0
SEQEND
  0
POLYLINE
  8
Default_Layer
 66
   1
 39
0.000000
 70
    1
  0
VERTEX
  8
0
 10
4.08414480
 20
5.74982428
 42
-0.24359949
  0
VERTEX
  8
0
 10
4.05259695
 20
6.01810491
 42
0.02815161
  0
VERTEX
  8
0
 10
4.09715926
 20
6.39397771
 42
-0.39590977
  0
VERTEX
  8
0
 10
4.12271542
 20
6.39832886
 42
-0.39590977
  0
VERTEX
  8
0
 10
4.12866426
 20
6.37309672
 42
-0.09220739
  0
VERTEX
  8
0
 10
4.15052007
 20
5.88174919
 42
-0.11345139
  0
VERTEX
  8
0
 10
4.08414480
 20
5.74982428
  0
SEQEND
  0
POLYLINE
  8
Default_Layer
 66
   1
 39
0.000000
 70
    1
  0
VERTEX
  8
0
 10
2.74154154
 20
5.72871874
 42
0.07247328
  0
VERTEX
  8
0
 10
2.93522938
 20
5.41102519
 42
0.19342290
  0
VERTEX
  8
0
 10
3.05317776
 20
5.37256305
 42
0.23046201
  0
VERTEX
  8
0
 10
3.27812534
 20
5.18301904
 42
-0.17095248
  0
VERTEX
  8
0
 10
3.36481398
 20
5.06092683
 42
-0.27727467
  0
VERTEX
  8
0
 10
3.14221668
 20
5.19448521
  0
VERTEX
  8
0
 10
3.05317776
 20
5.19448521
 42
-0.04365194
  0
VERTEX
  8
0
 10
2.54377861
 20
5.82006735
 42
-0.38315014
  0
VERTEX
  8
0
 10
2.54095689
 20
5.86153053
 42
-0.38315014
  0
VERTEX
  8
0
 10
2.58188007
 20
5.86877278
 42
-0.16339145
  0
VERTEX
  8
0
 10
2.74154154
 20
5.72871874
  0
SEQEND
  0
POLYLINE
  8
Default_Layer
 66
   1
 39
0.000000
 70
    1
  0
VERTEX
  8
0
 10
3.41610814
 20
4.75138584
 42
-0.05124040
  0
VERTEX
  8
0
 10
3.46111727
 20
4.98359487
  0
VERTEX
  8
0
 10
3.53323463
 20
5.09402854
  0
VERTEX
  8
0
 10
3.62042153
 20
5.18977413
 42
-0.03985449
  0
VERTEX
  8
0
 10
3.65319866
 20
5.22023109
  0
VERTEX
  8
0
 10
3.89223758
 20
5.35614501
  0
VERTEX
  8
0
 10
4.05154184
 20
5.48501590
  0
VERTEX
  8
0
 10
4.16870576
 20
5.54827357
 42
-0.00496787
  0
VERTEX
  8
0
 10
4.45140651
 20
5.76805718
 42
-0.00066848
  0
VERTEX
  8
0
 10
4.48969340
 20
5.78963266
 42
0.03438068
  0
VERTEX
  8
0
 10
4.53421286
 20
5.81305837
 42
-0.01493653
  0
VERTEX
  8
0
 10
4.56748353
 20
5.83491433
 42
-0.06689054
  0
VERTEX
  8
0
 10
4.92082551
 20
6.04035496
 42
-0.05718311
  0
VERTEX
  8
0
 10
5.13404781
 20
6.07083550
  0
VERTEX
  8
0
 10
5.22544227
 20
6.04742158
  0
VERTEX
  8
0
 10
5.29104369
 20
5.99117158
 42
-0.09674417
  0
VERTEX
  8
0
 10
5.42066278
 20
5.86090133
 42
-0.11615986
  0
VERTEX
  8
0
 10
5.54528161
 20
5.68540652
 42
-0.05710047
  0
VERTEX
  8
0
 10
5.56635384
 20
5.63515625
 42
-0.00844815
  0
VERTEX
  8
0
 10
5.58881168
 20
5.59469968
 42
-0.08113082
  0
VERTEX
  8
0
 10
5.63266171
 20
5.41459015
 42
-0.21316237
  0
VERTEX
  8
0
 10
5.51364099
 20
5.03518095
 42
-0.23712344
  0
VERTEX
  8
0
 10
5.17101768
 20
4.97541750
 42
-0.21524930
  0
VERTEX
  8
0
 10
4.97940747
 20
5.05626291
 42
-0.14069888
  0
VERTEX
  8
0
 10
4.80132962
 20
5.32337967
 42
-0.09702687
  0
VERTEX
  8
0
 10
5.02392693
 20
5.41241859
 42
0.17719133
  0
VERTEX
  8
0
 10
5.14008202
 20
5.50740866
 42
0.09317504
  0
VERTEX
  8
0
 10
5.16172241
 20
5.57852228
 42
0.33425459
  0
VERTEX
  8
0
 10
5.10172184
 20
5.69868988
 42
0.33450284
  0
VERTEX
  8
0
 10
4.93488801
 20
5.72405482
  0
VERTEX
  8
0
 10
5.05654941
 20
5.62511163
 42
-0.28626760
  0
VERTEX
  8
0
 10
5.06844639
 20
5.50145751
 42
0.13205010
  0
VERTEX
  8
0
 10
4.80132962
 20
5.36789913
 42
-0.13622110
  0
VERTEX
  8
0
 10
4.75526266
 20
5.62052998
 42
-0.14151180
  0
VERTEX
  8
0
 10
4.88470465
 20
5.69696310
 42
0.45292331
  0
VERTEX
  8
0
 10
4.79505971
 20
5.72263893
 42
-0.04406218
  0
VERTEX
  8
0
 10
4.51458031
 20
5.58118022
 42
0.00799115
  0
VERTEX
  8
0
 10
4.50991150
 20
5.57328879
 42
0.24688195
  0
VERTEX
  8
0
 10
4.50078748
 20
5.30642737
  0
VERTEX
  8
0
 10
4.61186399
 20
5.10577323
 42
0.03638883
  0
VERTEX
  8
0
 10
4.71229070
 20
4.96018095
 42
-0.09473195
  0
VERTEX
  8
0
 10
4.89505604
 20
4.70948223
 42
-0.06609226
  0
VERTEX
  8
0
 10
4.94054295
 20
4.72629307
  0
VERTEX
  8
0
 10
4.99376788
 20
4.65470098
  0
VERTEX
  8
0
 10
5.03797346
 20
4.59807405
  0
VERTEX
  8
0
 10
5.13063259
 20
4.48657611
  0
VERTEX
  8
0
 10
5.33250008
 20
4.27090647
  0
VERTEX
  8
0
 10
5.55867252
 20
4.06293110
  0
VERTEX
  8
0
 10
5.79886481
 20
3.87128056
  0
VERTEX
  8
0
 10
6.06484537
 20
3.68638622
  0
VERTEX
  8
0
 10
6.34190840
 20
3.51849844
  0
VERTEX
  8
0
 10
6.64336295
 20
3.35952969
  0
VERTEX
  8
0
 10
6.95344053
 20
3.21803268
  0
VERTEX
  8
0
 10
7.28794086
 20
3.08710225
  0
VERTEX
  8
0
 10
7.62894626
 20
2.97422487
  0
VERTEX
  8
0
 10
7.97530970
 20
2.87887970
  0
VERTEX
  8
0
 10
8.32588415
 20
2.80054589
  0
VERTEX
  8
0
 10
8.70779047
 20
2.73464561
  0
VERTEX
  8
0
 10
9.09249842
 20
2.68764705
  0
VERTEX
  8
0
 10
9.48981263
 20
2.65862184
  0
VERTEX
  8
0
 10
9.69152352
 20
2.65125995
  0
VERTEX
  8
0
 10
9.89510000
 20
2.64880000
  0
VERTEX
  8
0
 10
10.07241044
 20
2.65066019
  0
VERTEX
  8
0
 10
10.24831976
 20
2.65625155
  0
VERTEX
  8
0
 10
10.56115737
 20
2.67547327
  0
VERTEX
  8
0
 10
11.17042914
 20
2.74810465
  0
VERTEX
  8
0
 10
11.74543614
 20
2.86194426
  0
VERTEX
  8
0
 10
12.30957906
 20
3.02094146
  0
VERTEX
  8
0
 10
12.42341047
 20
3.05925798
  0
VERTEX
  8
0
 10
12.51398521
 20
3.09136055
  0
VERTEX
  8
0
 10
12.67135198
 20
3.15065962
  0
VERTEX
  8
0
 10
12.84925026
 20
3.22335314
  0
VERTEX
  8
0
 10
13.02482390
 20
3.30142404
  0
VERTEX
  8
0
 10
13.48551003
 20
3.53978330
  0
VERTEX
  8
0
 10
13.92161458
 20
3.82037477
  0
VERTEX
  8
0
 10
14.30463460
 20
4.12692765
  0
VERTEX
  8
0
 10
14.48255744
 20
4.29580997
  0
VERTEX
  8
0
 10
14.64976689
 20
4.47534666
  0
VERTEX
  8
0
 10
14.85279387
 20
4.73063094
 42
-0.13345655
  0
VERTEX
  8
0
 10
14.94707905
 20
4.70948223
 42
-0.09473195
  0
VERTEX
  8
0
 10
15.12984439
 20
4.96018095
 42
0.03638883
  0
VERTEX
  8
0
 10
15.23027110
 20
5.10577323
  0
VERTEX
  8
0
 10
15.34134761
 20
5.30642737
 42
0.25537692
  0
VERTEX
  8
0
 10
15.32755478
 20
5.58118022
 42
-0.00603103
  0
VERTEX
  8
0
 10
15.28772896
 20
5.59760266
 42
-0.03802105
  0
VERTEX
  8
0
 10
15.04707538
 20
5.72263893
 42
0.45292331
  0
VERTEX
  8
0
 10
14.95743044
 20
5.69696310
 42
-0.14151180
  0
VERTEX
  8
0
 10
15.08687243
 20
5.62052998
 42
-0.13622110
  0
VERTEX
  8
0
 10
15.04080547
 20
5.36789913
 42
0.13205010
  0
VERTEX
  8
0
 10
14.77368871
 20
5.50145751
 42
-0.28626760
  0
VERTEX
  8
0
 10
14.78558568
 20
5.62511163
  0
VERTEX
  8
0
 10
14.90724709
 20
5.72405482
 42
0.33450284
  0
VERTEX
  8
0
 10
14.74041325
 20
5.69868988
 42
0.33425459
  0
VERTEX
  8
0
 10
14.68041268
 20
5.57852228
 42
0.09317504
  0
VERTEX
  8
0
 10
14.70205307
 20
5.50740866
 42
0.17719133
  0
VERTEX
  8
0
 10
14.81820817
 20
5.41241859
 42
-0.09702687
  0
VERTEX
  8
0
 10
15.04080547
 20
5.32337967
 42
-0.14069888
  0
VERTEX
  8
0
 10
14.86272763
 20
5.05626291
 42
-0.21524930
  0
VERTEX
  8
0
 10
14.67111741
 20
4.97541750
 42
-0.23712344
  0
VERTEX
  8
0
 10
14.32849410
 20
5.03518095
 42
-0.21316237
  0
VERTEX
  8
0
 10
14.20947338
 20
5.41459015
 42
-0.08113082
  0
VERTEX
  8
0
 10
14.25332341
 20
5.59469968
 42
-0.00844815
  0
VERTEX
  8
0
 10
14.27578125
 20
5.63515625
 42
-0.05710047
  0
VERTEX
  8
0
 10
14.29685348
 20
5.68540652
 42
-0.11615986
  0
VERTEX
  8
0
 10
14.42147232
 20
5.86090133
 42
-0.09674417
  0
VERTEX
  8
0
 10
14.55109141
 20
5.99117158
  0
VERTEX
  8
0
 10
14.61669283
 20
6.04742158
  0
VERTEX
  8
0
 10
14.68464979
 20
6.08021050
 42
-0.05718311
  0
VERTEX
  8
0
 10
14.90724709
 20
6.12472996
 42
-0.13445155
  0
VERTEX
  8
0
 10
15.27465156
 20
5.95678933
 42
-0.04399431
  0
VERTEX
  8
0
 10
15.30792223
 20
5.93376149
 42
-0.05107280
  0
VERTEX
  8
0
 10
15.35244169
 20
5.90213266
  0
VERTEX
  8
0
 10
15.35839293
 20
5.89717551
 42
0.06990028
  0
VERTEX
  8
0
 10
15.75311683
 20
5.65374232
  0
VERTEX
  8
0
 10
15.84215575
 20
5.61157840
  0
VERTEX
  8
0
 10
16.09989751
 20
5.46864501
  0
VERTEX
  8
0
 10
16.19831143
 20
5.41241859
 42
-0.03985449
  0
VERTEX
  8
0
 10
16.32249481
 20
5.34914913
  0
VERTEX
  8
0
 10
16.51929907
 20
5.10078237
 42
-0.05124040
  0
VERTEX
  8
0
 10
16.65102695
 20
4.93185459
 42
-0.06378444
  0
VERTEX
  8
0
 10
16.69262080
 20
4.74902478
  0
VERTEX
  8
0
 10
16.64991745
 20
4.50405197
  0
VERTEX
  8
0
 10
16.54204912
 20
4.23017558
  0
VERTEX
  8
0
 10
16.33729756
 20
3.91960479
  0
VERTEX
  8
0
 10
16.05637537
 20
3.59794320
  0
VERTEX
  8
0
 10
15.92530391
 20
3.46413195
  0
VERTEX
  8
0
 10
15.77242966
 20
3.31487940
  0
VERTEX
  8
0
 10
15.45000521
 20
3.02166692
  0
VERTEX
  8
0
 10
15.11274523
 20
2.74284314
  0
VERTEX
  8
0
 10
14.76269652
 20
2.48026628
  0
VERTEX
  8
0
 10
14.26619876
 20
2.14996190
  0
VERTEX
  8
0
 10
13.74871413
 20
1.85370405
  0
VERTEX
  8
0
 10
13.33334063
 20
1.64889605
  0
VERTEX
  8
0
 10
12.90708159
 20
1.46779337
  0
VERTEX
  8
0
 10
12.47102385
 20
1.31195085
  0
VERTEX
  8
0
 10
12.02625427
 20
1.18292337
  0
VERTEX
  8
0
 10
11.55402790
 20
1.07846851
  0
VERTEX
  8
0
 10
11.07580526
 20
1.00648654
  0
VERTEX
  8
0
 10
10.57023612
 20
0.96728701
  0
VERTEX
  8
0
 10
10.31361359
 20
0.96192600
  0
VERTEX
  8
0
 10
10.19878403
 20
0.96270790
  0
VERTEX
  8
0
 10
10.05460000
 20
0.96650000
  0
VERTEX
  8
0
 10
9.59577806
 20
0.96525608
  0
VERTEX
  8
0
 10
9.14482205
 20
0.99458951
  0
VERTEX
  8
0
 10
8.70243815
 20
1.05268254
  0
VERTEX
  8
0
 10
8.26933254
 20
1.13771743
  0
VERTEX
  8
0
 10
7.84621142
 20
1.24787644
  0
VERTEX
  8
0
 10
7.43378097
 20
1.38134183
  0
VERTEX
  8
0
 10
7.03274738
 20
1.53629585
  0
VERTEX
  8
0
 10
6.64381684
 20
1.71092076
  0
VERTEX
  8
0
 10
6.26769553
 20
1.90339883
  0
VERTEX
  8
0
 10
5.90508964
 20
2.11191230
  0
VERTEX
  8
0
 10
5.55670536
 20
2.33464345
  0
VERTEX
  8
0
 10
5.22324887
 20
2.56977451
  0
VERTEX
  8
0
 10
4.90542637
 20
2.81548776
  0
VERTEX
  8
0
 10
4.60394404
 20
3.06996546
  0
VERTEX
  8
0
 10
4.31950806
 20
3.33138985
  0
VERTEX
  8
0
 10
4.05282463
 20
3.59794320
  0
VERTEX
  8
0
 10
3.77190244
 20
3.91960479
  0
VERTEX
  8
0
 10
3.56715088
 20
4.23017558
  0
VERTEX
  8
0
 10
3.45926926
 20
4.50422509
  0
VERTEX
  8
0
 10
3.41647287
 20
4.75040975
  0
VERTEX
  8
0
 10
3.41610814
 20
4.75138584
  0
SEQEND
  0
POLYLINE
  8
Default_Layer
 66
   1
 39
0.000000
 70
    1
  0
VERTEX
  8
0
 10
4.75902180
 20
4.95549345
 42
-0.09874051
  0
VERTEX
  8
0
 10
4.63371377
 20
5.14667189
 42
-0.06588722
  0
VERTEX
  8
0
 10
4.55790729
 20
5.28327577
 42
-0.47362592
  0
VERTEX
  8
0
 10
4.72387734
 20
5.56705894
 42
0.27783925
  0
VERTEX
  8
0
 10
5.08003302
 20
4.94378649
 42
0.08193784
  0
VERTEX
  8
0
 10
5.18284713
 20
4.91938562
 42
-0.30632144
  0
VERTEX
  8
0
 10
5.25811087
 20
4.85474757
 42
0.07857330
  0
VERTEX
  8
0
 10
5.03470697
 20
4.76794990
 42
-0.13495210
  0
VERTEX
  8
0
 10
4.90195518
 20
4.76570865
 42
-0.04330027
  0
VERTEX
  8
0
 10
4.75902180
 20
4.95549345
  0
SEQEND
  0
POLYLINE
  8
Default_Layer
 66
   1
 39
0.000000
 70
    1
  0
VERTEX
  8
0
 10
4.86501439
 20
6.09812018
  0
VERTEX
  8
0
 10
4.26596786
 20
5.71301884
 42
-0.20469490
  0
VERTEX
  8
0
 10
4.21414863
 20
5.89661456
 42
0.09971441
  0
VERTEX
  8
0
 10
4.13240948
 20
6.60340805
 42
0.21429769
  0
VERTEX
  8
0
 10
3.99885110
 20
6.29177183
 42
-0.36511241
  0
VERTEX
  8
0
 10
3.95727079
 20
6.36072493
 42
0.06426210
  0
VERTEX
  8
0
 10
3.87707399
 20
7.08313553
 42
0.36442820
  0
VERTEX
  8
0
 10
3.77625379
 20
7.13764157
 42
-0.12382834
  0
VERTEX
  8
0
 10
3.59817595
 20
6.38081075
  0
VERTEX
  8
0
 10
3.56616405
 20
6.40468540
 42
0.03416090
  0
VERTEX
  8
0
 10
3.37557865
 20
7.62735563
 42
0.17229784
  0
VERTEX
  8
0
 10
3.28576095
 20
7.38327738
 42
-0.03368452
  0
VERTEX
  8
0
 10
3.24202027
 20
7.09312211
 42
-0.21419519
  0
VERTEX
  8
0
 10
3.11280897
 20
7.56430519
 42
0.09788868
  0
VERTEX
  8
0
 10
3.06394243
 20
8.11706969
 42
0.07289566
  0
VERTEX
  8
0
 10
2.95407330
 20
7.93757069
 42
0.03257781
  0
VERTEX
  8
0
 10
2.75230621
 20
7.27119995
 42
-0.12783597
  0
VERTEX
  8
0
 10
2.57839125
 20
7.51960153
 42
0.03994885
  0
VERTEX
  8
0
 10
2.44066999
 20
7.80543347
 42
0.15820084
  0
VERTEX
  8
0
 10
2.40999833
 20
7.78302523
 42
0.20490020
  0
VERTEX
  8
0
 10
2.39935012
 20
7.73581363
 42
0.01787069
  0
VERTEX
  8
0
 10
2.34866150
 20
7.08088392
 42
0.06020902
  0
VERTEX
  8
0
 10
2.39615053
 20
6.78148589
 42
-0.66109592
  0
VERTEX
  8
0
 10
2.34863973
 20
6.75531670
  0
VERTEX
  8
0
 10
2.22152777
 20
6.89623025
 42
0.65793484
  0
VERTEX
  8
0
 10
2.17355323
 20
6.87052481
 42
0.15029829
  0
VERTEX
  8
0
 10
2.57422837
 20
5.98013561
 42
-0.65990132
  0
VERTEX
  8
0
 10
2.48549861
 20
5.94755095
 42
-0.15592379
  0
VERTEX
  8
0
 10
2.39615053
 20
6.02465507
 42
0.34563997
  0
VERTEX
  8
0
 10
2.34981374
 20
5.99655955
 42
0.34563997
  0
VERTEX
  8
0
 10
2.36610744
 20
5.94487811
 42
-0.10093114
  0
VERTEX
  8
0
 10
2.54678062
 20
5.67143827
 42
0.04138712
  0
VERTEX
  8
0
 10
2.66326729
 20
5.53494100
  0
VERTEX
  8
0
 10
2.64541404
 20
5.49488390
 42
0.29291442
  0
VERTEX
  8
0
 10
2.48518945
 20
5.53494100
  0
VERTEX
  8
0
 10
2.63835952
 20
5.30907733
 42
-0.10568214
  0
VERTEX
  8
0
 10
2.75230621
 20
5.04522694
 42
-0.13154744
  0
VERTEX
  8
0
 10
3.06701399
 20
4.79265620
 42
0.05619030
  0
VERTEX
  8
0
 10
3.14954586
 20
4.72438980
  0
VERTEX
  8
0
 10
3.39665703
 20
4.29758769
  0
VERTEX
  8
0
 10
3.67507011
 20
3.88896405
  0
VERTEX
  8
0
 10
3.98334769
 20
3.49981002
  0
VERTEX
  8
0
 10
4.32005236
 20
3.13141670
  0
VERTEX
  8
0
 10
4.68374668
 20
2.78507521
  0
VERTEX
  8
0
 10
5.07299325
 20
2.46207668
  0
VERTEX
  8
0
 10
5.48635464
 20
2.16371222
  0
VERTEX
  8
0
 10
5.92239343
 20
1.89127295
  0
VERTEX
  8
0
 10
6.37967221
 20
1.64604999
  0
VERTEX
  8
0
 10
6.85675356
 20
1.42933446
  0
VERTEX
  8
0
 10
7.35220004
 20
1.24241748
  0
VERTEX
  8
0
 10
7.86457426
 20
1.08659017
  0
VERTEX
  8
0
 10
8.39243878
 20
0.96314365
  0
VERTEX
  8
0
 10
8.93435619
 20
0.87336904
  0
VERTEX
  8
0
 10
9.48888907
 20
0.81855745
  0
VERTEX
  8
0
 10
10.05460000
 20
0.80000000
  0
VERTEX
  8
0
 10
10.27651256
 20
0.80283307
  0
VERTEX
  8
0
 10
10.47245444
 20
0.81010088
  0
VERTEX
  8
0
 10
10.88444406
 20
0.84007478
  0
VERTEX
  8
0
 10
11.28790622
 20
0.88909037
  0
VERTEX
  8
0
 10
11.68852574
 20
0.95753402
  0
VERTEX
  8
0
 10
12.07433114
 20
1.04272052
  0
VERTEX
  8
0
 10
12.45562937
 20
1.14627126
  0
VERTEX
  8
0
 10
12.83148566
 20
1.26807103
  0
VERTEX
  8
0
 10
13.20096525
 20
1.40800462
  0
VERTEX
  8
0
 10
13.55199535
 20
1.56076251
  0
VERTEX
  8
0
 10
13.89528256
 20
1.73021265
  0
VERTEX
  8
0
 10
14.22992941
 20
1.91611358
  0
VERTEX
  8
0
 10
14.55503843
 20
2.11822386
  0
VERTEX
  8
0
 10
14.86184725
 20
2.33055597
  0
VERTEX
  8
0
 10
15.15785070
 20
2.55770783
  0
VERTEX
  8
0
 10
15.44215637
 20
2.79930805
  0
VERTEX
  8
0
 10
15.71387183
 20
3.05498523
  0
VERTEX
  8
0
 10
16.20679033
 20
3.57474754
  0
VERTEX
  8
0
 10
16.43151978
 20
3.84514619
  0
VERTEX
  8
0
 10
16.64058968
 20
4.12884158
  0
VERTEX
  8
0
 10
16.88140188
 20
4.56077855
  0
VERTEX
  8
0
 10
17.11958738
 20
4.93065800
 42
-0.04496273
  0
VERTEX
  8
0
 10
17.20935307
 20
5.04522694
 42
-0.10568214
  0
VERTEX
  8
0
 10
17.32329976
 20
5.30907733
  0
VERTEX
  8
0
 10
17.47646983
 20
5.53494100
 42
0.29291442
  0
VERTEX
  8
0
 10
17.31624525
 20
5.49488390
  0
VERTEX
  8
0
 10
17.31043368
 20
5.50792323
  0
VERTEX
  8
0
 10
17.31042055
 20
5.50795269
  0
VERTEX
  8
0
 10
17.29839199
 20
5.53494100
 42
0.01167567
  0
VERTEX
  8
0
 10
17.33353638
 20
5.57148765
 42
0.02969710
  0
VERTEX
  8
0
 10
17.41487867
 20
5.67143827
 42
-0.10093114
  0
VERTEX
  8
0
 10
17.59555185
 20
5.94487811
 42
0.34563997
  0
VERTEX
  8
0
 10
17.61184554
 20
5.99655955
 42
0.34563997
  0
VERTEX
  8
0
 10
17.56550875
 20
6.02465507
 42
-0.15592379
  0
VERTEX
  8
0
 10
17.47616067
 20
5.94755095
 42
-0.14638102
  0
VERTEX
  8
0
 10
17.45064707
 20
5.93280819
  0
VERTEX
  8
0
 10
17.45063021
 20
5.93280418
 42
-0.46818252
  0
VERTEX
  8
0
 10
17.38743091
 20
5.98013561
 42
0.02863181
  0
VERTEX
  8
0
 10
17.50454737
 20
6.12980812
  0
VERTEX
  8
0
 10
17.50457314
 20
6.12984525
 42
0.12113826
  0
VERTEX
  8
0
 10
17.78810605
 20
6.87052481
 42
0.65793484
  0
VERTEX
  8
0
 10
17.74013151
 20
6.89623025
  0
VERTEX
  8
0
 10
17.63470693
 20
6.77935886
  0
VERTEX
  8
0
 10
17.63468754
 20
6.77933736
  0
VERTEX
  8
0
 10
17.61301955
 20
6.75531670
 42
-0.66109592
  0
VERTEX
  8
0
 10
17.56550875
 20
6.78148589
 42
0.06020902
  0
VERTEX
  8
0
 10
17.61299778
 20
7.08088392
 42
0.01787069
  0
VERTEX
  8
0
 10
17.56230916
 20
7.73581363
 42
0.37526541
  0
VERTEX
  8
0
 10
17.52098929
 20
7.80543347
 42
0.03994885
  0
VERTEX
  8
0
 10
17.38326803
 20
7.51960153
 42
-0.12783597
  0
VERTEX
  8
0
 10
17.20935307
 20
7.27119995
 42
0.03257781
  0
VERTEX
  8
0
 10
17.00758599
 20
7.93757069
 42
0.07289566
  0
VERTEX
  8
0
 10
16.89771685
 20
8.11706969
 42
0.09788868
  0
VERTEX
  8
0
 10
16.84885031
 20
7.56430519
 42
-0.21419519
  0
VERTEX
  8
0
 10
16.71963901
 20
7.09312211
 42
-0.03368452
  0
VERTEX
  8
0
 10
16.67589833
 20
7.38327738
 42
0.17229784
  0
VERTEX
  8
0
 10
16.58608063
 20
7.62735563
 42
0.03416090
  0
VERTEX
  8
0
 10
16.39549523
 20
6.40468540
  0
VERTEX
  8
0
 10
16.36348333
 20
6.38081075
 42
-0.12382834
  0
VERTEX
  8
0
 10
16.18540549
 20
7.13764157
 42
0.36442820
  0
VERTEX
  8
0
 10
16.08458530
 20
7.08313553
 42
0.06426210
  0
VERTEX
  8
0
 10
16.00438850
 20
6.36072493
 42
-0.36511241
  0
VERTEX
  8
0
 10
15.96280819
 20
6.29177183
 42
0.21429769
  0
VERTEX
  8
0
 10
15.82924981
 20
6.60340805
 42
0.09971441
  0
VERTEX
  8
0
 10
15.74751065
 20
5.89661456
 42
-0.20469490
  0
VERTEX
  8
0
 10
15.69569143
 20
5.71301884
  0
VERTEX
  8
0
 10
15.09727405
 20
6.09771573
  0
VERTEX
  8
0
 10
15.38896730
 20
6.51527246
  0
VERTEX
  8
0
 10
15.56990129
 20
6.81520599
  0
VERTEX
  8
0
 10
15.73417039
 20
7.12458117
  0
VERTEX
  8
0
 10
15.88127427
 20
7.44247472
  0
VERTEX
  8
0
 10
16.01071260
 20
7.76796334
  0
VERTEX
  8
0
 10
16.17865855
 20
8.29705431
  0
VERTEX
  8
0
 10
16.29994545
 20
8.83874792
  0
VERTEX
  8
0
 10
16.37477631
 20
9.39977100
  0
VERTEX
  8
0
 10
16.39380210
 20
9.68574472
  0
VERTEX
  8
0
 10
16.39860290
 20
9.82997895
  0
VERTEX
  8
0
 10
16.40020000
 20
9.97500000
  0
VERTEX
  8
0
 10
16.39184777
 20
10.30531574
  0
VERTEX
  8
0
 10
16.36705994
 20
10.63129524
  0
VERTEX
  8
0
 10
16.32623984
 20
10.95253517
  0
VERTEX
  8
0
 10
16.26979077
 20
11.26863224
  0
VERTEX
  8
0
 10
16.19811604
 20
11.57918312
  0
VERTEX
  8
0
 10
16.11161896
 20
11.88378451
  0
VERTEX
  8
0
 10
16.01070285
 20
12.18203309
  0
VERTEX
  8
0
 10
15.89577102
 20
12.47352556
  0
VERTEX
  8
0
 10
15.76722678
 20
12.75785860
  0
VERTEX
  8
0
 10
15.62547343
 20
13.03462890
  0
VERTEX
  8
0
 10
15.30395269
 20
13.56386803
  0
VERTEX
  8
0
 10
14.93443529
 20
14.05801647
  0
VERTEX
  8
0
 10
14.52014772
 20
14.51384772
  0
VERTEX
  8
0
 10
14.06431647
 20
14.92813529
  0
VERTEX
  8
0
 10
13.57016803
 20
15.29765269
  0
VERTEX
  8
0
 10
13.04092890
 20
15.61917343
  0
VERTEX
  8
0
 10
12.76415860
 20
15.76092678
  0
VERTEX
  8
0
 10
12.47982556
 20
15.88947102
  0
VERTEX
  8
0
 10
12.18833309
 20
16.00440285
  0
VERTEX
  8
0
 10
11.89008451
 20
16.10531896
  0
VERTEX
  8
0
 10
11.58548312
 20
16.19181604
  0
VERTEX
  8
0
 10
11.27493224
 20
16.26349077
  0
VERTEX
  8
0
 10
10.95883517
 20
16.31993984
  0
VERTEX
  8
0
 10
10.63759524
 20
16.36075994
  0
VERTEX
  8
0
 10
10.31161574
 20
16.38554777
  0
VERTEX
  8
0
 10
9.98130000
 20
16.39390000
  0
VERTEX
  8
0
 10
9.65098426
 20
16.38554777
  0
VERTEX
  8
0
 10
9.32500476
 20
16.36075994
  0
VERTEX
  8
0
 10
9.00376483
 20
16.31993984
  0
VERTEX
  8
0
 10
8.68766776
 20
16.26349077
  0
VERTEX
  8
0
 10
8.37711688
 20
16.19181604
  0
VERTEX
  8
0
 10
8.07251549
 20
16.10531896
  0
VERTEX
  8
0
 10
7.77426691
 20
16.00440285
  0
VERTEX
  8
0
 10
7.48277444
 20
15.88947102
  0
VERTEX
  8
0
 10
7.19844140
 20
15.76092678
  0
VERTEX
  8
0
 10
6.92167110
 20
15.61917343
  0
VERTEX
  8
0
 10
6.39243197
 20
15.29765269
  0
VERTEX
  8
0
 10
5.89828353
 20
14.92813529
  0
VERTEX
  8
0
 10
5.44245228
 20
14.51384772
  0
VERTEX
  8
0
 10
5.02816471
 20
14.05801647
  0
VERTEX
  8
0
 10
4.65864731
 20
13.56386803
  0
VERTEX
  8
0
 10
4.33712657
 20
13.03462890
  0
VERTEX
  8
0
 10
4.19537322
 20
12.75785860
  0
VERTEX
  8
0
 10
4.06682898
 20
12.47352556
  0
VERTEX
  8
0
 10
3.95189715
 20
12.18203309
  0
VERTEX
  8
0
 10
3.85098104
 20
11.88378451
  0
VERTEX
  8
0
 10
3.76448396
 20
11.57918312
  0
VERTEX
  8
0
 10
3.69280923
 20
11.26863224
  0
VERTEX
  8
0
 10
3.63636016
 20
10.95253517
  0
VERTEX
  8
0
 10
3.59554006
 20
10.63129524
  0
VERTEX
  8
0
 10
3.57075223
 20
10.30531574
  0
VERTEX
  8
0
 10
3.56240000
 20
9.97500000
  0
VERTEX
  8
0
 10
3.58484189
 20
9.43441098
  0
VERTEX
  8
0
 10
3.65097410
 20
8.90623498
  0
VERTEX
  8
0
 10
3.75900647
 20
8.39226251
  0
VERTEX
  8
0
 10
3.90714881
 20
7.89428406
  0
VERTEX
  8
0
 10
4.09361095
 20
7.41409010
  0
VERTEX
  8
0
 10
4.31660271
 20
6.95347115
  0
VERTEX
  8
0
 10
4.57433391
 20
6.51421768
  0
VERTEX
  8
0
 10
4.86501439
 20
6.09812018
  0
SEQEND
  0
POLYLINE
  8
Default_Layer
 66
   1
 39
0.000000
 70
    1
  0
VERTEX
  8
0
 10
4.09269617
 20
11.95677924
  0
VERTEX
  8
0
 10
8.67452266
 20
11.95677924
 42
-0.00923377
  0
VERTEX
  8
0
 10
9.29779510
 20
14.00467441
 42
-0.16184535
  0
VERTEX
  8
0
 10
9.34231456
 20
14.04919387
  0
VERTEX
  8
0
 10
9.47587294
 20
14.58342739
  0
VERTEX
  8
0
 10
9.74900898
 20
15.39856950
 42
0.03633405
  0
VERTEX
  8
0
 10
9.96408611
 20
16.22249199
  0
VERTEX
  8
0
 10
9.45862737
 20
16.19400108
  0
VERTEX
  8
0
 10
8.96448586
 20
16.12662683
  0
VERTEX
  8
0
 10
8.48319353
 20
16.02189807
  0
VERTEX
  8
0
 10
8.01628230
 20
15.88134363
  0
VERTEX
  8
0
 10
7.56528410
 20
15.70649232
  0
VERTEX
  8
0
 10
7.13173087
 20
15.49887298
  0
VERTEX
  8
0
 10
6.71715453
 20
15.26001443
  0
VERTEX
  8
0
 10
6.32308701
 20
14.99144550
  0
VERTEX
  8
0
 10
5.95106025
 20
14.69469501
  0
VERTEX
  8
0
 10
5.60260617
 20
14.37129178
  0
VERTEX
  8
0
 10
5.27925671
 20
14.02276465
  0
VERTEX
  8
0
 10
4.98254379
 20
13.65064243
  0
VERTEX
  8
0
 10
4.71399934
 20
13.25645395
  0
VERTEX
  8
0
 10
4.47515531
 20
12.84172805
  0
VERTEX
  8
0
 10
4.26754361
 20
12.40799354
  0
VERTEX
  8
0
 10
4.09269617
 20
11.95677924
  0
SEQEND
  0
POLYLINE
  8
Default_Layer
 66
   1
 39
0.000000
 70
    1
  0
VERTEX
  8
0
 10
10.09914539
 20
16.13458904
  0
VERTEX
  8
0
 10
10.09914539
 20
16.20561834
  0
VERTEX
  8
0
 10
10.59806005
 20
16.17798208
  0
VERTEX
  8
0
 10
11.08574233
 20
16.11185061
  0
VERTEX
  8
0
 10
11.56067386
 20
16.00874228
  0
VERTEX
  8
0
 10
12.02133621
 20
15.87017540
  0
VERTEX
  8
0
 10
12.46621100
 20
15.69766831
  0
VERTEX
  8
0
 10
12.89377983
 20
15.49273934
  0
VERTEX
  8
0
 10
13.30252429
 20
15.25690683
  0
VERTEX
  8
0
 10
13.69092600
 20
14.99168910
  0
VERTEX
  8
0
 10
14.05746654
 20
14.69860449
  0
VERTEX
  8
0
 10
14.40062753
 20
14.37917132
  0
VERTEX
  8
0
 10
14.71889056
 20
14.03490793
  0
VERTEX
  8
0
 10
15.01073724
 20
13.66733265
  0
VERTEX
  8
0
 10
15.27464917
 20
13.27796381
  0
VERTEX
  8
0
 10
15.50910794
 20
12.86831974
  0
VERTEX
  8
0
 10
15.71259516
 20
12.43991877
  0
VERTEX
  8
0
 10
15.88359244
 20
11.99427924
  0
VERTEX
  8
0
 10
11.43472919
 20
11.99427924
  0
VERTEX
  8
0
 10
10.09914539
 20
16.13458904
  0
SEQEND
  0
POLYLINE
  8
Default_Layer
 66
   1
 39
0.000000
 70
    1
  0
VERTEX
  8
0
 10
1.45400748
 20
8.80436093
  0
VERTEX
  8
0
 10
1.36126070
 20
8.80039480
  0
VERTEX
  8
0
 10
1.33774724
 20
9.35025070
  0
VERTEX
  8
0
 10
1.33591223
 20
9.67123151
  0
VERTEX
  8
0
 10
1.36270282
 20
9.87895019
  0
VERTEX
  8
0
 10
1.40052809
 20
9.98544431
  0
VERTEX
  8
0
 10
1.45383975
 20
10.08223054
  0
VERTEX
  8
0
 10
1.52263782
 20
10.16930889
  0
VERTEX
  8
0
 10
1.60692227
 20
10.24667934
  0
VERTEX
  8
0
 10
1.71291792
 20
10.31751174
  0
VERTEX
  8
0
 10
1.82758906
 20
10.36977235
  0
VERTEX
  8
0
 10
1.95093568
 20
10.40346118
  0
VERTEX
  8
0
 10
2.08295778
 20
10.41857822
  0
VERTEX
  8
0
 10
2.26290527
 20
10.40746880
  0
VERTEX
  8
0
 10
2.43176062
 20
10.35827604
  0
VERTEX
  8
0
 10
2.57896833
 20
10.27856812
  0
VERTEX
  8
0
 10
2.69627558
 20
10.17379939
  0
VERTEX
  8
0
 10
2.77084508
 20
10.06609693
  0
VERTEX
  8
0
 10
2.82254931
 20
9.93695295
  0
VERTEX
  8
0
 10
2.85345943
 20
9.79613482
  0
VERTEX
  8
0
 10
2.86785484
 20
9.65350432
  0
VERTEX
  8
0
 10
2.90151970
 20
8.86626083
  0
VERTEX
  8
0
 10
2.80877292
 20
8.86229470
  0
VERTEX
  8
0
 10
2.80603440
 20
8.92633415
  0
VERTEX
  8
0
 10
2.80624143
 20
8.94735980
  0
VERTEX
  8
0
 10
2.78684656
 20
9.01289926
  0
VERTEX
  8
0
 10
2.74107609
 20
9.04855099
  0
VERTEX
  8
0
 10
2.64358229
 20
9.05212490
  0
VERTEX
  8
0
 10
1.61343057
 20
9.00807257
  0
VERTEX
  8
0
 10
1.50128164
 20
8.99221527
  0
VERTEX
  8
0
 10
1.45592883
 20
8.94049922
  0
VERTEX
  8
0
 10
1.45400748
 20
8.80436093
  0
SEQEND
  0
POLYLINE
  8
Default_Layer
 66
   1
 39
0.000000
 70
    1
  0
VERTEX
  8
0
 10
2.76623863
 20
9.26200732
  0
VERTEX
  8
0
 10
2.75196250
 20
9.59585087
  0
VERTEX
  8
0
 10
2.72723104
 20
9.76031786
  0
VERTEX
  8
0
 10
2.67713489
 20
9.92299157
  0
VERTEX
  8
0
 10
2.62520818
 20
9.99267061
  0
VERTEX
  8
0
 10
2.55074128
 20
10.05917347
  0
VERTEX
  8
0
 10
2.45622573
 20
10.11596981
  0
VERTEX
  8
0
 10
2.34636134
 20
10.15662373
  0
VERTEX
  8
0
 10
2.21983877
 20
10.17942001
  0
VERTEX
  8
0
 10
2.07755695
 20
10.18273787
  0
VERTEX
  8
0
 10
1.93883812
 20
10.16740359
  0
VERTEX
  8
0
 10
1.82079626
 20
10.13414901
  0
VERTEX
  8
0
 10
1.71900307
 20
10.08306131
  0
VERTEX
  8
0
 10
1.62903022
 20
10.01422764
  0
VERTEX
  8
0
 10
1.55539320
 20
9.93198917
  0
VERTEX
  8
0
 10
1.50251306
 20
9.84289528
  0
VERTEX
  8
0
 10
1.46939191
 20
9.74441449
  0
VERTEX
  8
0
 10
1.45272918
 20
9.63612911
  0
VERTEX
  8
0
 10
1.45589624
 20
9.43273342
  0
VERTEX
  8
0
 10
1.46557548
 20
9.20638712
  0
VERTEX
  8
0
 10
2.76623863
 20
9.26200732
  0
SEQEND
  0
POLYLINE
  8
Default_Layer
 66
   1
 39
0.000000
 70
    1
  0
VERTEX
  8
0
 10
1.87769609
 20
10.65265081
  0
VERTEX
  8
0
 10
1.99162274
 20
11.45753116
  0
VERTEX
  8
0
 10
2.26526954
 20
11.51364072
  0
VERTEX
  8
0
 10
2.27985112
 20
11.44786554
  0
VERTEX
  8
0
 10
2.17243950
 20
11.41021774
  0
VERTEX
  8
0
 10
2.10063646
 20
11.35304990
  0
VERTEX
  8
0
 10
2.05551637
 20
11.27979738
  0
VERTEX
  8
0
 10
2.02680577
 20
11.13833898
  0
VERTEX
  8
0
 10
1.99284879
 20
10.89843637
  0
VERTEX
  8
0
 10
2.35554179
 20
10.84709905
  0
VERTEX
  8
0
 10
2.37246376
 20
10.96665111
  0
VERTEX
  8
0
 10
2.36458239
 20
11.06953270
  0
VERTEX
  8
0
 10
2.31504067
 20
11.12360451
  0
VERTEX
  8
0
 10
2.22995557
 20
11.14650773
  0
VERTEX
  8
0
 10
2.21363083
 20
11.14881841
  0
VERTEX
  8
0
 10
2.22347635
 20
11.21837597
  0
VERTEX
  8
0
 10
2.65785622
 20
11.15689175
  0
VERTEX
  8
0
 10
2.64801070
 20
11.08733419
  0
VERTEX
  8
0
 10
2.61039284
 20
11.09265880
  0
VERTEX
  8
0
 10
2.53760086
 20
11.09499823
  0
VERTEX
  8
0
 10
2.49251602
 20
11.07314409
  0
VERTEX
  8
0
 10
2.45951686
 20
11.03437548
  0
VERTEX
  8
0
 10
2.44126760
 20
10.95659554
  0
VERTEX
  8
0
 10
2.42438958
 20
10.83735401
  0
VERTEX
  8
0
 10
2.74606003
 20
10.79182322
  0
VERTEX
  8
0
 10
2.80826872
 20
10.78736185
  0
VERTEX
  8
0
 10
2.82680367
 20
10.80066613
  0
VERTEX
  8
0
 10
2.83930038
 20
10.85826457
  0
VERTEX
  8
0
 10
2.86034454
 20
11.00693942
  0
VERTEX
  8
0
 10
2.86852318
 20
11.11842746
  0
VERTEX
  8
0
 10
2.85801431
 20
11.20530348
  0
VERTEX
  8
0
 10
2.82973964
 20
11.27663680
  0
VERTEX
  8
0
 10
2.78464443
 20
11.34166308
  0
VERTEX
  8
0
 10
2.65972087
 20
11.44115638
  0
VERTEX
  8
0
 10
2.69157580
 20
11.50253068
  0
VERTEX
  8
0
 10
2.98607329
 20
11.34790345
  0
VERTEX
  8
0
 10
2.86782668
 20
10.51250295
  0
VERTEX
  8
0
 10
2.80820591
 20
10.52094196
  0
VERTEX
  8
0
 10
2.81222449
 20
10.54933280
  0
VERTEX
  8
0
 10
2.81528672
 20
10.61188660
  0
VERTEX
  8
0
 10
2.78949491
 20
10.64449694
  0
VERTEX
  8
0
 10
2.72874948
 20
10.66033506
  0
VERTEX
  8
0
 10
2.04665952
 20
10.75688136
  0
VERTEX
  8
0
 10
1.98360340
 20
10.75639474
  0
VERTEX
  8
0
 10
1.95495029
 20
10.72787084
  0
VERTEX
  8
0
 10
1.93731686
 20
10.64421180
  0
VERTEX
  8
0
 10
1.87769609
 20
10.65265081
  0
SEQEND
  0
POLYLINE
  8
Default_Layer
 66
   1
 39
0.000000
 70
    1
  0
VERTEX
  8
0
 10
2.05840667
 20
11.78906429
  0
VERTEX
  8
0
 10
2.16522604
 20
12.16967698
  0
VERTEX
  8
0
 10
2.21173239
 20
12.31416246
  0
VERTEX
  8
0
 10
2.25424113
 20
12.40195734
  0
VERTEX
  8
0
 10
2.31085025
 20
12.46703887
  0
VERTEX
  8
0
 10
2.38212339
 20
12.51274182
  0
VERTEX
  8
0
 10
2.46557863
 20
12.53287572
  0
VERTEX
  8
0
 10
2.55873409
 20
12.52125011
  0
VERTEX
  8
0
 10
2.63364638
 20
12.48905776
  0
VERTEX
  8
0
 10
2.69135971
 20
12.43935606
  0
VERTEX
  8
0
 10
2.73878811
 20
12.36759867
  0
VERTEX
  8
0
 10
2.76226053
 20
12.29139643
  0
VERTEX
  8
0
 10
2.75966180
 20
12.19459076
  0
VERTEX
  8
0
 10
2.73064452
 20
12.06201605
  0
VERTEX
  8
0
 10
2.68125107
 20
11.88602015
  0
VERTEX
  8
0
 10
2.92833551
 20
11.81667563
  0
VERTEX
  8
0
 10
2.99978698
 20
11.80332357
  0
VERTEX
  8
0
 10
3.03447646
 20
11.81815782
  0
VERTEX
  8
0
 10
3.05853292
 20
11.87469242
  0
VERTEX
  8
0
 10
3.06783051
 20
11.90782106
  0
VERTEX
  8
0
 10
3.12580562
 20
11.89155028
  0
VERTEX
  8
0
 10
3.02120774
 20
11.51885309
  0
VERTEX
  8
0
 10
2.96323262
 20
11.53512387
  0
VERTEX
  8
0
 10
2.96962472
 20
11.55789981
  0
VERTEX
  8
0
 10
2.98024052
 20
11.62490743
  0
VERTEX
  8
0
 10
2.96236723
 20
11.65672710
  0
VERTEX
  8
0
 10
2.90050489
 20
11.68302334
  0
VERTEX
  8
0
 10
2.24207319
 20
11.86781293
  0
VERTEX
  8
0
 10
2.17851647
 20
11.87746023
  0
VERTEX
  8
0
 10
2.14896104
 20
11.85969603
  0
VERTEX
  8
0
 10
2.12277388
 20
11.79556944
  0
VERTEX
  8
0
 10
2.11638179
 20
11.77279351
  0
VERTEX
  8
0
 10
2.05840667
 20
11.78906429
  0
SEQEND
  0
POLYLINE
  8
Default_Layer
 66
   1
 39
0.000000
 70
    1
  0
VERTEX
  8
0
 10
2.20433671
 20
12.01986670
  0
VERTEX
  8
0
 10
2.60809200
 20
11.90655233
  0
VERTEX
  8
0
 10
2.64980706
 20
12.05518906
  0
VERTEX
  8
0
 10
2.67407948
 20
12.21860954
  0
VERTEX
  8
0
 10
2.65834251
 20
12.26732639
  0
VERTEX
  8
0
 10
2.62598106
 20
12.31251895
  0
VERTEX
  8
0
 10
2.57853911
 20
12.35040348
  0
VERTEX
  8
0
 10
2.51855361
 20
12.37542844
  0
VERTEX
  8
0
 10
2.44965412
 20
12.38527225
  0
VERTEX
  8
0
 10
2.38789343
 20
12.37412672
  0
VERTEX
  8
0
 10
2.33539943
 20
12.34493124
  0
VERTEX
  8
0
 10
2.29529298
 20
12.29885742
  0
VERTEX
  8
0
 10
2.23823417
 20
12.14064820
  0
VERTEX
  8
0
 10
2.20433671
 20
12.01986670
  0
SEQEND
  0
POLYLINE
  8
Default_Layer
 66
   1
 39
0.000000
 70
    1
  0
VERTEX
  8
0
 10
2.48157911
 20
13.08192082
  0
VERTEX
  8
0
 10
2.52693127
 20
13.19006789
  0
VERTEX
  8
0
 10
3.41825951
 20
13.15375282
  0
VERTEX
  8
0
 10
3.51313424
 20
13.16358180
  0
VERTEX
  8
0
 10
3.55603996
 20
13.21399376
  0
VERTEX
  8
0
 10
3.56218654
 20
13.22865094
  0
VERTEX
  8
0
 10
3.61771650
 20
13.20536411
  0
VERTEX
  8
0
 10
3.48009198
 20
12.87718373
  0
VERTEX
  8
0
 10
3.42456202
 20
12.90047056
  0
VERTEX
  8
0
 10
3.43606584
 20
12.93160987
  0
VERTEX
  8
0
 10
3.44692026
 20
12.97602958
  0
VERTEX
  8
0
 10
3.42322836
 20
13.00850740
  0
VERTEX
  8
0
 10
3.34737578
 20
13.01855151
  0
VERTEX
  8
0
 10
3.14349463
 20
13.03285210
  0
VERTEX
  8
0
 10
3.00339241
 20
12.69876340
  0
VERTEX
  8
0
 10
3.17287036
 20
12.54310890
  0
VERTEX
  8
0
 10
3.21106651
 20
12.51370651
  0
VERTEX
  8
0
 10
3.23697623
 20
12.51061437
  0
VERTEX
  8
0
 10
3.26022037
 20
12.52340926
  0
VERTEX
  8
0
 10
3.28092687
 20
12.55981081
  0
VERTEX
  8
0
 10
3.29378581
 20
12.58862070
  0
VERTEX
  8
0
 10
3.34937641
 20
12.56547847
  0
VERTEX
  8
0
 10
3.23376956
 20
12.28980158
  0
VERTEX
  8
0
 10
3.17823960
 20
12.31308842
  0
VERTEX
  8
0
 10
3.19392113
 20
12.37087249
  0
VERTEX
  8
0
 10
3.18193660
 20
12.41087798
  0
VERTEX
  8
0
 10
3.12506322
 20
12.47359452
  0
VERTEX
  8
0
 10
2.48157911
 20
13.08192082
  0
SEQEND
  0
POLYLINE
  8
Default_Layer
 66
   1
 39
0.000000
 70
    1
  0
VERTEX
  8
0
 10
2.94839695
 20
12.74927544
  0
VERTEX
  8
0
 10
3.06781996
 20
13.03405239
  0
VERTEX
  8
0
 10
2.61167817
 20
13.05850461
  0
VERTEX
  8
0
 10
2.94839695
 20
12.74927544
  0
SEQEND
  0
POLYLINE
  8
Default_Layer
 66
   1
 39
0.000000
 70
    1
  0
VERTEX
  8
0
 10
2.72167188
 20
13.63579781
  0
VERTEX
  8
0
 10
2.98030311
 20
14.08245099
  0
VERTEX
  8
0
 10
3.05162969
 20
14.19025278
  0
VERTEX
  8
0
 10
3.11833334
 20
14.25931397
  0
VERTEX
  8
0
 10
3.18375327
 20
14.29826247
  0
VERTEX
  8
0
 10
3.25246941
 20
14.31500775
  0
VERTEX
  8
0
 10
3.32148605
 20
14.31045612
  0
VERTEX
  8
0
 10
3.38832978
 20
14.28355473
  0
VERTEX
  8
0
 10
3.44719706
 20
14.23787117
  0
VERTEX
  8
0
 10
3.48856224
 20
14.17912829
  0
VERTEX
  8
0
 10
3.51108683
 20
14.11037909
  0
VERTEX
  8
0
 10
3.51395461
 20
14.03271744
  0
VERTEX
  8
0
 10
3.49340244
 20
13.94500899
  0
VERTEX
  8
0
 10
3.44618944
 20
13.84416024
  0
VERTEX
  8
0
 10
3.85826202
 20
13.91199022
  0
VERTEX
  8
0
 10
3.92251419
 20
13.92288152
  0
VERTEX
  8
0
 10
3.97825226
 20
13.95190468
  0
VERTEX
  8
0
 10
4.01844960
 20
13.99986677
  0
VERTEX
  8
0
 10
4.02776661
 20
14.01595714
  0
VERTEX
  8
0
 10
4.07987614
 20
13.98578349
  0
VERTEX
  8
0
 10
3.96574277
 20
13.78867645
  0
VERTEX
  8
0
 10
3.36833628
 20
13.70970871
  0
VERTEX
  8
0
 10
3.30394226
 20
13.59850099
  0
VERTEX
  8
0
 10
3.57069347
 20
13.44404067
  0
VERTEX
  8
0
 10
3.62832117
 20
13.41481353
  0
VERTEX
  8
0
 10
3.67067040
 20
13.41928375
  0
VERTEX
  8
0
 10
3.71383949
 20
13.47380857
  0
VERTEX
  8
0
 10
3.72677105
 20
13.49614123
  0
VERTEX
  8
0
 10
3.77888059
 20
13.46596759
  0
VERTEX
  8
0
 10
3.58706243
 20
13.13469981
  0
VERTEX
  8
0
 10
3.53495289
 20
13.16487345
  0
VERTEX
  8
0
 10
3.55219497
 20
13.19465033
  0
VERTEX
  8
0
 10
3.57371563
 20
13.24183012
  0
VERTEX
  8
0
 10
3.57068112
 20
13.27092276
  0
VERTEX
  8
0
 10
3.55030871
 20
13.30011460
  0
VERTEX
  8
0
 10
3.48873082
 20
13.33825587
  0
VERTEX
  8
0
 10
2.92234977
 20
13.66621463
  0
VERTEX
  8
0
 10
2.86406866
 20
13.69002168
  0
VERTEX
  8
0
 10
2.82828215
 20
13.68257971
  0
VERTEX
  8
0
 10
2.79425639
 20
13.64098421
  0
VERTEX
  8
0
 10
2.77378142
 20
13.60562416
  0
VERTEX
  8
0
 10
2.72167188
 20
13.63579781
  0
SEQEND
  0
POLYLINE
  8
Default_Layer
 66
   1
 39
0.000000
 70
    1
  0
VERTEX
  8
0
 10
2.91932424
 20
13.82121121
  0
VERTEX
  8
0
 10
3.24500886
 20
13.63262594
  0
VERTEX
  8
0
 10
3.34825368
 20
13.81092857
  0
VERTEX
  8
0
 10
3.41057386
 20
13.94430473
  0
VERTEX
  8
0
 10
3.41651246
 20
14.00319933
  0
VERTEX
  8
0
 10
3.40375785
 20
14.05842198
  0
VERTEX
  8
0
 10
3.37182824
 20
14.10735243
  0
VERTEX
  8
0
 10
3.32024183
 20
14.14737045
  0
VERTEX
  8
0
 10
3.21984068
 20
14.17568640
  0
VERTEX
  8
0
 10
3.13236549
 20
14.14764506
  0
VERTEX
  8
0
 10
3.04935828
 20
14.04577850
  0
VERTEX
  8
0
 10
2.91932424
 20
13.82121121
  0
SEQEND
  0
POLYLINE
  8
Default_Layer
 66
   1
 39
0.000000
 70
    1
  0
VERTEX
  8
0
 10
3.32287607
 20
14.68701110
  0
VERTEX
  8
0
 10
3.35352624
 20
14.72674171
  0
VERTEX
  8
0
 10
3.38458109
 20
14.71183811
  0
VERTEX
  8
0
 10
3.75938879
 20
15.19768663
  0
VERTEX
  8
0
 10
3.73621541
 20
15.22280666
  0
VERTEX
  8
0
 10
3.76817915
 20
15.26424001
  0
VERTEX
  8
0
 10
4.06525230
 20
15.16815189
  0
VERTEX
  8
0
 10
4.04400751
 20
15.10305819
  0
VERTEX
  8
0
 10
3.93374208
 20
15.12384140
  0
VERTEX
  8
0
 10
3.84603375
 20
15.11635854
  0
VERTEX
  8
0
 10
3.77307011
 20
15.08075160
  0
VERTEX
  8
0
 10
3.70817393
 20
15.01628687
  0
VERTEX
  8
0
 10
3.68079952
 20
14.97493455
  0
VERTEX
  8
0
 10
3.68230747
 20
14.95928538
  0
VERTEX
  8
0
 10
3.72028664
 20
14.92636489
  0
VERTEX
  8
0
 10
4.26970412
 20
14.50251694
  0
VERTEX
  8
0
 10
4.32555408
 20
14.46576907
  0
VERTEX
  8
0
 10
4.35618745
 20
14.46205503
  0
VERTEX
  8
0
 10
4.38361013
 20
14.47530374
  0
VERTEX
  8
0
 10
4.43518015
 20
14.53511039
  0
VERTEX
  8
0
 10
4.48285687
 20
14.49833019
  0
VERTEX
  8
0
 10
4.24728848
 20
14.19297213
  0
VERTEX
  8
0
 10
4.19961176
 20
14.22975232
  0
VERTEX
  8
0
 10
4.24393296
 20
14.29424570
  0
VERTEX
  8
0
 10
4.24425789
 20
14.33926337
  0
VERTEX
  8
0
 10
4.19179746
 20
14.39331445
  0
VERTEX
  8
0
 10
3.63098404
 20
14.82595381
  0
VERTEX
  8
0
 10
3.59705460
 20
14.84760183
  0
VERTEX
  8
0
 10
3.58109729
 20
14.84452086
  0
VERTEX
  8
0
 10
3.55536097
 20
14.81820143
  0
VERTEX
  8
0
 10
3.49462781
 20
14.70661486
  0
VERTEX
  8
0
 10
3.49469120
 20
14.59520587
  0
VERTEX
  8
0
 10
3.55010204
 20
14.46282790
  0
VERTEX
  8
0
 10
3.49253213
 20
14.42575720
  0
VERTEX
  8
0
 10
3.32287607
 20
14.68701110
  0
SEQEND
  0
POLYLINE
  8
Default_Layer
 66
   1
 39
0.000000
 70
    1
  0
VERTEX
  8
0
 10
3.82874938
 20
15.29964164
  0
VERTEX
  8
0
 10
4.05144542
 20
15.52366910
  0
VERTEX
  8
0
 10
4.82135691
 20
15.17461056
  0
VERTEX
  8
0
 10
4.46288272
 20
15.93756621
  0
VERTEX
  8
0
 10
4.67777706
 20
16.15374531
  0
VERTEX
  8
0
 10
4.72048225
 20
16.11129393
  0
VERTEX
  8
0
 10
4.70228879
 20
16.09299171
  0
VERTEX
  8
0
 10
4.66391666
 20
16.04218846
  0
VERTEX
  8
0
 10
4.66554759
 20
16.00519043
  0
VERTEX
  8
0
 10
4.70524168
 20
15.95259230
  0
VERTEX
  8
0
 10
5.17296512
 20
15.48764857
  0
VERTEX
  8
0
 10
5.23546749
 20
15.43562530
  0
VERTEX
  8
0
 10
5.27349137
 20
15.43320418
  0
VERTEX
  8
0
 10
5.32608951
 20
15.47289827
  0
VERTEX
  8
0
 10
5.34428296
 20
15.49120049
  0
VERTEX
  8
0
 10
5.38698814
 20
15.44874911
  0
VERTEX
  8
0
 10
5.11762400
 20
15.17777455
  0
VERTEX
  8
0
 10
5.07491882
 20
15.22022594
  0
VERTEX
  8
0
 10
5.09412302
 20
15.23954495
  0
VERTEX
  8
0
 10
5.12745350
 20
15.28120917
  0
VERTEX
  8
0
 10
5.13394480
 20
15.31417629
  0
VERTEX
  8
0
 10
5.12321412
 20
15.34303697
  0
VERTEX
  8
0
 10
5.09320371
 20
15.37792286
  0
VERTEX
  8
0
 10
4.57108200
 20
15.89694157
  0
VERTEX
  8
0
 10
4.97531395
 20
15.03461369
  0
VERTEX
  8
0
 10
4.92480817
 20
14.98380596
  0
VERTEX
  8
0
 10
4.06778426
 20
15.37233227
  0
VERTEX
  8
0
 10
4.57007856
 20
14.87302314
  0
VERTEX
  8
0
 10
4.62901311
 20
14.82757879
  0
VERTEX
  8
0
 10
4.67007225
 20
14.82719427
  0
VERTEX
  8
0
 10
4.72722177
 20
14.87045015
  0
VERTEX
  8
0
 10
4.74339372
 20
14.88671879
  0
VERTEX
  8
0
 10
4.78609891
 20
14.84426741
  0
VERTEX
  8
0
 10
4.53796046
 20
14.59464544
  0
VERTEX
  8
0
 10
4.49525528
 20
14.63709683
  0
VERTEX
  8
0
 10
4.50940574
 20
14.65133189
  0
VERTEX
  8
0
 10
4.55282255
 20
14.71026039
  0
VERTEX
  8
0
 10
4.55370639
 20
14.75385547
  0
VERTEX
  8
0
 10
4.50486119
 20
14.81555033
  0
VERTEX
  8
0
 10
4.04171331
 20
15.27594569
  0
VERTEX
  8
0
 10
3.98480630
 20
15.32139608
  0
VERTEX
  8
0
 10
3.94780526
 20
15.32077892
  0
VERTEX
  8
0
 10
3.89571250
 20
15.28159322
  0
VERTEX
  8
0
 10
3.87145456
 20
15.25719026
  0
VERTEX
  8
0
 10
3.82874938
 20
15.29964164
  0
SEQEND
  0
POLYLINE
  8
Default_Layer
 66
   1
 39
0.000000
 70
    1
  0
VERTEX
  8
0
 10
4.83549681
 20
16.27113013
  0
VERTEX
  8
0
 10
5.49083637
 20
16.75211008
  0
VERTEX
  8
0
 10
5.72220245
 20
16.59558341
  0
VERTEX
  8
0
 10
5.68534394
 20
16.53918796
  0
VERTEX
  8
0
 10
5.58335279
 20
16.58970942
  0
VERTEX
  8
0
 10
5.49228329
 20
16.60111925
  0
VERTEX
  8
0
 10
5.40835526
 20
16.58220259
  0
VERTEX
  8
0
 10
5.28710745
 20
16.50388434
  0
VERTEX
  8
0
 10
5.09177697
 20
16.36052347
  0
VERTEX
  8
0
 10
5.30851485
 20
16.06521614
  0
VERTEX
  8
0
 10
5.40585502
 20
16.13665799
  0
VERTEX
  8
0
 10
5.47393773
 20
16.21419174
  0
VERTEX
  8
0
 10
5.47799386
 20
16.28741530
  0
VERTEX
  8
0
 10
5.43491673
 20
16.36428138
  0
VERTEX
  8
0
 10
5.42516141
 20
16.37757310
  0
VERTEX
  8
0
 10
5.48179569
 20
16.41913926
  0
VERTEX
  8
0
 10
5.74137217
 20
16.06546394
  0
VERTEX
  8
0
 10
5.68473789
 20
16.02389778
  0
VERTEX
  8
0
 10
5.66225823
 20
16.05452652
  0
VERTEX
  8
0
 10
5.61306272
 20
16.10822892
  0
VERTEX
  8
0
 10
5.56592420
 20
16.12520553
  0
VERTEX
  8
0
 10
5.51513265
 20
16.12171708
  0
VERTEX
  8
0
 10
5.44674421
 20
16.08041604
  0
VERTEX
  8
0
 10
5.34965687
 20
16.00915976
  0
VERTEX
  8
0
 10
5.54188052
 20
15.74725329
  0
VERTEX
  8
0
 10
5.58216235
 20
15.69963817
  0
VERTEX
  8
0
 10
5.60463149
 20
15.69567763
  0
VERTEX
  8
0
 10
5.65456423
 20
15.72699008
  0
VERTEX
  8
0
 10
5.77561640
 20
15.81583511
  0
VERTEX
  8
0
 10
5.86107838
 20
15.88789566
  0
VERTEX
  8
0
 10
5.91587627
 20
15.95612374
  0
VERTEX
  8
0
 10
5.94714138
 20
16.02619793
  0
VERTEX
  8
0
 10
5.96214051
 20
16.10389621
  0
VERTEX
  8
0
 10
5.94600754
 20
16.26278151
  0
VERTEX
  8
0
 10
6.01216915
 20
16.28288584
  0
VERTEX
  8
0
 10
6.10736780
 20
15.96417661
  0
VERTEX
  8
0
 10
5.42717850
 20
15.46495845
  0
VERTEX
  8
0
 10
5.39155035
 20
15.51350212
  0
VERTEX
  8
0
 10
5.41466639
 20
15.53046790
  0
VERTEX
  8
0
 10
5.46155060
 20
15.57199168
  0
VERTEX
  8
0
 10
5.46685257
 20
15.61322930
  0
VERTEX
  8
0
 10
5.43573100
 20
15.66774812
  0
VERTEX
  8
0
 10
5.02812806
 20
16.22311084
  0
VERTEX
  8
0
 10
4.98371477
 20
16.26787433
  0
VERTEX
  8
0
 10
4.94328831
 20
16.26843646
  0
VERTEX
  8
0
 10
4.87112496
 20
16.22258646
  0
VERTEX
  8
0
 10
4.83549681
 20
16.27113013
  0
SEQEND
  0
POLYLINE
  8
Default_Layer
 66
   1
 39
0.000000
 70
    1
  0
VERTEX
  8
0
 10
5.70910402
 20
16.89849226
  0
VERTEX
  8
0
 10
5.97797275
 20
17.04560716
  0
VERTEX
  8
0
 10
6.73687618
 20
16.60612510
  0
VERTEX
  8
0
 10
6.46297999
 20
17.10670064
  0
VERTEX
  8
0
 10
6.41907864
 20
17.16602747
  0
VERTEX
  8
0
 10
6.37649410
 20
17.18113226
  0
VERTEX
  8
0
 10
6.31844887
 20
17.16326342
  0
VERTEX
  8
0
 10
6.29580978
 20
17.15087615
  0
VERTEX
  8
0
 10
6.26690616
 20
17.20370070
  0
VERTEX
  8
0
 10
6.55995666
 20
17.36404697
  0
VERTEX
  8
0
 10
6.58886028
 20
17.31122241
  0
VERTEX
  8
0
 10
6.57322712
 20
17.30266853
  0
VERTEX
  8
0
 10
6.52409913
 20
17.26679903
  0
VERTEX
  8
0
 10
6.51272002
 20
17.21889880
  0
VERTEX
  8
0
 10
6.53907250
 20
17.14833561
  0
VERTEX
  8
0
 10
6.93305635
 20
16.42828663
  0
VERTEX
  8
0
 10
6.85696383
 20
16.38665166
  0
VERTEX
  8
0
 10
5.94336107
 20
16.91390400
  0
VERTEX
  8
0
 10
6.28607540
 20
16.28755571
  0
VERTEX
  8
0
 10
6.32397288
 20
16.22576093
  0
VERTEX
  8
0
 10
6.35414628
 20
16.20795092
  0
VERTEX
  8
0
 10
6.39076264
 20
16.20674045
  0
VERTEX
  8
0
 10
6.45703061
 20
16.23646270
  0
VERTEX
  8
0
 10
6.48593423
 20
16.18363815
  0
VERTEX
  8
0
 10
6.18911054
 20
16.02122734
  0
VERTEX
  8
0
 10
6.16020692
 20
16.07405189
  0
VERTEX
  8
0
 10
6.17592851
 20
16.08265416
  0
VERTEX
  8
0
 10
6.23211103
 20
16.12483505
  0
VERTEX
  8
0
 10
6.24074922
 20
16.16878414
  0
VERTEX
  8
0
 10
6.20998289
 20
16.24592074
  0
VERTEX
  8
0
 10
5.90580671
 20
16.80183628
  0
VERTEX
  8
0
 10
5.86853810
 20
16.86397516
  0
VERTEX
  8
0
 10
5.82966742
 20
16.88274631
  0
VERTEX
  8
0
 10
5.76064673
 20
16.85805497
  0
VERTEX
  8
0
 10
5.73800764
 20
16.84566770
  0
VERTEX
  8
0
 10
5.70910402
 20
16.89849226
  0
SEQEND
  0
POLYLINE
  8
Default_Layer
 66
   1
 39
0.000000
 70
    1
  0
VERTEX
  8
0
 10
6.81672546
 20
17.50541982
  0
VERTEX
  8
0
 10
6.86368402
 20
17.52310731
  0
VERTEX
  8
0
 10
6.88226826
 20
17.49410477
  0
VERTEX
  8
0
 10
7.45650435
 20
17.71039741
  0
VERTEX
  8
0
 10
7.44999516
 20
17.74394815
  0
VERTEX
  8
0
 10
7.49896623
 20
17.76239367
  0
VERTEX
  8
0
 10
7.70117731
 20
17.52449440
  0
VERTEX
  8
0
 10
7.64888773
 20
17.48028658
  0
VERTEX
  8
0
 10
7.56600971
 20
17.55592812
  0
VERTEX
  8
0
 10
7.48746289
 20
17.59566653
  0
VERTEX
  8
0
 10
7.40667589
 20
17.60372921
  0
VERTEX
  8
0
 10
7.31758271
 20
17.58300192
  0
VERTEX
  8
0
 10
7.27255838
 20
17.56221293
  0
VERTEX
  8
0
 10
7.26561517
 20
17.54810753
  0
VERTEX
  8
0
 10
7.28061930
 20
17.50013826
  0
VERTEX
  8
0
 10
7.52521191
 20
16.85076847
  0
VERTEX
  8
0
 10
7.55340685
 20
16.79014942
  0
VERTEX
  8
0
 10
7.57751435
 20
16.77088739
  0
VERTEX
  8
0
 10
7.60780703
 20
16.76774328
  0
VERTEX
  8
0
 10
7.68311512
 20
16.79151287
  0
VERTEX
  8
0
 10
7.70434010
 20
16.73516260
  0
VERTEX
  8
0
 10
7.34343003
 20
16.59922167
  0
VERTEX
  8
0
 10
7.32220506
 20
16.65557194
  0
VERTEX
  8
0
 10
7.39381017
 20
16.68713889
  0
VERTEX
  8
0
 10
7.41775022
 20
16.72526460
  0
VERTEX
  8
0
 10
7.40153423
 20
16.79882177
  0
VERTEX
  8
0
 10
7.15186831
 20
17.46166070
  0
VERTEX
  8
0
 10
7.13438388
 20
17.49791174
  0
VERTEX
  8
0
 10
7.11918948
 20
17.50367876
  0
VERTEX
  8
0
 10
7.08346075
 20
17.49481719
  0
VERTEX
  8
0
 10
6.97313935
 20
17.43181506
  0
VERTEX
  8
0
 10
6.91463089
 20
17.33700615
  0
VERTEX
  8
0
 10
6.89218410
 20
17.19526544
  0
VERTEX
  8
0
 10
6.82372310
 20
17.19399116
  0
VERTEX
  8
0
 10
6.81672546
 20
17.50541982
  0
SEQEND
  0
POLYLINE
  8
Default_Layer
 66
   1
 39
0.000000
 70
    1
  0
VERTEX
  8
0
 10
8.68932926
 20
18.02328929
  0
VERTEX
  8
0
 10
8.82022331
 20
18.02867885
  0
VERTEX
  8
0
 10
8.94380662
 20
17.99939143
  0
VERTEX
  8
0
 10
9.06182263
 20
17.93663029
  0
VERTEX
  8
0
 10
9.15614784
 20
17.84842076
  0
VERTEX
  8
0
 10
9.22421638
 20
17.73596519
  0
VERTEX
  8
0
 10
9.26346241
 20
17.60046590
  0
VERTEX
  8
0
 10
9.27291787
 20
17.49042300
  0
VERTEX
  8
0
 10
9.26283813
 20
17.38789436
  0
VERTEX
  8
0
 10
9.23322317
 20
17.29287998
  0
VERTEX
  8
0
 10
9.18407301
 20
17.20537986
  0
VERTEX
  8
0
 10
9.11913432
 20
17.12984364
  0
VERTEX
  8
0
 10
9.04144696
 20
17.07060158
  0
VERTEX
  8
0
 10
8.95101093
 20
17.02765367
  0
VERTEX
  8
0
 10
8.84782623
 20
17.00099991
  0
VERTEX
  8
0
 10
8.73008489
 20
16.99219784
  0
VERTEX
  8
0
 10
8.62142489
 20
17.00710333
  0
VERTEX
  8
0
 10
8.52184624
 20
17.04571636
  0
VERTEX
  8
0
 10
8.43134894
 20
17.10803695
  0
VERTEX
  8
0
 10
8.36786231
 20
17.17319355
  0
VERTEX
  8
0
 10
8.31778997
 20
17.24770435
  0
VERTEX
  8
0
 10
8.28113192
 20
17.33156935
  0
VERTEX
  8
0
 10
8.25788815
 20
17.42478855
  0
VERTEX
  8
0
 10
8.25100956
 20
17.56557359
  0
VERTEX
  8
0
 10
8.27956573
 20
17.69671374
  0
VERTEX
  8
0
 10
8.34156273
 20
17.81387367
  0
VERTEX
  8
0
 10
8.43524543
 20
17.91130441
  0
VERTEX
  8
0
 10
8.55343805
 20
17.98306831
  0
VERTEX
  8
0
 10
8.68896480
 20
18.02322773
  0
VERTEX
  8
0
 10
8.68932926
 20
18.02328929
  0
SEQEND
  0
POLYLINE
  8
Default_Layer
 66
   1
 39
0.000000
 70
    1
  0
VERTEX
  8
0
 10
8.70189291
 20
17.94689542
  0
VERTEX
  8
0
 10
8.60099225
 20
17.91676528
  0
VERTEX
  8
0
 10
8.52031850
 20
17.86387983
  0
VERTEX
  8
0
 10
8.45943544
 20
17.78961938
  0
VERTEX
  8
0
 10
8.41816222
 20
17.69395338
  0
VERTEX
  8
0
 10
8.40118043
 20
17.57821789
  0
VERTEX
  8
0
 10
8.41175795
 20
17.44351018
  0
VERTEX
  8
0
 10
8.44494217
 20
17.31807369
  0
VERTEX
  8
0
 10
8.49792961
 20
17.21742890
  0
VERTEX
  8
0
 10
8.56747746
 20
17.14248202
  0
VERTEX
  8
0
 10
8.64916800
 20
17.09248681
  0
VERTEX
  8
0
 10
8.73990526
 20
17.06855606
  0
VERTEX
  8
0
 10
8.83659327
 20
17.07180256
  0
VERTEX
  8
0
 10
8.92709886
 20
17.09981326
  0
VERTEX
  8
0
 10
9.00211620
 20
17.15065273
  0
VERTEX
  8
0
 10
9.06034386
 20
17.22664563
  0
VERTEX
  8
0
 10
9.10071920
 20
17.32870297
  0
VERTEX
  8
0
 10
9.11922451
 20
17.44833082
  0
VERTEX
  8
0
 10
9.11066720
 20
17.57538277
  0
VERTEX
  8
0
 10
9.07662929
 20
17.70049330
  0
VERTEX
  8
0
 10
9.01940920
 20
17.81005589
  0
VERTEX
  8
0
 10
8.95619777
 20
17.88407386
  0
VERTEX
  8
0
 10
8.88338204
 20
17.93102444
  0
VERTEX
  8
0
 10
8.79919253
 20
17.95169922
  0
VERTEX
  8
0
 10
8.70185978
 20
17.94688982
  0
VERTEX
  8
0
 10
8.70189291
 20
17.94689542
  0
SEQEND
  0
POLYLINE
  8
Default_Layer
 66
   1
 39
0.000000
 70
    1
  0
VERTEX
  8
0
 10
9.38103242
 20
18.09924232
  0
VERTEX
  8
0
 10
10.14563000
 20
18.11982442
  0
VERTEX
  8
0
 10
10.24512965
 20
17.86004220
  0
VERTEX
  8
0
 10
10.18342320
 20
17.83471665
  0
VERTEX
  8
0
 10
10.10248258
 20
17.96448524
  0
VERTEX
  8
0
 10
10.01279929
 20
18.01943952
  0
VERTEX
  8
0
 10
9.85468735
 20
18.03239386
  0
VERTEX
  8
0
 10
9.63899488
 20
18.02658766
  0
VERTEX
  8
0
 10
9.64933415
 20
17.64249741
  0
VERTEX
  8
0
 10
9.74750647
 20
17.64514009
  0
VERTEX
  8
0
 10
9.85817226
 20
17.66317831
  0
VERTEX
  8
0
 10
9.90849336
 20
17.71186186
  0
VERTEX
  8
0
 10
9.92390036
 20
17.80550032
  0
VERTEX
  8
0
 10
9.92318664
 20
17.83201401
  0
VERTEX
  8
0
 10
9.99341210
 20
17.83390440
  0
VERTEX
  8
0
 10
10.00521738
 20
17.39535359
  0
VERTEX
  8
0
 10
9.93499192
 20
17.39346320
  0
VERTEX
  8
0
 10
9.93395028
 20
17.43215886
  0
VERTEX
  8
0
 10
9.91437958
 20
17.51983602
  0
VERTEX
  8
0
 10
9.86586963
 20
17.56370784
  0
VERTEX
  8
0
 10
9.76014565
 20
17.57520398
  0
VERTEX
  8
0
 10
9.65122454
 20
17.57227195
  0
VERTEX
  8
0
 10
9.65959626
 20
17.26127350
  0
VERTEX
  8
0
 10
9.66981563
 20
17.20131172
  0
VERTEX
  8
0
 10
9.69702375
 20
17.17622834
  0
VERTEX
  8
0
 10
9.76031482
 20
17.16932679
  0
VERTEX
  8
0
 10
9.78682851
 20
17.17004051
  0
VERTEX
  8
0
 10
9.78844885
 20
17.10984726
  0
VERTEX
  8
0
 10
9.40794152
 20
17.09960444
  0
VERTEX
  8
0
 10
9.40632119
 20
17.15979769
  0
VERTEX
  8
0
 10
9.43068512
 20
17.16045354
  0
VERTEX
  8
0
 10
9.49351324
 20
17.17075007
  0
VERTEX
  8
0
 10
9.51859663
 20
17.19795819
  0
VERTEX
  8
0
 10
9.52540173
 20
17.26483219
  0
VERTEX
  8
0
 10
9.50711511
 20
17.94415600
  0
VERTEX
  8
0
 10
9.49753517
 20
18.00700341
  0
VERTEX
  8
0
 10
9.47245751
 20
18.03286125
  0
VERTEX
  8
0
 10
9.41633231
 20
18.03995569
  0
VERTEX
  8
0
 10
9.38265275
 20
18.03904908
  0
VERTEX
  8
0
 10
9.38103242
 20
18.09924232
  0
SEQEND
  0
POLYLINE
  8
Default_Layer
 66
   1
 39
0.000000
 70
    1
  0
VERTEX
  8
0
 10
11.08576629
 20
18.61250206
  0
VERTEX
  8
0
 10
11.68396451
 20
18.49594030
  0
VERTEX
  8
0
 10
11.91179279
 20
18.44253950
  0
VERTEX
  8
0
 10
12.05201113
 20
18.38819517
  0
VERTEX
  8
0
 10
12.15909086
 20
18.30934519
  0
VERTEX
  8
0
 10
12.23822661
 20
18.20554033
  0
VERTEX
  8
0
 10
12.27959594
 20
18.07982046
  0
VERTEX
  8
0
 10
12.27337640
 20
17.93522546
  0
VERTEX
  8
0
 10
12.23327384
 20
17.81609192
  0
VERTEX
  8
0
 10
12.16411672
 20
17.72119751
  0
VERTEX
  8
0
 10
12.05978345
 20
17.63934992
  0
VERTEX
  8
0
 10
11.94562579
 20
17.59375727
  0
VERTEX
  8
0
 10
11.79655024
 20
17.58564992
  0
VERTEX
  8
0
 10
11.58921003
 20
17.61366600
  0
VERTEX
  8
0
 10
11.31260225
 20
17.66756434
  0
VERTEX
  8
0
 10
11.23693321
 20
17.27922870
  0
VERTEX
  8
0
 10
11.22534787
 20
17.16776803
  0
VERTEX
  8
0
 10
11.25247817
 20
17.11631876
  0
VERTEX
  8
0
 10
11.34235573
 20
17.08642055
  0
VERTEX
  8
0
 10
11.39442308
 20
17.07627498
  0
VERTEX
  8
0
 10
11.37666834
 20
16.98515712
  0
VERTEX
  8
0
 10
10.79091068
 20
17.09929478
  0
VERTEX
  8
0
 10
10.80866542
 20
17.19041263
  0
VERTEX
  8
0
 10
10.84446173
 20
17.18343755
  0
VERTEX
  8
0
 10
10.94875197
 20
17.17550125
  0
VERTEX
  8
0
 10
10.99541166
 20
17.20694258
  0
VERTEX
  8
0
 10
11.02808554
 20
17.30528668
  0
VERTEX
  8
0
 10
11.22972873
 20
18.34012520
  0
VERTEX
  8
0
 10
11.23660820
 20
18.43899177
  0
VERTEX
  8
0
 10
11.20561751
 20
18.48218588
  0
VERTEX
  8
0
 10
11.10380784
 20
18.51440912
  0
VERTEX
  8
0
 10
11.06801154
 20
18.52138420
  0
VERTEX
  8
0
 10
11.08576629
 20
18.61250206
  0
SEQEND
  0
POLYLINE
  8
Default_Layer
 66
   1
 39
0.000000
 70
    1
  0
VERTEX
  8
0
 10
11.45865618
 20
18.41711719
  0
VERTEX
  8
0
 10
11.33500705
 20
17.78254639
  0
VERTEX
  8
0
 10
11.56861520
 20
17.73702674
  0
VERTEX
  8
0
 10
11.72031368
 20
17.71563051
  0
VERTEX
  8
0
 10
11.82275963
 20
17.72015723
  0
VERTEX
  8
0
 10
11.89565040
 20
17.75042804
  0
VERTEX
  8
0
 10
11.96104776
 20
17.80580334
  0
VERTEX
  8
0
 10
12.01333061
 20
17.88343770
  0
VERTEX
  8
0
 10
12.04428566
 20
17.97873895
  0
VERTEX
  8
0
 10
12.05079925
 20
18.08583975
  0
VERTEX
  8
0
 10
12.02595315
 20
18.17934749
  0
VERTEX
  8
0
 10
11.97452999
 20
18.25635990
  0
VERTEX
  8
0
 10
11.89872014
 20
18.31222797
  0
VERTEX
  8
0
 10
11.64848505
 20
18.38012814
  0
VERTEX
  8
0
 10
11.45865618
 20
18.41711719
  0
SEQEND
  0
POLYLINE
  8
Default_Layer
 66
   1
 39
0.000000
 70
    1
  0
VERTEX
  8
0
 10
12.38920711
 20
17.77929966
  0
VERTEX
  8
0
 10
12.75161983
 20
17.64533520
  0
VERTEX
  8
0
 10
12.73074225
 20
17.58885530
  0
VERTEX
  8
0
 10
12.70653658
 20
17.59780283
  0
VERTEX
  8
0
 10
12.63985328
 20
17.61175252
  0
VERTEX
  8
0
 10
12.60921430
 20
17.59709351
  0
VERTEX
  8
0
 10
12.57795803
 20
17.53527902
  0
VERTEX
  8
0
 10
12.42172571
 20
17.11262528
  0
VERTEX
  8
0
 10
12.39201181
 20
17.01156530
  0
VERTEX
  8
0
 10
12.38663283
 20
16.93498785
  0
VERTEX
  8
0
 10
12.40459301
 20
16.87141212
  0
VERTEX
  8
0
 10
12.44360231
 20
16.80999095
  0
VERTEX
  8
0
 10
12.50025172
 20
16.75752530
  0
VERTEX
  8
0
 10
12.56978746
 20
16.72131320
  0
VERTEX
  8
0
 10
12.64808762
 20
16.70364258
  0
VERTEX
  8
0
 10
12.72968551
 20
16.70729841
  0
VERTEX
  8
0
 10
12.80404546
 20
16.72910584
  0
VERTEX
  8
0
 10
12.86063179
 20
16.76588999
  0
VERTEX
  8
0
 10
12.90728017
 20
16.82851100
  0
VERTEX
  8
0
 10
12.95182626
 20
16.92782897
  0
VERTEX
  8
0
 10
13.10219453
 20
17.33461875
  0
VERTEX
  8
0
 10
13.11706514
 20
17.40172589
  0
VERTEX
  8
0
 10
13.10085728
 20
17.44057992
  0
VERTEX
  8
0
 10
13.04945027
 20
17.47104611
  0
VERTEX
  8
0
 10
13.02322746
 20
17.48073927
  0
VERTEX
  8
0
 10
13.04410504
 20
17.53721918
  0
VERTEX
  8
0
 10
13.35810640
 20
17.42114979
  0
VERTEX
  8
0
 10
13.33722883
 20
17.36466988
  0
VERTEX
  8
0
 10
13.31571267
 20
17.37262325
  0
VERTEX
  8
0
 10
13.26890512
 20
17.38400252
  0
VERTEX
  8
0
 10
13.23471845
 20
17.37887061
  0
VERTEX
  8
0
 10
13.18713413
 20
17.31009943
  0
VERTEX
  8
0
 10
13.02732124
 20
16.87775922
  0
VERTEX
  8
0
 10
12.97608735
 20
16.77327084
  0
VERTEX
  8
0
 10
12.90987265
 20
16.69648337
  0
VERTEX
  8
0
 10
12.82931292
 20
16.64601544
  0
VERTEX
  8
0
 10
12.73454681
 20
16.61914091
  0
VERTEX
  8
0
 10
12.63025939
 20
16.61871347
  0
VERTEX
  8
0
 10
12.52063863
 20
16.64624206
  0
VERTEX
  8
0
 10
12.42329068
 20
16.69560077
  0
VERTEX
  8
0
 10
12.34371885
 20
16.76513746
  0
VERTEX
  8
0
 10
12.28674624
 20
16.84619099
  0
VERTEX
  8
0
 10
12.25719596
 20
16.93010026
  0
VERTEX
  8
0
 10
12.25582475
 20
17.02097999
  0
VERTEX
  8
0
 10
12.28154750
 20
17.12209725
  0
VERTEX
  8
0
 10
12.45155063
 20
17.58200503
  0
VERTEX
  8
0
 10
12.46659653
 20
17.64751886
  0
VERTEX
  8
0
 10
12.45250786
 20
17.68176828
  0
VERTEX
  8
0
 10
12.40194853
 20
17.71039263
  0
VERTEX
  8
0
 10
12.36832954
 20
17.72281976
  0
VERTEX
  8
0
 10
12.38920711
 20
17.77929966
  0
SEQEND
  0
POLYLINE
  8
Default_Layer
 66
   1
 39
0.000000
 70
    1
  0
VERTEX
  8
0
 10
13.44183456
 20
17.37671071
  0
VERTEX
  8
0
 10
13.86183299
 20
17.15347711
  0
VERTEX
  8
0
 10
14.06489042
 20
17.02769009
  0
VERTEX
  8
0
 10
14.12523460
 20
16.95908502
  0
VERTEX
  8
0
 10
14.15942410
 20
16.88327434
  0
VERTEX
  8
0
 10
14.16533323
 20
16.80504103
  0
VERTEX
  8
0
 10
14.14083628
 20
16.72916809
  0
VERTEX
  8
0
 10
14.10702231
 20
16.68158681
  0
VERTEX
  8
0
 10
14.06277531
 20
16.64645120
  0
VERTEX
  8
0
 10
13.94875888
 20
16.61369383
  0
VERTEX
  8
0
 10
13.84484096
 20
16.62590131
  0
VERTEX
  8
0
 10
13.93376807
 20
16.53966867
  0
VERTEX
  8
0
 10
13.96534979
 20
16.48148028
  0
VERTEX
  8
0
 10
13.97948177
 20
16.41795401
  0
VERTEX
  8
0
 10
13.97529430
 20
16.35279936
  0
VERTEX
  8
0
 10
13.95191770
 20
16.28972582
  0
VERTEX
  8
0
 10
13.91337926
 20
16.23592868
  0
VERTEX
  8
0
 10
13.86168766
 20
16.19480526
  0
VERTEX
  8
0
 10
13.79937054
 20
16.16805639
  0
VERTEX
  8
0
 10
13.72895552
 20
16.15738290
  0
VERTEX
  8
0
 10
13.65348919
 20
16.16278912
  0
VERTEX
  8
0
 10
13.57475218
 20
16.18495225
  0
VERTEX
  8
0
 10
13.41495958
 20
16.25851835
  0
VERTEX
  8
0
 10
12.97249991
 20
16.49369033
  0
VERTEX
  8
0
 10
13.00076092
 20
16.54686145
  0
VERTEX
  8
0
 10
13.03051142
 20
16.53104874
  0
VERTEX
  8
0
 10
13.09644470
 20
16.51305255
  0
VERTEX
  8
0
 10
13.12648838
 20
16.52833875
  0
VERTEX
  8
0
 10
13.15153062
 20
16.56170768
  0
VERTEX
  8
0
 10
13.47754158
 20
17.17507452
  0
VERTEX
  8
0
 10
13.50186767
 20
17.23764339
  0
VERTEX
  8
0
 10
13.49309088
 20
17.27153355
  0
VERTEX
  8
0
 10
13.44332406
 20
17.30772688
  0
VERTEX
  8
0
 10
13.41357355
 20
17.32353959
  0
VERTEX
  8
0
 10
13.44183456
 20
17.37671071
  0
SEQEND
  0
POLYLINE
  8
Default_Layer
 66
   1
 39
0.000000
 70
    1
  0
VERTEX
  8
0
 10
13.63426485
 20
17.18432093
  0
VERTEX
  8
0
 10
13.46234369
 20
16.86086329
  0
VERTEX
  8
0
 10
13.62398350
 20
16.77495002
  0
VERTEX
  8
0
 10
13.78455794
 20
16.70340380
  0
VERTEX
  8
0
 10
13.85444007
 20
16.69589182
  0
VERTEX
  8
0
 10
13.91552282
 20
16.70848122
  0
VERTEX
  8
0
 10
13.96661435
 20
16.74160252
  0
VERTEX
  8
0
 10
14.00652283
 20
16.79568624
  0
VERTEX
  8
0
 10
14.02510516
 20
16.84973967
  0
VERTEX
  8
0
 10
14.02298436
 20
16.90302577
  0
VERTEX
  8
0
 10
14.00251420
 20
16.95348167
  0
VERTEX
  8
0
 10
13.96537556
 20
16.99777854
  0
VERTEX
  8
0
 10
13.82795964
 20
17.08137010
  0
VERTEX
  8
0
 10
13.63426485
 20
17.18432093
  0
SEQEND
  0
POLYLINE
  8
Default_Layer
 66
   1
 39
0.000000
 70
    1
  0
VERTEX
  8
0
 10
13.43004539
 20
16.80009629
  0
VERTEX
  8
0
 10
13.27595559
 20
16.51018709
  0
VERTEX
  8
0
 10
13.25216540
 20
16.45626331
  0
VERTEX
  8
0
 10
13.26401005
 20
16.42967247
  0
VERTEX
  8
0
 10
13.32309484
 20
16.39420923
  0
VERTEX
  8
0
 10
13.40918142
 20
16.34845330
  0
VERTEX
  8
0
 10
13.59888409
 20
16.26548418
  0
VERTEX
  8
0
 10
13.66169928
 20
16.26071359
  0
VERTEX
  8
0
 10
13.72452840
 20
16.27582497
  0
VERTEX
  8
0
 10
13.78048703
 20
16.31123022
  0
VERTEX
  8
0
 10
13.82201786
 20
16.36607526
  0
VERTEX
  8
0
 10
13.84135718
 20
16.42155292
  0
VERTEX
  8
0
 10
13.84150736
 20
16.47911170
  0
VERTEX
  8
0
 10
13.82366456
 20
16.53527448
  0
VERTEX
  8
0
 10
13.78708610
 20
16.58597105
  0
VERTEX
  8
0
 10
13.71806428
 20
16.64092263
  0
VERTEX
  8
0
 10
13.60095256
 20
16.70925733
  0
VERTEX
  8
0
 10
13.43004539
 20
16.80009629
  0
SEQEND
  0
POLYLINE
  8
Default_Layer
 66
   1
 39
0.000000
 70
    1
  0
VERTEX
  8
0
 10
14.44480228
 20
16.82044993
  0
VERTEX
  8
0
 10
14.76017442
 20
16.59475142
  0
VERTEX
  8
0
 10
14.72513066
 20
16.54578422
  0
VERTEX
  8
0
 10
14.69598352
 20
16.56664360
  0
VERTEX
  8
0
 10
14.64317594
 20
16.59385767
  0
VERTEX
  8
0
 10
14.60942293
 20
16.58980506
  0
VERTEX
  8
0
 10
14.57172149
 20
16.55067340
  0
VERTEX
  8
0
 10
14.16579792
 20
15.98346991
  0
VERTEX
  8
0
 10
14.13533762
 20
15.93474853
  0
VERTEX
  8
0
 10
14.13964726
 20
15.90874513
  0
VERTEX
  8
0
 10
14.18436252
 20
15.87145528
  0
VERTEX
  8
0
 10
14.22808324
 20
15.84016621
  0
VERTEX
  8
0
 10
14.30218685
 20
15.79528732
  0
VERTEX
  8
0
 10
14.37409840
 20
15.76828507
  0
VERTEX
  8
0
 10
14.44498378
 20
15.75832507
  0
VERTEX
  8
0
 10
14.51517450
 20
15.76340708
  0
VERTEX
  8
0
 10
14.68198407
 20
15.83267091
  0
VERTEX
  8
0
 10
14.72135036
 20
15.77805293
  0
VERTEX
  8
0
 10
14.44810026
 20
15.58838812
  0
VERTEX
  8
0
 10
13.86282554
 20
16.00724451
  0
VERTEX
  8
0
 10
13.89786930
 20
16.05621172
  0
VERTEX
  8
0
 10
13.92351879
 20
16.03785546
  0
VERTEX
  8
0
 10
13.97824095
 20
16.00838970
  0
VERTEX
  8
0
 10
14.01307976
 20
16.01519126
  0
VERTEX
  8
0
 10
14.05678759
 20
16.06148399
  0
VERTEX
  8
0
 10
14.45269865
 20
16.61469686
  0
VERTEX
  8
0
 10
14.48675348
 20
16.67583139
  0
VERTEX
  8
0
 10
14.48270087
 20
16.70958440
  0
VERTEX
  8
0
 10
14.43540801
 20
16.75312647
  0
VERTEX
  8
0
 10
14.40975852
 20
16.77148273
  0
VERTEX
  8
0
 10
14.44480228
 20
16.82044993
  0
SEQEND
  0
POLYLINE
  8
Default_Layer
 66
   1
 39
0.000000
 70
    1
  0
VERTEX
  8
0
 10
15.21432162
 20
16.24718387
  0
VERTEX
  8
0
 10
15.50440499
 20
15.99741560
  0
VERTEX
  8
0
 10
15.46511560
 20
15.95178451
  0
VERTEX
  8
0
 10
15.44284328
 20
15.97096147
  0
VERTEX
  8
0
 10
15.38926077
 20
16.00101600
  0
VERTEX
  8
0
 10
15.34757024
 20
15.99434454
  0
VERTEX
  8
0
 10
15.28726247
 20
15.93748618
  0
VERTEX
  8
0
 10
14.86677244
 20
15.44912485
  0
VERTEX
  8
0
 10
14.82846450
 20
15.39035131
  0
VERTEX
  8
0
 10
14.82884372
 20
15.35124068
  0
VERTEX
  8
0
 10
14.86893754
 20
15.30442160
  0
VERTEX
  8
0
 10
14.89120986
 20
15.28524464
  0
VERTEX
  8
0
 10
14.85192047
 20
15.23961355
  0
VERTEX
  8
0
 10
14.56183710
 20
15.48938182
  0
VERTEX
  8
0
 10
14.60112649
 20
15.53501291
  0
VERTEX
  8
0
 10
14.62502849
 20
15.51443275
  0
VERTEX
  8
0
 10
14.67619686
 20
15.48267305
  0
VERTEX
  8
0
 10
14.71399454
 20
15.48702060
  0
VERTEX
  8
0
 10
14.76627540
 20
15.53565506
  0
VERTEX
  8
0
 10
15.19658777
 20
16.03542415
  0
VERTEX
  8
0
 10
15.23925628
 20
16.09706483
  0
VERTEX
  8
0
 10
15.23794160
 20
16.13508900
  0
VERTEX
  8
0
 10
15.19893423
 20
16.18097262
  0
VERTEX
  8
0
 10
15.17503223
 20
16.20155278
  0
VERTEX
  8
0
 10
15.21432162
 20
16.24718387
  0
SEQEND
  0
POLYLINE
  8
Default_Layer
 66
   1
 39
0.000000
 70
    1
  0
VERTEX
  8
0
 10
16.17115784
 20
15.32290755
  0
VERTEX
  8
0
 10
16.20666167
 20
15.28544597
  0
VERTEX
  8
0
 10
16.02724695
 20
14.99017803
  0
VERTEX
  8
0
 10
15.96786005
 20
15.02574507
  0
VERTEX
  8
0
 10
16.02403039
 20
15.19157073
  0
VERTEX
  8
0
 10
16.03002046
 20
15.26835773
  0
VERTEX
  8
0
 10
16.01849525
 20
15.34434701
  0
VERTEX
  8
0
 10
15.98947607
 20
15.41560823
  0
VERTEX
  8
0
 10
15.94199800
 20
15.47925161
  0
VERTEX
  8
0
 10
15.86852167
 20
15.53776126
  0
VERTEX
  8
0
 10
15.78123205
 20
15.57280930
  0
VERTEX
  8
0
 10
15.68399150
 20
15.58188351
  0
VERTEX
  8
0
 10
15.57967620
 20
15.56351228
  0
VERTEX
  8
0
 10
15.47639341
 20
15.51747809
  0
VERTEX
  8
0
 10
15.38126418
 20
15.44460401
  0
VERTEX
  8
0
 10
15.30143584
 20
15.35141693
  0
VERTEX
  8
0
 10
15.24925870
 20
15.24937483
  0
VERTEX
  8
0
 10
15.22601899
 20
15.14389419
  0
VERTEX
  8
0
 10
15.23201675
 20
15.04143209
  0
VERTEX
  8
0
 10
15.26486120
 20
14.94737690
  0
VERTEX
  8
0
 10
15.32216157
 20
14.86711700
  0
VERTEX
  8
0
 10
15.39837039
 20
14.80650575
  0
VERTEX
  8
0
 10
15.49582993
 20
14.76307174
  0
VERTEX
  8
0
 10
15.60741821
 20
14.74068230
  0
VERTEX
  8
0
 10
15.72601327
 20
14.74320478
  0
VERTEX
  8
0
 10
15.73684549
 20
14.67445983
  0
VERTEX
  8
0
 10
15.58960216
 20
14.66725502
  0
VERTEX
  8
0
 10
15.48571145
 20
14.68360663
  0
VERTEX
  8
0
 10
15.39364983
 20
14.71561353
  0
VERTEX
  8
0
 10
15.31091779
 20
14.76461044
  0
VERTEX
  8
0
 10
15.23501579
 20
14.83193212
  0
VERTEX
  8
0
 10
15.16648259
 20
14.91994099
  0
VERTEX
  8
0
 10
15.12114332
 20
15.01487018
  0
VERTEX
  8
0
 10
15.09899800
 20
15.11671971
  0
VERTEX
  8
0
 10
15.10004661
 20
15.22548957
  0
VERTEX
  8
0
 10
15.11830451
 20
15.31538474
  0
VERTEX
  8
0
 10
15.15186054
 20
15.39903815
  0
VERTEX
  8
0
 10
15.20071471
 20
15.47644979
  0
VERTEX
  8
0
 10
15.26486700
 20
15.54761968
  0
VERTEX
  8
0
 10
15.37687970
 20
15.63081598
  0
VERTEX
  8
0
 10
15.50167611
 20
15.68020271
  0
VERTEX
  8
0
 10
15.63316898
 20
15.69568969
  0
VERTEX
  8
0
 10
15.76423047
 20
15.67620048
  0
VERTEX
  8
0
 10
15.88603403
 20
15.62349311
  0
VERTEX
  8
0
 10
15.98876692
 20
15.54036623
  0
VERTEX
  8
0
 10
16.06640986
 20
15.42926314
  0
VERTEX
  8
0
 10
16.10741063
 20
15.29429682
  0
VERTEX
  8
0
 10
16.17115784
 20
15.32290755
  0
SEQEND
  0
POLYLINE
  8
Default_Layer
 66
   1
 39
0.000000
 70
    1
  0
VERTEX
  8
0
 10
17.75678808
 20
13.95539722
  0
VERTEX
  8
0
 10
17.79672096
 20
13.88643359
  0
VERTEX
  8
0
 10
17.44462172
 20
13.54616936
  0
VERTEX
  8
0
 10
17.36634146
 20
13.61960638
  0
VERTEX
  8
0
 10
17.46427252
 20
13.80720912
  0
VERTEX
  8
0
 10
17.50932345
 20
14.00122614
  0
VERTEX
  8
0
 10
17.50167351
 20
14.15834192
  0
VERTEX
  8
0
 10
17.44522206
 20
14.30380106
  0
VERTEX
  8
0
 10
17.39133025
 20
14.37922815
  0
VERTEX
  8
0
 10
17.32712047
 20
14.43718735
  0
VERTEX
  8
0
 10
17.25901089
 20
14.47596764
  0
VERTEX
  8
0
 10
17.19150694
 20
14.49275042
  0
VERTEX
  8
0
 10
17.12908853
 20
14.48917200
  0
VERTEX
  8
0
 10
17.07512805
 20
14.46878141
  0
VERTEX
  8
0
 10
17.00305000
 20
14.39256510
  0
VERTEX
  8
0
 10
16.98242810
 20
14.33720482
  0
VERTEX
  8
0
 10
16.97481922
 20
14.27150108
  0
VERTEX
  8
0
 10
17.00659735
 20
14.06003497
  0
VERTEX
  8
0
 10
17.07810313
 20
13.76793317
  0
VERTEX
  8
0
 10
17.10282502
 20
13.60493933
  0
VERTEX
  8
0
 10
17.10072395
 20
13.42110616
  0
VERTEX
  8
0
 10
17.07881955
 20
13.35031730
  0
VERTEX
  8
0
 10
17.04078160
 20
13.28423387
  0
VERTEX
  8
0
 10
16.98898830
 20
13.22646775
  0
VERTEX
  8
0
 10
16.92390509
 20
13.17952326
  0
VERTEX
  8
0
 10
16.84192338
 20
13.14370534
  0
VERTEX
  8
0
 10
16.75473657
 20
13.12817940
  0
VERTEX
  8
0
 10
16.66234466
 20
13.13294545
  0
VERTEX
  8
0
 10
16.56474764
 20
13.15800348
  0
VERTEX
  8
0
 10
16.46973849
 20
13.20243854
  0
VERTEX
  8
0
 10
16.38360000
 20
13.26573825
  0
VERTEX
  8
0
 10
16.30633217
 20
13.34790263
  0
VERTEX
  8
0
 10
16.23793501
 20
13.44893166
  0
VERTEX
  8
0
 10
16.18362526
 20
13.56147015
  0
VERTEX
  8
0
 10
16.15249618
 20
13.67146823
  0
VERTEX
  8
0
 10
16.14450909
 20
13.79167392
  0
VERTEX
  8
0
 10
16.15771258
 20
13.93372765
  0
VERTEX
  8
0
 10
16.00504067
 20
13.90406790
  0
VERTEX
  8
0
 10
15.96618939
 20
13.97116361
  0
VERTEX
  8
0
 10
16.39391828
 20
14.33740194
  0
VERTEX
  8
0
 10
16.46359116
 20
14.25898089
  0
VERTEX
  8
0
 10
16.37350850
 20
14.13115464
  0
VERTEX
  8
0
 10
16.31264714
 20
13.99917762
  0
VERTEX
  8
0
 10
16.28054119
 20
13.86661118
  0
VERTEX
  8
0
 10
16.27561720
 20
13.73892943
  0
VERTEX
  8
0
 10
16.29792530
 20
13.61935399
  0
VERTEX
  8
0
 10
16.34449527
 20
13.51191164
  0
VERTEX
  8
0
 10
16.44005703
 20
13.39484571
  0
VERTEX
  8
0
 10
16.56725304
 20
13.31908407
  0
VERTEX
  8
0
 10
16.68066518
 20
13.29855441
  0
VERTEX
  8
0
 10
16.78159001
 20
13.32826081
  0
VERTEX
  8
0
 10
16.85173112
 20
13.38962738
  0
VERTEX
  8
0
 10
16.88809411
 20
13.47293875
  0
VERTEX
  8
0
 10
16.89070318
 20
13.59193709
  0
VERTEX
  8
0
 10
16.86069008
 20
13.75845183
  0
VERTEX
  8
0
 10
16.79110357
 20
14.03741801
  0
VERTEX
  8
0
 10
16.75844467
 20
14.24709707
  0
VERTEX
  8
0
 10
16.77637863
 20
14.40689515
  0
VERTEX
  8
0
 10
16.83820998
 20
14.52506715
  0
VERTEX
  8
0
 10
16.93724322
 20
14.60986795
  0
VERTEX
  8
0
 10
17.03322180
 20
14.64756509
  0
VERTEX
  8
0
 10
17.13753347
 20
14.65433036
  0
VERTEX
  8
0
 10
17.24881926
 20
14.62809981
  0
VERTEX
  8
0
 10
17.36380744
 20
14.56570193
  0
VERTEX
  8
0
 10
17.47054245
 20
14.47234583
  0
VERTEX
  8
0
 10
17.55706875
 20
14.35324059
  0
VERTEX
  8
0
 10
17.61035927
 20
14.23915415
  0
VERTEX
  8
0
 10
17.64175337
 20
14.11877395
  0
VERTEX
  8
0
 10
17.64166526
 20
13.94249157
  0
VERTEX
  8
0
 10
17.75678808
 20
13.95539722
  0
SEQEND
  0
POLYLINE
  8
Default_Layer
 66
   1
 39
0.000000
 70
    1
  0
VERTEX
  8
0
 10
17.64533169
 20
12.85743582
  0
VERTEX
  8
0
 10
17.68666828
 20
12.74769115
  0
VERTEX
  8
0
 10
17.01400308
 20
12.16176766
  0
VERTEX
  8
0
 10
16.95181089
 20
12.08944923
  0
VERTEX
  8
0
 10
16.95526316
 20
12.02334062
  0
VERTEX
  8
0
 10
16.96086551
 20
12.00846692
  0
VERTEX
  8
0
 10
16.90451524
 20
11.98724194
  0
VERTEX
  8
0
 10
16.77907625
 20
12.32027036
  0
VERTEX
  8
0
 10
16.83542652
 20
12.34149534
  0
VERTEX
  8
0
 10
16.84845851
 20
12.31096402
  0
VERTEX
  8
0
 10
16.87108561
 20
12.27122810
  0
VERTEX
  8
0
 10
16.91061344
 20
12.26390240
  0
VERTEX
  8
0
 10
16.97263461
 20
12.30871169
  0
VERTEX
  8
0
 10
17.13061673
 20
12.43837927
  0
VERTEX
  8
0
 10
17.00291942
 20
12.77740330
  0
VERTEX
  8
0
 10
16.77283222
 20
12.77408985
  0
VERTEX
  8
0
 10
16.72487704
 20
12.76921672
  0
VERTEX
  8
0
 10
16.70392455
 20
12.75366462
  0
VERTEX
  8
0
 10
16.69582298
 20
12.72839876
  0
VERTEX
  8
0
 10
16.70578246
 20
12.68772149
  0
VERTEX
  8
0
 10
16.71622947
 20
12.65795200
  0
VERTEX
  8
0
 10
16.65993448
 20
12.63658028
  0
VERTEX
  8
0
 10
16.55456367
 20
12.91632960
  0
VERTEX
  8
0
 10
16.61091394
 20
12.93755458
  0
VERTEX
  8
0
 10
16.63921412
 20
12.88479087
  0
VERTEX
  8
0
 10
16.67540559
 20
12.86395232
  0
VERTEX
  8
0
 10
16.75981902
 20
12.85744708
  0
VERTEX
  8
0
 10
17.64533169
 20
12.85743582
  0
SEQEND
  0
POLYLINE
  8
Default_Layer
 66
   1
 39
0.000000
 70
    1
  0
VERTEX
  8
0
 10
17.07758411
 20
12.77847685
  0
VERTEX
  8
0
 10
17.18643319
 20
12.48949305
  0
VERTEX
  8
0
 10
17.53470404
 20
12.78507833
  0
VERTEX
  8
0
 10
17.07758411
 20
12.77847685
  0
SEQEND
  0
POLYLINE
  8
Default_Layer
 66
   1
 39
0.000000
 70
    1
  0
VERTEX
  8
0
 10
17.84173862
 20
12.31038447
  0
VERTEX
  8
0
 10
18.02538844
 20
11.56788476
  0
VERTEX
  8
0
 10
17.79290102
 20
11.41512159
  0
VERTEX
  8
0
 10
17.75496286
 20
11.46998291
  0
VERTEX
  8
0
 10
17.86441531
 20
11.57680722
  0
VERTEX
  8
0
 10
17.89891489
 20
11.67616941
  0
VERTEX
  8
0
 10
17.87774997
 20
11.83339296
  0
VERTEX
  8
0
 10
17.82594247
 20
12.04285164
  0
VERTEX
  8
0
 10
17.45295293
 20
11.95059644
  0
VERTEX
  8
0
 10
17.47653308
 20
11.85526142
  0
VERTEX
  8
0
 10
17.51782476
 20
11.75101512
  0
VERTEX
  8
0
 10
17.57614506
 20
11.71227182
  0
VERTEX
  8
0
 10
17.67091189
 20
11.71725025
  0
VERTEX
  8
0
 10
17.69665931
 20
11.72361862
  0
VERTEX
  8
0
 10
17.71352686
 20
11.65542277
  0
VERTEX
  8
0
 10
17.28765074
 20
11.55008660
  0
VERTEX
  8
0
 10
17.27078318
 20
11.61828245
  0
VERTEX
  8
0
 10
17.30836049
 20
11.62757682
  0
VERTEX
  8
0
 10
17.38982241
 20
11.66544835
  0
VERTEX
  8
0
 10
17.42230282
 20
11.72221959
  0
VERTEX
  8
0
 10
17.41091900
 20
11.82795573
  0
VERTEX
  8
0
 10
17.38475708
 20
11.93372888
  0
VERTEX
  8
0
 10
17.08274689
 20
11.85902970
  0
VERTEX
  8
0
 10
17.02635871
 20
11.83622129
  0
VERTEX
  8
0
 10
17.00767554
 20
11.80427763
  0
VERTEX
  8
0
 10
17.01447141
 20
11.74097512
  0
VERTEX
  8
0
 10
17.02083977
 20
11.71522771
  0
VERTEX
  8
0
 10
16.96238618
 20
11.70076981
  0
VERTEX
  8
0
 10
16.87099157
 20
12.07027997
  0
VERTEX
  8
0
 10
16.92944515
 20
12.08473788
  0
VERTEX
  8
0
 10
16.93529716
 20
12.06107809
  0
VERTEX
  8
0
 10
16.95879405
 20
12.00190642
  0
VERTEX
  8
0
 10
16.99073771
 20
11.98322324
  0
VERTEX
  8
0
 10
17.05751959
 20
11.99087970
  0
VERTEX
  8
0
 10
17.71721006
 20
12.15404749
  0
VERTEX
  8
0
 10
17.77655385
 20
12.17684850
  0
VERTEX
  8
0
 10
17.79644926
 20
12.20687665
  0
VERTEX
  8
0
 10
17.79137457
 20
12.26322039
  0
VERTEX
  8
0
 10
17.78328503
 20
12.29592656
  0
VERTEX
  8
0
 10
17.84173862
 20
12.31038447
  0
SEQEND
  0
POLYLINE
  8
Default_Layer
 66
   1
 39
0.000000
 70
    1
  0
VERTEX
  8
0
 10
18.07232565
 20
11.34162777
  0
VERTEX
  8
0
 10
18.16338349
 20
10.53384059
  0
VERTEX
  8
0
 10
17.91247580
 20
10.41105545
  0
VERTEX
  8
0
 10
17.88190255
 20
10.47109105
  0
VERTEX
  8
0
 10
17.97647995
 20
10.53441346
  0
VERTEX
  8
0
 10
18.03169767
 20
10.60772678
  0
VERTEX
  8
0
 10
18.05705695
 20
10.68993786
  0
VERTEX
  8
0
 10
18.04946508
 20
10.83408064
  0
VERTEX
  8
0
 10
18.02232438
 20
11.07484966
  0
VERTEX
  8
0
 10
17.65832152
 20
11.03381742
  0
VERTEX
  8
0
 10
17.67184670
 20
10.91383360
  0
VERTEX
  8
0
 10
17.70521594
 20
10.81619534
  0
VERTEX
  8
0
 10
17.76670972
 20
10.77623714
  0
VERTEX
  8
0
 10
17.85481898
 20
10.77534847
  0
VERTEX
  8
0
 10
17.87120267
 20
10.77719532
  0
VERTEX
  8
0
 10
17.87907187
 20
10.70738655
  0
VERTEX
  8
0
 10
17.44312323
 20
10.65824422
  0
VERTEX
  8
0
 10
17.43525404
 20
10.72805299
  0
VERTEX
  8
0
 10
17.47300776
 20
10.73230878
  0
VERTEX
  8
0
 10
17.54407025
 20
10.74825455
  0
VERTEX
  8
0
 10
17.58225403
 20
10.78069287
  0
VERTEX
  8
0
 10
17.60450486
 20
10.82648425
  0
VERTEX
  8
0
 10
17.60271513
 20
10.90635635
  0
VERTEX
  8
0
 10
17.58922508
 20
11.02602852
  0
VERTEX
  8
0
 10
17.26639292
 20
10.98963725
  0
VERTEX
  8
0
 10
17.20504631
 20
10.97839364
  0
VERTEX
  8
0
 10
17.19042917
 20
10.96087543
  0
VERTEX
  8
0
 10
17.19273960
 20
10.90198223
  0
VERTEX
  8
0
 10
17.20955950
 20
10.75277043
  0
VERTEX
  8
0
 10
17.22953255
 20
10.64278157
  0
VERTEX
  8
0
 10
17.26144154
 20
10.56129724
  0
VERTEX
  8
0
 10
17.30666296
 20
10.49930593
  0
VERTEX
  8
0
 10
17.36659217
 20
10.44762919
  0
VERTEX
  8
0
 10
17.51243404
 20
10.38255261
  0
VERTEX
  8
0
 10
17.49694645
 20
10.31516064
  0
VERTEX
  8
0
 10
17.17312985
 20
10.39119462
  0
VERTEX
  8
0
 10
17.07861920
 20
11.22961217
  0
VERTEX
  8
0
 10
17.13845529
 20
11.23635720
  0
VERTEX
  8
0
 10
17.14166720
 20
11.20786382
  0
VERTEX
  8
0
 10
17.15435180
 20
11.14653311
  0
VERTEX
  8
0
 10
17.18748176
 20
11.12141225
  0
VERTEX
  8
0
 10
17.25025783
 20
11.12127483
  0
VERTEX
  8
0
 10
17.93481116
 20
11.19844113
  0
VERTEX
  8
0
 10
17.99574038
 20
11.21468739
  0
VERTEX
  8
0
 10
18.01634634
 20
11.24947257
  0
VERTEX
  8
0
 10
18.01248956
 20
11.33488274
  0
VERTEX
  8
0
 10
18.07232565
 20
11.34162777
  0
SEQEND
  0
POLYLINE
  8
Default_Layer
 66
   1
 39
0.000000
 70
    1
  0
VERTEX
  8
0
 10
18.21382426
 20
10.18729931
  0
VERTEX
  8
0
 10
18.21310929
 20
10.13712519
  0
VERTEX
  8
0
 10
18.17931882
 20
10.13043751
  0
VERTEX
  8
0
 10
18.17057574
 20
9.51687973
  0
VERTEX
  8
0
 10
18.20418236
 20
9.51066550
  0
VERTEX
  8
0
 10
18.20343675
 20
9.45834106
  0
VERTEX
  8
0
 10
17.90805834
 20
9.35716310
  0
VERTEX
  8
0
 10
17.88604085
 20
9.42199952
  0
VERTEX
  8
0
 10
17.98675588
 20
9.47146558
  0
VERTEX
  8
0
 10
18.05247160
 20
9.53003339
  0
VERTEX
  8
0
 10
18.08952615
 20
9.60227261
  0
VERTEX
  8
0
 10
18.10282416
 20
9.69277333
  0
VERTEX
  8
0
 10
18.09994505
 20
9.74228174
  0
VERTEX
  8
0
 10
18.08935688
 20
9.75390332
  0
VERTEX
  8
0
 10
18.03922362
 20
9.75748539
  0
VERTEX
  8
0
 10
17.34538725
 20
9.76737242
  0
VERTEX
  8
0
 10
17.27865585
 20
9.76330490
  0
VERTEX
  8
0
 10
17.25191054
 20
9.74791380
  0
VERTEX
  8
0
 10
17.23790372
 20
9.72087049
  0
VERTEX
  8
0
 10
17.23247956
 20
9.64208673
  0
VERTEX
  8
0
 10
17.17227062
 20
9.64294470
  0
VERTEX
  8
0
 10
17.17776568
 20
10.02856863
  0
VERTEX
  8
0
 10
17.23797462
 20
10.02771066
  0
VERTEX
  8
0
 10
17.24116195
 20
9.94952111
  0
VERTEX
  8
0
 10
17.26788863
 20
9.91329433
  0
VERTEX
  8
0
 10
17.34227983
 20
9.90148049
  0
VERTEX
  8
0
 10
18.05050766
 20
9.89138838
  0
VERTEX
  8
0
 10
18.09064202
 20
9.89440107
  0
VERTEX
  8
0
 10
18.10156726
 20
9.90643300
  0
VERTEX
  8
0
 10
18.10638880
 20
9.94292715
  0
VERTEX
  8
0
 10
18.08810658
 20
10.06864843
  0
VERTEX
  8
0
 10
18.02126945
 20
10.15778184
  0
VERTEX
  8
0
 10
17.89756210
 20
10.23051959
  0
VERTEX
  8
0
 10
17.92141809
 20
10.29470233
  0
VERTEX
  8
0
 10
18.21382426
 20
10.18729931
  0
SEQEND
  0
POLYLINE
  8
Default_Layer
 66
   1
 39
0.000000
 70
    1
  0
VERTEX
  8
0
 10
18.16444214
 20
9.32481891
  0
VERTEX
  8
0
 10
18.11549334
 20
8.95377292
  0
VERTEX
  8
0
 10
18.05579551
 20
8.96164832
  0
VERTEX
  8
0
 10
18.06132705
 20
9.00357894
  0
VERTEX
  8
0
 10
18.06007231
 20
9.05435843
  0
VERTEX
  8
0
 10
18.03802592
 20
9.06811267
  0
VERTEX
  8
0
 10
17.99786740
 20
9.05967235
  0
VERTEX
  8
0
 10
17.98030275
 20
9.05258976
  0
VERTEX
  8
0
 10
17.59666645
 20
8.90641509
  0
VERTEX
  8
0
 10
17.94008433
 20
8.64358395
  0
VERTEX
  8
0
 10
17.96725370
 20
8.62481554
  0
VERTEX
  8
0
 10
17.98109245
 20
8.62009769
  0
VERTEX
  8
0
 10
17.99889901
 20
8.62353308
  0
VERTEX
  8
0
 10
18.01100501
 20
8.63856635
  0
VERTEX
  8
0
 10
18.01838735
 20
8.67808364
  0
VERTEX
  8
0
 10
18.02326260
 20
8.71503944
  0
VERTEX
  8
0
 10
18.08296042
 20
8.70716403
  0
VERTEX
  8
0
 10
18.04250083
 20
8.40046866
  0
VERTEX
  8
0
 10
17.98280300
 20
8.40834406
  0
VERTEX
  8
0
 10
17.98504417
 20
8.46918059
  0
VERTEX
  8
0
 10
17.97220662
 20
8.50341168
  0
VERTEX
  8
0
 10
17.92643548
 20
8.54560270
  0
VERTEX
  8
0
 10
17.51485177
 20
8.87321470
  0
VERTEX
  8
0
 10
17.26540013
 20
8.90612263
  0
VERTEX
  8
0
 10
17.19320623
 20
8.90696985
  0
VERTEX
  8
0
 10
17.16529263
 20
8.88172998
  0
VERTEX
  8
0
 10
17.14637264
 20
8.79312078
  0
VERTEX
  8
0
 10
17.08667481
 20
8.80099619
  0
VERTEX
  8
0
 10
17.13777118
 20
9.18832138
  0
VERTEX
  8
0
 10
17.19746901
 20
9.18044598
  0
VERTEX
  8
0
 10
17.19353131
 20
9.15059707
  0
VERTEX
  8
0
 10
17.19371539
 20
9.08622074
  0
VERTEX
  8
0
 10
17.21805707
 20
9.05697952
  0
VERTEX
  8
0
 10
17.28330730
 20
9.04186412
  0
VERTEX
  8
0
 10
17.50645468
 20
9.01235849
  0
VERTEX
  8
0
 10
18.00724608
 20
9.21323702
  0
VERTEX
  8
0
 10
18.08172386
 20
9.25685023
  0
VERTEX
  8
0
 10
18.10482928
 20
9.33333837
  0
VERTEX
  8
0
 10
18.16444214
 20
9.32481891
  0
SEQEND
  0
POLYLINE
  8
Default_Layer
 66
   1
 39
0.000000
 70
    1
  0
VERTEX
  8
0
 10
4.90884620
 20
9.66485893
  0
VERTEX
  8
0
 10
5.01756782
 20
9.66485893
  0
VERTEX
  8
0
 10
5.03309948
 20
9.59186013
  0
VERTEX
  8
0
 10
6.36260964
 20
9.59186013
  0
VERTEX
  8
0
 10
6.37503497
 20
9.66485893
  0
VERTEX
  8
0
 10
6.48841609
 20
9.66485893
  0
VERTEX
  8
0
 10
6.71673150
 20
9.02806085
  0
VERTEX
  8
0
 10
6.57694656
 20
8.97835953
  0
VERTEX
  8
0
 10
6.46667177
 20
9.19502620
  0
VERTEX
  8
0
 10
6.40454512
 20
9.27482010
  0
VERTEX
  8
0
 10
6.33775898
 20
9.33558773
  0
VERTEX
  8
0
 10
6.26378945
 20
9.38111491
  0
VERTEX
  8
0
 10
6.18011263
 20
9.41363432
  0
VERTEX
  8
0
 10
5.98363712
 20
9.43964985
  0
VERTEX
  8
0
 10
5.87646866
 20
9.43188402
  0
VERTEX
  8
0
 10
5.85161800
 20
9.40858653
  0
VERTEX
  8
0
 10
5.84540534
 20
9.29986491
  0
VERTEX
  8
0
 10
5.84540534
 20
7.79640015
  0
VERTEX
  8
0
 10
5.85627750
 20
7.65195571
  0
VERTEX
  8
0
 10
5.89044715
 20
7.59448856
  0
VERTEX
  8
0
 10
5.94946747
 20
7.56497841
  0
VERTEX
  8
0
 10
6.12031573
 20
7.55565941
  0
VERTEX
  8
0
 10
6.12031573
 20
7.42519346
  0
VERTEX
  8
0
 10
5.28471239
 20
7.42519346
  0
VERTEX
  8
0
 10
5.28471239
 20
7.55565941
  0
VERTEX
  8
0
 10
5.45400749
 20
7.56497841
  0
VERTEX
  8
0
 10
5.50060247
 20
7.58749932
  0
VERTEX
  8
0
 10
5.53166579
 20
7.62399872
  0
VERTEX
  8
0
 10
5.54913891
 20
7.68612536
  0
VERTEX
  8
0
 10
5.55496328
 20
7.78552799
  0
VERTEX
  8
0
 10
5.55496328
 20
9.32017741
  0
VERTEX
  8
0
 10
5.54719745
 20
9.40703337
  0
VERTEX
  8
0
 10
5.52079363
 20
9.43033086
  0
VERTEX
  8
0
 10
5.44158216
 20
9.43964985
  0
VERTEX
  8
0
 10
5.28898359
 20
9.42877769
  0
VERTEX
  8
0
 10
5.16977810
 20
9.39616120
  0
VERTEX
  8
0
 10
5.07154034
 20
9.33752918
  0
VERTEX
  8
0
 10
4.97873867
 20
9.24861043
  0
VERTEX
  8
0
 10
4.89525600
 20
9.12901664
  0
VERTEX
  8
0
 10
4.82497523
 20
8.97835953
  0
VERTEX
  8
0
 10
4.68519028
 20
9.02806085
  0
VERTEX
  8
0
 10
4.90884620
 20
9.66485893
  0
SEQEND
  0
POLYLINE
  8
Default_Layer
 66
   1
 39
0.000000
 70
    1
  0
VERTEX
  8
0
 10
11.87934764
 20
14.49083637
  0
VERTEX
  8
0
 10
12.70730649
 20
14.49083637
  0
VERTEX
  8
0
 10
12.70730649
 20
14.36037042
  0
VERTEX
  8
0
 10
12.64207352
 20
14.36037042
  0
VERTEX
  8
0
 10
12.52362034
 20
14.34639193
  0
VERTEX
  8
0
 10
12.49876968
 20
14.30600961
  0
VERTEX
  8
0
 10
12.50808868
 20
14.26873363
  0
VERTEX
  8
0
 10
12.56400266
 20
14.18641582
  0
VERTEX
  8
0
 10
12.97037400
 20
13.63652223
  0
VERTEX
  8
0
 10
13.41314767
 20
14.18796899
  0
VERTEX
  8
0
 10
13.45876585
 20
14.25630830
  0
VERTEX
  8
0
 10
13.47415797
 20
14.30600961
  0
VERTEX
  8
0
 10
13.45086048
 20
14.34483876
  0
VERTEX
  8
0
 10
13.34835152
 20
14.36037042
  0
VERTEX
  8
0
 10
13.27025639
 20
14.36037042
  0
VERTEX
  8
0
 10
13.27025639
 20
14.49083637
  0
VERTEX
  8
0
 10
13.97311257
 20
14.49083637
  0
VERTEX
  8
0
 10
13.97311257
 20
14.36037042
  0
VERTEX
  8
0
 10
13.86443948
 20
14.35338118
  0
VERTEX
  8
0
 10
13.79100385
 20
14.33241343
  0
VERTEX
  8
0
 10
13.72577088
 20
14.28310041
  0
VERTEX
  8
0
 10
13.63879358
 20
14.18796899
  0
VERTEX
  8
0
 10
13.07387795
 20
13.51020615
  0
VERTEX
  8
0
 10
13.74096278
 20
12.63470585
  0
VERTEX
  8
0
 10
13.84691783
 20
12.51520913
  0
VERTEX
  8
0
 10
13.93078880
 20
12.46706099
  0
VERTEX
  8
0
 10
14.06436108
 20
12.45463566
  0
VERTEX
  8
0
 10
14.06557449
 20
12.32416971
  0
VERTEX
  8
0
 10
13.23450930
 20
12.32416971
  0
VERTEX
  8
0
 10
13.23450930
 20
12.45463566
  0
VERTEX
  8
0
 10
13.29974228
 20
12.45463566
  0
VERTEX
  8
0
 10
13.42135033
 20
12.46706099
  0
VERTEX
  8
0
 10
13.44620098
 20
12.51054964
  0
VERTEX
  8
0
 10
13.43688199
 20
12.54627245
  0
VERTEX
  8
0
 10
13.37475534
 20
12.63480292
  0
VERTEX
  8
0
 10
12.87973220
 20
13.29744666
  0
VERTEX
  8
0
 10
12.33724041
 20
12.61492725
  0
VERTEX
  8
0
 10
12.28132643
 20
12.54005979
  0
VERTEX
  8
0
 10
12.27200743
 20
12.50744330
  0
VERTEX
  8
0
 10
12.28093814
 20
12.48181606
  0
VERTEX
  8
0
 10
12.30773025
 20
12.46395465
  0
VERTEX
  8
0
 10
12.41800504
 20
12.45463566
  0
VERTEX
  8
0
 10
12.48323802
 20
12.45463566
  0
VERTEX
  8
0
 10
12.48323802
 20
12.32416971
  0
VERTEX
  8
0
 10
11.78144964
 20
12.32416971
  0
VERTEX
  8
0
 10
11.78144964
 20
12.45463566
  0
VERTEX
  8
0
 10
11.92099190
 20
12.46706099
  0
VERTEX
  8
0
 10
12.01107553
 20
12.51520913
  0
VERTEX
  8
0
 10
12.12600982
 20
12.63480292
  0
VERTEX
  8
0
 10
12.77904335
 20
13.42267068
  0
VERTEX
  8
0
 10
12.19929985
 20
14.18796899
  0
VERTEX
  8
0
 10
12.11983356
 20
14.28115895
  0
VERTEX
  8
0
 10
12.05611735
 20
14.33086027
  0
VERTEX
  8
0
 10
11.98467171
 20
14.35299289
  0
VERTEX
  8
0
 10
11.87905642
 20
14.36037042
  0
VERTEX
  8
0
 10
11.87934764
 20
14.49083637
  0
SEQEND
  0
POLYLINE
  8
Default_Layer
 66
   1
 39
0.000000
 70
    1
  0
VERTEX
  8
0
 10
14.23025121
 20
9.78983018
  0
VERTEX
  8
0
 10
14.48433947
 20
9.78983018
  0
VERTEX
  8
0
 10
15.15863196
 20
7.97845026
  0
VERTEX
  8
0
 10
15.20809969
 20
7.86404987
  0
VERTEX
  8
0
 10
15.25776764
 20
7.79711812
  0
VERTEX
  8
0
 10
15.31756453
 20
7.76450163
  0
VERTEX
  8
0
 10
15.39444625
 20
7.75362947
  0
VERTEX
  8
0
 10
15.42888286
 20
7.75362947
  0
VERTEX
  8
0
 10
15.42888286
 20
7.62316352
  0
VERTEX
  8
0
 10
14.65783298
 20
7.62316352
  0
VERTEX
  8
0
 10
14.65783298
 20
7.75362947
  0
VERTEX
  8
0
 10
14.72969117
 20
7.75673580
  0
VERTEX
  8
0
 10
14.82754064
 20
7.77226746
  0
VERTEX
  8
0
 10
14.86132200
 20
7.80566053
  0
VERTEX
  8
0
 10
14.87258245
 20
7.84681943
  0
VERTEX
  8
0
 10
14.82909380
 20
8.00679554
  0
VERTEX
  8
0
 10
14.68683350
 20
8.42615038
  0
VERTEX
  8
0
 10
13.90190220
 20
8.42615038
  0
VERTEX
  8
0
 10
13.73289831
 20
7.95709422
  0
VERTEX
  8
0
 10
13.70615474
 20
7.85613843
  0
VERTEX
  8
0
 10
13.72168640
 20
7.80177762
  0
VERTEX
  8
0
 10
13.76672821
 20
7.76605480
  0
VERTEX
  8
0
 10
13.85681184
 20
7.75518263
  0
VERTEX
  8
0
 10
13.92515115
 20
7.75362947
  0
VERTEX
  8
0
 10
13.92549091
 20
7.62316352
  0
VERTEX
  8
0
 10
13.27779639
 20
7.62316352
  0
VERTEX
  8
0
 10
13.27779639
 20
7.75362947
  0
VERTEX
  8
0
 10
13.40639368
 20
7.77071429
  0
VERTEX
  8
0
 10
13.47628616
 20
7.82818144
  0
VERTEX
  8
0
 10
13.55394446
 20
7.99437021
  0
VERTEX
  8
0
 10
14.23025121
 20
9.78983018
  0
SEQEND
  0
POLYLINE
  8
Default_Layer
 66
   1
 39
0.000000
 70
    1
  0
VERTEX
  8
0
 10
13.95674837
 20
8.57836065
  0
VERTEX
  8
0
 10
14.62582319
 20
8.57836065
  0
VERTEX
  8
0
 10
14.29247493
 20
9.51026029
  0
VERTEX
  8
0
 10
13.95674837
 20
8.57836065
  0
SEQEND
  0
POLYLINE
  8
Default_Layer
 66
   1
 39
0.000000
 70
    1
  0
VERTEX
  8
0
 10
10.62001538
 20
6.49986389
  0
VERTEX
  8
0
 10
10.73201322
 20
6.49986389
  0
VERTEX
  8
0
 10
10.89788650
 20
5.83200248
  0
VERTEX
  8
0
 10
10.75344206
 20
5.78851383
  0
VERTEX
  8
0
 10
10.67947252
 20
5.92160075
  0
VERTEX
  8
0
 10
10.59424253
 20
6.03973844
  0
VERTEX
  8
0
 10
10.49775209
 20
6.14292691
  0
VERTEX
  8
0
 10
10.39000120
 20
6.23116616
  0
VERTEX
  8
0
 10
10.29428734
 20
6.29028354
  0
VERTEX
  8
0
 10
10.19352569
 20
6.33251024
  0
VERTEX
  8
0
 10
10.08771625
 20
6.35784627
  0
VERTEX
  8
0
 10
9.97685902
 20
6.36629161
  0
VERTEX
  8
0
 10
9.84716966
 20
6.35386628
  0
VERTEX
  8
0
 10
9.73145878
 20
6.31659029
  0
VERTEX
  8
0
 10
9.63632736
 20
6.26106461
  0
VERTEX
  8
0
 10
9.56837635
 20
6.19078384
  0
VERTEX
  8
0
 10
9.52877061
 20
6.11234895
  0
VERTEX
  8
0
 10
9.51556870
 20
6.03236090
  0
VERTEX
  8
0
 10
9.52605257
 20
5.96052697
  0
VERTEX
  8
0
 10
9.55750418
 20
5.89102279
  0
VERTEX
  8
0
 10
9.61031183
 20
5.82695469
  0
VERTEX
  8
0
 10
9.68486380
 20
5.77142900
  0
VERTEX
  8
0
 10
9.79746834
 20
5.71745648
  0
VERTEX
  8
0
 10
9.96443369
 20
5.66115421
  0
VERTEX
  8
0
 10
10.37005272
 20
5.54240981
  0
VERTEX
  8
0
 10
10.58570012
 20
5.45768946
  0
VERTEX
  8
0
 10
10.71267145
 20
5.39362136
  0
VERTEX
  8
0
 10
10.80780287
 20
5.32567034
  0
VERTEX
  8
0
 10
10.87847193
 20
5.24917691
  0
VERTEX
  8
0
 10
10.93205615
 20
5.15637524
  0
VERTEX
  8
0
 10
10.96583752
 20
5.05270140
  0
VERTEX
  8
0
 10
10.97709797
 20
4.94048516
  0
VERTEX
  8
0
 10
10.96292533
 20
4.81555236
  0
VERTEX
  8
0
 10
10.92040741
 20
4.69857954
  0
VERTEX
  8
0
 10
10.84954421
 20
4.58956670
  0
VERTEX
  8
0
 10
10.75033572
 20
4.48851383
  0
VERTEX
  8
0
 10
10.62938292
 20
4.40425457
  0
VERTEX
  8
0
 10
10.49173357
 20
4.34406938
  0
VERTEX
  8
0
 10
10.33738770
 20
4.30795827
  0
VERTEX
  8
0
 10
10.16634528
 20
4.29592124
  0
VERTEX
  8
0
 10
9.99122581
 20
4.30912315
  0
VERTEX
  8
0
 10
9.83552091
 20
4.34872888
  0
VERTEX
  8
0
 10
9.68369893
 20
4.42366915
  0
VERTEX
  8
0
 10
9.52022820
 20
4.53976831
  0
VERTEX
  8
0
 10
9.44878256
 20
4.33319722
  0
VERTEX
  8
0
 10
9.33981825
 20
4.33319722
  0
VERTEX
  8
0
 10
9.19561649
 20
5.11133342
  0
VERTEX
  8
0
 10
9.34006093
 20
5.14084358
  0
VERTEX
  8
0
 10
9.43208602
 20
4.94126174
  0
VERTEX
  8
0
 10
9.54973835
 20
4.77429639
  0
VERTEX
  8
0
 10
9.68835842
 20
4.64188898
  0
VERTEX
  8
0
 10
9.84018041
 20
4.54598097
  0
VERTEX
  8
0
 10
10.00132139
 20
4.48890212
  0
VERTEX
  8
0
 10
10.16479212
 20
4.46987584
  0
VERTEX
  8
0
 10
10.27312545
 20
4.47832118
  0
VERTEX
  8
0
 10
10.37446954
 20
4.50365720
  0
VERTEX
  8
0
 10
10.46882437
 20
4.54588390
  0
VERTEX
  8
0
 10
10.55618997
 20
4.60500128
  0
VERTEX
  8
0
 10
10.61734588
 20
4.66421574
  0
VERTEX
  8
0
 10
10.66102868
 20
4.72847799
  0
VERTEX
  8
0
 10
10.68723835
 20
4.79778802
  0
VERTEX
  8
0
 10
10.69597491
 20
4.87214585
  0
VERTEX
  8
0
 10
10.67073596
 20
5.00067034
  0
VERTEX
  8
0
 10
10.59501912
 20
5.10356759
  0
VERTEX
  8
0
 10
10.45212784
 20
5.19054489
  0
VERTEX
  8
0
 10
10.22847193
 20
5.27130953
  0
VERTEX
  8
0
 10
9.84018041
 20
5.38313748
  0
VERTEX
  8
0
 10
9.56216368
 20
5.49108253
  0
VERTEX
  8
0
 10
9.45926643
 20
5.55495648
  0
VERTEX
  8
0
 10
9.38044325
 20
5.62543139
  0
VERTEX
  8
0
 10
9.32200538
 20
5.70192482
  0
VERTEX
  8
0
 10
9.28026404
 20
5.78385433
  0
VERTEX
  8
0
 10
9.25521924
 20
5.87121992
  0
VERTEX
  8
0
 10
9.24687097
 20
5.96402159
  0
VERTEX
  8
0
 10
9.26861529
 20
6.10730116
  0
VERTEX
  8
0
 10
9.33384827
 20
6.23893199
  0
VERTEX
  8
0
 10
9.44412306
 20
6.35580774
  0
VERTEX
  8
0
 10
9.60099283
 20
6.45171574
  0
VERTEX
  8
0
 10
9.78970251
 20
6.51578384
  0
VERTEX
  8
0
 10
9.99549701
 20
6.53713987
  0
VERTEX
  8
0
 10
10.17178136
 20
6.52160821
  0
VERTEX
  8
0
 10
10.34029988
 20
6.47501323
  0
VERTEX
  8
0
 10
10.45212784
 20
6.42220559
  0
VERTEX
  8
0
 10
10.55463680
 20
6.35075995
  0
VERTEX
  8
0
 10
10.62001538
 20
6.49986389
  0
SEQEND
  0
POLYLINE
  8
Default_Layer
 66
   1
 39
0.000000
 70
    1
  0
VERTEX
  8
0
 10
4.25143077
 20
4.33864018
  0
VERTEX
  8
0
 10
4.14705579
 20
4.31409040
  0
VERTEX
  8
0
 10
4.05766967
 20
4.31977016
  0
VERTEX
  8
0
 10
3.98327239
 20
4.35567945
  0
VERTEX
  8
0
 10
3.92386396
 20
4.42181827
  0
VERTEX
  8
0
 10
3.88495823
 20
4.52135342
  0
VERTEX
  8
0
 10
3.89317930
 20
4.62441078
  0
VERTEX
  8
0
 10
3.94667297
 20
4.72125964
  0
VERTEX
  8
0
 10
4.04137481
 20
4.80265625
  0
VERTEX
  8
0
 10
4.14961961
 20
4.85282407
  0
VERTEX
  8
0
 10
4.25587962
 20
4.86374132
  0
VERTEX
  8
0
 10
4.35916687
 20
4.83026637
  0
VERTEX
  8
0
 10
4.43811418
 20
4.74943001
  0
VERTEX
  8
0
 10
4.46897451
 20
4.67846398
  0
VERTEX
  8
0
 10
4.47366790
 20
4.60312384
  0
VERTEX
  8
0
 10
4.45280305
 20
4.52617240
  0
VERTEX
  8
0
 10
4.40477842
 20
4.45085945
  0
VERTEX
  8
0
 10
4.36255790
 20
4.51694121
  0
VERTEX
  8
0
 10
4.39283076
 20
4.56904280
  0
VERTEX
  8
0
 10
4.40589935
 20
4.61964797
  0
VERTEX
  8
0
 10
4.40176366
 20
4.66875672
  0
VERTEX
  8
0
 10
4.38042369
 20
4.71636903
  0
VERTEX
  8
0
 10
4.32722713
 20
4.76879112
  0
VERTEX
  8
0
 10
4.25466339
 20
4.78984804
  0
VERTEX
  8
0
 10
4.16971443
 20
4.77901544
  0
VERTEX
  8
0
 10
4.07936217
 20
4.73576899
  0
VERTEX
  8
0
 10
4.00697779
 20
4.67480346
  0
VERTEX
  8
0
 10
3.96379503
 20
4.60305881
  0
VERTEX
  8
0
 10
3.95406564
 20
4.52799939
  0
VERTEX
  8
0
 10
3.97983117
 20
4.45757646
  0
VERTEX
  8
0
 10
4.02055518
 20
4.41297196
  0
VERTEX
  8
0
 10
4.07250331
 20
4.38906993
  0
VERTEX
  8
0
 10
4.13567555
 20
4.38587039
  0
VERTEX
  8
0
 10
4.21007190
 20
4.40337333
  0
VERTEX
  8
0
 10
4.25143077
 20
4.33864018
  0
SEQEND
  0
POLYLINE
  8
Default_Layer
 66
   1
 39
0.000000
 70
    1
  0
VERTEX
  8
0
 10
4.75752328
 20
3.88940188
  0
VERTEX
  8
0
 10
4.65627063
 20
3.81921956
  0
VERTEX
  8
0
 10
4.54629373
 20
3.79504691
  0
VERTEX
  8
0
 10
4.43920060
 20
3.81722369
  0
VERTEX
  8
0
 10
4.34433645
 20
3.88613374
  0
VERTEX
  8
0
 10
4.28112627
 20
3.98215725
  0
VERTEX
  8
0
 10
4.26455760
 20
4.09028824
  0
VERTEX
  8
0
 10
4.29498123
 20
4.19948437
  0
VERTEX
  8
0
 10
4.37048509
 20
4.29874744
  0
VERTEX
  8
0
 10
4.46876502
 20
4.36884620
  0
VERTEX
  8
0
 10
4.57443760
 20
4.39720565
  0
VERTEX
  8
0
 10
4.68583966
 20
4.37834045
  0
VERTEX
  8
0
 10
4.78435887
 20
4.30822734
  0
VERTEX
  8
0
 10
4.85139123
 20
4.20505533
  0
VERTEX
  8
0
 10
4.86500461
 20
4.09047382
  0
VERTEX
  8
0
 10
4.83197378
 20
3.98543142
  0
VERTEX
  8
0
 10
4.75752328
 20
3.88940188
  0
SEQEND
  0
POLYLINE
  8
Default_Layer
 66
   1
 39
0.000000
 70
    1
  0
VERTEX
  8
0
 10
4.71001873
 20
3.94918334
  0
VERTEX
  8
0
 10
4.76778355
 20
4.02389145
  0
VERTEX
  8
0
 10
4.79343532
 20
4.10601629
  0
VERTEX
  8
0
 10
4.78454586
 20
4.18711636
  0
VERTEX
  8
0
 10
4.73868704
 20
4.25875011
  0
VERTEX
  8
0
 10
4.66401840
 20
4.31127939
  0
VERTEX
  8
0
 10
4.57979324
 20
4.32353142
  0
VERTEX
  8
0
 10
4.49982087
 20
4.29990603
  0
VERTEX
  8
0
 10
4.42318021
 20
4.24395815
  0
VERTEX
  8
0
 10
4.36267041
 20
4.16633243
  0
VERTEX
  8
0
 10
4.33685793
 20
4.08322036
  0
VERTEX
  8
0
 10
4.34716716
 20
4.00237559
  0
VERTEX
  8
0
 10
4.39386904
 20
3.93044245
  0
VERTEX
  8
0
 10
4.46897573
 20
3.87861204
  0
VERTEX
  8
0
 10
4.55451507
 20
3.86845661
  0
VERTEX
  8
0
 10
4.63423213
 20
3.89350179
  0
VERTEX
  8
0
 10
4.71001873
 20
3.94918334
  0
SEQEND
  0
POLYLINE
  8
Default_Layer
 66
   1
 39
0.000000
 70
    1
  0
VERTEX
  8
0
 10
5.05434590
 20
3.44782333
  0
VERTEX
  8
0
 10
5.00528028
 20
3.41243071
  0
VERTEX
  8
0
 10
4.94220047
 20
3.39848344
  0
VERTEX
  8
0
 10
4.85637297
 20
3.41421750
  0
VERTEX
  8
0
 10
4.77297727
 20
3.46942917
  0
VERTEX
  8
0
 10
4.70930658
 20
3.54834649
  0
VERTEX
  8
0
 10
4.68501904
 20
3.63304067
  0
VERTEX
  8
0
 10
4.69267181
 20
3.69753907
  0
VERTEX
  8
0
 10
4.72326176
 20
3.74978206
  0
VERTEX
  8
0
 10
5.01120098
 20
4.06549444
  0
VERTEX
  8
0
 10
5.06677582
 20
4.01480851
  0
VERTEX
  8
0
 10
4.78045423
 20
3.70086980
  0
VERTEX
  8
0
 10
4.76026190
 20
3.66269910
  0
VERTEX
  8
0
 10
4.75899822
 20
3.61322140
  0
VERTEX
  8
0
 10
4.77767315
 20
3.56126257
  0
VERTEX
  8
0
 10
4.81503580
 20
3.51554446
  0
VERTEX
  8
0
 10
4.86193524
 20
3.48414225
  0
VERTEX
  8
0
 10
4.91395030
 20
3.47081742
  0
VERTEX
  8
0
 10
4.96408557
 20
3.47680576
  0
VERTEX
  8
0
 10
5.00416318
 20
3.50442148
  0
VERTEX
  8
0
 10
5.28671028
 20
3.81422164
  0
VERTEX
  8
0
 10
5.34228512
 20
3.76353571
  0
VERTEX
  8
0
 10
5.05434590
 20
3.44782333
  0
SEQEND
  0
POLYLINE
  8
Default_Layer
 66
   1
 39
0.000000
 70
    1
  0
VERTEX
  8
0
 10
5.41393088
 20
2.95718794
  0
VERTEX
  8
0
 10
5.34323098
 20
3.01355655
  0
VERTEX
  8
0
 10
5.36588998
 20
3.06508070
  0
VERTEX
  8
0
 10
5.42038160
 20
3.13727712
  0
VERTEX
  8
0
 10
5.45084019
 20
3.21430757
  0
VERTEX
  8
0
 10
5.44140552
 20
3.24715850
  0
VERTEX
  8
0
 10
5.41552821
 20
3.27623323
  0
VERTEX
  8
0
 10
5.26224080
 20
3.39844836
  0
VERTEX
  8
0
 10
5.10610474
 20
3.20261587
  0
VERTEX
  8
0
 10
5.04729243
 20
3.24950658
  0
VERTEX
  8
0
 10
5.41094479
 20
3.70561482
  0
VERTEX
  8
0
 10
5.61991620
 20
3.53900318
  0
VERTEX
  8
0
 10
5.68022295
 20
3.47633777
  0
VERTEX
  8
0
 10
5.70347613
 20
3.41404852
  0
VERTEX
  8
0
 10
5.69378906
 20
3.35857808
  0
VERTEX
  8
0
 10
5.65730421
 20
3.29837708
  0
VERTEX
  8
0
 10
5.59842233
 20
3.25500971
  0
VERTEX
  8
0
 10
5.51655576
 20
3.24378356
  0
VERTEX
  8
0
 10
5.52829129
 20
3.17507069
  0
VERTEX
  8
0
 10
5.50637631
 20
3.12704687
  0
VERTEX
  8
0
 10
5.43555835
 20
3.02795541
  0
VERTEX
  8
0
 10
5.42590298
 20
2.97220385
  0
VERTEX
  8
0
 10
5.41393088
 20
2.95718794
  0
SEQEND
  0
POLYLINE
  8
Default_Layer
 66
   1
 39
0.000000
 70
    1
  0
VERTEX
  8
0
 10
5.60447795
 20
3.35277573
  0
VERTEX
  8
0
 10
5.62207462
 20
3.38607747
  0
VERTEX
  8
0
 10
5.62298556
 20
3.42091373
  0
VERTEX
  8
0
 10
5.58101536
 20
3.48507781
  0
VERTEX
  8
0
 10
5.42835361
 20
3.60679410
  0
VERTEX
  8
0
 10
5.30364430
 20
3.45037838
  0
VERTEX
  8
0
 10
5.45693171
 20
3.32816325
  0
VERTEX
  8
0
 10
5.49548129
 20
3.30631853
  0
VERTEX
  8
0
 10
5.53292220
 20
3.30313904
  0
VERTEX
  8
0
 10
5.56925442
 20
3.31862477
  0
VERTEX
  8
0
 10
5.60447795
 20
3.35277573
  0
SEQEND
  0
POLYLINE
  8
Default_Layer
 66
   1
 39
0.000000
 70
    1
  0
VERTEX
  8
0
 10
6.15881812
 20
3.06479803
  0
VERTEX
  8
0
 10
6.00273079
 20
3.17391028
  0
VERTEX
  8
0
 10
5.70656897
 20
2.75024466
  0
VERTEX
  8
0
 10
5.64492103
 20
2.79333942
  0
VERTEX
  8
0
 10
5.94108285
 20
3.21700503
  0
VERTEX
  8
0
 10
5.78368386
 20
3.32703419
  0
VERTEX
  8
0
 10
5.82173561
 20
3.38146801
  0
VERTEX
  8
0
 10
6.19686987
 20
3.11923185
  0
VERTEX
  8
0
 10
6.15881812
 20
3.06479803
  0
SEQEND
  0
POLYLINE
  8
Default_Layer
 66
   1
 39
0.000000
 70
    1
  0
VERTEX
  8
0
 10
6.28501230
 20
2.38091063
  0
VERTEX
  8
0
 10
5.92825301
 20
2.59968315
  0
VERTEX
  8
0
 10
6.23319597
 20
3.09696332
  0
VERTEX
  8
0
 10
6.57835888
 20
2.88530195
  0
VERTEX
  8
0
 10
6.54363973
 20
2.82868432
  0
VERTEX
  8
0
 10
6.26259798
 20
3.00102520
  0
VERTEX
  8
0
 10
6.16638827
 20
2.84413297
  0
VERTEX
  8
0
 10
6.43651577
 20
2.67848494
  0
VERTEX
  8
0
 10
6.40179661
 20
2.62186730
  0
VERTEX
  8
0
 10
6.13166911
 20
2.78751533
  0
VERTEX
  8
0
 10
6.02709334
 20
2.61698030
  0
VERTEX
  8
0
 10
6.31973146
 20
2.43752826
  0
VERTEX
  8
0
 10
6.28501230
 20
2.38091063
  0
SEQEND
  0
POLYLINE
  8
Default_Layer
 66
   1
 39
0.000000
 70
    1
  0
VERTEX
  8
0
 10
6.90349392
 20
2.23174574
  0
VERTEX
  8
0
 10
6.85680535
 20
2.17594935
  0
VERTEX
  8
0
 10
6.78885611
 20
2.14783222
  0
VERTEX
  8
0
 10
6.70692618
 20
2.14970708
  0
VERTEX
  8
0
 10
6.61755961
 20
2.18246557
  0
VERTEX
  8
0
 10
6.53729620
 20
2.23889486
  0
VERTEX
  8
0
 10
6.49262370
 20
2.30663094
  0
VERTEX
  8
0
 10
6.48324086
 20
2.38335182
  0
VERTEX
  8
0
 10
6.50884641
 20
2.46673547
  0
VERTEX
  8
0
 10
6.56995556
 20
2.43509253
  0
VERTEX
  8
0
 10
6.55413842
 20
2.37322265
  0
VERTEX
  8
0
 10
6.56296842
 20
2.32066707
  0
VERTEX
  8
0
 10
6.59855195
 20
2.27453287
  0
VERTEX
  8
0
 10
6.66157428
 20
2.23266304
  0
VERTEX
  8
0
 10
6.71436246
 20
2.21366392
  0
VERTEX
  8
0
 10
6.76329898
 20
2.21332949
  0
VERTEX
  8
0
 10
6.80488500
 20
2.23099347
  0
VERTEX
  8
0
 10
6.83346465
 20
2.26530432
  0
VERTEX
  8
0
 10
6.83837937
 20
2.32178117
  0
VERTEX
  8
0
 10
6.79572469
 20
2.38036256
  0
VERTEX
  8
0
 10
6.67514067
 20
2.49039128
  0
VERTEX
  8
0
 10
6.63854804
 20
2.53183766
  0
VERTEX
  8
0
 10
6.61956721
 20
2.57507089
  0
VERTEX
  8
0
 10
6.61810664
 20
2.62006973
  0
VERTEX
  8
0
 10
6.63407483
 20
2.66681293
  0
VERTEX
  8
0
 10
6.67789580
 20
2.72229200
  0
VERTEX
  8
0
 10
6.73871401
 20
2.75229946
  0
VERTEX
  8
0
 10
6.81105123
 20
2.75539180
  0
VERTEX
  8
0
 10
6.88727222
 20
2.72944023
  0
VERTEX
  8
0
 10
6.96814462
 20
2.67494834
  0
VERTEX
  8
0
 10
7.01464404
 20
2.61302447
  0
VERTEX
  8
0
 10
7.02677051
 20
2.54366859
  0
VERTEX
  8
0
 10
7.00452401
 20
2.46688072
  0
VERTEX
  8
0
 10
6.94128314
 20
2.49962749
  0
VERTEX
  8
0
 10
6.95392848
 20
2.55232661
  0
VERTEX
  8
0
 10
6.94235791
 20
2.60089472
  0
VERTEX
  8
0
 10
6.91248133
 20
2.63934305
  0
VERTEX
  8
0
 10
6.86462532
 20
2.67178268
  0
VERTEX
  8
0
 10
6.81601491
 20
2.68884379
  0
VERTEX
  8
0
 10
6.76824257
 20
2.68925123
  0
VERTEX
  8
0
 10
6.72829330
 20
2.67344301
  0
VERTEX
  8
0
 10
6.70173100
 20
2.64259302
  0
VERTEX
  8
0
 10
6.69661626
 20
2.59095050
  0
VERTEX
  8
0
 10
6.73425557
 20
2.53834523
  0
VERTEX
  8
0
 10
6.87418942
 20
2.41182034
  0
VERTEX
  8
0
 10
6.90346007
 20
2.37481214
  0
VERTEX
  8
0
 10
6.91919868
 20
2.32994289
  0
VERTEX
  8
0
 10
6.91956217
 20
2.27974389
  0
VERTEX
  8
0
 10
6.90349392
 20
2.23174574
  0
SEQEND
  0
POLYLINE
  8
Default_Layer
 66
   1
 39
0.000000
 70
    1
  0
VERTEX
  8
0
 10
7.59763147
 20
2.39343140
  0
VERTEX
  8
0
 10
7.25513831
 20
2.15515138
  0
VERTEX
  8
0
 10
7.16446222
 20
1.94502945
  0
VERTEX
  8
0
 10
7.09540116
 20
1.97483208
  0
VERTEX
  8
0
 10
7.18607726
 20
2.18495401
  0
VERTEX
  8
0
 10
7.12155102
 20
2.59887935
  0
VERTEX
  8
0
 10
7.20601764
 20
2.56242858
  0
VERTEX
  8
0
 10
7.24880741
 20
2.23555689
  0
VERTEX
  8
0
 10
7.51288933
 20
2.43000106
  0
VERTEX
  8
0
 10
7.59763147
 20
2.39343140
  0
SEQEND
  0
POLYLINE
  8
Default_Layer
 66
   1
 39
0.000000
 70
    1
  0
VERTEX
  8
0
 10
8.51257259
 20
1.69034425
  0
VERTEX
  8
0
 10
8.48047200
 20
1.62505557
  0
VERTEX
  8
0
 10
8.42114508
 20
1.58160458
  0
VERTEX
  8
0
 10
8.34111421
 20
1.56396688
  0
VERTEX
  8
0
 10
8.24652443
 20
1.57456285
  0
VERTEX
  8
0
 10
8.15515534
 20
1.61031435
  0
VERTEX
  8
0
 10
8.09567333
 20
1.66550221
  0
VERTEX
  8
0
 10
8.06833724
 20
1.73779930
  0
VERTEX
  8
0
 10
8.07340592
 20
1.82487849
  0
VERTEX
  8
0
 10
8.14028190
 20
1.80865483
  0
VERTEX
  8
0
 10
8.13961187
 20
1.74479862
  0
VERTEX
  8
0
 10
8.16067151
 20
1.69584405
  0
VERTEX
  8
0
 10
8.20619404
 20
1.65948128
  0
VERTEX
  8
0
 10
8.27735741
 20
1.63377775
  0
VERTEX
  8
0
 10
8.33314752
 20
1.62785982
  0
VERTEX
  8
0
 10
8.38076320
 20
1.63915771
  0
VERTEX
  8
0
 10
8.41696395
 20
1.66619321
  0
VERTEX
  8
0
 10
8.43657676
 20
1.70631015
  0
VERTEX
  8
0
 10
8.42793721
 20
1.76233825
  0
VERTEX
  8
0
 10
8.37258958
 20
1.80911260
  0
VERTEX
  8
0
 10
8.22932341
 20
1.88735342
  0
VERTEX
  8
0
 10
8.18393405
 20
1.91892285
  0
VERTEX
  8
0
 10
8.15522814
 20
1.95641093
  0
VERTEX
  8
0
 10
8.14312184
 20
1.99977527
  0
VERTEX
  8
0
 10
8.14753129
 20
2.04897351
  0
VERTEX
  8
0
 10
8.17692171
 20
2.11327287
  0
VERTEX
  8
0
 10
8.22887268
 20
2.15686643
  0
VERTEX
  8
0
 10
8.29840558
 20
2.17705087
  0
VERTEX
  8
0
 10
8.37860925
 20
2.16994488
  0
VERTEX
  8
0
 10
8.47010974
 20
2.13621998
  0
VERTEX
  8
0
 10
8.52998597
 20
2.08711193
  0
VERTEX
  8
0
 10
8.55823794
 20
2.02262073
  0
VERTEX
  8
0
 10
8.55486564
 20
1.94274638
  0
VERTEX
  8
0
 10
8.48565678
 20
1.95953599
  0
VERTEX
  8
0
 10
8.48542389
 20
2.01373053
  0
VERTEX
  8
0
 10
8.46264914
 20
2.05816082
  0
VERTEX
  8
0
 10
8.42449572
 20
2.08841309
  0
VERTEX
  8
0
 10
8.37030443
 20
2.10855837
  0
VERTEX
  8
0
 10
8.31903284
 20
2.11358598
  0
VERTEX
  8
0
 10
8.27253068
 20
2.10263550
  0
VERTEX
  8
0
 10
8.23747909
 20
2.07779140
  0
VERTEX
  8
0
 10
8.21900392
 20
2.04151543
  0
VERTEX
  8
0
 10
8.22630099
 20
1.99013583
  0
VERTEX
  8
0
 10
8.27535740
 20
1.94797540
  0
VERTEX
  8
0
 10
8.44133768
 20
1.85830615
  0
VERTEX
  8
0
 10
8.47856047
 20
1.82930889
  0
VERTEX
  8
0
 10
8.50450549
 20
1.78946157
  0
VERTEX
  8
0
 10
8.51678118
 20
1.74078529
  0
VERTEX
  8
0
 10
8.51257259
 20
1.69034425
  0
SEQEND
  0
POLYLINE
  8
Default_Layer
 66
   1
 39
0.000000
 70
    1
  0
VERTEX
  8
0
 10
8.97901109
 20
1.44059498
  0
VERTEX
  8
0
 10
8.56617575
 20
1.50919236
  0
VERTEX
  8
0
 10
8.66179236
 20
2.08463588
  0
VERTEX
  8
0
 10
9.06120858
 20
2.01826824
  0
VERTEX
  8
0
 10
9.05032218
 20
1.95275135
  0
VERTEX
  8
0
 10
8.72510582
 20
2.00678982
  0
VERTEX
  8
0
 10
8.69493871
 20
1.82523700
  0
VERTEX
  8
0
 10
9.00752532
 20
1.77329711
  0
VERTEX
  8
0
 10
8.99663893
 20
1.70778022
  0
VERTEX
  8
0
 10
8.68405232
 20
1.75972011
  0
VERTEX
  8
0
 10
8.65126199
 20
1.56238008
  0
VERTEX
  8
0
 10
8.98989748
 20
1.50611187
  0
VERTEX
  8
0
 10
8.97901109
 20
1.44059498
  0
SEQEND
  0
POLYLINE
  8
Default_Layer
 66
   1
 39
0.000000
 70
    1
  0
VERTEX
  8
0
 10
9.57903831
 20
1.38921437
  0
VERTEX
  8
0
 10
9.48887532
 20
1.39603584
  0
VERTEX
  8
0
 10
9.47861802
 20
1.45137981
  0
VERTEX
  8
0
 10
9.48304577
 20
1.54172390
  0
VERTEX
  8
0
 10
9.46488554
 20
1.62254236
  0
VERTEX
  8
0
 10
9.43860264
 20
1.64439197
  0
VERTEX
  8
0
 10
9.40085121
 20
1.65386850
  0
VERTEX
  8
0
 10
9.20536509
 20
1.66865840
  0
VERTEX
  8
0
 10
9.18647024
 20
1.41891489
  0
VERTEX
  8
0
 10
9.11146740
 20
1.42458938
  0
VERTEX
  8
0
 10
9.15547488
 20
2.00626036
  0
VERTEX
  8
0
 10
9.42197434
 20
1.98609781
  0
VERTEX
  8
0
 10
9.50708811
 20
1.96822316
  0
VERTEX
  8
0
 10
9.56135798
 20
1.92981168
  0
VERTEX
  8
0
 10
9.58455954
 20
1.87850382
  0
VERTEX
  8
0
 10
9.58826893
 20
1.80820769
  0
VERTEX
  8
0
 10
9.56399136
 20
1.73922650
  0
VERTEX
  8
0
 10
9.50262838
 20
1.68388443
  0
VERTEX
  8
0
 10
9.55099076
 20
1.63368223
  0
VERTEX
  8
0
 10
9.55989372
 20
1.58165060
  0
VERTEX
  8
0
 10
9.55710117
 20
1.45988647
  0
VERTEX
  8
0
 10
9.58048711
 20
1.40836404
  0
VERTEX
  8
0
 10
9.57903831
 20
1.38921437
  0
SEQEND
  0
POLYLINE
  8
Default_Layer
 66
   1
 39
0.000000
 70
    1
  0
VERTEX
  8
0
 10
9.51399049
 20
1.82345701
  0
VERTEX
  8
0
 10
9.50980081
 20
1.86088822
  0
VERTEX
  8
0
 10
9.49095362
 20
1.89019996
  0
VERTEX
  8
0
 10
9.42015549
 20
1.91963043
  0
VERTEX
  8
0
 10
9.22546727
 20
1.93435995
  0
VERTEX
  8
0
 10
9.21037554
 20
1.73488431
  0
VERTEX
  8
0
 10
9.40586167
 20
1.72009442
  0
VERTEX
  8
0
 10
9.45002140
 20
1.72372488
  0
VERTEX
  8
0
 10
9.48276278
 20
1.74216213
  0
VERTEX
  8
0
 10
9.50408581
 20
1.77540618
  0
VERTEX
  8
0
 10
9.51399049
 20
1.82345701
  0
SEQEND
  0
POLYLINE
  8
Default_Layer
 66
   1
 39
0.000000
 70
    1
  0
VERTEX
  8
0
 10
10.14301181
 20
1.97722888
  0
VERTEX
  8
0
 10
9.94591827
 20
1.39122610
  0
VERTEX
  8
0
 10
9.86511942
 20
1.39015285
  0
VERTEX
  8
0
 10
9.65095523
 20
1.97069290
  0
VERTEX
  8
0
 10
9.73156655
 20
1.97176366
  0
VERTEX
  8
0
 10
9.90676813
 20
1.48067206
  0
VERTEX
  8
0
 10
10.06330062
 20
1.97617007
  0
VERTEX
  8
0
 10
10.14301181
 20
1.97722888
  0
SEQEND
  0
POLYLINE
  8
Default_Layer
 66
   1
 39
0.000000
 70
    1
  0
VERTEX
  8
0
 10
10.32464831
 20
1.38974811
  0
VERTEX
  8
0
 10
10.24943206
 20
1.39012359
  0
VERTEX
  8
0
 10
10.25234403
 20
1.97344966
  0
VERTEX
  8
0
 10
10.32756029
 20
1.97307418
  0
VERTEX
  8
0
 10
10.32464831
 20
1.38974811
  0
SEQEND
  0
POLYLINE
  8
Default_Layer
 66
   1
 39
0.000000
 70
    1
  0
VERTEX
  8
0
 10
10.94092417
 20
1.63132489
  0
VERTEX
  8
0
 10
10.91166153
 20
1.52817197
  0
VERTEX
  8
0
 10
10.86326191
 20
1.45280874
  0
VERTEX
  8
0
 10
10.79572533
 20
1.40523519
  0
VERTEX
  8
0
 10
10.70905178
 20
1.38545134
  0
VERTEX
  8
0
 10
10.60315285
 20
1.39981510
  0
VERTEX
  8
0
 10
10.51707591
 20
1.45707909
  0
VERTEX
  8
0
 10
10.45842455
 20
1.55089430
  0
VERTEX
  8
0
 10
10.43330275
 20
1.67321659
  0
VERTEX
  8
0
 10
10.44205578
 20
1.79220033
  0
VERTEX
  8
0
 10
10.48414920
 20
1.89037629
  0
VERTEX
  8
0
 10
10.56359672
 20
1.96438251
  0
VERTEX
  8
0
 10
10.67261044
 20
1.99410129
  0
VERTEX
  8
0
 10
10.74963053
 20
1.98658851
  0
VERTEX
  8
0
 10
10.81775825
 20
1.95408038
  0
VERTEX
  8
0
 10
10.87487469
 20
1.89845144
  0
VERTEX
  8
0
 10
10.91736131
 20
1.81988113
  0
VERTEX
  8
0
 10
10.83908978
 20
1.81509173
  0
VERTEX
  8
0
 10
10.80826367
 20
1.86686791
  0
VERTEX
  8
0
 10
10.77038534
 20
1.90288046
  0
VERTEX
  8
0
 10
10.72545479
 20
1.92312936
  0
VERTEX
  8
0
 10
10.67347201
 20
1.92761461
  0
VERTEX
  8
0
 10
10.60180539
 20
1.90659452
  0
VERTEX
  8
0
 10
10.54814071
 20
1.85340625
  0
VERTEX
  8
0
 10
10.51632899
 20
1.77389721
  0
VERTEX
  8
0
 10
10.51022126
 20
1.67391480
  0
VERTEX
  8
0
 10
10.52833112
 20
1.58102602
  0
VERTEX
  8
0
 10
10.57005186
 20
1.50842144
  0
VERTEX
  8
0
 10
10.63092575
 20
1.46344425
  0
VERTEX
  8
0
 10
10.70499545
 20
1.45174253
  0
VERTEX
  8
0
 10
10.76376873
 20
1.46566047
  0
VERTEX
  8
0
 10
10.80990226
 20
1.49944823
  0
VERTEX
  8
0
 10
10.84339602
 20
1.55310582
  0
VERTEX
  8
0
 10
10.86425002
 20
1.62663323
  0
VERTEX
  8
0
 10
10.94092417
 20
1.63132489
  0
SEQEND
  0
POLYLINE
  8
Default_Layer
 66
   1
 39
0.000000
 70
    1
  0
VERTEX
  8
0
 10
11.45971231
 20
1.49240745
  0
VERTEX
  8
0
 10
11.04575031
 20
1.43097398
  0
VERTEX
  8
0
 10
10.96011932
 20
2.00798794
  0
VERTEX
  8
0
 10
11.36062559
 20
2.06742453
  0
VERTEX
  8
0
 10
11.37037507
 20
2.00172884
  0
VERTEX
  8
0
 10
11.04427115
 20
1.95333383
  0
VERTEX
  8
0
 10
11.07128779
 20
1.77128553
  0
VERTEX
  8
0
 10
11.38472747
 20
1.81780112
  0
VERTEX
  8
0
 10
11.39447695
 20
1.75210543
  0
VERTEX
  8
0
 10
11.08103727
 20
1.70558984
  0
VERTEX
  8
0
 10
11.11040318
 20
1.50771125
  0
VERTEX
  8
0
 10
11.44996283
 20
1.55810315
  0
VERTEX
  8
0
 10
11.45971231
 20
1.49240745
  0
SEQEND
  0
POLYLINE
  8
Default_Layer
 66
   1
 39
0.000000
 70
    1
  0
VERTEX
  8
0
 10
12.41232112
 20
2.18145832
  0
VERTEX
  8
0
 10
12.42258621
 20
2.11036946
  0
VERTEX
  8
0
 10
12.40534283
 20
2.04640046
  0
VERTEX
  8
0
 10
12.36955923
 20
2.00021243
  0
VERTEX
  8
0
 10
12.31751399
 20
1.97190806
  0
VERTEX
  8
0
 10
12.13546234
 20
1.91333030
  0
VERTEX
  8
0
 10
12.21119678
 20
1.67795808
  0
VERTEX
  8
0
 10
12.13959487
 20
1.65491913
  0
VERTEX
  8
0
 10
11.96092043
 20
2.21021474
  0
VERTEX
  8
0
 10
12.20314815
 20
2.28815503
  0
VERTEX
  8
0
 10
12.27366571
 20
2.29823631
  0
VERTEX
  8
0
 10
12.33592083
 20
2.28044146
  0
VERTEX
  8
0
 10
12.38219176
 20
2.24048161
  0
VERTEX
  8
0
 10
12.41232112
 20
2.18145832
  0
SEQEND
  0
POLYLINE
  8
Default_Layer
 66
   1
 39
0.000000
 70
    1
  0
VERTEX
  8
0
 10
12.33995749
 20
2.15817427
  0
VERTEX
  8
0
 10
12.29273565
 20
2.21611087
  0
VERTEX
  8
0
 10
12.25775052
 20
2.22818015
  0
VERTEX
  8
0
 10
12.22272933
 20
2.22468698
  0
VERTEX
  8
0
 10
12.05286524
 20
2.17003074
  0
VERTEX
  8
0
 10
12.11511944
 20
1.97655325
  0
VERTEX
  8
0
 10
12.29412420
 20
2.03415064
  0
VERTEX
  8
0
 10
12.33630973
 20
2.07546377
  0
VERTEX
  8
0
 10
12.34615332
 20
2.11540669
  0
VERTEX
  8
0
 10
12.33995749
 20
2.15817427
  0
SEQEND
  0
POLYLINE
  8
Default_Layer
 66
   1
 39
0.000000
 70
    1
  0
VERTEX
  8
0
 10
13.09588610
 20
2.00670402
  0
VERTEX
  8
0
 10
13.01222920
 20
1.97239048
  0
VERTEX
  8
0
 10
12.97825446
 20
2.01726681
  0
VERTEX
  8
0
 10
12.94171993
 20
2.10001273
  0
VERTEX
  8
0
 10
12.88926274
 20
2.16411936
  0
VERTEX
  8
0
 10
12.85597455
 20
2.17187129
  0
VERTEX
  8
0
 10
12.81797995
 20
2.16342230
  0
VERTEX
  8
0
 10
12.63659993
 20
2.08902567
  0
VERTEX
  8
0
 10
12.73164542
 20
1.85730345
  0
VERTEX
  8
0
 10
12.66205472
 20
1.82875944
  0
VERTEX
  8
0
 10
12.44068680
 20
2.36845752
  0
VERTEX
  8
0
 10
12.68795588
 20
2.46987986
  0
VERTEX
  8
0
 10
12.77205322
 20
2.49204954
  0
VERTEX
  8
0
 10
12.83778295
 20
2.48203633
  0
VERTEX
  8
0
 10
12.88151995
 20
2.44656968
  0
VERTEX
  8
0
 10
12.91634294
 20
2.38539236
  0
VERTEX
  8
0
 10
12.92555815
 20
2.31284662
  0
VERTEX
  8
0
 10
12.89550844
 20
2.23587145
  0
VERTEX
  8
0
 10
12.96124193
 20
2.21267039
  0
VERTEX
  8
0
 10
12.99252138
 20
2.17014804
  0
VERTEX
  8
0
 10
13.04460026
 20
2.06004768
  0
VERTEX
  8
0
 10
13.08859827
 20
2.02447186
  0
VERTEX
  8
0
 10
13.09588610
 20
2.00670402
  0
SEQEND
  0
POLYLINE
  8
Default_Layer
 66
   1
 39
0.000000
 70
    1
  0
VERTEX
  8
0
 10
12.84310832
 20
2.36573226
  0
VERTEX
  8
0
 10
12.82258620
 20
2.39731535
  0
VERTEX
  8
0
 10
12.79260045
 20
2.41507063
  0
VERTEX
  8
0
 10
12.71612094
 20
2.40964739
  0
VERTEX
  8
0
 10
12.53548126
 20
2.33555443
  0
VERTEX
  8
0
 10
12.61139618
 20
2.15047278
  0
VERTEX
  8
0
 10
12.79277619
 20
2.22486941
  0
VERTEX
  8
0
 10
12.83062476
 20
2.24790738
  0
VERTEX
  8
0
 10
12.85162964
 20
2.27906385
  0
VERTEX
  8
0
 10
12.85579082
 20
2.31833881
  0
VERTEX
  8
0
 10
12.84310832
 20
2.36573226
  0
SEQEND
  0
POLYLINE
  8
Default_Layer
 66
   1
 39
0.000000
 70
    1
  0
VERTEX
  8
0
 10
13.55195291
 20
2.54846160
  0
VERTEX
  8
0
 10
13.58918072
 20
2.43102333
  0
VERTEX
  8
0
 10
13.57987107
 20
2.31880672
  0
VERTEX
  8
0
 10
13.52712001
 20
2.22300446
  0
VERTEX
  8
0
 10
13.43331467
 20
2.15265986
  0
VERTEX
  8
0
 10
13.32292795
 20
2.12055362
  0
VERTEX
  8
0
 10
13.21471609
 20
2.13658562
  0
VERTEX
  8
0
 10
13.11933446
 20
2.19783704
  0
VERTEX
  8
0
 10
13.04672941
 20
2.29923969
  0
VERTEX
  8
0
 10
13.00870542
 20
2.41381262
  0
VERTEX
  8
0
 10
13.01274576
 20
2.52314984
  0
VERTEX
  8
0
 10
13.06360209
 20
2.62404558
  0
VERTEX
  8
0
 10
13.15963416
 20
2.69752839
  0
VERTEX
  8
0
 10
13.27797829
 20
2.73118051
  0
VERTEX
  8
0
 10
13.39148334
 20
2.71042356
  0
VERTEX
  8
0
 10
13.48212738
 20
2.64790477
  0
VERTEX
  8
0
 10
13.55195291
 20
2.54846160
  0
SEQEND
  0
POLYLINE
  8
Default_Layer
 66
   1
 39
0.000000
 70
    1
  0
VERTEX
  8
0
 10
13.48082711
 20
2.52068344
  0
VERTEX
  8
0
 10
13.42645913
 20
2.59789872
  0
VERTEX
  8
0
 10
13.35554044
 20
2.64661259
  0
VERTEX
  8
0
 10
13.27542213
 20
2.66201712
  0
VERTEX
  8
0
 10
13.19345533
 20
2.63930433
  0
VERTEX
  8
0
 10
13.12125474
 20
2.58343123
  0
VERTEX
  8
0
 10
13.08472661
 20
2.50655673
  0
VERTEX
  8
0
 10
13.08373599
 20
2.42317354
  0
VERTEX
  8
0
 10
13.11461432
 20
2.33344905
  0
VERTEX
  8
0
 10
13.17096143
 20
2.25275090
  0
VERTEX
  8
0
 10
13.24277616
 20
2.20359252
  0
VERTEX
  8
0
 10
13.32306890
 20
2.18961997
  0
VERTEX
  8
0
 10
13.40557023
 20
2.21305013
  0
VERTEX
  8
0
 10
13.47723208
 20
2.26954780
  0
VERTEX
  8
0
 10
13.51214397
 20
2.34829595
  0
VERTEX
  8
0
 10
13.51170263
 20
2.43185357
  0
VERTEX
  8
0
 10
13.48082711
 20
2.52068344
  0
SEQEND
  0
POLYLINE
  8
Default_Layer
 66
   1
 39
0.000000
 70
    1
  0
VERTEX
  8
0
 10
13.88196815
 20
3.02010654
  0
VERTEX
  8
0
 10
13.71854101
 20
2.92232973
  0
VERTEX
  8
0
 10
13.98393522
 20
2.47874176
  0
VERTEX
  8
0
 10
13.91938837
 20
2.44012402
  0
VERTEX
  8
0
 10
13.65399415
 20
2.88371199
  0
VERTEX
  8
0
 10
13.48919367
 20
2.78511352
  0
VERTEX
  8
0
 10
13.45509503
 20
2.84210702
  0
VERTEX
  8
0
 10
13.84786952
 20
3.07710004
  0
VERTEX
  8
0
 10
13.88196815
 20
3.02010654
  0
SEQEND
  0
POLYLINE
  8
Default_Layer
 66
   1
 39
0.000000
 70
    1
  0
VERTEX
  8
0
 10
14.54215839
 20
2.84512461
  0
VERTEX
  8
0
 10
14.19614540
 20
2.60972363
  0
VERTEX
  8
0
 10
13.86802434
 20
3.09202472
  0
VERTEX
  8
0
 10
14.20279025
 20
3.31977405
  0
VERTEX
  8
0
 10
14.24014834
 20
3.26486185
  0
VERTEX
  8
0
 10
13.96757214
 20
3.07942169
  0
VERTEX
  8
0
 10
14.07109456
 20
2.92725536
  0
VERTEX
  8
0
 10
14.33308528
 20
3.10549397
  0
VERTEX
  8
0
 10
14.37044337
 20
3.05058177
  0
VERTEX
  8
0
 10
14.10845266
 20
2.87234317
  0
VERTEX
  8
0
 10
14.22097703
 20
2.70694499
  0
VERTEX
  8
0
 10
14.50480030
 20
2.90003681
  0
VERTEX
  8
0
 10
14.54215839
 20
2.84512461
  0
SEQEND
  0
POLYLINE
  8
Default_Layer
 66
   1
 39
0.000000
 70
    1
  0
VERTEX
  8
0
 10
14.91464086
 20
3.40314680
  0
VERTEX
  8
0
 10
14.94920827
 20
3.30164842
  0
VERTEX
  8
0
 10
14.95223371
 20
3.21213314
  0
VERTEX
  8
0
 10
14.92371719
 20
3.13460095
  0
VERTEX
  8
0
 10
14.86365870
 20
3.06905186
  0
VERTEX
  8
0
 10
14.76837109
 20
3.02066621
  0
VERTEX
  8
0
 10
14.66500242
 20
3.01884275
  0
VERTEX
  8
0
 10
14.56341748
 20
3.06268079
  0
VERTEX
  8
0
 10
14.47321094
 20
3.14903256
  0
VERTEX
  8
0
 10
14.41277080
 20
3.25189526
  0
VERTEX
  8
0
 10
14.39158849
 20
3.35659333
  0
VERTEX
  8
0
 10
14.41487729
 20
3.46264266
  0
VERTEX
  8
0
 10
14.48766688
 20
3.54906529
  0
VERTEX
  8
0
 10
14.55530147
 20
3.58666982
  0
VERTEX
  8
0
 10
14.62983001
 20
3.59865570
  0
VERTEX
  8
0
 10
14.70844364
 20
3.58536052
  0
VERTEX
  8
0
 10
14.78806344
 20
3.54487479
  0
VERTEX
  8
0
 10
14.72639300
 20
3.49643796
  0
VERTEX
  8
0
 10
14.67159840
 20
3.52150933
  0
VERTEX
  8
0
 10
14.61996349
 20
3.52960299
  0
VERTEX
  8
0
 10
14.57148827
 20
3.52071895
  0
VERTEX
  8
0
 10
14.52617275
 20
3.49485719
  0
VERTEX
  8
0
 10
14.47916310
 20
3.43682235
  0
VERTEX
  8
0
 10
14.46525077
 20
3.36255704
  0
VERTEX
  8
0
 10
14.48427976
 20
3.27906112
  0
VERTEX
  8
0
 10
14.53609407
 20
3.19333444
  0
VERTEX
  8
0
 10
14.60379928
 20
3.12721108
  0
VERTEX
  8
0
 10
14.67939754
 20
3.09119791
  0
VERTEX
  8
0
 10
14.75504697
 20
3.08880190
  0
VERTEX
  8
0
 10
14.82263566
 20
3.12128296
  0
VERTEX
  8
0
 10
14.86307561
 20
3.16614517
  0
VERTEX
  8
0
 10
14.88182115
 20
3.22016849
  0
VERTEX
  8
0
 10
14.87887228
 20
3.28335292
  0
VERTEX
  8
0
 10
14.85422899
 20
3.35569847
  0
VERTEX
  8
0
 10
14.91464086
 20
3.40314680
  0
SEQEND
  0
POLYLINE
  8
Default_Layer
 66
   1
 39
0.000000
 70
    1
  0
VERTEX
  8
0
 10
15.09465787
 20
3.96947469
  0
VERTEX
  8
0
 10
14.95244595
 20
3.84280776
  0
VERTEX
  8
0
 10
15.29625617
 20
3.45680399
  0
VERTEX
  8
0
 10
15.24008844
 20
3.40677588
  0
VERTEX
  8
0
 10
14.89627822
 20
3.79277965
  0
VERTEX
  8
0
 10
14.75287125
 20
3.66504830
  0
VERTEX
  8
0
 10
14.70869749
 20
3.71464321
  0
VERTEX
  8
0
 10
15.05048411
 20
4.01906960
  0
VERTEX
  8
0
 10
15.09465787
 20
3.96947469
  0
SEQEND
  0
POLYLINE
  8
Default_Layer
 66
   1
 39
0.000000
 70
    1
  0
VERTEX
  8
0
 10
15.52307796
 20
3.66863654
  0
VERTEX
  8
0
 10
15.46872065
 20
3.61664703
  0
VERTEX
  8
0
 10
15.06552540
 20
4.03820528
  0
VERTEX
  8
0
 10
15.11988270
 20
4.09019480
  0
VERTEX
  8
0
 10
15.52307796
 20
3.66863654
  0
SEQEND
  0
POLYLINE
  8
Default_Layer
 66
   1
 39
0.000000
 70
    1
  0
VERTEX
  8
0
 10
15.82249518
 20
4.39030348
  0
VERTEX
  8
0
 10
15.89876027
 20
4.29354970
  0
VERTEX
  8
0
 10
15.92963796
 20
4.18526395
  0
VERTEX
  8
0
 10
15.91407661
 20
4.07701151
  0
VERTEX
  8
0
 10
15.85111947
 20
3.97809638
  0
VERTEX
  8
0
 10
15.75915700
 20
3.90911127
  0
VERTEX
  8
0
 10
15.65224694
 20
3.88593653
  0
VERTEX
  8
0
 10
15.54138924
 20
3.90960009
  0
VERTEX
  8
0
 10
15.43767876
 20
3.97886859
  0
VERTEX
  8
0
 10
15.36167955
 20
4.07266039
  0
VERTEX
  8
0
 10
15.32688716
 20
4.17639293
  0
VERTEX
  8
0
 10
15.33887869
 20
4.28874292
  0
VERTEX
  8
0
 10
15.40281226
 20
4.39138005
  0
VERTEX
  8
0
 10
15.50167513
 20
4.46461893
  0
VERTEX
  8
0
 10
15.61520496
 20
4.48523990
  0
VERTEX
  8
0
 10
15.72207679
 20
4.45871909
  0
VERTEX
  8
0
 10
15.82249518
 20
4.39030348
  0
SEQEND
  0
POLYLINE
  8
Default_Layer
 66
   1
 39
0.000000
 70
    1
  0
VERTEX
  8
0
 10
15.76574239
 20
4.33921899
  0
VERTEX
  8
0
 10
15.68762942
 20
4.39228914
  0
VERTEX
  8
0
 10
15.60408487
 20
4.41285153
  0
VERTEX
  8
0
 10
15.52368339
 20
4.39900075
  0
VERTEX
  8
0
 10
15.45499963
 20
4.34883136
  0
VERTEX
  8
0
 10
15.40715273
 20
4.27107916
  0
VERTEX
  8
0
 10
15.40009372
 20
4.18626076
  0
VERTEX
  8
0
 10
15.42858345
 20
4.10788937
  0
VERTEX
  8
0
 10
15.48913019
 20
4.03482743
  0
VERTEX
  8
0
 10
15.57032376
 20
3.97919657
  0
VERTEX
  8
0
 10
15.65486354
 20
3.95853436
  0
VERTEX
  8
0
 10
15.73492306
 20
3.97378658
  0
VERTEX
  8
0
 10
15.80385389
 20
4.02481581
  0
VERTEX
  8
0
 10
15.85097635
 20
4.10296234
  0
VERTEX
  8
0
 10
15.85586205
 20
4.18896374
  0
VERTEX
  8
0
 10
15.82597089
 20
4.26699316
  0
VERTEX
  8
0
 10
15.76574239
 20
4.33921899
  0
SEQEND
  0
POLYLINE
  8
Default_Layer
 66
   1
 39
0.000000
 70
    1
  0
VERTEX
  8
0
 10
16.37159466
 20
4.73741688
  0
VERTEX
  8
0
 10
16.32732929
 20
4.66412781
  0
VERTEX
  8
0
 10
15.77603808
 20
4.65215377
  0
VERTEX
  8
0
 10
16.17467583
 20
4.41138326
  0
VERTEX
  8
0
 10
16.13578849
 20
4.34699846
  0
VERTEX
  8
0
 10
15.63646389
 20
4.64858215
  0
VERTEX
  8
0
 10
15.68234525
 20
4.72454678
  0
VERTEX
  8
0
 10
16.23675087
 20
4.73098818
  0
VERTEX
  8
0
 10
15.83338273
 20
4.97461577
  0
VERTEX
  8
0
 10
15.87227006
 20
5.03900056
  0
VERTEX
  8
0
 10
16.37159466
 20
4.73741688
  0
SEQEND
  0
POLYLINE
  8
Default_Layer
 66
   1
 39
0.000000
 70
    1
  0
VERTEX
  8
0
 10
7.55353475
 20
1.99432574
  0
VERTEX
  8
0
 10
7.86787125
 20
1.87008177
  0
VERTEX
  8
0
 10
7.92146525
 20
2.00567426
  0
VERTEX
  8
0
 10
7.60712875
 20
2.12991823
  0
VERTEX
  8
0
 10
7.55353475
 20
1.99432574
  0
SEQEND
  0
POLYLINE
  8
Default_Layer
 66
   1
 39
0.000000
 70
    1
  0
VERTEX
  8
0
 10
11.57462332
 20
1.69338097
  0
VERTEX
  8
0
 10
11.89303728
 20
1.80676768
  0
VERTEX
  8
0
 10
11.84412668
 20
1.94411903
  0
VERTEX
  8
0
 10
11.52571272
 20
1.83073232
  0
VERTEX
  8
0
 10
11.57462332
 20
1.69338097
  0
SEQEND
  0
ENDSEC
  0
EOF
