  0
SECTION
  2
HEADER
  9
$ACADVER
  1
AC1009
  9
$INSBASE
 10
0.0
 20
0.0
 30
0.0
  9
$EXTMIN
 10
23.091228000000001
 20
-7.6811129999999999
 30
0.0
  9
$EXTMAX
 10
31.091232999999999
 20
0.318891
 30
0.0
  9
$LIMMIN
 10
-5.0
 20
-5.0
  9
$LIMMAX
 10
15.0
 20
15.0
  9
$ORTHOMODE
 70
     0
  9
$REGENMODE
 70
     1
  9
$FILLMODE
 70
     1
  9
$QTEXTMODE
 70
     0
  9
$MIRRTEXT
 70
     1
  9
$DRAGMODE
 70
     2
  9
$LTSCALE
 40
1.0
  9
$OSMODE
 70
    37
  9
$ATTMODE
 70
     1
  9
$TEXTSIZE
 40
0.0
  9
$TRACEWID
 40
0.05
  9
$TEXTSTYLE
  7
STANDARD
  9
$CLAYER
  8
0
  9
$CELTYPE
  6
CONTINUOUS
  9
$CECOLOR
 62
     7
  9
$DIMSCALE
 40
1.0
  9
$DIMASZ
 40
0.18
  9
$DIMEXO
 40
0.0625
  9
$DIMDLI
 40
0.38
  9
$DIMRND
 40
0.0
  9
$DIMDLE
 40
0.0
  9
$DIMEXE
 40
0.18
  9
$DIMTP
 40
0.0
  9
$DIMTM
 40
0.0
  9
$DIMTXT
 40
0.18
  9
$DIMCEN
 40
0.09
  9
$DIMTSZ
 40
0.0
  9
$DIMTOL
 70
     0
  9
$DIMLIM
 70
     0
  9
$DIMTIH
 70
     1
  9
$DIMTOH
 70
     1
  9
$DIMSE1
 70
     0
  9
$DIMSE2
 70
     0
  9
$DIMTAD
 70
     0
  9
$DIMZIN
 70
     0
  9
$DIMBLK
  1

  9
$DIMASO
 70
     1
  9
$DIMSHO
 70
     1
  9
$DIMPOST
  1

  9
$DIMAPOST
  1

  9
$DIMALT
 70
     0
  9
$DIMALTD
 70
     2
  9
$DIMALTF
 40
25.399999999999999
  9
$DIMLFAC
 40
1.0
  9
$DIMTOFL
 70
     0
  9
$DIMTVP
 40
0.0
  9
$DIMTIX
 70
     0
  9
$DIMSOXD
 70
     0
  9
$DIMSAH
 70
     0
  9
$DIMBLK1
  1

  9
$DIMBLK2
  1

  9
$DIMSTYLE
  2
STANDARD
  9
$DIMCLRD
 70
     0
  9
$DIMCLRE
 70
     0
  9
$DIMCLRT
 70
     0
  9
$DIMTFAC
 40
1.0
  9
$DIMGAP
 40
0.09
  9
$LUNITS
 70
     2
  9
$LUPREC
 70
     4
  9
$SKETCHINC
 40
0.1
  9
$FILLETRAD
 40
0.0
  9
$AUNITS
 70
     0
  9
$AUPREC
 70
     0
  9
$MENU
  1
acad
  9
$ELEVATION
 40
0.0
  9
$PELEVATION
 40
0.0
  9
$THICKNESS
 40
0.0
  9
$LIMCHECK
 70
     0
  9
$BLIPMODE
 70
     0
  9
$CHAMFERA
 40
0.0
  9
$CHAMFERB
 40
0.0
  9
$SKPOLY
 70
     0
  9
$TDCREATE
 40
2305814.0020021531
  9
$TDUPDATE
 40
2455274.9658141551
  9
$TDINDWG
 40
0.0003032755
  9
$TDUSRTIMER
 40
0.0003030903
  9
$USRTIMER
 70
     1
  9
$ANGBASE
 50
0.0
  9
$ANGDIR
 70
     0
  9
$PDMODE
 70
     0
  9
$PDSIZE
 40
0.0
  9
$PLINEWID
 40
0.0
  9
$COORDS
 70
     1
  9
$SPLFRAME
 70
     0
  9
$SPLINETYPE
 70
     6
  9
$SPLINESEGS
 70
     8
  9
$ATTDIA
 70
     0
  9
$ATTREQ
 70
     1
  9
$HANDLING
 70
     1
  9
$HANDSEED
  5
395
  9
$SURFTAB1
 70
     6
  9
$SURFTAB2
 70
     6
  9
$SURFTYPE
 70
     6
  9
$SURFU
 70
     6
  9
$SURFV
 70
     6
  9
$UCSNAME
  2

  9
$UCSORG
 10
0.0
 20
0.0
 30
0.0
  9
$UCSXDIR
 10
1.0
 20
0.0
 30
0.0
  9
$UCSYDIR
 10
0.0
 20
1.0
 30
0.0
  9
$PUCSNAME
  2

  9
$PUCSORG
 10
0.0
 20
0.0
 30
0.0
  9
$PUCSXDIR
 10
1.0
 20
0.0
 30
0.0
  9
$PUCSYDIR
 10
0.0
 20
1.0
 30
0.0
  9
$USERI1
 70
     0
  9
$USERI2
 70
     0
  9
$USERI3
 70
     0
  9
$USERI4
 70
     0
  9
$USERI5
 70
     0
  9
$USERR1
 40
0.0
  9
$USERR2
 40
0.0
  9
$USERR3
 40
0.0
  9
$USERR4
 40
0.0
  9
$USERR5
 40
0.0
  9
$WORLDVIEW
 70
     1
  9
$SHADEDGE
 70
     3
  9
$SHADEDIF
 70
    70
  9
$TILEMODE
 70
     1
  9
$MAXACTVP
 70
    16
  9
$PLIMCHECK
 70
     0
  9
$PEXTMIN
 10
1.0000000000000000E+020
 20
1.0000000000000000E+020
 30
1.0000000000000000E+020
  9
$PEXTMAX
 10
-1.0000000000000000E+020
 20
-1.0000000000000000E+020
 30
-1.0000000000000000E+020
  9
$PLIMMIN
 10
0.0
 20
0.0
  9
$PLIMMAX
 10
12.0
 20
9.0
  9
$UNITMODE
 70
     0
  9
$VISRETAIN
 70
     0
  9
$PLINEGEN
 70
     1
  9
$PSLTSCALE
 70
     0
  0
ENDSEC
  0
SECTION
  2
TABLES
  0
TABLE
  2
VPORT
 70
     1
  0
VPORT
  2
*ACTIVE
 70
     0
 10
0.0
 20
0.0
 11
1.0
 21
1.0
 12
27.20766497066041
 22
-3.7731636909518218
 13
0.0
 23
0.0
 14
1.0
 24
1.0
 15
0.0
 25
0.0
 16
0.0
 26
0.0
 36
1.0
 17
0.0
 27
0.0
 37
0.0
 40
9.1596605341505963
 41
1.6962457337883949
 42
50.0
 43
0.0
 44
0.0
 50
0.0
 51
0.0
 71
     0
 72
   100
 73
     1
 74
     1
 75
     0
 76
     0
 77
     0
 78
     0
  0
ENDTAB
  0
TABLE
  2
LTYPE
 70
     1
  0
LTYPE
  2
CONTINUOUS
 70
     0
  3
Solid line
 72
    65
 73
     0
 40
0.0
  0
ENDTAB
  0
TABLE
  2
LAYER
 70
     4
  0
LAYER
  2
0
 70
     0
 62
     7
  6
CONTINUOUS
  0
LAYER
  2
OBJECT
 70
     0
 62
     3
  6
CONTINUOUS
  0
LAYER
  2
LAYOUT
 70
     0
 62
     5
  6
CONTINUOUS
  0
LAYER
  2
DIMENSIONS
 70
     0
 62
     1
  6
CONTINUOUS
  0
ENDTAB
  0
TABLE
  2
STYLE
 70
     2
  0
STYLE
  2
STANDARD
 70
     0
 40
0.0
 41
1.0
 50
0.0
 71
     0
 42
0.0
  3
txt
  4

  0
STYLE
  2
ANNOTATIVE
 70
     0
 40
0.0
 41
1.0
 50
0.0
 71
     0
 42
0.2
  3
txt
  4

  0
ENDTAB
  0
TABLE
  2
VIEW
 70
     0
  0
ENDTAB
  0
TABLE
  2
UCS
 70
     0
  0
ENDTAB
  0
TABLE
  2
APPID
 70
     3
  0
APPID
  2
ACAD
 70
     0
  0
APPID
  2
ACADANNOTATIVE
 70
     0
  0
APPID
  2
ACAD_MLEADERVER
 70
     0
  0
ENDTAB
  0
TABLE
  2
DIMSTYLE
 70
     2
  0
DIMSTYLE
  2
STANDARD
 70
     0
  3

  4

  5

  6

  7

 40
1.0
 41
0.18
 42
0.0625
 43
0.38
 44
0.18
 45
0.0
 46
0.0
 47
0.0
 48
0.0
140
0.18
141
0.09
142
0.0
143
25.399999999999999
144
1.0
145
0.0
146
1.0
147
0.09
 71
     0
 72
     0
 73
     1
 74
     1
 75
     0
 76
     0
 77
     0
 78
     0
170
     0
171
     2
172
     0
173
     0
174
     0
175
     0
176
     0
177
     0
178
     0
  0
DIMSTYLE
  2
ANNOTATIVE
 70
     0
  3

  4

  5

  6

  7

 40
1.0
 41
0.18
 42
0.0625
 43
0.38
 44
0.18
 45
0.0
 46
0.0
 47
0.0
 48
0.0
140
0.18
141
0.09
142
0.0
143
25.399999999999999
144
1.0
145
0.0
146
1.0
147
0.09
 71
     0
 72
     0
 73
     1
 74
     1
 75
     0
 76
     0
 77
     0
 78
     0
170
     0
171
     2
172
     0
173
     0
174
     0
175
     0
176
     0
177
     0
178
     0
  0
ENDTAB
  0
ENDSEC
  0
SECTION
  2
BLOCKS
  0
BLOCK
  8
0
  2
$MODEL_SPACE
 70
     0
 10
0.0
 20
0.0
 30
0.0
  3
$MODEL_SPACE
  1

  0
ENDBLK
  5
346
  8
0
  0
BLOCK
 67
     1
  8
0
  2
$PAPER_SPACE
 70
     0
 10
0.0
 20
0.0
 30
0.0
  3
$PAPER_SPACE
  1

  0
ENDBLK
  5
342
 67
     1
  8
0
  0
ENDSEC
  0
SECTION
  2
ENTITIES
  0
LINE
  5
23
  8
LAYOUT
 10
25.505355000000002
 20
-0.2801909999999999
 30
0.0
 11
25.400756000000001
 21
-0.055878
 31
0.0
  0
LINE
  5
24
  8
LAYOUT
 10
28.677105000000001
 20
-0.2801909999999999
 30
0.0
 11
28.781704000000001
 21
-0.055878
 31
0.0
  0
LINE
  5
25
  8
LAYOUT
 10
28.850017000000001
 20
-0.7412270000000002
 30
0.0
 11
28.846584000000011
 21
-0.6997010000000001
 31
0.0
  0
LINE
  5
26
  8
LAYOUT
 10
28.846584000000011
 20
-0.6997010000000001
 30
0.0
 11
28.917525000000001
 21
-0.586807
 31
0.0
  0
LINE
  5
27
  8
LAYOUT
 10
28.917525000000001
 20
-0.586807
 30
0.0
 11
28.956427999999999
 21
-0.5718850000000001
 31
0.0
  0
LINE
  5
28
  8
LAYOUT
 10
29.541855000000002
 20
-0.76057
 30
0.0
 11
29.662382000000001
 21
-0.6169310000000001
 31
0.0
  0
LINE
  5
29
  8
LAYOUT
 10
28.677105000000001
 20
-7.0820309999999989
 30
0.0
 11
28.781704000000001
 21
-7.3063440000000002
 31
0.0
  0
LINE
  5
2A
  8
LAYOUT
 10
25.505355000000002
 20
-7.0820309999999989
 30
0.0
 11
25.400756000000001
 21
-7.3063440000000002
 31
0.0
  0
LINE
  5
2B
  8
LAYOUT
 10
25.332443999999999
 20
-6.6209949999999989
 30
0.0
 11
25.33587600000001
 21
-6.6625199999999989
 31
0.0
  0
LINE
  5
2C
  8
LAYOUT
 10
28.956427999999999
 20
-0.5718850000000001
 30
0.0
 11
28.977595000000001
 21
-0.5851860000000001
 31
0.0
  0
LINE
  5
2D
  8
LAYOUT
 10
28.977595000000001
 20
-0.5851860000000001
 30
0.0
 11
28.981027999999998
 21
-0.6267110000000001
 31
0.0
  0
LINE
  5
2E
  8
LAYOUT
 10
28.981027999999998
 20
-0.6267110000000001
 30
0.0
 11
28.910087000000001
 21
-0.7396060000000001
 31
0.0
  0
LINE
  5
2F
  8
LAYOUT
 10
28.910087000000001
 20
-0.7396060000000001
 30
0.0
 11
28.871184
 21
-0.754528
 31
0.0
  0
LINE
  5
30
  8
LAYOUT
 10
28.871184
 20
-0.754528
 30
0.0
 11
28.850017000000001
 21
-0.7412270000000002
 31
0.0
  0
LINE
  5
31
  8
LAYOUT
 10
29.592452000000002
 20
-0.8037840000000001
 30
0.0
 11
29.715468000000001
 21
-0.6622710000000001
 31
0.0
  0
LINE
  5
32
  8
LAYOUT
 10
28.762518
 20
-0.254463
 30
0.0
 11
28.844715999999998
 21
-0.085933
 31
0.0
  0
LINE
  5
33
  8
LAYOUT
 10
27.062546999999999
 20
-0.25541
 30
0.0
 11
27.038
 21
-0.221742
 31
0.0
  0
LINE
  5
34
  8
LAYOUT
 10
27.038
 20
-0.221742
 30
0.0
 11
27.039802999999999
 21
-0.08842
 31
0.0
  0
LINE
  5
35
  8
LAYOUT
 10
27.039802999999999
 20
-0.08842
 30
0.0
 11
27.065251
 21
-0.055428
 31
0.0
  0
LINE
  5
36
  8
LAYOUT
 10
27.065251
 20
-0.055428
 30
0.0
 11
27.090249
 21
-0.055766
 31
0.0
  0
LINE
  5
37
  8
LAYOUT
 10
27.090249
 20
-0.055766
 30
0.0
 11
27.114795999999998
 21
-0.089435
 31
0.0
  0
LINE
  5
38
  8
LAYOUT
 10
27.114795999999998
 20
-0.089435
 30
0.0
 11
27.112992999999999
 21
-0.222756
 31
0.0
  0
LINE
  5
39
  8
LAYOUT
 10
27.112992999999999
 20
-0.222756
 30
0.0
 11
27.087544999999999
 21
-0.255748
 31
0.0
  0
LINE
  5
3A
  8
LAYOUT
 10
27.087544999999999
 20
-0.255748
 30
0.0
 11
27.062546999999999
 21
-0.25541
 31
0.0
  0
LINE
  5
3B
  8
LAYOUT
 10
28.822067000000001
 20
-0.284153
 30
0.0
 11
28.907192999999999
 21
-0.117083
 31
0.0
  0
LINE
  5
3C
  8
LAYOUT
 10
28.881087999999998
 20
-0.314878
 30
0.0
 11
28.969118000000002
 21
-0.149318
 31
0.0
  0
LINE
  5
3D
  8
LAYOUT
 10
27.948854999999998
 20
0.03367
 30
0.0
 11
27.991035
 21
0.216372
 31
0.0
  0
LINE
  5
3E
  8
LAYOUT
 10
28.939565000000002
 20
-0.346628
 30
0.0
 11
29.030470000000001
 21
-0.18263
 31
0.0
  0
LINE
  5
3F
  8
LAYOUT
 10
28.013556000000001
 20
0.018137
 30
0.0
 11
28.058917999999998
 21
0.200074
 31
0.0
  0
LINE
  5
40
  8
LAYOUT
 10
28.967479999999998
 20
-0.4313510000000001
 30
0.0
 11
29.091231000000001
 21
-0.217007
 31
0.0
  0
LINE
  5
41
  8
LAYOUT
 10
28.062449000000001
 20
-0.056474
 30
0.0
 11
28.126505999999999
 21
0.182592
 31
0.0
  0
LINE
  5
42
  8
LAYOUT
 10
29.642287
 20
-0.8478749999999999
 30
0.0
 11
29.767754
 21
-0.7085300000000001
 31
0.0
  0
LINE
  5
43
  8
LAYOUT
 10
29.05481
 20
-0.413165
 30
0.0
 11
29.151384
 21
-0.25244
 31
0.0
  0
LINE
  5
44
  8
LAYOUT
 10
28.142097
 20
-0.016303
 30
0.0
 11
28.19378
 21
0.163936
 31
0.0
  0
LINE
  5
45
  8
LAYOUT
 10
28.205895999999999
 20
-0.035204
 30
0.0
 11
28.260718000000001
 21
0.14411
 31
0.0
  0
LINE
  5
46
  8
LAYOUT
 10
29.111545
 20
-0.447932
 30
0.0
 11
29.210909000000001
 21
-0.288917
 31
0.0
  0
LINE
  5
47
  8
LAYOUT
 10
29.167663999999998
 20
-0.4836840000000001
 30
0.0
 11
29.269787999999998
 21
-0.326427
 31
0.0
  0
LINE
  5
48
  8
LAYOUT
 10
28.269356999999999
 20
-0.05521
 30
0.0
 11
28.327297999999999
 21
0.123115
 31
0.0
  0
LINE
  5
49
  8
LAYOUT
 10
29.22315
 20
-0.520409
 30
0.0
 11
29.328002999999999
 21
-0.364959
 31
0.0
  0
LINE
  5
4A
  8
LAYOUT
 10
29.691345999999999
 20
-0.892829
 30
0.0
 11
29.819224999999999
 21
-0.755694
 31
0.0
  0
LINE
  5
4B
  8
LAYOUT
 10
29.243576000000001
 20
-0.607243
 30
0.0
 11
29.385536999999999
 21
-0.404501
 31
0.0
  0
LINE
  5
4C
  8
LAYOUT
 10
29.332159000000001
 20
-0.5967380000000001
 30
0.0
 11
29.442373
 21
-0.445041
 31
0.0
  0
LINE
  5
4D
  8
LAYOUT
 10
29.385646999999999
 20
-0.6363170000000001
 30
0.0
 11
29.498491999999999
 21
-0.4865670000000001
 31
0.0
  0
LINE
  5
4E
  8
LAYOUT
 10
29.739615000000001
 20
-0.9386279999999999
 30
0.0
 11
29.869862999999999
 21
-0.803752
 31
0.0
  0
LINE
  5
4F
  8
LAYOUT
 10
29.438437
 20
-0.676824
 30
0.0
 11
29.553878000000001
 21
-0.5290660000000002
 31
0.0
  0
LINE
  5
50
  8
LAYOUT
 10
29.744648000000002
 20
-1.0276929999999991
 30
0.0
 11
29.919657000000001
 21
-0.8526839999999999
 31
0.0
  0
LINE
  5
51
  8
LAYOUT
 10
29.490511000000001
 20
-0.7182460000000001
 30
0.0
 11
29.608512999999999
 21
-0.572525
 31
0.0
  0
LINE
  5
52
  8
LAYOUT
 10
25.33587600000001
 20
-6.6625199999999989
 30
0.0
 11
25.264935999999999
 21
-6.7754149999999989
 31
0.0
  0
LINE
  5
53
  8
LAYOUT
 10
25.264935999999999
 20
-6.7754149999999989
 30
0.0
 11
25.226033000000001
 21
-6.7903369999999992
 31
0.0
  0
LINE
  5
54
  8
LAYOUT
 10
25.226033000000001
 20
-6.7903369999999992
 30
0.0
 11
25.204865000000002
 21
-6.7770359999999989
 31
0.0
  0
LINE
  5
55
  8
LAYOUT
 10
25.204865000000002
 20
-6.7770359999999989
 30
0.0
 11
25.201432
 21
-6.7355109999999989
 31
0.0
  0
LINE
  5
56
  8
LAYOUT
 10
25.201432
 20
-6.7355109999999989
 30
0.0
 11
25.272373000000002
 21
-6.6226159999999998
 31
0.0
  0
LINE
  5
57
  8
LAYOUT
 10
27.926302
 20
-0.18644
 30
0.0
 11
27.959092999999999
 21
-0.160732
 31
0.0
  0
LINE
  5
58
  8
LAYOUT
 10
27.959092999999999
 20
-0.160732
 30
0.0
 11
27.907214
 21
-0.353887
 31
0.0
  0
LINE
  5
59
  8
LAYOUT
 10
27.88307
 20
-0.347402
 30
0.0
 11
27.931359000000011
 21
-0.360372
 31
0.0
  0
LINE
  5
5A
  8
LAYOUT
 10
27.091229999999999
 20
0.071389
 30
0.0
 11
27.091229999999999
 21
0.318891
 31
0.0
  0
LINE
  5
5B
  8
LAYOUT
 10
28.332457999999999
 20
-0.076323
 30
0.0
 11
28.393502999999999
 21
0.100963
 31
0.0
  0
LINE
  5
5C
  8
LAYOUT
 10
28.374661
 20
-0.154914
 30
0.0
 11
28.459312000000001
 21
0.077662
 31
0.0
  0
LINE
  5
5D
  8
LAYOUT
 10
27.157767
 20
0.130806
 30
0.0
 11
27.16104
 21
0.31828
 31
0.0
  0
LINE
  5
5E
  8
LAYOUT
 10
27.224284000000001
 20
0.129062
 30
0.0
 11
27.230827999999999
 21
0.316455
 31
0.0
  0
LINE
  5
5F
  8
LAYOUT
 10
28.000751999999999
 20
-0.343022
 30
0.0
 11
28.014983999999998
 21
-0.382182
 31
0.0
  0
LINE
  5
60
  8
LAYOUT
 10
28.014983999999998
 20
-0.382182
 30
0.0
 11
28.062825
 21
-0.396716
 31
0.0
  0
LINE
  5
61
  8
LAYOUT
 10
28.062825
 20
-0.396716
 30
0.0
 11
28.096435
 21
-0.372088
 31
0.0
  0
LINE
  5
62
  8
LAYOUT
 10
28.096435
 20
-0.372088
 30
0.0
 11
28.115811999999998
 21
-0.308299
 31
0.0
  0
LINE
  5
63
  8
LAYOUT
 10
28.115811999999998
 20
-0.308299
 30
0.0
 11
28.101579999999998
 21
-0.269139
 31
0.0
  0
LINE
  5
64
  8
LAYOUT
 10
28.101579999999998
 20
-0.269139
 30
0.0
 11
28.029817999999999
 21
-0.247339
 31
0.0
  0
LINE
  5
65
  8
LAYOUT
 10
28.029817999999999
 20
-0.247339
 30
0.0
 11
28.049195000000001
 21
-0.183551
 31
0.0
  0
LINE
  5
66
  8
LAYOUT
 10
28.049195000000001
 20
-0.183551
 30
0.0
 11
28.144877999999999
 21
-0.212617
 31
0.0
  0
LINE
  5
67
  8
LAYOUT
 10
27.290761
 20
0.126162
 30
0.0
 11
27.300574000000001
 21
0.313407
 31
0.0
  0
LINE
  5
68
  8
LAYOUT
 10
27.357175999999999
 20
0.122097
 30
0.0
 11
27.370256000000001
 21
0.309148
 31
0.0
  0
LINE
  5
69
  8
LAYOUT
 10
28.457507
 20
-0.121838
 30
0.0
 11
28.524702000000001
 21
0.053211
 31
0.0
  0
LINE
  5
6A
  8
LAYOUT
 10
28.519416
 20
-0.146227
 30
0.0
 11
28.589656999999999
 21
0.027627
 31
0.0
  0
LINE
  5
6B
  8
LAYOUT
 10
27.418282000000001
 20
0.05711
 30
0.0
 11
27.439852999999999
 21
0.303668
 31
0.0
  0
LINE
  5
6C
  8
LAYOUT
 10
27.489744000000002
 20
0.110499
 30
0.0
 11
27.509343999999999
 21
0.296979
 31
0.0
  0
LINE
  5
6D
  8
LAYOUT
 10
27.555857
 20
0.102969
 30
0.0
 11
27.578707999999999
 21
0.289074
 31
0.0
  0
LINE
  5
6E
  8
LAYOUT
 10
27.621827
 20
0.094281
 30
0.0
 11
27.647922999999999
 21
0.279964
 31
0.0
  0
LINE
  5
6F
  8
LAYOUT
 10
28.580891999999999
 20
-0.171688
 30
0.0
 11
28.654154999999999
 21
0.000909
 31
0.0
  0
LINE
  5
70
  8
LAYOUT
 10
28.641912000000001
 20
-0.198223
 30
0.0
 11
28.718178000000002
 21
-0.026927
 31
0.0
  0
LINE
  5
71
  8
LAYOUT
 10
27.687636000000001
 20
0.084449
 30
0.0
 11
27.716968000000001
 21
0.2696429999999999
 31
0.0
  0
LINE
  5
72
  8
LAYOUT
 10
27.742844999999999
 20
0.01438
 30
0.0
 11
27.785823000000001
 21
0.258122
 31
0.0
  0
LINE
  5
73
  8
LAYOUT
 10
27.818688999999999
 20
0.061341
 30
0.0
 11
27.854465999999999
 21
0.245398
 31
0.0
  0
LINE
  5
74
  8
LAYOUT
 10
27.883893
 20
0.048072
 30
0.0
 11
27.92287700000001
 21
0.231482
 31
0.0
  0
LINE
  5
75
  8
LAYOUT
 10
24.590008000000001
 20
-0.8037840000000001
 30
0.0
 11
24.466992999999999
 21
-0.6622710000000001
 31
0.0
  0
LINE
  5
76
  8
LAYOUT
 10
25.419941999999999
 20
-0.254463
 30
0.0
 11
25.337745000000002
 21
-0.085933
 31
0.0
  0
LINE
  5
77
  8
LAYOUT
 10
25.360393999999999
 20
-0.284153
 30
0.0
 11
25.27526700000001
 21
-0.117083
 31
0.0
  0
LINE
  5
78
  8
LAYOUT
 10
25.301372000000001
 20
-0.314878
 30
0.0
 11
25.213342999999998
 21
-0.149318
 31
0.0
  0
LINE
  5
79
  8
LAYOUT
 10
26.233605000000001
 20
0.03367
 30
0.0
 11
26.191424999999999
 21
0.216372
 31
0.0
  0
LINE
  5
7A
  8
LAYOUT
 10
25.242895999999998
 20
-0.346628
 30
0.0
 11
25.151990999999999
 21
-0.18263
 31
0.0
  0
LINE
  5
7B
  8
LAYOUT
 10
26.168904000000001
 20
0.018137
 30
0.0
 11
26.123542
 21
0.200074
 31
0.0
  0
LINE
  5
7C
  8
LAYOUT
 10
25.214980000000001
 20
-0.4313510000000001
 30
0.0
 11
25.091228999999998
 21
-0.217007
 31
0.0
  0
LINE
  5
7D
  8
LAYOUT
 10
26.120011999999999
 20
-0.056474
 30
0.0
 11
26.055954
 21
0.182592
 31
0.0
  0
LINE
  5
7E
  8
LAYOUT
 10
24.540172999999999
 20
-0.8478749999999999
 30
0.0
 11
24.414705999999999
 21
-0.7085300000000001
 31
0.0
  0
LINE
  5
7F
  8
LAYOUT
 10
25.127649999999999
 20
-0.413165
 30
0.0
 11
25.031077
 21
-0.25244
 31
0.0
  0
LINE
  5
80
  8
LAYOUT
 10
26.040362999999999
 20
-0.016303
 30
0.0
 11
25.988681
 21
0.163936
 31
0.0
  0
LINE
  5
81
  8
LAYOUT
 10
25.976565000000001
 20
-0.035204
 30
0.0
 11
25.921742999999999
 21
0.14411
 31
0.0
  0
LINE
  5
82
  8
LAYOUT
 10
25.070916
 20
-0.447932
 30
0.0
 11
24.971551999999999
 21
-0.288917
 31
0.0
  0
LINE
  5
83
  8
LAYOUT
 10
25.014797000000002
 20
-0.4836840000000001
 30
0.0
 11
24.912673000000002
 21
-0.326427
 31
0.0
  0
LINE
  5
84
  8
LAYOUT
 10
25.913104000000001
 20
-0.05521
 30
0.0
 11
25.855162
 21
0.123115
 31
0.0
  0
LINE
  5
85
  8
LAYOUT
 10
24.959310000000009
 20
-0.520409
 30
0.0
 11
24.854457
 21
-0.364959
 31
0.0
  0
LINE
  5
86
  8
LAYOUT
 10
28.755604999999999
 20
-0.496786
 30
0.0
 11
28.793686999999998
 21
-0.479878
 31
0.0
  0
LINE
  5
87
  8
LAYOUT
 10
28.793686999999998
 20
-0.479878
 30
0.0
 11
28.837337999999999
 21
-0.5042640000000001
 31
0.0
  0
LINE
  5
88
  8
LAYOUT
 10
28.837337999999999
 20
-0.5042640000000001
 30
0.0
 11
28.842905999999999
 21
-0.5455560000000002
 31
0.0
  0
LINE
  5
89
  8
LAYOUT
 10
28.842905999999999
 20
-0.5455560000000002
 30
0.0
 11
28.826649
 21
-0.5746570000000001
 31
0.0
  0
LINE
  5
8A
  8
LAYOUT
 10
28.826649
 20
-0.5746570000000001
 30
0.0
 11
28.788567
 21
-0.591564
 31
0.0
  0
LINE
  5
8B
  8
LAYOUT
 10
28.788567
 20
-0.591564
 30
0.0
 11
28.766742000000001
 21
-0.5793720000000001
 31
0.0
  0
LINE
  5
8C
  8
LAYOUT
 10
28.788567
 20
-0.591564
 30
0.0
 11
28.794135000000001
 21
-0.632857
 31
0.0
  0
LINE
  5
8D
  8
LAYOUT
 10
28.794135000000001
 20
-0.632857
 30
0.0
 11
28.777878000000001
 21
-0.6619580000000001
 31
0.0
  0
LINE
  5
8E
  8
LAYOUT
 10
28.777878000000001
 20
-0.6619580000000001
 30
0.0
 11
28.739795999999998
 21
-0.6788650000000001
 31
0.0
  0
LINE
  5
8F
  8
LAYOUT
 10
28.739795999999998
 20
-0.6788650000000001
 30
0.0
 11
28.696145999999999
 21
-0.6544800000000001
 31
0.0
  0
LINE
  5
90
  8
LAYOUT
 10
28.696145999999999
 20
-0.6544800000000001
 30
0.0
 11
28.690577999999999
 21
-0.6131870000000002
 31
0.0
  0
LINE
  5
91
  8
LAYOUT
 10
24.491115000000001
 20
-0.892829
 30
0.0
 11
24.363235
 21
-0.755694
 31
0.0
  0
LINE
  5
92
  8
LAYOUT
 10
24.938884999999999
 20
-0.607243
 30
0.0
 11
24.796923
 21
-0.404501
 31
0.0
  0
LINE
  5
93
  8
LAYOUT
 10
24.850301999999999
 20
-0.5967380000000001
 30
0.0
 11
24.740088
 21
-0.445041
 31
0.0
  0
LINE
  5
94
  8
LAYOUT
 10
24.796813
 20
-0.6363170000000001
 30
0.0
 11
24.683969000000001
 21
-0.4865670000000001
 31
0.0
  0
LINE
  5
95
  8
LAYOUT
 10
24.442844999999998
 20
-0.9386279999999999
 30
0.0
 11
24.312597
 21
-0.803752
 31
0.0
  0
LINE
  5
96
  8
LAYOUT
 10
24.744024
 20
-0.676824
 30
0.0
 11
24.628582999999999
 21
-0.5290660000000002
 31
0.0
  0
LINE
  5
97
  8
LAYOUT
 10
24.437812000000001
 20
-1.0276929999999991
 30
0.0
 11
24.262803999999999
 21
-0.8526839999999999
 31
0.0
  0
LINE
  5
98
  8
LAYOUT
 10
24.691949000000001
 20
-0.7182460000000001
 30
0.0
 11
24.573947
 21
-0.572525
 31
0.0
  0
CIRCLE
  5
99
  8
LAYOUT
 10
27.091229999999999
 20
-3.681111
 30
0.0
 40
4.0
  0
TEXT
  5
9A
  8
LAYOUT
 10
24.454101000000001
 20
-2.799255
 30
0.0
 40
0.25
  1
1 degree increments
  0
LINE
  5
9B
  8
LAYOUT
 10
25.272373000000002
 20
-6.6226159999999998
 30
0.0
 11
25.311275999999999
 21
-6.6076940000000004
 31
0.0
  0
LINE
  5
9C
  8
LAYOUT
 10
25.311275999999999
 20
-6.6076940000000004
 30
0.0
 11
25.332443999999999
 21
-6.6209949999999989
 31
0.0
  0
LINE
  5
9D
  8
LAYOUT
 10
24.640605999999998
 20
-6.6016519999999996
 30
0.0
 11
24.520078000000002
 21
-6.745290999999999
 31
0.0
  0
LINE
  5
9E
  8
LAYOUT
 10
24.590008000000001
 20
-6.5584369999999987
 30
0.0
 11
24.466992999999999
 21
-6.6999509999999987
 31
0.0
  0
LINE
  5
9F
  8
LAYOUT
 10
25.419941999999999
 20
-7.1077589999999988
 30
0.0
 11
25.337745000000002
 21
-7.2762890000000002
 31
0.0
  0
LINE
  5
A0
  8
LAYOUT
 10
25.850002
 20
-0.076323
 30
0.0
 11
25.788958000000001
 21
0.100963
 31
0.0
  0
LINE
  5
A1
  8
LAYOUT
 10
25.8078
 20
-0.154914
 30
0.0
 11
25.723148999999999
 21
0.077662
 31
0.0
  0
LINE
  5
A2
  8
LAYOUT
 10
27.024692999999999
 20
0.130806
 30
0.0
 11
27.021421
 21
0.31828
 31
0.0
  0
LINE
  5
A3
  8
LAYOUT
 10
26.958176000000002
 20
0.129062
 30
0.0
 11
26.951632
 21
0.316455
 31
0.0
  0
LINE
  5
A4
  8
LAYOUT
 10
26.8917
 20
0.126162
 30
0.0
 11
26.881886000000002
 21
0.313407
 31
0.0
  0
LINE
  5
A5
  8
LAYOUT
 10
26.825284000000011
 20
0.122097
 30
0.0
 11
26.812204000000001
 21
0.309148
 31
0.0
  0
LINE
  5
A6
  8
LAYOUT
 10
25.724952999999999
 20
-0.121838
 30
0.0
 11
25.657758000000001
 21
0.053211
 31
0.0
  0
LINE
  5
A7
  8
LAYOUT
 10
25.663043999999999
 20
-0.146227
 30
0.0
 11
25.592803
 21
0.027627
 31
0.0
  0
LINE
  5
A8
  8
LAYOUT
 10
26.764178000000001
 20
0.05711
 30
0.0
 11
26.742607
 21
0.303668
 31
0.0
  0
LINE
  5
A9
  8
LAYOUT
 10
26.692716000000001
 20
0.110499
 30
0.0
 11
26.673116
 21
0.296979
 31
0.0
  0
LINE
  5
AA
  8
LAYOUT
 10
26.626604
 20
0.102969
 30
0.0
 11
26.603753000000001
 21
0.289074
 31
0.0
  0
LINE
  5
AB
  8
LAYOUT
 10
26.560632999999999
 20
0.094281
 30
0.0
 11
26.534537
 21
0.279964
 31
0.0
  0
LINE
  5
AC
  8
LAYOUT
 10
25.601569000000001
 20
-0.171688
 30
0.0
 11
25.528306000000001
 21
0.000909
 31
0.0
  0
LINE
  5
AD
  8
LAYOUT
 10
25.540548999999999
 20
-0.198223
 30
0.0
 11
25.464282999999998
 21
-0.026927
 31
0.0
  0
LINE
  5
AE
  8
LAYOUT
 10
26.494824000000001
 20
0.084449
 30
0.0
 11
26.465492000000001
 21
0.2696429999999999
 31
0.0
  0
LINE
  5
AF
  8
LAYOUT
 10
26.439615
 20
0.01438
 30
0.0
 11
26.396636999999998
 21
0.258122
 31
0.0
  0
LINE
  5
B0
  8
LAYOUT
 10
26.363771000000011
 20
0.061341
 30
0.0
 11
26.327994
 21
0.245398
 31
0.0
  0
LINE
  5
B1
  8
LAYOUT
 10
26.298568
 20
0.048072
 30
0.0
 11
26.25958300000001
 21
0.231482
 31
0.0
  0
LINE
  5
B2
  8
LAYOUT
 10
25.450496000000001
 20
-0.673746
 30
0.0
 11
25.412973000000001
 21
-0.655632
 31
0.0
  0
LINE
  5
B3
  8
LAYOUT
 10
25.412973000000001
 20
-0.655632
 30
0.0
 11
25.351693999999998
 21
-0.537215
 31
0.0
  0
LINE
  5
B4
  8
LAYOUT
 10
25.351693999999998
 20
-0.537215
 30
0.0
 11
25.358577
 21
-0.496121
 31
0.0
  0
LINE
  5
B5
  8
LAYOUT
 10
25.358577
 20
-0.496121
 30
0.0
 11
25.380780000000001
 21
-0.4846310000000001
 31
0.0
  0
LINE
  5
B6
  8
LAYOUT
 10
25.380780000000001
 20
-0.4846310000000001
 30
0.0
 11
25.418303000000002
 21
-0.502745
 31
0.0
  0
LINE
  5
B7
  8
LAYOUT
 10
25.418303000000002
 20
-0.502745
 30
0.0
 11
25.479583000000002
 21
-0.621162
 31
0.0
  0
LINE
  5
B8
  8
LAYOUT
 10
25.479583000000002
 20
-0.621162
 30
0.0
 11
25.4727
 21
-0.6622560000000001
 31
0.0
  0
LINE
  5
B9
  8
LAYOUT
 10
25.4727
 20
-0.6622560000000001
 30
0.0
 11
25.450496000000001
 21
-0.673746
 31
0.0
  0
LINE
  5
BA
  8
LAYOUT
 10
25.191958
 20
-0.6310560000000001
 30
0.0
 11
25.196714
 21
-0.5896620000000001
 31
0.0
  0
LINE
  5
BB
  8
LAYOUT
 10
25.196714
 20
-0.5896620000000001
 30
0.0
 11
25.239875999999999
 21
-0.5644239999999999
 31
0.0
  0
LINE
  5
BC
  8
LAYOUT
 10
25.239875999999999
 20
-0.5644239999999999
 30
0.0
 11
25.278282999999998
 21
-0.58058
 31
0.0
  0
LINE
  5
BD
  8
LAYOUT
 10
25.278282999999998
 20
-0.58058
 30
0.0
 11
25.295109
 21
-0.609355
 31
0.0
  0
LINE
  5
BE
  8
LAYOUT
 10
25.295109
 20
-0.609355
 30
0.0
 11
25.290353
 21
-0.6507490000000001
 31
0.0
  0
LINE
  5
BF
  8
LAYOUT
 10
25.290353
 20
-0.6507490000000001
 30
0.0
 11
25.268771000000001
 21
-0.663369
 31
0.0
  0
LINE
  5
C0
  8
LAYOUT
 10
25.290353
 20
-0.6507490000000001
 30
0.0
 11
25.328759999999999
 21
-0.666906
 31
0.0
  0
LINE
  5
C1
  8
LAYOUT
 10
25.328759999999999
 20
-0.666906
 30
0.0
 11
25.345585
 21
-0.695681
 31
0.0
  0
LINE
  5
C2
  8
LAYOUT
 10
25.345585
 20
-0.695681
 30
0.0
 11
25.340828999999999
 21
-0.7370750000000002
 31
0.0
  0
LINE
  5
C3
  8
LAYOUT
 10
25.340828999999999
 20
-0.7370750000000002
 30
0.0
 11
25.297667000000001
 21
-0.762313
 31
0.0
  0
LINE
  5
C4
  8
LAYOUT
 10
25.297667000000001
 20
-0.762313
 30
0.0
 11
25.259260000000001
 21
-0.746157
 31
0.0
  0
LINE
  5
C5
  8
LAYOUT
 10
26.091469
 20
-0.229945
 30
0.0
 11
26.107285999999998
 21
-0.191397
 31
0.0
  0
LINE
  5
C6
  8
LAYOUT
 10
26.107285999999998
 20
-0.191397
 30
0.0
 11
26.157567
 21
-0.384973
 31
0.0
  0
LINE
  5
C7
  8
LAYOUT
 10
26.133369999999999
 20
-0.391258
 30
0.0
 11
26.181764000000001
 21
-0.378688
 31
0.0
  0
LINE
  5
C8
  8
LAYOUT
 10
26.233536000000001
 20
-0.329331
 30
0.0
 11
26.265250999999999
 21
-0.356354
 31
0.0
  0
LINE
  5
C9
  8
LAYOUT
 10
26.265250999999999
 20
-0.356354
 30
0.0
 11
26.314029000000001
 21
-0.345364
 31
0.0
  0
LINE
  5
CA
  8
LAYOUT
 10
26.314029000000001
 20
-0.345364
 30
0.0
 11
26.331091000000001
 21
-0.3073510000000001
 31
0.0
  0
LINE
  5
CB
  8
LAYOUT
 10
26.331091000000001
 20
-0.3073510000000001
 30
0.0
 11
26.316437000000001
 21
-0.242315
 31
0.0
  0
LINE
  5
CC
  8
LAYOUT
 10
26.316437000000001
 20
-0.242315
 30
0.0
 11
26.284721999999999
 21
-0.215291
 31
0.0
  0
LINE
  5
CD
  8
LAYOUT
 10
26.284721999999999
 20
-0.215291
 30
0.0
 11
26.211556000000002
 21
-0.231776
 31
0.0
  0
LINE
  5
CE
  8
LAYOUT
 10
26.211556000000002
 20
-0.231776
 30
0.0
 11
26.196902999999999
 21
-0.16674
 31
0.0
  0
LINE
  5
CF
  8
LAYOUT
 10
26.196902999999999
 20
-0.16674
 30
0.0
 11
26.294457000000001
 21
-0.14476
 31
0.0
  0
LINE
  5
D0
  8
LAYOUT
 10
24.679169999999999
 20
-0.8065290000000001
 30
0.0
 11
24.520078000000002
 21
-0.6169310000000001
 31
0.0
  0
LINE
  5
D1
  8
LAYOUT
 10
27.119913
 20
-7.1068119999999988
 30
0.0
 11
27.144459999999999
 21
-7.1404800000000002
 31
0.0
  0
LINE
  5
D2
  8
LAYOUT
 10
27.144459999999999
 20
-7.1404800000000002
 30
0.0
 11
27.142658000000001
 21
-7.2738009999999989
 31
0.0
  0
LINE
  5
D3
  8
LAYOUT
 10
27.142658000000001
 20
-7.2738009999999989
 30
0.0
 11
27.117208999999999
 21
-7.306794
 31
0.0
  0
LINE
  5
D4
  8
LAYOUT
 10
27.117208999999999
 20
-7.306794
 30
0.0
 11
27.092212
 21
-7.306455999999999
 31
0.0
  0
LINE
  5
D5
  8
LAYOUT
 10
27.092212
 20
-7.306455999999999
 30
0.0
 11
27.067665000000002
 21
-7.2727869999999992
 31
0.0
  0
LINE
  5
D6
  8
LAYOUT
 10
27.067665000000002
 20
-7.2727869999999992
 30
0.0
 11
27.069467
 21
-7.1394659999999996
 31
0.0
  0
LINE
  5
D7
  8
LAYOUT
 10
27.069467
 20
-7.1394659999999996
 30
0.0
 11
27.094916000000001
 21
-7.1064740000000004
 31
0.0
  0
LINE
  5
D8
  8
LAYOUT
 10
27.094916000000001
 20
-7.1064740000000004
 30
0.0
 11
27.119913
 21
-7.1068119999999988
 31
0.0
  0
CIRCLE
  5
D9
  8
LAYOUT
 10
27.091229999999999
 20
-3.681111
 30
0.0
 40
0.125
  0
LINE
  5
DA
  8
LAYOUT
 10
25.360393999999999
 20
-7.0780690000000002
 30
0.0
 11
25.27526700000001
 21
-7.2451389999999991
 31
0.0
  0
LINE
  5
DB
  8
LAYOUT
 10
25.301372000000001
 20
-7.0473439999999989
 30
0.0
 11
25.213342999999998
 21
-7.212902999999999
 31
0.0
  0
LINE
  5
DC
  8
LAYOUT
 10
26.233605000000001
 20
-7.395891999999999
 30
0.0
 11
26.191424999999999
 21
-7.5785939999999989
 31
0.0
  0
LINE
  5
DD
  8
LAYOUT
 10
25.242895999999998
 20
-7.0155940000000001
 30
0.0
 11
25.151990999999999
 21
-7.1795919999999986
 31
0.0
  0
LINE
  5
DE
  8
LAYOUT
 10
26.168904000000001
 20
-7.3803589999999986
 30
0.0
 11
26.123542
 21
-7.5622959999999999
 31
0.0
  0
LINE
  5
DF
  8
LAYOUT
 10
25.214980000000001
 20
-6.9308709999999998
 30
0.0
 11
25.091228999999998
 21
-7.1452149999999994
 31
0.0
  0
LINE
  5
E0
  8
LAYOUT
 10
26.120011999999999
 20
-7.3057479999999986
 30
0.0
 11
26.055954
 21
-7.5448139999999988
 31
0.0
  0
LINE
  5
E1
  8
LAYOUT
 10
24.540172999999999
 20
-6.514346999999999
 30
0.0
 11
24.414705999999999
 21
-6.6536919999999986
 31
0.0
  0
LINE
  5
E2
  8
LAYOUT
 10
25.127649999999999
 20
-6.9490569999999998
 30
0.0
 11
25.031077
 21
-7.109782
 31
0.0
  0
LINE
  5
E3
  8
LAYOUT
 10
26.040362999999999
 20
-7.3459190000000003
 30
0.0
 11
25.988681
 21
-7.5261579999999997
 31
0.0
  0
LINE
  5
E4
  8
LAYOUT
 10
25.976565000000001
 20
-7.327017999999998
 30
0.0
 11
25.921742999999999
 21
-7.5063319999999996
 31
0.0
  0
LINE
  5
E5
  8
LAYOUT
 10
25.070916
 20
-6.9142899999999994
 30
0.0
 11
24.971551999999999
 21
-7.0733050000000004
 31
0.0
  0
LINE
  5
E6
  8
LAYOUT
 10
25.014797000000002
 20
-6.8785379999999998
 30
0.0
 11
24.912673000000002
 21
-7.0357949999999994
 31
0.0
  0
LINE
  5
E7
  8
LAYOUT
 10
25.913104000000001
 20
-7.3070119999999994
 30
0.0
 11
25.855162
 21
-7.4853369999999986
 31
0.0
  0
LINE
  5
E8
  8
LAYOUT
 10
24.959310000000009
 20
-6.8418130000000001
 30
0.0
 11
24.854457
 21
-6.9972630000000002
 31
0.0
  0
LINE
  5
E9
  8
LAYOUT
 10
24.491115000000001
 20
-6.4693930000000002
 30
0.0
 11
24.363235
 21
-6.6065269999999998
 31
0.0
  0
LINE
  5
EA
  8
LAYOUT
 10
24.938884999999999
 20
-6.7549789999999987
 30
0.0
 11
24.796923
 21
-6.9577210000000003
 31
0.0
  0
LINE
  5
EB
  8
LAYOUT
 10
24.850301999999999
 20
-6.7654839999999989
 30
0.0
 11
24.740088
 21
-6.9171809999999994
 31
0.0
  0
LINE
  5
EC
  8
LAYOUT
 10
24.796813
 20
-6.725905
 30
0.0
 11
24.683969000000001
 21
-6.8756550000000001
 31
0.0
  0
LINE
  5
ED
  8
LAYOUT
 10
24.442844999999998
 20
-6.4235939999999996
 30
0.0
 11
24.312597
 21
-6.5584699999999989
 31
0.0
  0
LINE
  5
EE
  8
LAYOUT
 10
24.744024
 20
-6.6853979999999993
 30
0.0
 11
24.628582999999999
 21
-6.8331559999999989
 31
0.0
  0
LINE
  5
EF
  8
LAYOUT
 10
24.437812000000001
 20
-6.334528999999999
 30
0.0
 11
24.262803999999999
 21
-6.509536999999999
 31
0.0
  0
LINE
  5
F0
  8
LAYOUT
 10
24.691949000000001
 20
-6.6439759999999994
 30
0.0
 11
24.573947
 21
-6.7896970000000003
 31
0.0
  0
LINE
  5
F1
  8
LAYOUT
 10
26.256159000000011
 20
-7.1757819999999999
 30
0.0
 11
26.223368000000001
 21
-7.2014889999999987
 31
0.0
  0
LINE
  5
F2
  8
LAYOUT
 10
26.223368000000001
 20
-7.2014889999999987
 30
0.0
 11
26.275245999999999
 21
-7.0083349999999998
 31
0.0
  0
LINE
  5
F3
  8
LAYOUT
 10
26.299391
 20
-7.0148199999999994
 30
0.0
 11
26.251101999999999
 21
-7.0018500000000001
 31
0.0
  0
LINE
  5
F4
  8
LAYOUT
 10
27.091229999999999
 20
-7.4336109999999991
 30
0.0
 11
27.091229999999999
 21
-7.6811129999999999
 31
0.0
  0
LINE
  5
F5
  8
LAYOUT
 10
25.850002
 20
-7.2858979999999987
 30
0.0
 11
25.788958000000001
 21
-7.4631850000000002
 31
0.0
  0
LINE
  5
F6
  8
LAYOUT
 10
25.8078
 20
-7.207307000000001
 30
0.0
 11
25.723148999999999
 21
-7.4398839999999993
 31
0.0
  0
LINE
  5
F7
  8
LAYOUT
 10
27.024692999999999
 20
-7.4930279999999989
 30
0.0
 11
27.021421
 21
-7.6805019999999997
 31
0.0
  0
LINE
  5
F8
  8
LAYOUT
 10
26.958176000000002
 20
-7.4912839999999994
 30
0.0
 11
26.951632
 21
-7.6786770000000004
 31
0.0
  0
LINE
  5
F9
  8
LAYOUT
 10
26.181709000000001
 20
-7.0191999999999988
 30
0.0
 11
26.167477000000002
 21
-6.9800389999999988
 31
0.0
  0
LINE
  5
FA
  8
LAYOUT
 10
26.167477000000002
 20
-6.9800389999999988
 30
0.0
 11
26.119634999999999
 21
-6.9655059999999986
 31
0.0
  0
LINE
  5
FB
  8
LAYOUT
 10
26.119634999999999
 20
-6.9655059999999986
 30
0.0
 11
26.086026
 21
-6.9901339999999994
 31
0.0
  0
LINE
  5
FC
  8
LAYOUT
 10
26.086026
 20
-6.9901339999999994
 30
0.0
 11
26.066649000000002
 21
-7.053922
 31
0.0
  0
LINE
  5
FD
  8
LAYOUT
 10
26.066649000000002
 20
-7.053922
 30
0.0
 11
26.080880000000001
 21
-7.093083
 31
0.0
  0
LINE
  5
FE
  8
LAYOUT
 10
26.080880000000001
 20
-7.093083
 30
0.0
 11
26.152642
 21
-7.114882999999999
 31
0.0
  0
LINE
  5
FF
  8
LAYOUT
 10
26.152642
 20
-7.114882999999999
 30
0.0
 11
26.133265000000002
 21
-7.1786709999999996
 31
0.0
  0
LINE
  5
100
  8
LAYOUT
 10
26.133265000000002
 20
-7.1786709999999996
 30
0.0
 11
26.037582
 21
-7.1496050000000002
 31
0.0
  0
LINE
  5
101
  8
LAYOUT
 10
26.8917
 20
-7.488383999999999
 30
0.0
 11
26.881886000000002
 21
-7.675628999999998
 31
0.0
  0
LINE
  5
102
  8
LAYOUT
 10
26.825284000000011
 20
-7.4843190000000002
 30
0.0
 11
26.812204000000001
 21
-7.6713699999999987
 31
0.0
  0
LINE
  5
103
  8
LAYOUT
 10
25.724952999999999
 20
-7.2403839999999988
 30
0.0
 11
25.657758000000001
 21
-7.4154330000000002
 31
0.0
  0
LINE
  5
104
  8
LAYOUT
 10
25.663043999999999
 20
-7.2159949999999986
 30
0.0
 11
25.592803
 21
-7.3898489999999999
 31
0.0
  0
LINE
  5
105
  8
LAYOUT
 10
26.764178000000001
 20
-7.4193319999999998
 30
0.0
 11
26.742607
 21
-7.6658899999999992
 31
0.0
  0
LINE
  5
106
  8
LAYOUT
 10
26.692716000000001
 20
-7.4727209999999999
 30
0.0
 11
26.673116
 21
-7.6592009999999986
 31
0.0
  0
LINE
  5
107
  8
LAYOUT
 10
26.626604
 20
-7.465190999999999
 30
0.0
 11
26.603753000000001
 21
-7.6512960000000003
 31
0.0
  0
LINE
  5
108
  8
LAYOUT
 10
26.560632999999999
 20
-7.4565029999999988
 30
0.0
 11
26.534537
 21
-7.6421859999999988
 31
0.0
  0
LINE
  5
109
  8
LAYOUT
 10
25.601569000000001
 20
-7.1905339999999986
 30
0.0
 11
25.528306000000001
 21
-7.3631299999999991
 31
0.0
  0
LINE
  5
10A
  8
LAYOUT
 10
25.540548999999999
 20
-7.1639979999999994
 30
0.0
 11
25.464282999999998
 21
-7.3352949999999986
 31
0.0
  0
LINE
  5
10B
  8
LAYOUT
 10
26.494824000000001
 20
-7.4466710000000003
 30
0.0
 11
26.465492000000001
 21
-7.6318640000000002
 31
0.0
  0
LINE
  5
10C
  8
LAYOUT
 10
26.439615
 20
-7.3766020000000001
 30
0.0
 11
26.396636999999998
 21
-7.6203440000000002
 31
0.0
  0
LINE
  5
10D
  8
LAYOUT
 10
26.363771000000011
 20
-7.4235619999999987
 30
0.0
 11
26.327994
 21
-7.6076199999999989
 31
0.0
  0
LINE
  5
10E
  8
LAYOUT
 10
26.298568
 20
-7.4102940000000004
 30
0.0
 11
26.25958300000001
 21
-7.5937039999999989
 31
0.0
  0
LINE
  5
10F
  8
LAYOUT
 10
29.592452000000002
 20
-6.5584369999999987
 30
0.0
 11
29.715468000000001
 21
-6.6999509999999987
 31
0.0
  0
LINE
  5
110
  8
LAYOUT
 10
28.762518
 20
-7.1077589999999988
 30
0.0
 11
28.844715999999998
 21
-7.2762890000000002
 31
0.0
  0
LINE
  5
111
  8
LAYOUT
 10
28.822067000000001
 20
-7.0780690000000002
 30
0.0
 11
28.907192999999999
 21
-7.2451389999999991
 31
0.0
  0
LINE
  5
112
  8
LAYOUT
 10
28.881087999999998
 20
-7.0473439999999989
 30
0.0
 11
28.969118000000002
 21
-7.212902999999999
 31
0.0
  0
LINE
  5
113
  8
LAYOUT
 10
27.948854999999998
 20
-7.395891999999999
 30
0.0
 11
27.991035
 21
-7.5785939999999989
 31
0.0
  0
LINE
  5
114
  8
LAYOUT
 10
28.939565000000002
 20
-7.0155940000000001
 30
0.0
 11
29.030470000000001
 21
-7.1795919999999986
 31
0.0
  0
LINE
  5
115
  8
LAYOUT
 10
28.013556000000001
 20
-7.3803589999999986
 30
0.0
 11
28.058917999999998
 21
-7.5622959999999999
 31
0.0
  0
LINE
  5
116
  8
LAYOUT
 10
28.967479999999998
 20
-6.9308709999999998
 30
0.0
 11
29.091231000000001
 21
-7.1452149999999994
 31
0.0
  0
LINE
  5
117
  8
LAYOUT
 10
28.062449000000001
 20
-7.3057479999999986
 30
0.0
 11
28.126505999999999
 21
-7.5448139999999988
 31
0.0
  0
LINE
  5
118
  8
LAYOUT
 10
29.642287
 20
-6.514346999999999
 30
0.0
 11
29.767754
 21
-6.6536919999999986
 31
0.0
  0
LINE
  5
119
  8
LAYOUT
 10
29.05481
 20
-6.9490569999999998
 30
0.0
 11
29.151384
 21
-7.109782
 31
0.0
  0
LINE
  5
11A
  8
LAYOUT
 10
28.142097
 20
-7.3459190000000003
 30
0.0
 11
28.19378
 21
-7.5261579999999997
 31
0.0
  0
LINE
  5
11B
  8
LAYOUT
 10
28.205895999999999
 20
-7.327017999999998
 30
0.0
 11
28.260718000000001
 21
-7.5063319999999996
 31
0.0
  0
LINE
  5
11C
  8
LAYOUT
 10
29.111545
 20
-6.9142899999999994
 30
0.0
 11
29.210909000000001
 21
-7.0733050000000004
 31
0.0
  0
LINE
  5
11D
  8
LAYOUT
 10
29.167663999999998
 20
-6.8785379999999998
 30
0.0
 11
29.269787999999998
 21
-7.0357949999999994
 31
0.0
  0
LINE
  5
11E
  8
LAYOUT
 10
28.269356999999999
 20
-7.3070119999999994
 30
0.0
 11
28.327297999999999
 21
-7.4853369999999986
 31
0.0
  0
LINE
  5
11F
  8
LAYOUT
 10
29.22315
 20
-6.8418130000000001
 30
0.0
 11
29.328002999999999
 21
-6.9972630000000002
 31
0.0
  0
LINE
  5
120
  8
LAYOUT
 10
25.426855
 20
-6.865435999999999
 30
0.0
 11
25.388773
 21
-6.8823439999999989
 31
0.0
  0
LINE
  5
121
  8
LAYOUT
 10
25.388773
 20
-6.8823439999999989
 30
0.0
 11
25.345123000000001
 21
-6.8579579999999991
 31
0.0
  0
LINE
  5
122
  8
LAYOUT
 10
25.345123000000001
 20
-6.8579579999999991
 30
0.0
 11
25.339555000000001
 21
-6.8166649999999986
 31
0.0
  0
LINE
  5
123
  8
LAYOUT
 10
25.339555000000001
 20
-6.8166649999999986
 30
0.0
 11
25.355810999999999
 21
-6.787564999999999
 31
0.0
  0
LINE
  5
124
  8
LAYOUT
 10
25.355810999999999
 20
-6.787564999999999
 30
0.0
 11
25.393892999999998
 21
-6.7706580000000001
 31
0.0
  0
LINE
  5
125
  8
LAYOUT
 10
25.393892999999998
 20
-6.7706580000000001
 30
0.0
 11
25.415718999999999
 21
-6.7828499999999989
 31
0.0
  0
LINE
  5
126
  8
LAYOUT
 10
25.393892999999998
 20
-6.7706580000000001
 30
0.0
 11
25.388324999999998
 21
-6.7293649999999987
 31
0.0
  0
LINE
  5
127
  8
LAYOUT
 10
25.388324999999998
 20
-6.7293649999999987
 30
0.0
 11
25.404582000000001
 21
-6.7002639999999989
 31
0.0
  0
LINE
  5
128
  8
LAYOUT
 10
25.404582000000001
 20
-6.7002639999999989
 30
0.0
 11
25.442664000000001
 21
-6.683357
 31
0.0
  0
LINE
  5
129
  8
LAYOUT
 10
25.442664000000001
 20
-6.683357
 30
0.0
 11
25.486314
 21
-6.7077419999999988
 31
0.0
  0
LINE
  5
12A
  8
LAYOUT
 10
25.486314
 20
-6.7077419999999988
 30
0.0
 11
25.491883000000001
 21
-6.749035000000001
 31
0.0
  0
LINE
  5
12B
  8
LAYOUT
 10
29.691345999999999
 20
-6.4693930000000002
 30
0.0
 11
29.819224999999999
 21
-6.6065269999999998
 31
0.0
  0
LINE
  5
12C
  8
LAYOUT
 10
29.243576000000001
 20
-6.7549789999999987
 30
0.0
 11
29.385536999999999
 21
-6.9577210000000003
 31
0.0
  0
LINE
  5
12D
  8
LAYOUT
 10
29.332159000000001
 20
-6.7654839999999989
 30
0.0
 11
29.442373
 21
-6.9171809999999994
 31
0.0
  0
LINE
  5
12E
  8
LAYOUT
 10
29.385646999999999
 20
-6.725905
 30
0.0
 11
29.498491999999999
 21
-6.8756550000000001
 31
0.0
  0
LINE
  5
12F
  8
LAYOUT
 10
29.739615000000001
 20
-6.4235939999999996
 30
0.0
 11
29.869862999999999
 21
-6.5584699999999989
 31
0.0
  0
LINE
  5
130
  8
LAYOUT
 10
29.438437
 20
-6.6853979999999993
 30
0.0
 11
29.553878000000001
 21
-6.8331559999999989
 31
0.0
  0
LINE
  5
131
  8
LAYOUT
 10
29.744648000000002
 20
-6.334528999999999
 30
0.0
 11
29.919657000000001
 21
-6.509536999999999
 31
0.0
  0
LINE
  5
132
  8
LAYOUT
 10
29.490511000000001
 20
-6.6439759999999994
 30
0.0
 11
29.608512999999999
 21
-6.7896970000000003
 31
0.0
  0
LINE
  5
133
  8
LAYOUT
 10
28.332457999999999
 20
-7.2858979999999987
 30
0.0
 11
28.393502999999999
 21
-7.4631850000000002
 31
0.0
  0
LINE
  5
134
  8
LAYOUT
 10
28.374661
 20
-7.207307000000001
 30
0.0
 11
28.459312000000001
 21
-7.4398839999999993
 31
0.0
  0
LINE
  5
135
  8
LAYOUT
 10
27.157767
 20
-7.4930279999999989
 30
0.0
 11
27.16104
 21
-7.6805019999999997
 31
0.0
  0
LINE
  5
136
  8
LAYOUT
 10
27.224284000000001
 20
-7.4912839999999994
 30
0.0
 11
27.230827999999999
 21
-7.6786770000000004
 31
0.0
  0
LINE
  5
137
  8
LAYOUT
 10
27.290761
 20
-7.488383999999999
 30
0.0
 11
27.300574000000001
 21
-7.675628999999998
 31
0.0
  0
LINE
  5
138
  8
LAYOUT
 10
27.357175999999999
 20
-7.4843190000000002
 30
0.0
 11
27.370256000000001
 21
-7.6713699999999987
 31
0.0
  0
LINE
  5
139
  8
LAYOUT
 10
28.457507
 20
-7.2403839999999988
 30
0.0
 11
28.524702000000001
 21
-7.4154330000000002
 31
0.0
  0
LINE
  5
13A
  8
LAYOUT
 10
28.519416
 20
-7.2159949999999986
 30
0.0
 11
28.589656999999999
 21
-7.3898489999999999
 31
0.0
  0
LINE
  5
13B
  8
LAYOUT
 10
27.418282000000001
 20
-7.4193319999999998
 30
0.0
 11
27.439852999999999
 21
-7.6658899999999992
 31
0.0
  0
LINE
  5
13C
  8
LAYOUT
 10
27.489744000000002
 20
-7.4727209999999999
 30
0.0
 11
27.509343999999999
 21
-7.6592009999999986
 31
0.0
  0
LINE
  5
13D
  8
LAYOUT
 10
27.555857
 20
-7.465190999999999
 30
0.0
 11
27.578707999999999
 21
-7.6512960000000003
 31
0.0
  0
LINE
  5
13E
  8
LAYOUT
 10
27.621827
 20
-7.4565029999999988
 30
0.0
 11
27.647922999999999
 21
-7.6421859999999988
 31
0.0
  0
LINE
  5
13F
  8
LAYOUT
 10
28.580891999999999
 20
-7.1905339999999986
 30
0.0
 11
28.654154999999999
 21
-7.3631299999999991
 31
0.0
  0
LINE
  5
140
  8
LAYOUT
 10
28.641912000000001
 20
-7.1639979999999994
 30
0.0
 11
28.718178000000002
 21
-7.3352949999999986
 31
0.0
  0
LINE
  5
141
  8
LAYOUT
 10
27.687636000000001
 20
-7.4466710000000003
 30
0.0
 11
27.716968000000001
 21
-7.6318640000000002
 31
0.0
  0
LINE
  5
142
  8
LAYOUT
 10
27.742844999999999
 20
-7.3766020000000001
 30
0.0
 11
27.785823000000001
 21
-7.6203440000000002
 31
0.0
  0
LINE
  5
143
  8
LAYOUT
 10
27.818688999999999
 20
-7.4235619999999987
 30
0.0
 11
27.854465999999999
 21
-7.6076199999999989
 31
0.0
  0
LINE
  5
144
  8
LAYOUT
 10
27.883893
 20
-7.4102940000000004
 30
0.0
 11
27.92287700000001
 21
-7.5937039999999989
 31
0.0
  0
LINE
  5
145
  8
LAYOUT
 10
28.731964000000001
 20
-6.6884759999999988
 30
0.0
 11
28.769487000000002
 21
-6.7065899999999994
 31
0.0
  0
LINE
  5
146
  8
LAYOUT
 10
28.769487000000002
 20
-6.7065899999999994
 30
0.0
 11
28.830767000000002
 21
-6.8250070000000003
 31
0.0
  0
LINE
  5
147
  8
LAYOUT
 10
28.830767000000002
 20
-6.8250070000000003
 30
0.0
 11
28.823884
 21
-6.8661009999999987
 31
0.0
  0
LINE
  5
148
  8
LAYOUT
 10
28.823884
 20
-6.8661009999999987
 30
0.0
 11
28.801680000000001
 21
-6.8775909999999998
 31
0.0
  0
LINE
  5
149
  8
LAYOUT
 10
28.801680000000001
 20
-6.8775909999999998
 30
0.0
 11
28.764157000000001
 21
-6.859477
 31
0.0
  0
LINE
  5
14A
  8
LAYOUT
 10
28.764157000000001
 20
-6.859477
 30
0.0
 11
28.702877999999998
 21
-6.7410600000000001
 31
0.0
  0
LINE
  5
14B
  8
LAYOUT
 10
28.702877999999998
 20
-6.7410600000000001
 30
0.0
 11
28.709761
 21
-6.6999659999999999
 31
0.0
  0
LINE
  5
14C
  8
LAYOUT
 10
28.709761
 20
-6.6999659999999999
 30
0.0
 11
28.731964000000001
 21
-6.6884759999999988
 31
0.0
  0
LINE
  5
14D
  8
LAYOUT
 10
28.990503000000011
 20
-6.7311659999999991
 30
0.0
 11
28.985747
 21
-6.7725600000000004
 31
0.0
  0
LINE
  5
14E
  8
LAYOUT
 10
28.985747
 20
-6.7725600000000004
 30
0.0
 11
28.942584
 21
-6.7977979999999993
 31
0.0
  0
LINE
  5
14F
  8
LAYOUT
 10
28.942584
 20
-6.7977979999999993
 30
0.0
 11
28.904177000000001
 21
-6.7816419999999988
 31
0.0
  0
LINE
  5
150
  8
LAYOUT
 10
28.904177000000001
 20
-6.7816419999999988
 30
0.0
 11
28.887352000000011
 21
-6.7528670000000002
 31
0.0
  0
LINE
  5
151
  8
LAYOUT
 10
28.887352000000011
 20
-6.7528670000000002
 30
0.0
 11
28.892108
 21
-6.7114719999999997
 31
0.0
  0
LINE
  5
152
  8
LAYOUT
 10
28.892108
 20
-6.7114719999999997
 30
0.0
 11
28.913689000000002
 21
-6.6988529999999988
 31
0.0
  0
LINE
  5
153
  8
LAYOUT
 10
28.892108
 20
-6.7114719999999997
 30
0.0
 11
28.853701000000001
 21
-6.695316
 31
0.0
  0
LINE
  5
154
  8
LAYOUT
 10
28.853701000000001
 20
-6.695316
 30
0.0
 11
28.836874999999999
 21
-6.6665409999999996
 31
0.0
  0
LINE
  5
155
  8
LAYOUT
 10
28.836874999999999
 20
-6.6665409999999996
 30
0.0
 11
28.841631
 21
-6.6251470000000001
 31
0.0
  0
LINE
  5
156
  8
LAYOUT
 10
28.841631
 20
-6.6251470000000001
 30
0.0
 11
28.884793999999999
 21
-6.5999089999999994
 31
0.0
  0
LINE
  5
157
  8
LAYOUT
 10
28.884793999999999
 20
-6.5999089999999994
 30
0.0
 11
28.923200999999999
 21
-6.6160649999999981
 31
0.0
  0
LINE
  5
158
  8
LAYOUT
 10
28.090992
 20
-7.1322770000000002
 30
0.0
 11
28.075175000000002
 21
-7.1708249999999989
 31
0.0
  0
LINE
  5
159
  8
LAYOUT
 10
28.075175000000002
 20
-7.1708249999999989
 30
0.0
 11
28.024892999999999
 21
-6.9772489999999996
 31
0.0
  0
LINE
  5
15A
  8
LAYOUT
 10
28.04909
 20
-6.9709630000000002
 30
0.0
 11
28.000696000000001
 21
-6.9835339999999988
 31
0.0
  0
LINE
  5
15B
  8
LAYOUT
 10
27.948924000000002
 20
-7.0328910000000002
 30
0.0
 11
27.917209
 21
-7.0058679999999987
 31
0.0
  0
LINE
  5
15C
  8
LAYOUT
 10
27.917209
 20
-7.0058679999999987
 30
0.0
 11
27.868431999999999
 21
-7.016858
 31
0.0
  0
LINE
  5
15D
  8
LAYOUT
 10
27.868431999999999
 20
-7.016858
 30
0.0
 11
27.85137000000001
 21
-7.0548710000000003
 31
0.0
  0
LINE
  5
15E
  8
LAYOUT
 10
27.85137000000001
 20
-7.0548710000000003
 30
0.0
 11
27.866022999999998
 21
-7.1199070000000004
 31
0.0
  0
LINE
  5
15F
  8
LAYOUT
 10
27.866022999999998
 20
-7.1199070000000004
 30
0.0
 11
27.897738
 21
-7.1469309999999986
 31
0.0
  0
LINE
  5
160
  8
LAYOUT
 10
27.897738
 20
-7.1469309999999986
 30
0.0
 11
27.970904000000001
 21
-7.1304460000000001
 31
0.0
  0
LINE
  5
161
  8
LAYOUT
 10
27.970904000000001
 20
-7.1304460000000001
 30
0.0
 11
27.985558000000001
 21
-7.195482000000001
 31
0.0
  0
LINE
  5
162
  8
LAYOUT
 10
27.985558000000001
 20
-7.195482000000001
 30
0.0
 11
27.888003000000001
 21
-7.2174619999999994
 31
0.0
  0
LINE
  5
163
  8
LAYOUT
 10
29.503291000000001
 20
-6.555692999999998
 30
0.0
 11
29.662382000000001
 21
-6.745290999999999
 31
0.0
  0
LINE
  5
164
  8
LAYOUT
 10
23.69031
 20
-5.2669860000000002
 30
0.0
 11
23.465997000000002
 21
-5.3715849999999987
 31
0.0
  0
LINE
  5
165
  8
LAYOUT
 10
23.69031
 20
-2.095235999999999
 30
0.0
 11
23.465997000000002
 21
-1.9906369999999991
 31
0.0
  0
LINE
  5
166
  8
LAYOUT
 10
24.151346
 20
-1.9223250000000001
 30
0.0
 11
24.109821
 21
-1.9257569999999991
 31
0.0
  0
LINE
  5
167
  8
LAYOUT
 10
24.109821
 20
-1.9257569999999991
 30
0.0
 11
23.996925999999998
 21
-1.8548159999999989
 31
0.0
  0
LINE
  5
168
  8
LAYOUT
 10
23.996925999999998
 20
-1.8548159999999989
 30
0.0
 11
23.982004
 21
-1.8159130000000001
 31
0.0
  0
LINE
  5
169
  8
LAYOUT
 10
23.982004
 20
-1.8159130000000001
 30
0.0
 11
23.995304999999998
 21
-1.7947459999999991
 31
0.0
  0
LINE
  5
16A
  8
LAYOUT
 10
23.995304999999998
 20
-1.7947459999999991
 30
0.0
 11
24.036829999999998
 21
-1.7913129999999999
 31
0.0
  0
LINE
  5
16B
  8
LAYOUT
 10
24.036829999999998
 20
-1.7913129999999999
 30
0.0
 11
24.149725
 21
-1.8622540000000001
 31
0.0
  0
LINE
  5
16C
  8
LAYOUT
 10
24.149725
 20
-1.8622540000000001
 30
0.0
 11
24.164646999999999
 21
-1.9011569999999991
 31
0.0
  0
LINE
  5
16D
  8
LAYOUT
 10
24.164646999999999
 20
-1.9011569999999991
 30
0.0
 11
24.151346
 21
-1.9223250000000001
 31
0.0
  0
LINE
  5
16E
  8
LAYOUT
 10
24.17069
 20
-1.2304859999999991
 30
0.0
 11
24.027051
 21
-1.109958999999999
 31
0.0
  0
LINE
  5
16F
  8
LAYOUT
 10
30.492149999999999
 20
-2.095235999999999
 30
0.0
 11
30.716463999999998
 21
-1.9906369999999991
 31
0.0
  0
LINE
  5
170
  8
LAYOUT
 10
30.492149999999999
 20
-5.2669860000000002
 30
0.0
 11
30.716463999999998
 21
-5.3715849999999987
 31
0.0
  0
LINE
  5
171
  8
LAYOUT
 10
30.03111500000001
 20
-5.4398970000000002
 30
0.0
 11
30.07264000000001
 21
-5.4364650000000001
 31
0.0
  0
LINE
  5
172
  8
LAYOUT
 10
30.07264000000001
 20
-5.4364650000000001
 30
0.0
 11
30.185534000000001
 21
-5.5074050000000003
 31
0.0
  0
LINE
  5
173
  8
LAYOUT
 10
30.185534000000001
 20
-5.5074050000000003
 30
0.0
 11
30.200457
 21
-5.5463079999999989
 31
0.0
  0
LINE
  5
174
  8
LAYOUT
 10
30.200457
 20
-5.5463079999999989
 30
0.0
 11
30.187155000000001
 21
-5.5674760000000001
 31
0.0
  0
LINE
  5
175
  8
LAYOUT
 10
30.187155000000001
 20
-5.5674760000000001
 30
0.0
 11
30.145630000000001
 21
-5.5709089999999986
 31
0.0
  0
LINE
  5
176
  8
LAYOUT
 10
30.145630000000001
 20
-5.5709089999999986
 30
0.0
 11
30.032736
 21
-5.4999679999999991
 31
0.0
  0
LINE
  5
177
  8
LAYOUT
 10
30.032736
 20
-5.4999679999999991
 30
0.0
 11
30.017813
 21
-5.4610649999999996
 31
0.0
  0
LINE
  5
178
  8
LAYOUT
 10
30.017813
 20
-5.4610649999999996
 30
0.0
 11
30.03111500000001
 21
-5.4398970000000002
 31
0.0
  0
LINE
  5
179
  8
LAYOUT
 10
24.213903999999999
 20
-1.1798889999999991
 30
0.0
 11
24.072389999999999
 21
-1.0568729999999991
 31
0.0
  0
LINE
  5
17A
  8
LAYOUT
 10
23.664581999999999
 20
-2.009822999999999
 30
0.0
 11
23.496051999999999
 21
-1.927624999999999
 31
0.0
  0
LINE
  5
17B
  8
LAYOUT
 10
23.665528999999999
 20
-3.709794
 30
0.0
 11
23.631861000000001
 21
-3.7343410000000001
 31
0.0
  0
LINE
  5
17C
  8
LAYOUT
 10
23.631861000000001
 20
-3.7343410000000001
 30
0.0
 11
23.498539999999998
 21
-3.732537999999999
 31
0.0
  0
LINE
  5
17D
  8
LAYOUT
 10
23.498539999999998
 20
-3.732537999999999
 30
0.0
 11
23.465547999999998
 21
-3.7070899999999991
 31
0.0
  0
LINE
  5
17E
  8
LAYOUT
 10
23.465547999999998
 20
-3.7070899999999991
 30
0.0
 11
23.465886000000001
 21
-3.682091999999999
 31
0.0
  0
LINE
  5
17F
  8
LAYOUT
 10
23.465886000000001
 20
-3.682091999999999
 30
0.0
 11
23.499554
 21
-3.6575449999999989
 31
0.0
  0
LINE
  5
180
  8
LAYOUT
 10
23.499554
 20
-3.6575449999999989
 30
0.0
 11
23.632874999999999
 21
-3.659348
 31
0.0
  0
LINE
  5
181
  8
LAYOUT
 10
23.632874999999999
 20
-3.659348
 30
0.0
 11
23.665866999999999
 21
-3.6847959999999991
 31
0.0
  0
LINE
  5
182
  8
LAYOUT
 10
23.665866999999999
 20
-3.6847959999999991
 30
0.0
 11
23.665528999999999
 21
-3.709794
 31
0.0
  0
LINE
  5
183
  8
LAYOUT
 10
23.694272000000002
 20
-1.9502740000000001
 30
0.0
 11
23.527201999999999
 21
-1.8651479999999989
 31
0.0
  0
LINE
  5
184
  8
LAYOUT
 10
23.724996999999998
 20
-1.891252999999999
 30
0.0
 11
23.559438
 21
-1.8032239999999999
 31
0.0
  0
LINE
  5
185
  8
LAYOUT
 10
23.376449000000001
 20
-2.8234859999999991
 30
0.0
 11
23.193747999999999
 21
-2.7813059999999998
 31
0.0
  0
LINE
  5
186
  8
LAYOUT
 10
23.756747000000001
 20
-1.8327770000000001
 30
0.0
 11
23.592749000000001
 21
-1.7418709999999991
 31
0.0
  0
LINE
  5
187
  8
LAYOUT
 10
23.391983
 20
-2.758785
 30
0.0
 11
23.210045000000001
 21
-2.7134230000000001
 31
0.0
  0
LINE
  5
188
  8
LAYOUT
 10
23.841470000000001
 20
-1.804861
 30
0.0
 11
23.627127000000002
 21
-1.681109999999999
 31
0.0
  0
LINE
  5
189
  8
LAYOUT
 10
23.466594000000001
 20
-2.7098919999999991
 30
0.0
 11
23.227526999999998
 21
-2.645834999999999
 31
0.0
  0
LINE
  5
18A
  8
LAYOUT
 10
24.257994
 20
-1.1300539999999999
 30
0.0
 11
24.118649000000001
 21
-1.0045869999999999
 31
0.0
  0
LINE
  5
18B
  8
LAYOUT
 10
23.823284000000001
 20
-1.7175309999999999
 30
0.0
 11
23.662559000000002
 21
-1.6209569999999991
 31
0.0
  0
LINE
  5
18C
  8
LAYOUT
 10
23.426421999999999
 20
-2.6302439999999989
 30
0.0
 11
23.246182999999998
 21
-2.5785610000000001
 31
0.0
  0
LINE
  5
18D
  8
LAYOUT
 10
23.445322999999998
 20
-2.566444999999999
 30
0.0
 11
23.266009
 21
-2.5116230000000002
 31
0.0
  0
LINE
  5
18E
  8
LAYOUT
 10
23.858051
 20
-1.6607959999999991
 30
0.0
 11
23.699036
 21
-1.5614330000000001
 31
0.0
  0
LINE
  5
18F
  8
LAYOUT
 10
23.893802999999998
 20
-1.6046769999999999
 30
0.0
 11
23.736546000000001
 21
-1.5025529999999989
 31
0.0
  0
LINE
  5
190
  8
LAYOUT
 10
23.465329000000001
 20
-2.5029840000000001
 30
0.0
 11
23.287004
 21
-2.4450430000000001
 31
0.0
  0
LINE
  5
191
  8
LAYOUT
 10
23.930529
 20
-1.5491909999999991
 30
0.0
 11
23.775078000000001
 21
-1.444337999999999
 31
0.0
  0
LINE
  5
192
  8
LAYOUT
 10
24.302948000000001
 20
-1.080995999999999
 30
0.0
 11
24.165814000000001
 21
-0.9531159999999999
 31
0.0
  0
LINE
  5
193
  8
LAYOUT
 10
24.017361999999999
 20
-1.528764999999999
 30
0.0
 11
23.814620000000001
 21
-1.3868039999999999
 31
0.0
  0
LINE
  5
194
  8
LAYOUT
 10
24.006857
 20
-1.440183
 30
0.0
 11
23.855160000000001
 21
-1.3299689999999991
 31
0.0
  0
LINE
  5
195
  8
LAYOUT
 10
24.046436
 20
-1.3866940000000001
 30
0.0
 11
23.896685999999999
 21
-1.273849
 31
0.0
  0
LINE
  5
196
  8
LAYOUT
 10
24.348746999999999
 20
-1.032726
 30
0.0
 11
24.213871999999999
 21
-0.9024780000000001
 31
0.0
  0
LINE
  5
197
  8
LAYOUT
 10
24.086943000000002
 20
-1.333904999999999
 30
0.0
 11
23.939184999999998
 21
-1.2184639999999991
 31
0.0
  0
LINE
  5
198
  8
LAYOUT
 10
24.437812000000001
 20
-1.0276929999999991
 30
0.0
 11
24.262803999999999
 21
-0.8526839999999999
 31
0.0
  0
LINE
  5
199
  8
LAYOUT
 10
24.128364999999999
 20
-1.28183
 30
0.0
 11
23.982645000000002
 21
-1.1638280000000001
 31
0.0
  0
LINE
  5
19A
  8
LAYOUT
 10
23.596558999999999
 20
-2.8460389999999989
 30
0.0
 11
23.570851999999999
 21
-2.8132489999999999
 31
0.0
  0
LINE
  5
19B
  8
LAYOUT
 10
23.570851999999999
 20
-2.8132489999999999
 30
0.0
 11
23.764005999999998
 21
-2.8651270000000002
 31
0.0
  0
LINE
  5
19C
  8
LAYOUT
 10
23.757521000000001
 20
-2.889270999999999
 30
0.0
 11
23.770491
 21
-2.8409829999999991
 31
0.0
  0
LINE
  5
19D
  8
LAYOUT
 10
23.338730000000002
 20
-3.681111
 30
0.0
 11
23.091228000000001
 21
-3.681111
 31
0.0
  0
LINE
  5
19E
  8
LAYOUT
 10
23.486443000000001
 20
-2.439883
 30
0.0
 11
23.309156000000002
 21
-2.378838
 31
0.0
  0
LINE
  5
19F
  8
LAYOUT
 10
23.565034000000001
 20
-2.3976799999999989
 30
0.0
 11
23.332457999999999
 21
-2.313029999999999
 31
0.0
  0
LINE
  5
1A0
  8
LAYOUT
 10
23.279312999999998
 20
-3.6145739999999988
 30
0.0
 11
23.091839
 21
-3.6113010000000001
 31
0.0
  0
LINE
  5
1A1
  8
LAYOUT
 10
23.281058000000002
 20
-3.548057
 30
0.0
 11
23.093665000000001
 21
-3.5415129999999988
 31
0.0
  0
LINE
  5
1A2
  8
LAYOUT
 10
23.753140999999999
 20
-2.7715890000000001
 30
0.0
 11
23.792301999999999
 21
-2.7573569999999989
 31
0.0
  0
LINE
  5
1A3
  8
LAYOUT
 10
23.792301999999999
 20
-2.7573569999999989
 30
0.0
 11
23.806835
 21
-2.7095159999999989
 31
0.0
  0
LINE
  5
1A4
  8
LAYOUT
 10
23.806835
 20
-2.7095159999999989
 30
0.0
 11
23.782207
 21
-2.675907
 31
0.0
  0
LINE
  5
1A5
  8
LAYOUT
 10
23.782207
 20
-2.675907
 30
0.0
 11
23.718419000000001
 21
-2.656528999999999
 31
0.0
  0
LINE
  5
1A6
  8
LAYOUT
 10
23.718419000000001
 20
-2.656528999999999
 30
0.0
 11
23.679258000000001
 21
-2.6707610000000002
 31
0.0
  0
LINE
  5
1A7
  8
LAYOUT
 10
23.679258000000001
 20
-2.6707610000000002
 30
0.0
 11
23.657457999999998
 21
-2.7425229999999989
 31
0.0
  0
LINE
  5
1A8
  8
LAYOUT
 10
23.657457999999998
 20
-2.7425229999999989
 30
0.0
 11
23.593669999999999
 21
-2.723145999999999
 31
0.0
  0
LINE
  5
1A9
  8
LAYOUT
 10
23.593669999999999
 20
-2.723145999999999
 30
0.0
 11
23.622736
 21
-2.6274630000000001
 31
0.0
  0
LINE
  5
1AA
  8
LAYOUT
 10
23.283957000000001
 20
-3.4815800000000001
 30
0.0
 11
23.096712
 21
-3.4717669999999989
 31
0.0
  0
LINE
  5
1AB
  8
LAYOUT
 10
23.288022000000002
 20
-3.415165
 30
0.0
 11
23.100971999999999
 21
-3.402085
 31
0.0
  0
LINE
  5
1AC
  8
LAYOUT
 10
23.531956999999998
 20
-2.3148339999999989
 30
0.0
 11
23.356908000000001
 21
-2.2476389999999991
 31
0.0
  0
LINE
  5
1AD
  8
LAYOUT
 10
23.556346000000001
 20
-2.252924999999999
 30
0.0
 11
23.382493
 21
-2.1826840000000001
 31
0.0
  0
LINE
  5
1AE
  8
LAYOUT
 10
23.353010000000001
 20
-3.354058999999999
 30
0.0
 11
23.106451
 21
-3.3324879999999988
 31
0.0
  0
LINE
  5
1AF
  8
LAYOUT
 10
23.299620000000001
 20
-3.2825969999999991
 30
0.0
 11
23.113140000000001
 21
-3.262996999999999
 31
0.0
  0
LINE
  5
1B0
  8
LAYOUT
 10
23.30715
 20
-3.216483999999999
 30
0.0
 11
23.121046
 21
-3.193633999999999
 31
0.0
  0
LINE
  5
1B1
  8
LAYOUT
 10
23.315837999999999
 20
-3.1505139999999989
 30
0.0
 11
23.130155999999999
 21
-3.124417999999999
 31
0.0
  0
LINE
  5
1B2
  8
LAYOUT
 10
23.581807999999999
 20
-2.1914489999999991
 30
0.0
 11
23.409210999999999
 21
-2.1181860000000001
 31
0.0
  0
LINE
  5
1B3
  8
LAYOUT
 10
23.608343000000001
 20
-2.130428999999999
 30
0.0
 11
23.437045999999999
 21
-2.0541629999999991
 31
0.0
  0
LINE
  5
1B4
  8
LAYOUT
 10
23.325671
 20
-3.084705
 30
0.0
 11
23.140477000000001
 21
-3.055372999999999
 31
0.0
  0
LINE
  5
1B5
  8
LAYOUT
 10
23.395738999999999
 20
-3.0294959999999991
 30
0.0
 11
23.151997000000001
 21
-2.9865179999999998
 31
0.0
  0
LINE
  5
1B6
  8
LAYOUT
 10
23.348779
 20
-2.9536519999999991
 30
0.0
 11
23.164721
 21
-2.917875
 31
0.0
  0
LINE
  5
1B7
  8
LAYOUT
 10
23.362047
 20
-2.8884489999999992
 30
0.0
 11
23.178636999999998
 21
-2.8494639999999989
 31
0.0
  0
LINE
  5
1B8
  8
LAYOUT
 10
24.213903999999999
 20
-6.182332999999999
 30
0.0
 11
24.072389999999999
 21
-6.3053489999999988
 31
0.0
  0
LINE
  5
1B9
  8
LAYOUT
 10
23.664581999999999
 20
-5.3523990000000001
 30
0.0
 11
23.496051999999999
 21
-5.4345970000000001
 31
0.0
  0
LINE
  5
1BA
  8
LAYOUT
 10
23.694272000000002
 20
-5.4119469999999996
 30
0.0
 11
23.527201999999999
 21
-5.4970739999999987
 31
0.0
  0
LINE
  5
1BB
  8
LAYOUT
 10
23.724996999999998
 20
-5.4709690000000002
 30
0.0
 11
23.559438
 21
-5.558997999999999
 31
0.0
  0
LINE
  5
1BC
  8
LAYOUT
 10
23.376449000000001
 20
-4.5387360000000001
 30
0.0
 11
23.193747999999999
 21
-4.5809160000000002
 31
0.0
  0
LINE
  5
1BD
  8
LAYOUT
 10
23.756747000000001
 20
-5.5294449999999991
 30
0.0
 11
23.592749000000001
 21
-5.6203510000000003
 31
0.0
  0
LINE
  5
1BE
  8
LAYOUT
 10
23.391983
 20
-4.6034369999999996
 30
0.0
 11
23.210045000000001
 21
-4.6487989999999986
 31
0.0
  0
LINE
  5
1BF
  8
LAYOUT
 10
23.841470000000001
 20
-5.5573610000000002
 30
0.0
 11
23.627127000000002
 21
-5.6811119999999997
 31
0.0
  0
LINE
  5
1C0
  8
LAYOUT
 10
23.466594000000001
 20
-4.652328999999999
 30
0.0
 11
23.227526999999998
 21
-4.7163870000000001
 31
0.0
  0
LINE
  5
1C1
  8
LAYOUT
 10
24.257994
 20
-6.2321679999999988
 30
0.0
 11
24.118649000000001
 21
-6.3576350000000001
 31
0.0
  0
LINE
  5
1C2
  8
LAYOUT
 10
23.823284000000001
 20
-5.6446909999999999
 30
0.0
 11
23.662559000000002
 21
-5.7412640000000001
 31
0.0
  0
LINE
  5
1C3
  8
LAYOUT
 10
23.426421999999999
 20
-4.7319779999999989
 30
0.0
 11
23.246182999999998
 21
-4.7836600000000002
 31
0.0
  0
LINE
  5
1C4
  8
LAYOUT
 10
23.445322999999998
 20
-4.7957769999999993
 30
0.0
 11
23.266009
 21
-4.8505979999999997
 31
0.0
  0
LINE
  5
1C5
  8
LAYOUT
 10
23.858051
 20
-5.7014259999999997
 30
0.0
 11
23.699036
 21
-5.8007889999999991
 31
0.0
  0
LINE
  5
1C6
  8
LAYOUT
 10
23.893802999999998
 20
-5.7575449999999986
 30
0.0
 11
23.736546000000001
 21
-5.8596680000000001
 31
0.0
  0
LINE
  5
1C7
  8
LAYOUT
 10
23.465329000000001
 20
-4.8592379999999986
 30
0.0
 11
23.287004
 21
-4.9171789999999991
 31
0.0
  0
LINE
  5
1C8
  8
LAYOUT
 10
23.930529
 20
-5.8130309999999987
 30
0.0
 11
23.775078000000001
 21
-5.917883999999999
 31
0.0
  0
LINE
  5
1C9
  8
LAYOUT
 10
23.906904999999998
 20
-2.016735999999999
 30
0.0
 11
23.889997999999999
 21
-1.9786539999999999
 31
0.0
  0
LINE
  5
1CA
  8
LAYOUT
 10
23.889997999999999
 20
-1.9786539999999999
 30
0.0
 11
23.914383000000001
 21
-1.9350039999999999
 31
0.0
  0
LINE
  5
1CB
  8
LAYOUT
 10
23.914383000000001
 20
-1.9350039999999999
 30
0.0
 11
23.955676
 21
-1.9294349999999989
 31
0.0
  0
LINE
  5
1CC
  8
LAYOUT
 10
23.955676
 20
-1.9294349999999989
 30
0.0
 11
23.984776
 21
-1.9456919999999991
 31
0.0
  0
LINE
  5
1CD
  8
LAYOUT
 10
23.984776
 20
-1.9456919999999991
 30
0.0
 11
24.001684000000001
 21
-1.9837739999999999
 31
0.0
  0
LINE
  5
1CE
  8
LAYOUT
 10
24.001684000000001
 20
-1.9837739999999999
 30
0.0
 11
23.989491000000001
 21
-2.0055990000000001
 31
0.0
  0
LINE
  5
1CF
  8
LAYOUT
 10
24.001684000000001
 20
-1.9837739999999999
 30
0.0
 11
24.042977
 21
-1.9782059999999999
 31
0.0
  0
LINE
  5
1D0
  8
LAYOUT
 10
24.042977
 20
-1.9782059999999999
 30
0.0
 11
24.072077
 21
-1.9944630000000001
 31
0.0
  0
LINE
  5
1D1
  8
LAYOUT
 10
24.072077
 20
-1.9944630000000001
 30
0.0
 11
24.088984
 21
-2.0325449999999998
 31
0.0
  0
LINE
  5
1D2
  8
LAYOUT
 10
24.088984
 20
-2.0325449999999998
 30
0.0
 11
24.064599000000001
 21
-2.0761949999999998
 31
0.0
  0
LINE
  5
1D3
  8
LAYOUT
 10
24.064599000000001
 20
-2.0761949999999998
 30
0.0
 11
24.023306000000002
 21
-2.0817639999999988
 31
0.0
  0
LINE
  5
1D4
  8
LAYOUT
 10
24.302948000000001
 20
-6.2812260000000002
 30
0.0
 11
24.165814000000001
 21
-6.4091059999999986
 31
0.0
  0
LINE
  5
1D5
  8
LAYOUT
 10
24.017361999999999
 20
-5.8334570000000001
 30
0.0
 11
23.814620000000001
 21
-5.9754180000000003
 31
0.0
  0
LINE
  5
1D6
  8
LAYOUT
 10
24.006857
 20
-5.9220389999999989
 30
0.0
 11
23.855160000000001
 21
-6.032252999999999
 31
0.0
  0
LINE
  5
1D7
  8
LAYOUT
 10
24.046436
 20
-5.9755279999999988
 30
0.0
 11
23.896685999999999
 21
-6.0883719999999988
 31
0.0
  0
LINE
  5
1D8
  8
LAYOUT
 10
24.348746999999999
 20
-6.3294959999999989
 30
0.0
 11
24.213871999999999
 21
-6.4597439999999997
 31
0.0
  0
LINE
  5
1D9
  8
LAYOUT
 10
24.086943000000002
 20
-6.0283169999999986
 30
0.0
 11
23.939184999999998
 21
-6.1437580000000001
 31
0.0
  0
LINE
  5
1DA
  8
LAYOUT
 10
24.437812000000001
 20
-6.334528999999999
 30
0.0
 11
24.262803999999999
 21
-6.509536999999999
 31
0.0
  0
LINE
  5
1DB
  8
LAYOUT
 10
24.128364999999999
 20
-6.0803919999999989
 30
0.0
 11
23.982645000000002
 21
-6.1983940000000004
 31
0.0
  0
LINE
  5
1DC
  8
LAYOUT
 10
24.608847000000001
 20
-1.2256039999999999
 30
0.0
 11
24.538523000000001
 21
-1.296699
 31
0.0
  0
LINE
  5
1DD
  8
LAYOUT
 10
24.538523000000001
 20
-1.296699
 30
0.0
 11
24.496473999999999
 21
-1.1496120000000001
 31
0.0
  0
LINE
  5
1DE
  8
LAYOUT
 10
24.496473999999999
 20
-1.1496120000000001
 30
0.0
 11
24.638663000000001
 21
-1.2902610000000001
 31
0.0
  0
LINE
  5
1DF
  8
LAYOUT
 10
24.670190999999999
 20
-1.2095450000000001
 30
0.0
 11
24.711175999999998
 21
-1.2170510000000001
 31
0.0
  0
LINE
  5
1E0
  8
LAYOUT
 10
24.711175999999998
 20
-1.2170510000000001
 30
0.0
 11
24.747890000000002
 21
-1.1831100000000001
 31
0.0
  0
LINE
  5
1E1
  8
LAYOUT
 10
24.747890000000002
 20
-1.1831100000000001
 30
0.0
 11
24.74362
 21
-1.141662999999999
 31
0.0
  0
LINE
  5
1E2
  8
LAYOUT
 10
24.74362
 20
-1.141662999999999
 30
0.0
 11
24.698364999999999
 21
-1.0927100000000001
 31
0.0
  0
LINE
  5
1E3
  8
LAYOUT
 10
24.698364999999999
 20
-1.0927100000000001
 30
0.0
 11
24.65738
 21
-1.0852040000000001
 31
0.0
  0
LINE
  5
1E4
  8
LAYOUT
 10
24.65738
 20
-1.0852040000000001
 30
0.0
 11
24.602308000000001
 21
-1.136115999999999
 31
0.0
  0
LINE
  5
1E5
  8
LAYOUT
 10
24.602308000000001
 20
-1.136115999999999
 30
0.0
 11
24.557053
 21
-1.087162
 31
0.0
  0
LINE
  5
1E6
  8
LAYOUT
 10
24.557053
 20
-1.087162
 30
0.0
 11
24.630483000000002
 21
-1.0192799999999991
 31
0.0
  0
LINE
  5
1E7
  8
LAYOUT
 10
30.011771
 20
-6.1317360000000001
 30
0.0
 11
30.15541
 21
-6.2522630000000001
 31
0.0
  0
LINE
  5
1E8
  8
LAYOUT
 10
29.968557000000001
 20
-6.182332999999999
 30
0.0
 11
30.11007
 21
-6.3053489999999988
 31
0.0
  0
LINE
  5
1E9
  8
LAYOUT
 10
30.517878
 20
-5.3523990000000001
 30
0.0
 11
30.686409000000001
 21
-5.4345970000000001
 31
0.0
  0
LINE
  5
1EA
  8
LAYOUT
 10
23.486443000000001
 20
-4.922339
 30
0.0
 11
23.309156000000002
 21
-4.983384
 31
0.0
  0
LINE
  5
1EB
  8
LAYOUT
 10
23.565034000000001
 20
-4.9645419999999989
 30
0.0
 11
23.332457999999999
 21
-5.0491919999999988
 31
0.0
  0
LINE
  5
1EC
  8
LAYOUT
 10
23.279312999999998
 20
-3.7476479999999999
 30
0.0
 11
23.091839
 21
-3.7509209999999991
 31
0.0
  0
LINE
  5
1ED
  8
LAYOUT
 10
23.281058000000002
 20
-3.814165
 30
0.0
 11
23.093665000000001
 21
-3.820708999999999
 31
0.0
  0
LINE
  5
1EE
  8
LAYOUT
 10
23.283957000000001
 20
-3.880641999999999
 30
0.0
 11
23.096712
 21
-3.8904550000000002
 31
0.0
  0
LINE
  5
1EF
  8
LAYOUT
 10
23.288022000000002
 20
-3.947057
 30
0.0
 11
23.100971999999999
 21
-3.960137
 31
0.0
  0
LINE
  5
1F0
  8
LAYOUT
 10
23.531956999999998
 20
-5.0473879999999989
 30
0.0
 11
23.356908000000001
 21
-5.1145829999999997
 31
0.0
  0
LINE
  5
1F1
  8
LAYOUT
 10
23.556346000000001
 20
-5.1092969999999989
 30
0.0
 11
23.382493
 21
-5.1795379999999991
 31
0.0
  0
LINE
  5
1F2
  8
LAYOUT
 10
23.353010000000001
 20
-4.0081629999999988
 30
0.0
 11
23.106451
 21
-4.0297339999999986
 31
0.0
  0
LINE
  5
1F3
  8
LAYOUT
 10
23.299620000000001
 20
-4.0796250000000001
 30
0.0
 11
23.113140000000001
 21
-4.0992249999999988
 31
0.0
  0
LINE
  5
1F4
  8
LAYOUT
 10
23.30715
 20
-4.1457379999999988
 30
0.0
 11
23.121046
 21
-4.1685879999999988
 31
0.0
  0
LINE
  5
1F5
  8
LAYOUT
 10
23.315837999999999
 20
-4.2117079999999989
 30
0.0
 11
23.130155999999999
 21
-4.2378039999999988
 31
0.0
  0
LINE
  5
1F6
  8
LAYOUT
 10
23.581807999999999
 20
-5.1707720000000004
 30
0.0
 11
23.409210999999999
 21
-5.2440350000000002
 31
0.0
  0
LINE
  5
1F7
  8
LAYOUT
 10
23.608343000000001
 20
-5.2317919999999987
 30
0.0
 11
23.437045999999999
 21
-5.3080579999999991
 31
0.0
  0
LINE
  5
1F8
  8
LAYOUT
 10
23.325671
 20
-4.2775169999999987
 30
0.0
 11
23.140477000000001
 21
-4.3068489999999988
 31
0.0
  0
LINE
  5
1F9
  8
LAYOUT
 10
23.395738999999999
 20
-4.3327260000000001
 30
0.0
 11
23.151997000000001
 21
-4.3757039999999989
 31
0.0
  0
LINE
  5
1FA
  8
LAYOUT
 10
23.348779
 20
-4.4085700000000001
 30
0.0
 11
23.164721
 21
-4.4443469999999996
 31
0.0
  0
LINE
  5
1FB
  8
LAYOUT
 10
23.362047
 20
-4.4737730000000004
 30
0.0
 11
23.178636999999998
 21
-4.5127579999999989
 31
0.0
  0
LINE
  5
1FC
  8
LAYOUT
 10
24.64744
 20
-6.1750290000000003
 30
0.0
 11
24.718865000000001
 21
-6.2450179999999991
 31
0.0
  0
LINE
  5
1FD
  8
LAYOUT
 10
24.718865000000001
 20
-6.2450179999999991
 30
0.0
 11
24.571977
 21
-6.2877589999999994
 31
0.0
  0
LINE
  5
1FE
  8
LAYOUT
 10
24.571977
 20
-6.2877589999999994
 30
0.0
 11
24.711956000000001
 21
-6.1449089999999993
 31
0.0
  0
LINE
  5
1FF
  8
LAYOUT
 10
24.631091999999999
 20
-6.1137620000000004
 30
0.0
 11
24.638404999999999
 21
-6.072741999999999
 31
0.0
  0
LINE
  5
200
  8
LAYOUT
 10
24.638404999999999
 20
-6.072741999999999
 30
0.0
 11
24.604291
 21
-6.0361869999999991
 31
0.0
  0
LINE
  5
201
  8
LAYOUT
 10
24.604291
 20
-6.0361869999999991
 30
0.0
 11
24.562864999999999
 21
-6.0406519999999988
 31
0.0
  0
LINE
  5
202
  8
LAYOUT
 10
24.562864999999999
 20
-6.0406519999999988
 30
0.0
 11
24.514125
 21
-6.086138
 31
0.0
  0
LINE
  5
203
  8
LAYOUT
 10
24.514125
 20
-6.086138
 30
0.0
 11
24.506812
 21
-6.1271579999999997
 31
0.0
  0
LINE
  5
204
  8
LAYOUT
 10
24.506812
 20
-6.1271579999999997
 30
0.0
 11
24.557983
 21
-6.181989999999999
 31
0.0
  0
LINE
  5
205
  8
LAYOUT
 10
24.557983
 20
-6.181989999999999
 30
0.0
 11
24.509243000000001
 21
-6.2274750000000001
 31
0.0
  0
LINE
  5
206
  8
LAYOUT
 10
24.509243000000001
 20
-6.2274750000000001
 30
0.0
 11
24.441016000000001
 21
-6.1543650000000003
 31
0.0
  0
LINE
  5
207
  8
LAYOUT
 10
24.083864999999999
 20
-5.3218449999999988
 30
0.0
 11
24.065750999999999
 21
-5.359367999999999
 31
0.0
  0
LINE
  5
208
  8
LAYOUT
 10
24.065750999999999
 20
-5.359367999999999
 30
0.0
 11
23.947334000000001
 21
-5.420647999999999
 31
0.0
  0
LINE
  5
209
  8
LAYOUT
 10
23.947334000000001
 20
-5.420647999999999
 30
0.0
 11
23.90624
 21
-5.4137639999999987
 31
0.0
  0
LINE
  5
20A
  8
LAYOUT
 10
23.90624
 20
-5.4137639999999987
 30
0.0
 11
23.894749999999998
 21
-5.3915610000000003
 31
0.0
  0
LINE
  5
20B
  8
LAYOUT
 10
23.894749999999998
 20
-5.3915610000000003
 30
0.0
 11
23.912863999999999
 21
-5.3540380000000001
 31
0.0
  0
LINE
  5
20C
  8
LAYOUT
 10
23.912863999999999
 20
-5.3540380000000001
 30
0.0
 11
24.031281
 21
-5.2927580000000001
 31
0.0
  0
LINE
  5
20D
  8
LAYOUT
 10
24.031281
 20
-5.2927580000000001
 30
0.0
 11
24.072375999999998
 21
-5.2996419999999986
 31
0.0
  0
LINE
  5
20E
  8
LAYOUT
 10
24.072375999999998
 20
-5.2996419999999986
 30
0.0
 11
24.083864999999999
 21
-5.3218449999999988
 31
0.0
  0
LINE
  5
20F
  8
LAYOUT
 10
24.041176
 20
-5.5803839999999987
 30
0.0
 11
23.999780999999999
 21
-5.575628
 31
0.0
  0
LINE
  5
210
  8
LAYOUT
 10
23.999780999999999
 20
-5.575628
 30
0.0
 11
23.974543000000001
 21
-5.5324650000000002
 31
0.0
  0
LINE
  5
211
  8
LAYOUT
 10
23.974543000000001
 20
-5.5324650000000002
 30
0.0
 11
23.990698999999999
 21
-5.494057999999999
 31
0.0
  0
LINE
  5
212
  8
LAYOUT
 10
23.990698999999999
 20
-5.494057999999999
 30
0.0
 11
24.019473999999999
 21
-5.477231999999999
 31
0.0
  0
LINE
  5
213
  8
LAYOUT
 10
24.019473999999999
 20
-5.477231999999999
 30
0.0
 11
24.060869
 21
-5.4819879999999994
 31
0.0
  0
LINE
  5
214
  8
LAYOUT
 10
24.060869
 20
-5.4819879999999994
 30
0.0
 11
24.073488000000001
 21
-5.503569999999999
 31
0.0
  0
LINE
  5
215
  8
LAYOUT
 10
24.060869
 20
-5.4819879999999994
 30
0.0
 11
24.077024999999999
 21
-5.443581
 31
0.0
  0
LINE
  5
216
  8
LAYOUT
 10
24.077024999999999
 20
-5.443581
 30
0.0
 11
24.105799999999999
 21
-5.4267560000000001
 31
0.0
  0
LINE
  5
217
  8
LAYOUT
 10
24.105799999999999
 20
-5.4267560000000001
 30
0.0
 11
24.147193999999999
 21
-5.4315119999999997
 31
0.0
  0
LINE
  5
218
  8
LAYOUT
 10
24.147193999999999
 20
-5.4315119999999997
 30
0.0
 11
24.172433000000002
 21
-5.4746750000000004
 31
0.0
  0
LINE
  5
219
  8
LAYOUT
 10
24.172433000000002
 20
-5.4746750000000004
 30
0.0
 11
24.156276999999999
 21
-5.5130819999999989
 31
0.0
  0
LINE
  5
21A
  8
LAYOUT
 10
23.640063999999999
 20
-4.680871999999999
 30
0.0
 11
23.601516
 21
-4.665055999999999
 31
0.0
  0
LINE
  5
21B
  8
LAYOUT
 10
23.601516
 20
-4.665055999999999
 30
0.0
 11
23.795093000000001
 21
-4.6147739999999988
 31
0.0
  0
LINE
  5
21C
  8
LAYOUT
 10
23.801378
 20
-4.6389709999999988
 30
0.0
 11
23.788806999999998
 21
-4.5905769999999988
 31
0.0
  0
LINE
  5
21D
  8
LAYOUT
 10
23.739450000000001
 20
-4.5388049999999991
 30
0.0
 11
23.766473000000001
 21
-4.5070899999999989
 31
0.0
  0
LINE
  5
21E
  8
LAYOUT
 10
23.766473000000001
 20
-4.5070899999999989
 30
0.0
 11
23.755483000000002
 21
-4.4583129999999986
 31
0.0
  0
LINE
  5
21F
  8
LAYOUT
 10
23.755483000000002
 20
-4.4583129999999986
 30
0.0
 11
23.717469999999999
 21
-4.4412510000000003
 31
0.0
  0
LINE
  5
220
  8
LAYOUT
 10
23.717469999999999
 20
-4.4412510000000003
 30
0.0
 11
23.652434
 21
-4.4559040000000003
 31
0.0
  0
LINE
  5
221
  8
LAYOUT
 10
23.652434
 20
-4.4559040000000003
 30
0.0
 11
23.625411
 21
-4.4876189999999996
 31
0.0
  0
LINE
  5
222
  8
LAYOUT
 10
23.625411
 20
-4.4876189999999996
 30
0.0
 11
23.641895999999999
 21
-4.5607850000000001
 31
0.0
  0
LINE
  5
223
  8
LAYOUT
 10
23.641895999999999
 20
-4.5607850000000001
 30
0.0
 11
23.576858999999999
 21
-4.5754380000000001
 31
0.0
  0
LINE
  5
224
  8
LAYOUT
 10
23.576858999999999
 20
-4.5754380000000001
 30
0.0
 11
23.554879
 21
-4.4778839999999986
 31
0.0
  0
LINE
  5
225
  8
LAYOUT
 10
24.216647999999999
 20
-6.093170999999999
 30
0.0
 11
24.027051
 21
-6.2522630000000001
 31
0.0
  0
LINE
  5
226
  8
LAYOUT
 10
30.516931
 20
-3.652428
 30
0.0
 11
30.550599999999999
 21
-3.627880999999999
 31
0.0
  0
LINE
  5
227
  8
LAYOUT
 10
30.550599999999999
 20
-3.627880999999999
 30
0.0
 11
30.683921000000002
 21
-3.6296839999999988
 31
0.0
  0
LINE
  5
228
  8
LAYOUT
 10
30.683921000000002
 20
-3.6296839999999988
 30
0.0
 11
30.716913000000002
 21
-3.655132
 31
0.0
  0
LINE
  5
229
  8
LAYOUT
 10
30.716913000000002
 20
-3.655132
 30
0.0
 11
30.716574999999999
 21
-3.6801300000000001
 31
0.0
  0
LINE
  5
22A
  8
LAYOUT
 10
30.716574999999999
 20
-3.6801300000000001
 30
0.0
 11
30.682907
 21
-3.7046769999999989
 31
0.0
  0
LINE
  5
22B
  8
LAYOUT
 10
30.682907
 20
-3.7046769999999989
 30
0.0
 11
30.549585
 21
-3.7028739999999991
 31
0.0
  0
LINE
  5
22C
  8
LAYOUT
 10
30.549585
 20
-3.7028739999999991
 30
0.0
 11
30.516593
 21
-3.6774249999999991
 31
0.0
  0
LINE
  5
22D
  8
LAYOUT
 10
30.516593
 20
-3.6774249999999991
 30
0.0
 11
30.516931
 21
-3.652428
 31
0.0
  0
CIRCLE
  5
22E
  8
LAYOUT
 10
27.091229999999999
 20
-3.681111
 30
0.0
 40
0.125
  0
LINE
  5
22F
  8
LAYOUT
 10
30.488188000000001
 20
-5.4119469999999996
 30
0.0
 11
30.655258
 21
-5.4970739999999987
 31
0.0
  0
LINE
  5
230
  8
LAYOUT
 10
30.457464000000002
 20
-5.4709690000000002
 30
0.0
 11
30.623023
 21
-5.558997999999999
 31
0.0
  0
LINE
  5
231
  8
LAYOUT
 10
30.806011000000002
 20
-4.5387360000000001
 30
0.0
 11
30.988713000000001
 21
-4.5809160000000002
 31
0.0
  0
LINE
  5
232
  8
LAYOUT
 10
30.425713999999999
 20
-5.5294449999999991
 30
0.0
 11
30.589711000000001
 21
-5.6203510000000003
 31
0.0
  0
LINE
  5
233
  8
LAYOUT
 10
30.790478000000011
 20
-4.6034369999999996
 30
0.0
 11
30.972415000000002
 21
-4.6487989999999986
 31
0.0
  0
LINE
  5
234
  8
LAYOUT
 10
30.340990999999999
 20
-5.5573610000000002
 30
0.0
 11
30.555333999999998
 21
-5.6811119999999997
 31
0.0
  0
LINE
  5
235
  8
LAYOUT
 10
30.715866999999999
 20
-4.652328999999999
 30
0.0
 11
30.954934000000002
 21
-4.7163870000000001
 31
0.0
  0
LINE
  5
236
  8
LAYOUT
 10
29.924465999999999
 20
-6.2321679999999988
 30
0.0
 11
30.063811000000001
 21
-6.3576350000000001
 31
0.0
  0
LINE
  5
237
  8
LAYOUT
 10
30.359176000000001
 20
-5.6446909999999999
 30
0.0
 11
30.519901000000001
 21
-5.7412640000000001
 31
0.0
  0
LINE
  5
238
  8
LAYOUT
 10
30.756038
 20
-4.7319779999999989
 30
0.0
 11
30.936277
 21
-4.7836600000000002
 31
0.0
  0
LINE
  5
239
  8
LAYOUT
 10
30.737137000000001
 20
-4.7957769999999993
 30
0.0
 11
30.916452
 21
-4.8505979999999997
 31
0.0
  0
LINE
  5
23A
  8
LAYOUT
 10
30.324408999999999
 20
-5.7014259999999997
 30
0.0
 11
30.483425
 21
-5.8007889999999991
 31
0.0
  0
LINE
  5
23B
  8
LAYOUT
 10
30.288658000000002
 20
-5.7575449999999986
 30
0.0
 11
30.44591500000001
 21
-5.8596680000000001
 31
0.0
  0
LINE
  5
23C
  8
LAYOUT
 10
30.717130999999998
 20
-4.8592379999999986
 30
0.0
 11
30.895455999999999
 21
-4.9171789999999991
 31
0.0
  0
LINE
  5
23D
  8
LAYOUT
 10
30.251932
 20
-5.8130309999999987
 30
0.0
 11
30.40738300000001
 21
-5.917883999999999
 31
0.0
  0
LINE
  5
23E
  8
LAYOUT
 10
29.879512999999999
 20
-6.2812260000000002
 30
0.0
 11
30.016646999999999
 21
-6.4091059999999986
 31
0.0
  0
LINE
  5
23F
  8
LAYOUT
 10
30.165098
 20
-5.8334570000000001
 30
0.0
 11
30.367840000000001
 21
-5.9754180000000003
 31
0.0
  0
LINE
  5
240
  8
LAYOUT
 10
30.175604
 20
-5.9220389999999989
 30
0.0
 11
30.327300000000001
 21
-6.032252999999999
 31
0.0
  0
LINE
  5
241
  8
LAYOUT
 10
30.136023999999999
 20
-5.9755279999999988
 30
0.0
 11
30.285774
 21
-6.0883719999999988
 31
0.0
  0
LINE
  5
242
  8
LAYOUT
 10
29.833712999999999
 20
-6.3294959999999989
 30
0.0
 11
29.968589000000001
 21
-6.4597439999999997
 31
0.0
  0
LINE
  5
243
  8
LAYOUT
 10
30.095517000000001
 20
-6.0283169999999986
 30
0.0
 11
30.243275000000001
 21
-6.1437580000000001
 31
0.0
  0
LINE
  5
244
  8
LAYOUT
 10
29.744648000000002
 20
-6.334528999999999
 30
0.0
 11
29.919657000000001
 21
-6.509536999999999
 31
0.0
  0
LINE
  5
245
  8
LAYOUT
 10
30.054095
 20
-6.0803919999999989
 30
0.0
 11
30.199815999999998
 21
-6.1983940000000004
 31
0.0
  0
LINE
  5
246
  8
LAYOUT
 10
30.585901
 20
-4.5161829999999989
 30
0.0
 11
30.611609000000001
 21
-4.5489730000000002
 31
0.0
  0
LINE
  5
247
  8
LAYOUT
 10
30.611609000000001
 20
-4.5489730000000002
 30
0.0
 11
30.418454000000001
 21
-4.497094999999999
 31
0.0
  0
LINE
  5
248
  8
LAYOUT
 10
30.424938999999998
 20
-4.4729510000000001
 30
0.0
 11
30.41197
 21
-4.5212389999999987
 31
0.0
  0
LINE
  5
249
  8
LAYOUT
 10
30.843730000000001
 20
-3.681111
 30
0.0
 11
31.091232999999999
 21
-3.681111
 31
0.0
  0
LINE
  5
24A
  8
LAYOUT
 10
30.696017999999999
 20
-4.922339
 30
0.0
 11
30.873304999999998
 21
-4.983384
 31
0.0
  0
LINE
  5
24B
  8
LAYOUT
 10
30.617426999999999
 20
-4.9645419999999989
 30
0.0
 11
30.850003000000012
 21
-5.0491919999999988
 31
0.0
  0
LINE
  5
24C
  8
LAYOUT
 10
30.903147000000001
 20
-3.7476479999999999
 30
0.0
 11
31.090620999999999
 21
-3.7509209999999991
 31
0.0
  0
LINE
  5
24D
  8
LAYOUT
 10
30.901402999999998
 20
-3.814165
 30
0.0
 11
31.088795999999999
 21
-3.820708999999999
 31
0.0
  0
LINE
  5
24E
  8
LAYOUT
 10
30.429319
 20
-4.5906330000000004
 30
0.0
 11
30.390159000000011
 21
-4.6048650000000002
 31
0.0
  0
LINE
  5
24F
  8
LAYOUT
 10
30.390159000000011
 20
-4.6048650000000002
 30
0.0
 11
30.375626
 21
-4.6527059999999993
 31
0.0
  0
LINE
  5
250
  8
LAYOUT
 10
30.375626
 20
-4.6527059999999993
 30
0.0
 11
30.400252999999999
 21
-4.6863149999999996
 31
0.0
  0
LINE
  5
251
  8
LAYOUT
 10
30.400252999999999
 20
-4.6863149999999996
 30
0.0
 11
30.464041999999999
 21
-4.7056930000000001
 31
0.0
  0
LINE
  5
252
  8
LAYOUT
 10
30.464041999999999
 20
-4.7056930000000001
 30
0.0
 11
30.503202000000002
 21
-4.6914610000000003
 31
0.0
  0
LINE
  5
253
  8
LAYOUT
 10
30.503202000000002
 20
-4.6914610000000003
 30
0.0
 11
30.525002000000001
 21
-4.6196989999999989
 31
0.0
  0
LINE
  5
254
  8
LAYOUT
 10
30.525002000000001
 20
-4.6196989999999989
 30
0.0
 11
30.58879000000001
 21
-4.6390760000000002
 31
0.0
  0
LINE
  5
255
  8
LAYOUT
 10
30.58879000000001
 20
-4.6390760000000002
 30
0.0
 11
30.559723999999999
 21
-4.7347589999999986
 31
0.0
  0
LINE
  5
256
  8
LAYOUT
 10
30.898503000000002
 20
-3.880641999999999
 30
0.0
 11
31.085747999999999
 21
-3.8904550000000002
 31
0.0
  0
LINE
  5
257
  8
LAYOUT
 10
30.894438000000001
 20
-3.947057
 30
0.0
 11
31.081489000000001
 21
-3.960137
 31
0.0
  0
LINE
  5
258
  8
LAYOUT
 10
30.650504000000002
 20
-5.0473879999999989
 30
0.0
 11
30.825551999999998
 21
-5.1145829999999997
 31
0.0
  0
LINE
  5
259
  8
LAYOUT
 10
30.626114000000001
 20
-5.1092969999999989
 30
0.0
 11
30.799968
 21
-5.1795379999999991
 31
0.0
  0
LINE
  5
25A
  8
LAYOUT
 10
30.829450999999999
 20
-4.0081629999999988
 30
0.0
 11
31.076008999999999
 21
-4.0297339999999986
 31
0.0
  0
LINE
  5
25B
  8
LAYOUT
 10
30.882840000000002
 20
-4.0796250000000001
 30
0.0
 11
31.069320000000001
 21
-4.0992249999999988
 31
0.0
  0
LINE
  5
25C
  8
LAYOUT
 10
30.875309999999999
 20
-4.1457379999999988
 30
0.0
 11
31.061415
 21
-4.1685879999999988
 31
0.0
  0
LINE
  5
25D
  8
LAYOUT
 10
30.866622
 20
-4.2117079999999989
 30
0.0
 11
31.052305
 21
-4.2378039999999988
 31
0.0
  0
LINE
  5
25E
  8
LAYOUT
 10
30.600653000000001
 20
-5.1707720000000004
 30
0.0
 11
30.773250000000001
 21
-5.2440350000000002
 31
0.0
  0
LINE
  5
25F
  8
LAYOUT
 10
30.574117999999999
 20
-5.2317919999999987
 30
0.0
 11
30.745414
 21
-5.3080579999999991
 31
0.0
  0
LINE
  5
260
  8
LAYOUT
 10
30.856790000000011
 20
-4.2775169999999987
 30
0.0
 11
31.041983999999999
 21
-4.3068489999999988
 31
0.0
  0
LINE
  5
261
  8
LAYOUT
 10
30.786721
 20
-4.3327260000000001
 30
0.0
 11
31.030463999999998
 21
-4.3757039999999989
 31
0.0
  0
LINE
  5
262
  8
LAYOUT
 10
30.833682
 20
-4.4085700000000001
 30
0.0
 11
31.017738999999999
 21
-4.4443469999999996
 31
0.0
  0
LINE
  5
263
  8
LAYOUT
 10
30.820412999999999
 20
-4.4737730000000004
 30
0.0
 11
31.003823000000001
 21
-4.5127579999999989
 31
0.0
  0
LINE
  5
264
  8
LAYOUT
 10
29.968557000000001
 20
-1.1798889999999991
 30
0.0
 11
30.11007
 21
-1.0568729999999991
 31
0.0
  0
LINE
  5
265
  8
LAYOUT
 10
30.517878
 20
-2.009822999999999
 30
0.0
 11
30.686409000000001
 21
-1.927624999999999
 31
0.0
  0
LINE
  5
266
  8
LAYOUT
 10
30.488188000000001
 20
-1.9502740000000001
 30
0.0
 11
30.655258
 21
-1.8651479999999989
 31
0.0
  0
LINE
  5
267
  8
LAYOUT
 10
30.457464000000002
 20
-1.891252999999999
 30
0.0
 11
30.623023
 21
-1.8032239999999999
 31
0.0
  0
LINE
  5
268
  8
LAYOUT
 10
30.806011000000002
 20
-2.8234859999999991
 30
0.0
 11
30.988713000000001
 21
-2.7813059999999998
 31
0.0
  0
LINE
  5
269
  8
LAYOUT
 10
30.425713999999999
 20
-1.8327770000000001
 30
0.0
 11
30.589711000000001
 21
-1.7418709999999991
 31
0.0
  0
LINE
  5
26A
  8
LAYOUT
 10
30.790478000000011
 20
-2.758785
 30
0.0
 11
30.972415000000002
 21
-2.7134230000000001
 31
0.0
  0
LINE
  5
26B
  8
LAYOUT
 10
30.340990999999999
 20
-1.804861
 30
0.0
 11
30.555333999999998
 21
-1.681109999999999
 31
0.0
  0
LINE
  5
26C
  8
LAYOUT
 10
30.715866999999999
 20
-2.7098919999999991
 30
0.0
 11
30.954934000000002
 21
-2.645834999999999
 31
0.0
  0
LINE
  5
26D
  8
LAYOUT
 10
29.924465999999999
 20
-1.1300539999999999
 30
0.0
 11
30.063811000000001
 21
-1.0045869999999999
 31
0.0
  0
LINE
  5
26E
  8
LAYOUT
 10
30.359176000000001
 20
-1.7175309999999999
 30
0.0
 11
30.519901000000001
 21
-1.6209569999999991
 31
0.0
  0
LINE
  5
26F
  8
LAYOUT
 10
30.756038
 20
-2.6302439999999989
 30
0.0
 11
30.936277
 21
-2.5785610000000001
 31
0.0
  0
LINE
  5
270
  8
LAYOUT
 10
30.737137000000001
 20
-2.566444999999999
 30
0.0
 11
30.916452
 21
-2.5116230000000002
 31
0.0
  0
LINE
  5
271
  8
LAYOUT
 10
30.324408999999999
 20
-1.6607959999999991
 30
0.0
 11
30.483425
 21
-1.5614330000000001
 31
0.0
  0
LINE
  5
272
  8
LAYOUT
 10
30.288658000000002
 20
-1.6046769999999999
 30
0.0
 11
30.44591500000001
 21
-1.5025529999999989
 31
0.0
  0
LINE
  5
273
  8
LAYOUT
 10
30.717130999999998
 20
-2.5029840000000001
 30
0.0
 11
30.895455999999999
 21
-2.4450430000000001
 31
0.0
  0
LINE
  5
274
  8
LAYOUT
 10
30.251932
 20
-1.5491909999999991
 30
0.0
 11
30.40738300000001
 21
-1.444337999999999
 31
0.0
  0
LINE
  5
275
  8
LAYOUT
 10
30.275555000000001
 20
-5.3454860000000002
 30
0.0
 11
30.292463000000001
 21
-5.3835680000000004
 31
0.0
  0
LINE
  5
276
  8
LAYOUT
 10
30.292463000000001
 20
-5.3835680000000004
 30
0.0
 11
30.268077999999999
 21
-5.427217999999999
 31
0.0
  0
LINE
  5
277
  8
LAYOUT
 10
30.268077999999999
 20
-5.427217999999999
 30
0.0
 11
30.226785
 21
-5.4327870000000003
 31
0.0
  0
LINE
  5
278
  8
LAYOUT
 10
30.226785
 20
-5.4327870000000003
 30
0.0
 11
30.197683999999999
 21
-5.4165299999999998
 31
0.0
  0
LINE
  5
279
  8
LAYOUT
 10
30.197683999999999
 20
-5.4165299999999998
 30
0.0
 11
30.180776999999999
 21
-5.3784479999999997
 31
0.0
  0
LINE
  5
27A
  8
LAYOUT
 10
30.180776999999999
 20
-5.3784479999999997
 30
0.0
 11
30.192969000000002
 21
-5.3566219999999989
 31
0.0
  0
LINE
  5
27B
  8
LAYOUT
 10
30.180776999999999
 20
-5.3784479999999997
 30
0.0
 11
30.139483999999999
 21
-5.384015999999999
 31
0.0
  0
LINE
  5
27C
  8
LAYOUT
 10
30.139483999999999
 20
-5.384015999999999
 30
0.0
 11
30.110384
 21
-5.3677589999999986
 31
0.0
  0
LINE
  5
27D
  8
LAYOUT
 10
30.110384
 20
-5.3677589999999986
 30
0.0
 11
30.093475999999999
 21
-5.3296769999999993
 31
0.0
  0
LINE
  5
27E
  8
LAYOUT
 10
30.093475999999999
 20
-5.3296769999999993
 30
0.0
 11
30.117861000000001
 21
-5.2860269999999989
 31
0.0
  0
LINE
  5
27F
  8
LAYOUT
 10
30.117861000000001
 20
-5.2860269999999989
 30
0.0
 11
30.159154000000001
 21
-5.2804580000000003
 31
0.0
  0
LINE
  5
280
  8
LAYOUT
 10
29.879512999999999
 20
-1.080995999999999
 30
0.0
 11
30.016646999999999
 21
-0.9531159999999999
 31
0.0
  0
LINE
  5
281
  8
LAYOUT
 10
30.165098
 20
-1.528764999999999
 30
0.0
 11
30.367840000000001
 21
-1.3868039999999999
 31
0.0
  0
LINE
  5
282
  8
LAYOUT
 10
30.175604
 20
-1.440183
 30
0.0
 11
30.327300000000001
 21
-1.3299689999999991
 31
0.0
  0
LINE
  5
283
  8
LAYOUT
 10
30.136023999999999
 20
-1.3866940000000001
 30
0.0
 11
30.285774
 21
-1.273849
 31
0.0
  0
LINE
  5
284
  8
LAYOUT
 10
29.833712999999999
 20
-1.032726
 30
0.0
 11
29.968589000000001
 21
-0.9024780000000001
 31
0.0
  0
LINE
  5
285
  8
LAYOUT
 10
30.095517000000001
 20
-1.333904999999999
 30
0.0
 11
30.243275000000001
 21
-1.2184639999999991
 31
0.0
  0
LINE
  5
286
  8
LAYOUT
 10
29.744648000000002
 20
-1.0276929999999991
 30
0.0
 11
29.919657000000001
 21
-0.8526839999999999
 31
0.0
  0
LINE
  5
287
  8
LAYOUT
 10
30.054095
 20
-1.28183
 30
0.0
 11
30.199815999999998
 21
-1.1638280000000001
 31
0.0
  0
LINE
  5
288
  8
LAYOUT
 10
29.573613000000002
 20
-6.1366170000000002
 30
0.0
 11
29.643937999999999
 21
-6.0655229999999998
 31
0.0
  0
LINE
  5
289
  8
LAYOUT
 10
29.643937999999999
 20
-6.0655229999999998
 30
0.0
 11
29.685987000000001
 21
-6.2126099999999989
 31
0.0
  0
LINE
  5
28A
  8
LAYOUT
 10
29.685987000000001
 20
-6.2126099999999989
 30
0.0
 11
29.543797999999999
 21
-6.0719609999999991
 31
0.0
  0
LINE
  5
28B
  8
LAYOUT
 10
29.512270000000001
 20
-6.1526759999999996
 30
0.0
 11
29.471285000000002
 21
-6.1451709999999986
 31
0.0
  0
LINE
  5
28C
  8
LAYOUT
 10
29.471285000000002
 20
-6.1451709999999986
 30
0.0
 11
29.434570000000001
 21
-6.179111999999999
 31
0.0
  0
LINE
  5
28D
  8
LAYOUT
 10
29.434570000000001
 20
-6.179111999999999
 30
0.0
 11
29.438839999999999
 21
-6.2205589999999988
 31
0.0
  0
LINE
  5
28E
  8
LAYOUT
 10
29.438839999999999
 20
-6.2205589999999988
 30
0.0
 11
29.484095
 21
-6.2695119999999998
 31
0.0
  0
LINE
  5
28F
  8
LAYOUT
 10
29.484095
 20
-6.2695119999999998
 30
0.0
 11
29.525079999999999
 21
-6.2770179999999991
 31
0.0
  0
LINE
  5
290
  8
LAYOUT
 10
29.525079999999999
 20
-6.2770179999999991
 30
0.0
 11
29.580152999999999
 21
-6.2261059999999988
 31
0.0
  0
LINE
  5
291
  8
LAYOUT
 10
29.580152999999999
 20
-6.2261059999999988
 30
0.0
 11
29.625408
 21
-6.275059999999999
 31
0.0
  0
LINE
  5
292
  8
LAYOUT
 10
29.625408
 20
-6.275059999999999
 30
0.0
 11
29.551977999999998
 21
-6.342941999999999
 31
0.0
  0
LINE
  5
293
  8
LAYOUT
 10
30.696017999999999
 20
-2.439883
 30
0.0
 11
30.873304999999998
 21
-2.378838
 31
0.0
  0
LINE
  5
294
  8
LAYOUT
 10
30.617426999999999
 20
-2.3976799999999989
 30
0.0
 11
30.850003000000012
 21
-2.313029999999999
 31
0.0
  0
LINE
  5
295
  8
LAYOUT
 10
30.903147000000001
 20
-3.6145739999999988
 30
0.0
 11
31.090620999999999
 21
-3.6113010000000001
 31
0.0
  0
LINE
  5
296
  8
LAYOUT
 10
30.901402999999998
 20
-3.548057
 30
0.0
 11
31.088795999999999
 21
-3.5415129999999988
 31
0.0
  0
LINE
  5
297
  8
LAYOUT
 10
30.898503000000002
 20
-3.4815800000000001
 30
0.0
 11
31.085747999999999
 21
-3.4717669999999989
 31
0.0
  0
LINE
  5
298
  8
LAYOUT
 10
30.894438000000001
 20
-3.415165
 30
0.0
 11
31.081489000000001
 21
-3.402085
 31
0.0
  0
LINE
  5
299
  8
LAYOUT
 10
30.650504000000002
 20
-2.3148339999999989
 30
0.0
 11
30.825551999999998
 21
-2.2476389999999991
 31
0.0
  0
LINE
  5
29A
  8
LAYOUT
 10
30.626114000000001
 20
-2.252924999999999
 30
0.0
 11
30.799968
 21
-2.1826840000000001
 31
0.0
  0
LINE
  5
29B
  8
LAYOUT
 10
30.829450999999999
 20
-3.354058999999999
 30
0.0
 11
31.076008999999999
 21
-3.3324879999999988
 31
0.0
  0
LINE
  5
29C
  8
LAYOUT
 10
30.882840000000002
 20
-3.2825969999999991
 30
0.0
 11
31.069320000000001
 21
-3.262996999999999
 31
0.0
  0
LINE
  5
29D
  8
LAYOUT
 10
30.875309999999999
 20
-3.216483999999999
 30
0.0
 11
31.061415
 21
-3.193633999999999
 31
0.0
  0
LINE
  5
29E
  8
LAYOUT
 10
30.866622
 20
-3.1505139999999989
 30
0.0
 11
31.052305
 21
-3.124417999999999
 31
0.0
  0
LINE
  5
29F
  8
LAYOUT
 10
30.600653000000001
 20
-2.1914489999999991
 30
0.0
 11
30.773250000000001
 21
-2.1181860000000001
 31
0.0
  0
LINE
  5
2A0
  8
LAYOUT
 10
30.574117999999999
 20
-2.130428999999999
 30
0.0
 11
30.745414
 21
-2.0541629999999991
 31
0.0
  0
LINE
  5
2A1
  8
LAYOUT
 10
30.856790000000011
 20
-3.084705
 30
0.0
 11
31.041983999999999
 21
-3.055372999999999
 31
0.0
  0
LINE
  5
2A2
  8
LAYOUT
 10
30.786721
 20
-3.0294959999999991
 30
0.0
 11
31.030463999999998
 21
-2.9865179999999998
 31
0.0
  0
LINE
  5
2A3
  8
LAYOUT
 10
30.833682
 20
-2.9536519999999991
 30
0.0
 11
31.017738999999999
 21
-2.917875
 31
0.0
  0
LINE
  5
2A4
  8
LAYOUT
 10
30.820412999999999
 20
-2.8884489999999992
 30
0.0
 11
31.003823000000001
 21
-2.8494639999999989
 31
0.0
  0
LINE
  5
2A5
  8
LAYOUT
 10
29.535019999999999
 20
-1.1871929999999991
 30
0.0
 11
29.463595999999999
 21
-1.1172040000000001
 31
0.0
  0
LINE
  5
2A6
  8
LAYOUT
 10
29.463595999999999
 20
-1.1172040000000001
 30
0.0
 11
29.610482999999999
 21
-1.0744629999999991
 31
0.0
  0
LINE
  5
2A7
  8
LAYOUT
 10
29.610482999999999
 20
-1.0744629999999991
 30
0.0
 11
29.470504999999999
 21
-1.217312999999999
 31
0.0
  0
LINE
  5
2A8
  8
LAYOUT
 10
29.551368
 20
-1.2484599999999999
 30
0.0
 11
29.544055
 21
-1.2894799999999991
 31
0.0
  0
LINE
  5
2A9
  8
LAYOUT
 10
29.544055
 20
-1.2894799999999991
 30
0.0
 11
29.578168999999999
 21
-1.3260350000000001
 31
0.0
  0
LINE
  5
2AA
  8
LAYOUT
 10
29.578168999999999
 20
-1.3260350000000001
 30
0.0
 11
29.619596000000001
 21
-1.3215689999999991
 31
0.0
  0
LINE
  5
2AB
  8
LAYOUT
 10
29.619596000000001
 20
-1.3215689999999991
 30
0.0
 11
29.668336
 21
-1.2760839999999991
 31
0.0
  0
LINE
  5
2AC
  8
LAYOUT
 10
29.668336
 20
-1.2760839999999991
 30
0.0
 11
29.675647999999999
 21
-1.2350639999999991
 31
0.0
  0
LINE
  5
2AD
  8
LAYOUT
 10
29.675647999999999
 20
-1.2350639999999991
 30
0.0
 11
29.624478000000011
 21
-1.1802319999999991
 31
0.0
  0
LINE
  5
2AE
  8
LAYOUT
 10
29.624478000000011
 20
-1.1802319999999991
 30
0.0
 11
29.673217000000001
 21
-1.1347469999999991
 31
0.0
  0
LINE
  5
2AF
  8
LAYOUT
 10
29.673217000000001
 20
-1.1347469999999991
 30
0.0
 11
29.741444999999999
 21
-1.2078569999999991
 31
0.0
  0
LINE
  5
2B0
  8
LAYOUT
 10
30.098595
 20
-2.040376999999999
 30
0.0
 11
30.116709
 21
-2.0028540000000001
 31
0.0
  0
LINE
  5
2B1
  8
LAYOUT
 10
30.116709
 20
-2.0028540000000001
 30
0.0
 11
30.235126000000001
 21
-1.9415739999999999
 31
0.0
  0
LINE
  5
2B2
  8
LAYOUT
 10
30.235126000000001
 20
-1.9415739999999999
 30
0.0
 11
30.276219999999999
 21
-1.948458
 31
0.0
  0
LINE
  5
2B3
  8
LAYOUT
 10
30.276219999999999
 20
-1.948458
 30
0.0
 11
30.287710000000001
 21
-1.9706609999999991
 31
0.0
  0
LINE
  5
2B4
  8
LAYOUT
 10
30.287710000000001
 20
-1.9706609999999991
 30
0.0
 11
30.269596
 21
-2.0081839999999991
 31
0.0
  0
LINE
  5
2B5
  8
LAYOUT
 10
30.269596
 20
-2.0081839999999991
 30
0.0
 11
30.151178999999999
 21
-2.0694639999999991
 31
0.0
  0
LINE
  5
2B6
  8
LAYOUT
 10
30.151178999999999
 20
-2.0694639999999991
 30
0.0
 11
30.110085000000002
 21
-2.0625800000000001
 31
0.0
  0
LINE
  5
2B7
  8
LAYOUT
 10
30.110085000000002
 20
-2.0625800000000001
 30
0.0
 11
30.098595
 21
-2.040376999999999
 31
0.0
  0
LINE
  5
2B8
  8
LAYOUT
 10
30.141285
 20
-1.781838
 30
0.0
 11
30.182679
 21
-1.7865939999999989
 31
0.0
  0
LINE
  5
2B9
  8
LAYOUT
 10
30.182679
 20
-1.7865939999999989
 30
0.0
 11
30.207916999999998
 21
-1.8297570000000001
 31
0.0
  0
LINE
  5
2BA
  8
LAYOUT
 10
30.207916999999998
 20
-1.8297570000000001
 30
0.0
 11
30.191761
 21
-1.868163999999999
 31
0.0
  0
LINE
  5
2BB
  8
LAYOUT
 10
30.191761
 20
-1.868163999999999
 30
0.0
 11
30.162986
 21
-1.8849899999999999
 31
0.0
  0
LINE
  5
2BC
  8
LAYOUT
 10
30.162986
 20
-1.8849899999999999
 30
0.0
 11
30.121592
 21
-1.8802339999999991
 31
0.0
  0
LINE
  5
2BD
  8
LAYOUT
 10
30.121592
 20
-1.8802339999999991
 30
0.0
 11
30.108972999999999
 21
-1.858652
 31
0.0
  0
LINE
  5
2BE
  8
LAYOUT
 10
30.121592
 20
-1.8802339999999991
 30
0.0
 11
30.105436000000001
 21
-1.918641
 31
0.0
  0
LINE
  5
2BF
  8
LAYOUT
 10
30.105436000000001
 20
-1.918641
 30
0.0
 11
30.07666
 21
-1.935465999999999
 31
0.0
  0
LINE
  5
2C0
  8
LAYOUT
 10
30.07666
 20
-1.935465999999999
 30
0.0
 11
30.035266
 21
-1.930709999999999
 31
0.0
  0
LINE
  5
2C1
  8
LAYOUT
 10
30.035266
 20
-1.930709999999999
 30
0.0
 11
30.010027999999998
 21
-1.887546999999999
 31
0.0
  0
LINE
  5
2C2
  8
LAYOUT
 10
30.010027999999998
 20
-1.887546999999999
 30
0.0
 11
30.026184000000011
 21
-1.84914
 31
0.0
  0
LINE
  5
2C3
  8
LAYOUT
 10
30.542396000000011
 20
-2.6813500000000001
 30
0.0
 11
30.580943999999999
 21
-2.6971660000000002
 31
0.0
  0
LINE
  5
2C4
  8
LAYOUT
 10
30.580943999999999
 20
-2.6971660000000002
 30
0.0
 11
30.387367999999999
 21
-2.747447999999999
 31
0.0
  0
LINE
  5
2C5
  8
LAYOUT
 10
30.381083
 20
-2.723250999999999
 30
0.0
 11
30.393653
 21
-2.771644999999999
 31
0.0
  0
LINE
  5
2C6
  8
LAYOUT
 10
30.443010000000001
 20
-2.8234169999999992
 30
0.0
 11
30.415987000000001
 21
-2.8551319999999989
 31
0.0
  0
LINE
  5
2C7
  8
LAYOUT
 10
30.415987000000001
 20
-2.8551319999999989
 30
0.0
 11
30.426977000000001
 21
-2.9039090000000001
 31
0.0
  0
LINE
  5
2C8
  8
LAYOUT
 10
30.426977000000001
 20
-2.9039090000000001
 30
0.0
 11
30.464990000000011
 21
-2.9209709999999989
 31
0.0
  0
LINE
  5
2C9
  8
LAYOUT
 10
30.464990000000011
 20
-2.9209709999999989
 30
0.0
 11
30.530027
 21
-2.9063180000000002
 31
0.0
  0
LINE
  5
2CA
  8
LAYOUT
 10
30.530027
 20
-2.9063180000000002
 30
0.0
 11
30.55705
 21
-2.874603
 31
0.0
  0
LINE
  5
2CB
  8
LAYOUT
 10
30.55705
 20
-2.874603
 30
0.0
 11
30.540565000000001
 21
-2.8014369999999991
 31
0.0
  0
LINE
  5
2CC
  8
LAYOUT
 10
30.540565000000001
 20
-2.8014369999999991
 30
0.0
 11
30.605601
 21
-2.786783999999999
 31
0.0
  0
LINE
  5
2CD
  8
LAYOUT
 10
30.605601
 20
-2.786783999999999
 30
0.0
 11
30.627580999999999
 21
-2.8843379999999992
 31
0.0
  0
LINE
  5
2CE
  8
LAYOUT
 10
29.965812
 20
-1.26905
 30
0.0
 11
30.15541
 21
-1.109958999999999
 31
0.0
  0
ENDSEC
  0
EOF
