0
SECTION
2
HEADER
9
$ACADVER
1
AC1006
9
$INSBASE
10
0.0
20
0.0
30
0.0
9
$EXTMIN
10
0
20
0
9
$EXTMAX
10
8.000
20
8.000
9
$LUNITS
70
2
9
$VIEWCTR
10
4.000
20
4.000
9
$VIEWSIZE
40
8.000
0
ENDSEC
0
SECTION
2
TABLES
0
TABLE
2
LAYER
70
9
0
LAYER
2
0
70
0
62
7
6
CONTINUOUS
0
ENDTAB
0
ENDSEC
0
SECTION
2
ENTITIES
0
POLYLINE
8
0
6
CONTINUOUS
66
1
70
1
0
VERTEX
8
0
10
5.781
20
1.030
0
VERTEX
8
0
10
5.761
20
0.992
0
VERTEX
8
0
10
5.721
20
0.830
0
VERTEX
8
0
10
5.700
20
0.664
0
VERTEX
8
0
10
5.702
20
0.497
0
VERTEX
8
0
10
5.724
20
0.331
0
VERTEX
8
0
10
5.768
20
0.163
0
VERTEX
8
0
10
5.832
20
0.000
0
VERTEX
8
0
10
5.916
20
-0.154
0
VERTEX
8
0
10
6.013
20
-0.291
0
VERTEX
8
0
10
6.109
20
-0.393
0
VERTEX
8
0
10
6.218
20
-0.474
0
VERTEX
8
0
10
6.427
20
-0.602
0
VERTEX
8
0
10
6.466
20
-0.609
0
VERTEX
8
0
10
6.479
20
-0.599
0
VERTEX
8
0
10
6.472
20
-0.572
0
VERTEX
8
0
10
6.412
20
-0.514
0
VERTEX
8
0
10
6.361
20
-0.466
0
VERTEX
8
0
10
6.354
20
-0.440
0
VERTEX
8
0
10
6.391
20
-0.394
0
VERTEX
8
0
10
6.384
20
-0.371
0
VERTEX
8
0
10
6.272
20
-0.282
0
VERTEX
8
0
10
6.077
20
-0.119
0
VERTEX
8
0
10
5.980
20
-0.018
0
VERTEX
8
0
10
5.920
20
0.072
0
VERTEX
8
0
10
5.902
20
0.118
0
VERTEX
8
0
10
5.905
20
0.209
0
VERTEX
8
0
10
5.812
20
0.428
0
VERTEX
8
0
10
5.774
20
0.564
0
VERTEX
8
0
10
5.760
20
0.682
0
VERTEX
8
0
10
5.767
20
0.796
0
VERTEX
8
0
10
5.802
20
0.988
0
VERTEX
8
0
10
5.798
20
1.029
  0
SEQEND
0
POLYLINE
8
0
6
CONTINUOUS
66
1
70
1
0
VERTEX
8
0
10
7.390
20
1.391
0
VERTEX
8
0
10
7.318
20
1.361
0
VERTEX
8
0
10
7.200
20
1.291
0
VERTEX
8
0
10
7.132
20
1.275
0
VERTEX
8
0
10
7.038
20
1.279
0
VERTEX
8
0
10
6.845
20
1.304
0
VERTEX
8
0
10
6.583
20
1.299
0
VERTEX
8
0
10
6.440
20
1.325
0
VERTEX
8
0
10
6.251
20
1.366
0
VERTEX
8
0
10
6.160
20
1.368
0
VERTEX
8
0
10
6.091
20
1.351
0
VERTEX
8
0
10
6.002
20
1.287
0
VERTEX
8
0
10
5.953
20
1.224
0
VERTEX
8
0
10
5.925
20
1.158
0
VERTEX
8
0
10
5.916
20
1.077
0
VERTEX
8
0
10
5.929
20
0.952
0
VERTEX
8
0
10
5.984
20
0.609
0
VERTEX
8
0
10
6.016
20
0.519
0
VERTEX
8
0
10
6.063
20
0.448
0
VERTEX
8
0
10
6.128
20
0.388
0
VERTEX
8
0
10
6.181
20
0.360
0
VERTEX
8
0
10
6.233
20
0.356
0
VERTEX
8
0
10
6.353
20
0.370
0
VERTEX
8
0
10
6.436
20
0.358
0
VERTEX
8
0
10
6.562
20
0.325
0
VERTEX
8
0
10
6.663
20
0.319
0
VERTEX
8
0
10
6.836
20
0.349
0
VERTEX
8
0
10
6.930
20
0.387
0
VERTEX
8
0
10
7.006
20
0.439
0
VERTEX
8
0
10
7.069
20
0.507
0
VERTEX
8
0
10
7.127
20
0.606
0
VERTEX
8
0
10
7.275
20
0.941
0
VERTEX
8
0
10
7.430
20
1.186
0
VERTEX
8
0
10
7.465
20
1.278
0
VERTEX
8
0
10
7.474
20
1.349
0
VERTEX
8
0
10
7.463
20
1.381
  0
SEQEND
0
POLYLINE
8
0
6
CONTINUOUS
66
1
70
1
0
VERTEX
8
0
10
6.458
20
1.590
0
VERTEX
8
0
10
6.452
20
1.575
0
VERTEX
8
0
10
6.474
20
1.549
0
VERTEX
8
0
10
6.565
20
1.497
0
VERTEX
8
0
10
6.704
20
1.438
0
VERTEX
8
0
10
6.808
20
1.418
0
VERTEX
8
0
10
6.913
20
1.417
0
VERTEX
8
0
10
7.004
20
1.437
0
VERTEX
8
0
10
7.074
20
1.471
0
VERTEX
8
0
10
7.131
20
1.530
0
VERTEX
8
0
10
7.131
20
1.551
0
VERTEX
8
0
10
7.107
20
1.565
0
VERTEX
8
0
10
7.015
20
1.556
0
VERTEX
8
0
10
6.943
20
1.544
0
VERTEX
8
0
10
6.689
20
1.554
0
VERTEX
8
0
10
6.577
20
1.570
0
VERTEX
8
0
10
6.493
20
1.598
  0
SEQEND
0
POLYLINE
8
0
6
CONTINUOUS
66
1
70
1
0
VERTEX
8
0
10
7.654
20
1.760
0
VERTEX
8
0
10
7.612
20
1.741
0
VERTEX
8
0
10
7.577
20
1.702
0
VERTEX
8
0
10
7.550
20
1.639
0
VERTEX
8
0
10
7.541
20
1.561
0
VERTEX
8
0
10
7.550
20
1.491
0
VERTEX
8
0
10
7.599
20
1.416
0
VERTEX
8
0
10
7.625
20
1.373
0
VERTEX
8
0
10
7.627
20
1.328
0
VERTEX
8
0
10
7.593
20
1.235
0
VERTEX
8
0
10
7.489
20
1.066
0
VERTEX
8
0
10
7.473
20
1.006
0
VERTEX
8
0
10
7.483
20
0.927
0
VERTEX
8
0
10
7.500
20
0.847
0
VERTEX
8
0
10
7.489
20
0.804
0
VERTEX
8
0
10
7.418
20
0.705
0
VERTEX
8
0
10
7.413
20
0.671
0
VERTEX
8
0
10
7.422
20
0.617
0
VERTEX
8
0
10
7.402
20
0.573
0
VERTEX
8
0
10
7.332
20
0.494
0
VERTEX
8
0
10
7.214
20
0.386
0
VERTEX
8
0
10
7.209
20
0.364
0
VERTEX
8
0
10
7.226
20
0.358
0
VERTEX
8
0
10
7.271
20
0.374
0
VERTEX
8
0
10
7.343
20
0.430
0
VERTEX
8
0
10
7.490
20
0.556
0
VERTEX
8
0
10
7.647
20
0.667
0
VERTEX
8
0
10
7.763
20
0.728
0
VERTEX
8
0
10
7.901
20
0.778
0
VERTEX
8
0
10
7.925
20
0.800
0
VERTEX
8
0
10
7.924
20
0.826
0
VERTEX
8
0
10
7.887
20
0.878
0
VERTEX
8
0
10
7.825
20
0.951
0
VERTEX
8
0
10
7.785
20
1.038
0
VERTEX
8
0
10
7.750
20
1.172
0
VERTEX
8
0
10
7.729
20
1.342
0
VERTEX
8
0
10
7.717
20
1.551
0
VERTEX
8
0
10
7.692
20
1.655
0
VERTEX
8
0
10
7.690
20
1.733
  0
SEQEND
0
POLYLINE
8
0
6
CONTINUOUS
66
1
70
1
0
VERTEX
8
0
10
6.956
20
1.760
0
VERTEX
8
0
10
6.930
20
1.744
0
VERTEX
8
0
10
6.924
20
1.719
0
VERTEX
8
0
10
6.938
20
1.687
0
VERTEX
8
0
10
6.977
20
1.658
0
VERTEX
8
0
10
7.034
20
1.643
0
VERTEX
8
0
10
7.081
20
1.646
0
VERTEX
8
0
10
7.097
20
1.661
0
VERTEX
8
0
10
7.092
20
1.685
0
VERTEX
8
0
10
7.057
20
1.720
  0
SEQEND
0
POLYLINE
8
0
6
CONTINUOUS
66
1
70
1
0
VERTEX
8
0
10
6.685
20
1.767
0
VERTEX
8
0
10
6.551
20
1.705
0
VERTEX
8
0
10
6.520
20
1.672
0
VERTEX
8
0
10
6.525
20
1.652
0
VERTEX
8
0
10
6.554
20
1.638
0
VERTEX
8
0
10
6.629
20
1.636
0
VERTEX
8
0
10
6.700
20
1.654
0
VERTEX
8
0
10
6.732
20
1.688
0
VERTEX
8
0
10
6.747
20
1.732
0
VERTEX
8
0
10
6.740
20
1.762
  0
SEQEND
0
POLYLINE
8
0
6
CONTINUOUS
66
1
70
1
0
VERTEX
8
0
10
7.105
20
1.965
0
VERTEX
8
0
10
7.074
20
1.940
0
VERTEX
8
0
10
7.039
20
1.882
0
VERTEX
8
0
10
7.030
20
1.837
0
VERTEX
8
0
10
7.040
20
1.819
0
VERTEX
8
0
10
7.067
20
1.819
0
VERTEX
8
0
10
7.123
20
1.851
0
VERTEX
8
0
10
7.147
20
1.886
0
VERTEX
8
0
10
7.150
20
1.925
0
VERTEX
8
0
10
7.135
20
1.956
  0
SEQEND
0
POLYLINE
8
0
6
CONTINUOUS
66
1
70
1
0
VERTEX
8
0
10
6.577
20
2.017
0
VERTEX
8
0
10
6.548
20
2.002
0
VERTEX
8
0
10
6.534
20
1.972
0
VERTEX
8
0
10
6.538
20
1.930
0
VERTEX
8
0
10
6.562
20
1.891
0
VERTEX
8
0
10
6.594
20
1.872
0
VERTEX
8
0
10
6.626
20
1.876
0
VERTEX
8
0
10
6.636
20
1.901
0
VERTEX
8
0
10
6.627
20
1.956
0
VERTEX
8
0
10
6.601
20
2.004
  0
SEQEND
0
POLYLINE
8
0
6
CONTINUOUS
66
1
70
1
0
VERTEX
8
0
10
5.906
20
2.201
0
VERTEX
8
0
10
5.884
20
2.189
0
VERTEX
8
0
10
5.870
20
2.152
0
VERTEX
8
0
10
5.870
20
1.978
0
VERTEX
8
0
10
5.877
20
1.815
0
VERTEX
8
0
10
5.865
20
1.707
0
VERTEX
8
0
10
5.880
20
1.657
0
VERTEX
8
0
10
5.911
20
1.618
0
VERTEX
8
0
10
5.943
20
1.603
0
VERTEX
8
0
10
5.975
20
1.614
0
VERTEX
8
0
10
6.006
20
1.648
0
VERTEX
8
0
10
6.018
20
1.687
0
VERTEX
8
0
10
5.995
20
1.746
0
VERTEX
8
0
10
5.943
20
1.823
0
VERTEX
8
0
10
5.925
20
1.893
0
VERTEX
8
0
10
5.925
20
2.062
0
VERTEX
8
0
10
5.931
20
2.177
  0
SEQEND
0
POLYLINE
8
0
6
CONTINUOUS
66
1
70
1
0
VERTEX
8
0
10
7.307
20
2.391
0
VERTEX
8
0
10
7.286
20
2.372
0
VERTEX
8
0
10
7.275
20
2.325
0
VERTEX
8
0
10
7.282
20
2.243
0
VERTEX
8
0
10
7.309
20
2.156
0
VERTEX
8
0
10
7.340
20
2.110
0
VERTEX
8
0
10
7.364
20
2.101
0
VERTEX
8
0
10
7.415
20
2.139
0
VERTEX
8
0
10
7.433
20
2.125
0
VERTEX
8
0
10
7.454
20
2.076
0
VERTEX
8
0
10
7.455
20
2.014
0
VERTEX
8
0
10
7.432
20
1.931
0
VERTEX
8
0
10
7.363
20
1.769
0
VERTEX
8
0
10
7.371
20
1.757
0
VERTEX
8
0
10
7.404
20
1.766
0
VERTEX
8
0
10
7.440
20
1.804
0
VERTEX
8
0
10
7.481
20
1.887
0
VERTEX
8
0
10
7.515
20
2.022
0
VERTEX
8
0
10
7.511
20
2.098
0
VERTEX
8
0
10
7.487
20
2.172
0
VERTEX
8
0
10
7.373
20
2.360
0
VERTEX
8
0
10
7.339
20
2.390
  0
SEQEND
0
POLYLINE
8
0
6
CONTINUOUS
66
1
70
1
0
VERTEX
8
0
10
7.613
20
2.417
0
VERTEX
8
0
10
7.602
20
2.399
0
VERTEX
8
0
10
7.610
20
2.356
0
VERTEX
8
0
10
7.680
20
2.204
0
VERTEX
8
0
10
7.681
20
2.148
0
VERTEX
8
0
10
7.657
20
2.086
0
VERTEX
8
0
10
7.580
20
1.947
0
VERTEX
8
0
10
7.563
20
1.865
0
VERTEX
8
0
10
7.573
20
1.851
0
VERTEX
8
0
10
7.602
20
1.856
0
VERTEX
8
0
10
7.665
20
1.900
0
VERTEX
8
0
10
7.716
20
1.963
0
VERTEX
8
0
10
7.752
20
2.041
0
VERTEX
8
0
10
7.769
20
2.128
0
VERTEX
8
0
10
7.766
20
2.214
0
VERTEX
8
0
10
7.744
20
2.289
0
VERTEX
8
0
10
7.693
20
2.377
0
VERTEX
8
0
10
7.654
20
2.415
  0
SEQEND
0
POLYLINE
8
0
6
CONTINUOUS
66
1
70
1
0
VERTEX
8
0
10
6.353
20
2.449
0
VERTEX
8
0
10
6.325
20
2.432
0
VERTEX
8
0
10
6.297
20
2.385
0
VERTEX
8
0
10
6.285
20
2.329
0
VERTEX
8
0
10
6.318
20
2.199
0
VERTEX
8
0
10
6.302
20
2.138
0
VERTEX
8
0
10
6.217
20
1.941
0
VERTEX
8
0
10
6.205
20
1.861
0
VERTEX
8
0
10
6.217
20
1.746
0
VERTEX
8
0
10
6.237
20
1.713
0
VERTEX
8
0
10
6.257
20
1.707
0
VERTEX
8
0
10
6.276
20
1.723
0
VERTEX
8
0
10
6.287
20
1.764
0
VERTEX
8
0
10
6.281
20
1.895
0
VERTEX
8
0
10
6.302
20
1.977
0
VERTEX
8
0
10
6.365
20
2.120
0
VERTEX
8
0
10
6.422
20
2.235
0
VERTEX
8
0
10
6.425
20
2.293
0
VERTEX
8
0
10
6.395
20
2.414
  0
SEQEND
0
POLYLINE
8
0
6
CONTINUOUS
66
1
70
1
0
VERTEX
8
0
10
6.978
20
2.485
0
VERTEX
8
0
10
6.951
20
2.468
0
VERTEX
8
0
10
6.929
20
2.426
0
VERTEX
8
0
10
6.921
20
2.356
0
VERTEX
8
0
10
6.932
20
2.276
0
VERTEX
8
0
10
6.955
20
2.226
0
VERTEX
8
0
10
7.157
20
2.046
0
VERTEX
8
0
10
7.205
20
1.978
0
VERTEX
8
0
10
7.223
20
1.922
0
VERTEX
8
0
10
7.219
20
1.873
0
VERTEX
8
0
10
7.197
20
1.804
0
VERTEX
8
0
10
7.203
20
1.767
0
VERTEX
8
0
10
7.230
20
1.735
0
VERTEX
8
0
10
7.253
20
1.730
0
VERTEX
8
0
10
7.273
20
1.748
0
VERTEX
8
0
10
7.287
20
1.799
0
VERTEX
8
0
10
7.286
20
1.930
0
VERTEX
8
0
10
7.267
20
2.044
0
VERTEX
8
0
10
7.226
20
2.155
0
VERTEX
8
0
10
7.130
20
2.326
0
VERTEX
8
0
10
7.051
20
2.451
0
VERTEX
8
0
10
7.014
20
2.481
  0
SEQEND
0
POLYLINE
8
0
6
CONTINUOUS
66
1
70
1
0
VERTEX
8
0
10
6.780
20
2.498
0
VERTEX
8
0
10
6.732
20
2.481
0
VERTEX
8
0
10
6.677
20
2.436
0
VERTEX
8
0
10
6.605
20
2.339
0
VERTEX
8
0
10
6.464
20
2.127
0
VERTEX
8
0
10
6.417
20
2.025
0
VERTEX
8
0
10
6.396
20
1.911
0
VERTEX
8
0
10
6.406
20
1.870
0
VERTEX
8
0
10
6.422
20
1.859
0
VERTEX
8
0
10
6.436
20
1.870
0
VERTEX
8
0
10
6.455
20
2.018
0
VERTEX
8
0
10
6.480
20
2.067
0
VERTEX
8
0
10
6.533
20
2.116
0
VERTEX
8
0
10
6.624
20
2.168
0
VERTEX
8
0
10
6.711
20
2.193
0
VERTEX
8
0
10
6.768
20
2.209
0
VERTEX
8
0
10
6.795
20
2.238
0
VERTEX
8
0
10
6.844
20
2.387
0
VERTEX
8
0
10
6.847
20
2.444
0
VERTEX
8
0
10
6.832
20
2.480
  0
SEQEND
0
POLYLINE
8
0
6
CONTINUOUS
66
1
70
1
0
VERTEX
8
0
10
6.083
20
2.492
0
VERTEX
8
0
10
6.059
20
2.468
0
VERTEX
8
0
10
6.032
20
2.396
0
VERTEX
8
0
10
6.008
20
2.251
0
VERTEX
8
0
10
6.000
20
2.048
0
VERTEX
8
0
10
6.010
20
1.946
0
VERTEX
8
0
10
6.030
20
1.914
0
VERTEX
8
0
10
6.047
20
1.916
0
VERTEX
8
0
10
6.063
20
1.944
0
VERTEX
8
0
10
6.079
20
2.040
0
VERTEX
8
0
10
6.134
20
2.158
0
VERTEX
8
0
10
6.134
20
2.188
0
VERTEX
8
0
10
6.113
20
2.201
0
VERTEX
8
0
10
6.080
20
2.218
0
VERTEX
8
0
10
6.070
20
2.246
0
VERTEX
8
0
10
6.105
20
2.461
  0
SEQEND
0
POLYLINE
8
0
6
CONTINUOUS
66
1
70
1
0
VERTEX
8
0
10
7.797
20
2.533
0
VERTEX
8
0
10
7.774
20
2.513
0
VERTEX
8
0
10
7.759
20
2.472
0
VERTEX
8
0
10
7.765
20
2.448
0
VERTEX
8
0
10
7.784
20
2.444
0
VERTEX
8
0
10
7.805
20
2.459
0
VERTEX
8
0
10
7.821
20
2.501
0
VERTEX
8
0
10
7.817
20
2.528
  0
SEQEND
0
POLYLINE
8
0
6
CONTINUOUS
66
1
70
1
0
VERTEX
8
0
10
7.521
20
2.775
0
VERTEX
8
0
10
7.501
20
2.757
0
VERTEX
8
0
10
7.499
20
2.729
0
VERTEX
8
0
10
7.515
20
2.706
0
VERTEX
8
0
10
7.541
20
2.702
0
VERTEX
8
0
10
7.565
20
2.716
0
VERTEX
8
0
10
7.571
20
2.743
0
VERTEX
8
0
10
7.558
20
2.769
  0
SEQEND
0
POLYLINE
8
0
6
CONTINUOUS
66
1
70
1
0
VERTEX
8
0
10
6.250
20
2.846
0
VERTEX
8
0
10
6.228
20
2.833
0
VERTEX
8
0
10
6.221
20
2.808
0
VERTEX
8
0
10
6.233
20
2.788
0
VERTEX
8
0
10
6.268
20
2.786
0
VERTEX
8
0
10
6.284
20
2.805
0
VERTEX
8
0
10
6.282
20
2.831
  0
SEQEND
0
POLYLINE
8
0
6
CONTINUOUS
66
1
70
1
0
VERTEX
8
0
10
5.945
20
2.903
0
VERTEX
8
0
10
5.909
20
2.877
0
VERTEX
8
0
10
5.888
20
2.836
0
VERTEX
8
0
10
5.884
20
2.778
0
VERTEX
8
0
10
5.901
20
2.718
0
VERTEX
8
0
10
5.927
20
2.682
0
VERTEX
8
0
10
5.949
20
2.676
0
VERTEX
8
0
10
5.967
20
2.693
0
VERTEX
8
0
10
5.978
20
2.745
0
VERTEX
8
0
10
5.973
20
2.860
  0
SEQEND
0
POLYLINE
8
0
6
CONTINUOUS
66
1
70
1
0
VERTEX
8
0
10
5.324
20
3.179
0
VERTEX
8
0
10
5.262
20
3.157
0
VERTEX
8
0
10
5.227
20
3.127
0
VERTEX
8
0
10
5.217
20
3.096
0
VERTEX
8
0
10
5.228
20
3.069
0
VERTEX
8
0
10
5.259
20
3.050
0
VERTEX
8
0
10
5.341
20
3.037
0
VERTEX
8
0
10
5.374
20
3.010
0
VERTEX
8
0
10
5.424
20
2.963
0
VERTEX
8
0
10
5.531
20
2.904
0
VERTEX
8
0
10
5.601
20
2.807
0
VERTEX
8
0
10
5.636
20
2.791
0
VERTEX
8
0
10
5.675
20
2.797
0
VERTEX
8
0
10
5.709
20
2.822
0
VERTEX
8
0
10
5.726
20
2.858
0
VERTEX
8
0
10
5.722
20
2.894
0
VERTEX
8
0
10
5.682
20
2.938
0
VERTEX
8
0
10
5.601
20
2.987
0
VERTEX
8
0
10
5.499
20
3.044
0
VERTEX
8
0
10
5.456
20
3.088
0
VERTEX
8
0
10
5.408
20
3.164
0
VERTEX
8
0
10
5.377
20
3.180
  0
SEQEND
0
POLYLINE
8
0
6
CONTINUOUS
66
1
70
1
0
VERTEX
8
0
10
7.583
20
3.233
0
VERTEX
8
0
10
7.576
20
3.216
0
VERTEX
8
0
10
7.604
20
3.171
0
VERTEX
8
0
10
7.633
20
3.117
0
VERTEX
8
0
10
7.655
20
3.057
0
VERTEX
8
0
10
7.760
20
2.892
0
VERTEX
8
0
10
7.799
20
2.805
0
VERTEX
8
0
10
7.815
20
2.794
0
VERTEX
8
0
10
7.820
20
2.814
0
VERTEX
8
0
10
7.750
20
3.026
0
VERTEX
8
0
10
7.680
20
3.163
0
VERTEX
8
0
10
7.633
20
3.224
  0
SEQEND
0
POLYLINE
8
0
6
CONTINUOUS
66
1
70
1
0
VERTEX
8
0
10
6.273
20
3.346
0
VERTEX
8
0
10
6.235
20
3.325
0
VERTEX
8
0
10
6.206
20
3.282
0
VERTEX
8
0
10
6.182
20
3.196
0
VERTEX
8
0
10
6.156
20
3.075
0
VERTEX
8
0
10
6.077
20
2.943
0
VERTEX
8
0
10
6.069
20
2.875
0
VERTEX
8
0
10
6.083
20
2.865
0
VERTEX
8
0
10
6.134
20
2.878
0
VERTEX
8
0
10
6.222
20
2.908
0
VERTEX
8
0
10
6.267
20
2.906
0
VERTEX
8
0
10
6.322
20
2.874
0
VERTEX
8
0
10
6.370
20
2.823
0
VERTEX
8
0
10
6.390
20
2.778
0
VERTEX
8
0
10
6.386
20
2.745
0
VERTEX
8
0
10
6.362
20
2.722
0
VERTEX
8
0
10
6.308
20
2.707
0
VERTEX
8
0
10
6.185
20
2.715
0
VERTEX
8
0
10
6.103
20
2.729
0
VERTEX
8
0
10
6.079
20
2.719
0
VERTEX
8
0
10
6.071
20
2.688
0
VERTEX
8
0
10
6.085
20
2.661
0
VERTEX
8
0
10
6.133
20
2.630
0
VERTEX
8
0
10
6.250
20
2.579
0
VERTEX
8
0
10
6.289
20
2.554
0
VERTEX
8
0
10
6.313
20
2.557
0
VERTEX
8
0
10
6.346
20
2.594
0
VERTEX
8
0
10
6.388
20
2.642
0
VERTEX
8
0
10
6.454
20
2.697
0
VERTEX
8
0
10
6.466
20
2.728
0
VERTEX
8
0
10
6.479
20
2.848
0
VERTEX
8
0
10
6.496
20
2.923
0
VERTEX
8
0
10
6.486
20
2.962
0
VERTEX
8
0
10
6.447
20
3.004
0
VERTEX
8
0
10
6.353
20
3.064
0
VERTEX
8
0
10
6.303
20
3.084
0
VERTEX
8
0
10
6.252
20
3.098
0
VERTEX
8
0
10
6.241
20
3.116
0
VERTEX
8
0
10
6.252
20
3.145
0
VERTEX
8
0
10
6.298
20
3.187
0
VERTEX
8
0
10
6.323
20
3.212
0
VERTEX
8
0
10
6.327
20
3.251
0
VERTEX
8
0
10
6.306
20
3.325
  0
SEQEND
0
POLYLINE
8
0
6
CONTINUOUS
66
1
70
1
0
VERTEX
8
0
10
8.896
20
3.363
0
VERTEX
8
0
10
8.838
20
3.342
0
VERTEX
8
0
10
8.722
20
3.274
0
VERTEX
8
0
10
8.659
20
3.262
0
VERTEX
8
0
10
8.512
20
3.261
0
VERTEX
8
0
10
8.467
20
3.247
0
VERTEX
8
0
10
8.453
20
3.227
0
VERTEX
8
0
10
8.461
20
3.198
0
VERTEX
8
0
10
8.513
20
3.142
0
VERTEX
8
0
10
8.551
20
3.124
0
VERTEX
8
0
10
8.585
20
3.129
0
VERTEX
8
0
10
8.677
20
3.177
0
VERTEX
8
0
10
8.877
20
3.201
0
VERTEX
8
0
10
8.932
20
3.227
0
VERTEX
8
0
10
8.966
20
3.265
0
VERTEX
8
0
10
8.981
20
3.306
0
VERTEX
8
0
10
8.973
20
3.338
0
VERTEX
8
0
10
8.949
20
3.359
  0
SEQEND
0
POLYLINE
8
0
6
CONTINUOUS
66
1
70
1
0
VERTEX
8
0
10
7.221
20
3.363
0
VERTEX
8
0
10
7.200
20
3.350
0
VERTEX
8
0
10
7.195
20
3.321
0
VERTEX
8
0
10
7.213
20
3.267
0
VERTEX
8
0
10
7.251
20
3.213
0
VERTEX
8
0
10
7.334
20
3.165
0
VERTEX
8
0
10
7.355
20
3.128
0
VERTEX
8
0
10
7.377
20
3.012
0
VERTEX
8
0
10
7.415
20
2.952
0
VERTEX
8
0
10
7.407
20
2.935
0
VERTEX
8
0
10
7.310
20
2.901
0
VERTEX
8
0
10
7.281
20
2.831
0
VERTEX
8
0
10
7.273
20
2.760
0
VERTEX
8
0
10
7.272
20
2.657
0
VERTEX
8
0
10
7.265
20
2.589
0
VERTEX
8
0
10
7.277
20
2.560
0
VERTEX
8
0
10
7.402
20
2.480
0
VERTEX
8
0
10
7.435
20
2.477
0
VERTEX
8
0
10
7.528
20
2.524
0
VERTEX
8
0
10
7.612
20
2.540
0
VERTEX
8
0
10
7.672
20
2.571
0
VERTEX
8
0
10
7.706
20
2.607
0
VERTEX
8
0
10
7.711
20
2.635
0
VERTEX
8
0
10
7.698
20
2.650
0
VERTEX
8
0
10
7.664
20
2.650
0
VERTEX
8
0
10
7.571
20
2.613
0
VERTEX
8
0
10
7.491
20
2.605
0
VERTEX
8
0
10
7.420
20
2.616
0
VERTEX
8
0
10
7.377
20
2.639
0
VERTEX
8
0
10
7.360
20
2.667
0
VERTEX
8
0
10
7.364
20
2.703
0
VERTEX
8
0
10
7.400
20
2.762
0
VERTEX
8
0
10
7.453
20
2.811
0
VERTEX
8
0
10
7.508
20
2.837
0
VERTEX
8
0
10
7.558
20
2.841
0
VERTEX
8
0
10
7.596
20
2.825
0
VERTEX
8
0
10
7.697
20
2.759
0
VERTEX
8
0
10
7.726
20
2.754
0
VERTEX
8
0
10
7.739
20
2.775
0
VERTEX
8
0
10
7.731
20
2.811
0
VERTEX
8
0
10
7.632
20
2.958
0
VERTEX
8
0
10
7.544
20
3.026
0
VERTEX
8
0
10
7.509
20
3.085
0
VERTEX
8
0
10
7.474
20
3.153
0
VERTEX
8
0
10
7.428
20
3.197
0
VERTEX
8
0
10
7.372
20
3.247
0
VERTEX
8
0
10
7.304
20
3.336
  0
SEQEND
0
POLYLINE
8
0
6
CONTINUOUS
66
1
70
1
0
VERTEX
8
0
10
7.207
20
3.514
0
VERTEX
8
0
10
7.194
20
3.500
0
VERTEX
8
0
10
7.205
20
3.476
0
VERTEX
8
0
10
7.258
20
3.435
0
VERTEX
8
0
10
7.325
20
3.407
0
VERTEX
8
0
10
7.354
20
3.408
0
VERTEX
8
0
10
7.359
20
3.423
0
VERTEX
8
0
10
7.340
20
3.458
0
VERTEX
8
0
10
7.289
20
3.497
  0
SEQEND
0
POLYLINE
8
0
6
CONTINUOUS
66
1
70
1
0
VERTEX
8
0
10
8.118
20
3.540
0
VERTEX
8
0
10
8.046
20
3.514
0
VERTEX
8
0
10
7.960
20
3.460
0
VERTEX
8
0
10
7.901
20
3.401
0
VERTEX
8
0
10
7.873
20
3.351
0
VERTEX
8
0
10
7.870
20
3.308
0
VERTEX
8
0
10
7.888
20
3.272
0
VERTEX
8
0
10
8.035
20
3.173
0
VERTEX
8
0
10
8.045
20
3.149
0
VERTEX
8
0
10
8.032
20
3.127
0
VERTEX
8
0
10
7.978
20
3.101
0
VERTEX
8
0
10
7.858
20
3.063
0
VERTEX
8
0
10
7.836
20
3.042
0
VERTEX
8
0
10
7.835
20
3.009
0
VERTEX
8
0
10
7.872
20
2.897
0
VERTEX
8
0
10
7.895
20
2.788
0
VERTEX
8
0
10
7.920
20
2.753
0
VERTEX
8
0
10
7.956
20
2.735
0
VERTEX
8
0
10
8.017
20
2.735
0
VERTEX
8
0
10
8.074
20
2.752
0
VERTEX
8
0
10
8.109
20
2.782
0
VERTEX
8
0
10
8.119
20
2.812
0
VERTEX
8
0
10
8.109
20
2.836
0
VERTEX
8
0
10
8.075
20
2.853
0
VERTEX
8
0
10
7.973
20
2.869
0
VERTEX
8
0
10
7.959
20
2.883
0
VERTEX
8
0
10
7.969
20
2.908
0
VERTEX
8
0
10
8.035
20
2.967
0
VERTEX
8
0
10
8.081
20
2.983
0
VERTEX
8
0
10
8.125
20
2.977
0
VERTEX
8
0
10
8.179
20
2.943
0
VERTEX
8
0
10
8.278
20
2.863
0
VERTEX
8
0
10
8.349
20
2.842
0
VERTEX
8
0
10
8.414
20
2.844
0
VERTEX
8
0
10
8.447
20
2.859
0
VERTEX
8
0
10
8.451
20
2.877
0
VERTEX
8
0
10
8.429
20
2.901
0
VERTEX
8
0
10
8.395
20
2.929
0
VERTEX
8
0
10
8.394
20
2.948
0
VERTEX
8
0
10
8.461
20
3.026
0
VERTEX
8
0
10
8.463
20
3.052
0
VERTEX
8
0
10
8.444
20
3.070
0
VERTEX
8
0
10
8.406
20
3.074
0
VERTEX
8
0
10
8.352
20
3.047
0
VERTEX
8
0
10
8.291
20
2.992
0
VERTEX
8
0
10
8.260
20
2.988
0
VERTEX
8
0
10
8.216
20
3.008
0
VERTEX
8
0
10
8.187
20
3.038
0
VERTEX
8
0
10
8.187
20
3.064
0
VERTEX
8
0
10
8.198
20
3.117
0
VERTEX
8
0
10
8.178
20
3.220
0
VERTEX
8
0
10
8.198
20
3.281
0
VERTEX
8
0
10
8.185
20
3.335
0
VERTEX
8
0
10
8.209
20
3.357
0
VERTEX
8
0
10
8.234
20
3.378
0
VERTEX
8
0
10
8.234
20
3.402
0
VERTEX
8
0
10
8.197
20
3.487
0
VERTEX
8
0
10
8.179
20
3.528
  0
SEQEND
0
POLYLINE
8
0
6
CONTINUOUS
66
1
70
1
0
VERTEX
8
0
10
5.702
20
3.578
0
VERTEX
8
0
10
5.594
20
3.542
0
VERTEX
8
0
10
5.515
20
3.499
0
VERTEX
8
0
10
5.483
20
3.464
0
VERTEX
8
0
10
5.478
20
3.435
0
VERTEX
8
0
10
5.496
20
3.406
0
VERTEX
8
0
10
5.555
20
3.360
0
VERTEX
8
0
10
5.562
20
3.336
0
VERTEX
8
0
10
5.528
20
3.263
0
VERTEX
8
0
10
5.541
20
3.235
0
VERTEX
8
0
10
5.581
20
3.188
0
VERTEX
8
0
10
5.595
20
3.107
0
VERTEX
8
0
10
5.628
20
3.067
0
VERTEX
8
0
10
5.713
20
3.013
0
VERTEX
8
0
10
5.833
20
2.936
0
VERTEX
8
0
10
5.861
20
2.935
0
VERTEX
8
0
10
5.882
20
2.957
0
VERTEX
8
0
10
5.898
20
3.014
0
VERTEX
8
0
10
5.889
20
3.048
0
VERTEX
8
0
10
5.833
20
3.113
0
VERTEX
8
0
10
5.818
20
3.196
0
VERTEX
8
0
10
5.778
20
3.289
0
VERTEX
8
0
10
5.785
20
3.332
0
VERTEX
8
0
10
5.826
20
3.428
0
VERTEX
8
0
10
5.823
20
3.472
0
VERTEX
8
0
10
5.791
20
3.537
0
VERTEX
8
0
10
5.754
20
3.569
  0
SEQEND
0
POLYLINE
8
0
6
CONTINUOUS
66
1
70
1
0
VERTEX
8
0
10
6.532
20
3.583
0
VERTEX
8
0
10
6.413
20
3.570
0
VERTEX
8
0
10
6.342
20
3.546
0
VERTEX
8
0
10
6.303
20
3.515
0
VERTEX
8
0
10
6.290
20
3.485
0
VERTEX
8
0
10
6.302
20
3.473
0
VERTEX
8
0
10
6.352
20
3.472
0
VERTEX
8
0
10
6.475
20
3.503
0
VERTEX
8
0
10
6.549
20
3.536
0
VERTEX
8
0
10
6.561
20
3.563
  0
SEQEND
0
POLYLINE
8
0
6
CONTINUOUS
66
1
70
1
0
VERTEX
8
0
10
8.405
20
3.660
0
VERTEX
8
0
10
8.338
20
3.638
0
VERTEX
8
0
10
8.296
20
3.609
0
VERTEX
8
0
10
8.285
20
3.584
0
VERTEX
8
0
10
8.298
20
3.560
0
VERTEX
8
0
10
8.363
20
3.520
0
VERTEX
8
0
10
8.516
20
3.459
0
VERTEX
8
0
10
8.605
20
3.438
0
VERTEX
8
0
10
8.624
20
3.448
0
VERTEX
8
0
10
8.636
20
3.498
0
VERTEX
8
0
10
8.661
20
3.499
0
VERTEX
8
0
10
8.747
20
3.469
0
VERTEX
8
0
10
8.777
20
3.475
0
VERTEX
8
0
10
8.821
20
3.503
0
VERTEX
8
0
10
8.920
20
3.482
0
VERTEX
8
0
10
8.953
20
3.496
0
VERTEX
8
0
10
8.954
20
3.513
0
VERTEX
8
0
10
8.925
20
3.542
0
VERTEX
8
0
10
8.830
20
3.590
0
VERTEX
8
0
10
8.676
20
3.638
0
VERTEX
8
0
10
8.541
20
3.661
  0
SEQEND
0
POLYLINE
8
0
6
CONTINUOUS
66
1
70
1
0
VERTEX
8
0
10
4.728
20
3.716
0
VERTEX
8
0
10
4.709
20
3.695
0
VERTEX
8
0
10
4.708
20
3.659
0
VERTEX
8
0
10
4.735
20
3.594
0
VERTEX
8
0
10
4.804
20
3.494
0
VERTEX
8
0
10
4.900
20
3.402
0
VERTEX
8
0
10
4.957
20
3.385
0
VERTEX
8
0
10
5.013
20
3.371
0
VERTEX
8
0
10
5.036
20
3.347
0
VERTEX
8
0
10
5.062
20
3.286
0
VERTEX
8
0
10
5.097
20
3.253
0
VERTEX
8
0
10
5.150
20
3.233
0
VERTEX
8
0
10
5.210
20
3.235
0
VERTEX
8
0
10
5.265
20
3.253
0
VERTEX
8
0
10
5.279
20
3.270
0
VERTEX
8
0
10
5.268
20
3.288
0
VERTEX
8
0
10
5.213
20
3.326
0
VERTEX
8
0
10
5.211
20
3.347
0
VERTEX
8
0
10
5.234
20
3.393
0
VERTEX
8
0
10
5.225
20
3.415
0
VERTEX
8
0
10
5.183
20
3.437
0
VERTEX
8
0
10
5.045
20
3.503
0
VERTEX
8
0
10
4.926
20
3.578
0
VERTEX
8
0
10
4.782
20
3.703
  0
SEQEND
0
POLYLINE
8
0
6
CONTINUOUS
66
1
70
1
0
VERTEX
8
0
10
8.174
20
3.782
0
VERTEX
8
0
10
8.030
20
3.754
0
VERTEX
8
0
10
7.880
20
3.704
0
VERTEX
8
0
10
7.753
20
3.641
0
VERTEX
8
0
10
7.659
20
3.575
0
VERTEX
8
0
10
7.553
20
3.467
0
VERTEX
8
0
10
7.505
20
3.397
0
VERTEX
8
0
10
7.495
20
3.357
0
VERTEX
8
0
10
7.510
20
3.331
0
VERTEX
8
0
10
7.535
20
3.331
0
VERTEX
8
0
10
7.581
20
3.362
0
VERTEX
8
0
10
7.765
20
3.537
0
VERTEX
8
0
10
7.860
20
3.602
0
VERTEX
8
0
10
7.982
20
3.659
0
VERTEX
8
0
10
8.126
20
3.703
0
VERTEX
8
0
10
8.288
20
3.731
0
VERTEX
8
0
10
8.457
20
3.739
0
VERTEX
8
0
10
8.627
20
3.727
0
VERTEX
8
0
10
8.782
20
3.696
0
VERTEX
8
0
10
8.916
20
3.649
0
VERTEX
8
0
10
9.020
20
3.591
0
VERTEX
8
0
10
9.131
20
3.489
0
VERTEX
8
0
10
9.161
20
3.477
0
VERTEX
8
0
10
9.177
20
3.489
0
VERTEX
8
0
10
9.179
20
3.519
0
VERTEX
8
0
10
9.158
20
3.557
0
VERTEX
8
0
10
9.098
20
3.610
0
VERTEX
8
0
10
8.966
20
3.677
0
VERTEX
8
0
10
8.796
20
3.731
0
VERTEX
8
0
10
8.597
20
3.771
0
VERTEX
8
0
10
8.405
20
3.791
  0
SEQEND
0
POLYLINE
8
0
6
CONTINUOUS
66
1
70
1
0
VERTEX
8
0
10
4.875
20
3.806
0
VERTEX
8
0
10
4.861
20
3.789
0
VERTEX
8
0
10
4.867
20
3.770
0
VERTEX
8
0
10
4.959
20
3.731
0
VERTEX
8
0
10
5.065
20
3.688
0
VERTEX
8
0
10
5.148
20
3.639
0
VERTEX
8
0
10
5.266
20
3.598
0
VERTEX
8
0
10
5.316
20
3.558
0
VERTEX
8
0
10
5.352
20
3.557
0
VERTEX
8
0
10
5.462
20
3.582
0
VERTEX
8
0
10
5.565
20
3.589
0
VERTEX
8
0
10
5.595
20
3.603
0
VERTEX
8
0
10
5.597
20
3.620
0
VERTEX
8
0
10
5.566
20
3.648
0
VERTEX
8
0
10
5.353
20
3.735
0
VERTEX
8
0
10
5.219
20
3.771
0
VERTEX
8
0
10
4.964
20
3.814
  0
SEQEND
0
POLYLINE
8
0
6
CONTINUOUS
66
1
70
1
0
VERTEX
8
0
10
4.873
20
3.952
0
VERTEX
8
0
10
4.791
20
3.938
0
VERTEX
8
0
10
4.746
20
3.916
0
VERTEX
8
0
10
4.735
20
3.895
0
VERTEX
8
0
10
4.746
20
3.880
0
VERTEX
8
0
10
4.786
20
3.875
0
VERTEX
8
0
10
4.909
20
3.878
0
VERTEX
8
0
10
5.089
20
3.858
0
VERTEX
8
0
10
5.311
20
3.811
0
VERTEX
8
0
10
5.533
20
3.740
0
VERTEX
8
0
10
5.698
20
3.667
0
VERTEX
8
0
10
5.825
20
3.589
0
VERTEX
8
0
10
6.043
20
3.408
0
VERTEX
8
0
10
6.085
20
3.391
0
VERTEX
8
0
10
6.113
20
3.402
0
VERTEX
8
0
10
6.117
20
3.425
0
VERTEX
8
0
10
6.094
20
3.469
0
VERTEX
8
0
10
6.017
20
3.552
0
VERTEX
8
0
10
5.854
20
3.680
0
VERTEX
8
0
10
5.719
20
3.754
0
VERTEX
8
0
10
5.570
20
3.812
0
VERTEX
8
0
10
5.364
20
3.865
  0
SEQEND
0
POLYLINE
8
0
6
CONTINUOUS
66
1
70
1
0
VERTEX
8
0
10
9.706
20
4.555
0
VERTEX
8
0
10
9.678
20
4.531
0
VERTEX
8
0
10
9.649
20
4.473
0
VERTEX
8
0
10
9.632
20
4.394
0
VERTEX
8
0
10
9.637
20
4.337
0
VERTEX
8
0
10
9.654
20
4.311
0
VERTEX
8
0
10
9.679
20
4.308
0
VERTEX
8
0
10
9.745
20
4.351
0
VERTEX
8
0
10
9.778
20
4.398
0
VERTEX
8
0
10
9.789
20
4.449
0
VERTEX
8
0
10
9.780
20
4.500
0
VERTEX
8
0
10
9.753
20
4.540
  0
SEQEND
0
POLYLINE
8
0
6
CONTINUOUS
66
1
70
1
0
VERTEX
8
0
10
4.327
20
4.820
0
VERTEX
8
0
10
4.305
20
4.806
0
VERTEX
8
0
10
4.287
20
4.761
0
VERTEX
8
0
10
4.284
20
4.688
0
VERTEX
8
0
10
4.299
20
4.623
0
VERTEX
8
0
10
4.324
20
4.585
0
VERTEX
8
0
10
4.357
20
4.569
0
VERTEX
8
0
10
4.394
20
4.575
0
VERTEX
8
0
10
4.403
20
4.605
0
VERTEX
8
0
10
4.392
20
4.687
0
VERTEX
8
0
10
4.348
20
4.810
  0
SEQEND
0
POLYLINE
8
0
6
CONTINUOUS
66
1
70
1
0
VERTEX
8
0
10
4.839
20
6.694
0
VERTEX
8
0
10
4.793
20
6.677
0
VERTEX
8
0
10
4.754
20
6.640
0
VERTEX
8
0
10
4.717
20
6.569
0
VERTEX
8
0
10
4.634
20
6.315
0
VERTEX
8
0
10
4.500
20
5.834
0
VERTEX
8
0
10
4.466
20
5.723
0
VERTEX
8
0
10
4.443
20
5.692
0
VERTEX
8
0
10
4.422
20
5.701
0
VERTEX
8
0
10
4.411
20
5.756
0
VERTEX
8
0
10
4.415
20
5.914
0
VERTEX
8
0
10
4.444
20
6.127
0
VERTEX
8
0
10
4.502
20
6.334
0
VERTEX
8
0
10
4.576
20
6.567
0
VERTEX
8
0
10
4.575
20
6.612
0
VERTEX
8
0
10
4.559
20
6.636
0
VERTEX
8
0
10
4.531
20
6.642
0
VERTEX
8
0
10
4.492
20
6.627
0
VERTEX
8
0
10
4.449
20
6.584
0
VERTEX
8
0
10
4.397
20
6.484
0
VERTEX
8
0
10
4.310
20
6.231
0
VERTEX
8
0
10
4.245
20
5.975
0
VERTEX
8
0
10
4.225
20
5.816
0
VERTEX
8
0
10
4.227
20
5.674
0
VERTEX
8
0
10
4.253
20
5.366
0
VERTEX
8
0
10
4.231
20
5.300
0
VERTEX
8
0
10
4.166
20
5.197
0
VERTEX
8
0
10
4.086
20
5.076
0
VERTEX
8
0
10
4.048
20
4.970
0
VERTEX
8
0
10
4.020
20
4.828
0
VERTEX
8
0
10
4.012
20
4.676
0
VERTEX
8
0
10
4.024
20
4.545
0
VERTEX
8
0
10
4.052
20
4.442
0
VERTEX
8
0
10
4.105
20
4.342
0
VERTEX
8
0
10
4.186
20
4.239
0
VERTEX
8
0
10
4.293
20
4.136
0
VERTEX
8
0
10
4.535
20
3.960
0
VERTEX
8
0
10
4.568
20
3.918
0
VERTEX
8
0
10
4.570
20
3.873
0
VERTEX
8
0
10
4.554
20
3.816
0
VERTEX
8
0
10
4.569
20
3.750
0
VERTEX
8
0
10
4.634
20
3.605
0
VERTEX
8
0
10
4.728
20
3.441
0
VERTEX
8
0
10
4.808
20
3.339
0
VERTEX
8
0
10
4.899
20
3.234
0
VERTEX
8
0
10
4.946
20
3.146
0
VERTEX
8
0
10
4.987
20
3.066
0
VERTEX
8
0
10
5.042
20
3.002
0
VERTEX
8
0
10
5.126
20
2.942
0
VERTEX
8
0
10
5.522
20
2.741
0
VERTEX
8
0
10
5.737
20
2.666
0
VERTEX
8
0
10
5.788
20
2.626
0
VERTEX
8
0
10
5.828
20
2.567
0
VERTEX
8
0
10
5.851
20
2.495
0
VERTEX
8
0
10
5.849
20
2.425
0
VERTEX
8
0
10
5.815
20
2.307
0
VERTEX
8
0
10
5.775
20
2.175
0
VERTEX
8
0
10
5.772
20
2.073
0
VERTEX
8
0
10
5.800
20
1.878
0
VERTEX
8
0
10
5.791
20
1.682
0
VERTEX
8
0
10
5.807
20
1.588
0
VERTEX
8
0
10
5.824
20
1.500
0
VERTEX
8
0
10
5.816
20
1.429
0
VERTEX
8
0
10
5.777
20
1.325
0
VERTEX
8
0
10
5.665
20
1.098
0
VERTEX
8
0
10
5.630
20
0.984
0
VERTEX
8
0
10
5.562
20
0.605
0
VERTEX
8
0
10
5.536
20
0.452
0
VERTEX
8
0
10
5.535
20
0.315
0
VERTEX
8
0
10
5.565
20
0.077
0
VERTEX
8
0
10
5.608
20
-0.087
0
VERTEX
8
0
10
5.667
20
-0.235
0
VERTEX
8
0
10
5.739
20
-0.362
0
VERTEX
8
0
10
5.825
20
-0.472
0
VERTEX
8
0
10
5.939
20
-0.578
0
VERTEX
8
0
10
6.101
20
-0.693
0
VERTEX
8
0
10
6.612
20
-1.003
0
VERTEX
8
0
10
6.708
20
-1.083
0
VERTEX
8
0
10
6.781
20
-1.183
0
VERTEX
8
0
10
6.834
20
-1.258
0
VERTEX
8
0
10
6.875
20
-1.284
0
VERTEX
8
0
10
6.923
20
-1.290
0
VERTEX
8
0
10
6.992
20
-1.273
0
VERTEX
8
0
10
7.249
20
-1.139
0
VERTEX
8
0
10
7.309
20
-1.134
0
VERTEX
8
0
10
7.577
20
-1.172
0
VERTEX
8
0
10
7.772
20
-1.224
0
VERTEX
8
0
10
8.066
20
-1.316
0
VERTEX
8
0
10
8.186
20
-1.329
0
VERTEX
8
0
10
8.258
20
-1.317
0
VERTEX
8
0
10
8.321
20
-1.287
0
VERTEX
8
0
10
8.514
20
-1.155
0
VERTEX
8
0
10
8.730
20
-1.040
0
VERTEX
8
0
10
8.811
20
-0.976
0
VERTEX
8
0
10
8.867
20
-0.907
0
VERTEX
8
0
10
8.907
20
-0.824
0
VERTEX
8
0
10
8.934
20
-0.717
0
VERTEX
8
0
10
8.943
20
-0.582
0
VERTEX
8
0
10
8.937
20
-0.266
0
VERTEX
8
0
10
8.955
20
-0.140
0
VERTEX
8
0
10
8.991
20
-0.025
0
VERTEX
8
0
10
9.048
20
0.083
0
VERTEX
8
0
10
9.099
20
0.146
0
VERTEX
8
0
10
9.139
20
0.195
0
VERTEX
8
0
10
9.146
20
0.233
0
VERTEX
8
0
10
9.130
20
0.284
0
VERTEX
8
0
10
9.076
20
0.364
0
VERTEX
8
0
10
8.985
20
0.459
0
VERTEX
8
0
10
8.881
20
0.536
0
VERTEX
8
0
10
8.735
20
0.614
0
VERTEX
8
0
10
8.423
20
0.746
0
VERTEX
8
0
10
8.033
20
0.983
0
VERTEX
8
0
10
7.938
20
1.060
0
VERTEX
8
0
10
7.875
20
1.136
0
VERTEX
8
0
10
7.833
20
1.217
0
VERTEX
8
0
10
7.809
20
1.308
0
VERTEX
8
0
10
7.793
20
1.554
0
VERTEX
8
0
10
7.784
20
1.619
0
VERTEX
8
0
10
7.798
20
1.671
0
VERTEX
8
0
10
7.829
20
1.781
0
VERTEX
8
0
10
7.869
20
2.114
0
VERTEX
8
0
10
7.864
20
2.234
0
VERTEX
8
0
10
7.842
20
2.327
0
VERTEX
8
0
10
7.858
20
2.376
0
VERTEX
8
0
10
7.898
20
2.454
0
VERTEX
8
0
10
7.925
20
2.564
0
VERTEX
8
0
10
7.951
20
2.592
0
VERTEX
8
0
10
7.992
20
2.604
0
VERTEX
8
0
10
8.096
20
2.607
0
VERTEX
8
0
10
8.449
20
2.745
0
VERTEX
8
0
10
8.578
20
2.790
0
VERTEX
8
0
10
8.633
20
2.828
0
VERTEX
8
0
10
8.674
20
2.884
0
VERTEX
8
0
10
8.724
20
2.960
0
VERTEX
8
0
10
8.930
20
3.132
0
VERTEX
8
0
10
9.216
20
3.343
0
VERTEX
8
0
10
9.252
20
3.390
0
VERTEX
8
0
10
9.270
20
3.447
0
VERTEX
8
0
10
9.278
20
3.594
0
VERTEX
8
0
10
9.297
20
3.632
0
VERTEX
8
0
10
9.402
20
3.714
0
VERTEX
8
0
10
9.586
20
3.821
0
VERTEX
8
0
10
9.774
20
3.929
0
VERTEX
8
0
10
9.872
20
4.007
0
VERTEX
8
0
10
9.942
20
4.085
0
VERTEX
8
0
10
9.995
20
4.177
0
VERTEX
8
0
10
10.030
20
4.282
0
VERTEX
8
0
10
10.046
20
4.413
0
VERTEX
8
0
10
10.039
20
4.548
0
VERTEX
8
0
10
10.011
20
4.688
0
VERTEX
8
0
10
9.967
20
4.810
0
VERTEX
8
0
10
9.865
20
4.998
0
VERTEX
8
0
10
9.859
20
5.047
0
VERTEX
8
0
10
9.878
20
5.119
0
VERTEX
8
0
10
9.910
20
5.219
0
VERTEX
8
0
10
9.931
20
5.379
0
VERTEX
8
0
10
9.937
20
5.578
0
VERTEX
8
0
10
9.920
20
5.776
0
VERTEX
8
0
10
9.826
20
6.290
0
VERTEX
8
0
10
9.797
20
6.364
0
VERTEX
8
0
10
9.771
20
6.393
0
VERTEX
8
0
10
9.736
20
6.398
0
VERTEX
8
0
10
9.710
20
6.382
0
VERTEX
8
0
10
9.692
20
6.340
0
VERTEX
8
0
10
9.684
20
6.249
0
VERTEX
8
0
10
9.687
20
6.078
0
VERTEX
8
0
10
9.722
20
5.826
0
VERTEX
8
0
10
9.766
20
5.542
0
VERTEX
8
0
10
9.759
20
5.484
0
VERTEX
8
0
10
9.744
20
5.474
0
VERTEX
8
0
10
9.723
20
5.487
0
VERTEX
8
0
10
9.698
20
5.549
0
VERTEX
8
0
10
9.532
20
6.327
0
VERTEX
8
0
10
9.498
20
6.406
0
VERTEX
8
0
10
9.467
20
6.439
0
VERTEX
8
0
10
9.443
20
6.442
0
VERTEX
8
0
10
9.421
20
6.423
0
VERTEX
8
0
10
9.405
20
6.370
0
VERTEX
8
0
10
9.409
20
6.236
0
VERTEX
8
0
10
9.441
20
6.059
0
VERTEX
8
0
10
9.517
20
5.741
0
VERTEX
8
0
10
9.555
20
5.523
0
VERTEX
8
0
10
9.615
20
5.298
0
VERTEX
8
0
10
9.625
20
5.203
0
VERTEX
8
0
10
9.616
20
5.164
0
VERTEX
8
0
10
9.598
20
5.153
0
VERTEX
8
0
10
9.550
20
5.178
0
VERTEX
8
0
10
9.471
20
5.271
0
VERTEX
8
0
10
9.324
20
5.444
0
VERTEX
8
0
10
9.210
20
5.576
0
VERTEX
8
0
10
9.040
20
5.826
0
VERTEX
8
0
10
8.970
20
5.900
0
VERTEX
8
0
10
8.920
20
5.930
0
VERTEX
8
0
10
8.884
20
5.933
0
VERTEX
8
0
10
8.865
20
5.917
0
VERTEX
8
0
10
8.858
20
5.878
0
VERTEX
8
0
10
8.888
20
5.775
0
VERTEX
8
0
10
9.005
20
5.511
0
VERTEX
8
0
10
9.089
20
5.388
0
VERTEX
8
0
10
9.374
20
5.048
0
VERTEX
8
0
10
9.459
20
4.910
0
VERTEX
8
0
10
9.484
20
4.837
0
VERTEX
8
0
10
9.491
20
4.743
0
VERTEX
8
0
10
9.486
20
4.539
0
VERTEX
8
0
10
9.454
20
4.375
0
VERTEX
8
0
10
9.405
20
4.237
0
VERTEX
8
0
10
9.343
20
4.119
0
VERTEX
8
0
10
9.274
20
4.028
0
VERTEX
8
0
10
9.198
20
3.960
0
VERTEX
8
0
10
9.116
20
3.913
0
VERTEX
8
0
10
8.993
20
3.874
0
VERTEX
8
0
10
8.850
20
3.852
0
VERTEX
8
0
10
8.671
20
3.848
0
VERTEX
8
0
10
8.209
20
3.877
0
VERTEX
8
0
10
8.114
20
3.900
0
VERTEX
8
0
10
8.054
20
3.931
0
VERTEX
8
0
10
8.016
20
3.973
0
VERTEX
8
0
10
7.993
20
4.031
0
VERTEX
8
0
10
7.986
20
4.121
0
VERTEX
8
0
10
7.998
20
4.504
0
VERTEX
8
0
10
7.981
20
4.765
0
VERTEX
8
0
10
7.958
20
4.904
0
VERTEX
8
0
10
7.927
20
4.969
0
VERTEX
8
0
10
7.898
20
4.983
0
VERTEX
8
0
10
7.869
20
4.976
0
VERTEX
8
0
10
7.844
20
4.946
0
VERTEX
8
0
10
7.828
20
4.888
0
VERTEX
8
0
10
7.828
20
4.796
0
VERTEX
8
0
10
7.857
20
4.568
0
VERTEX
8
0
10
7.837
20
4.407
0
VERTEX
8
0
10
7.786
20
4.194
0
VERTEX
8
0
10
7.726
20
4.023
0
VERTEX
8
0
10
7.659
20
3.889
0
VERTEX
8
0
10
7.586
20
3.789
0
VERTEX
8
0
10
7.509
20
3.717
0
VERTEX
8
0
10
7.398
20
3.655
0
VERTEX
8
0
10
7.230
20
3.600
0
VERTEX
8
0
10
7.137
20
3.592
0
VERTEX
8
0
10
7.045
20
3.595
0
VERTEX
8
0
10
6.906
20
3.583
0
VERTEX
8
0
10
6.838
20
3.593
0
VERTEX
8
0
10
6.738
20
3.631
0
VERTEX
8
0
10
6.620
20
3.641
0
VERTEX
8
0
10
6.564
20
3.669
0
VERTEX
8
0
10
6.475
20
3.722
0
VERTEX
8
0
10
6.372
20
3.768
0
VERTEX
8
0
10
6.309
20
3.832
0
VERTEX
8
0
10
6.256
20
3.925
0
VERTEX
8
0
10
6.213
20
4.044
0
VERTEX
8
0
10
6.184
20
4.190
0
VERTEX
8
0
10
6.171
20
4.360
0
VERTEX
8
0
10
6.186
20
4.607
0
VERTEX
8
0
10
6.221
20
4.869
0
VERTEX
8
0
10
6.235
20
4.954
0
VERTEX
8
0
10
6.226
20
4.992
0
VERTEX
8
0
10
6.208
20
5.004
0
VERTEX
8
0
10
6.178
20
4.995
0
VERTEX
8
0
10
6.082
20
4.883
0
VERTEX
8
0
10
6.033
20
4.802
0
VERTEX
8
0
10
6.001
20
4.704
0
VERTEX
8
0
10
5.949
20
4.423
0
VERTEX
8
0
10
5.934
20
4.259
0
VERTEX
8
0
10
5.934
20
4.114
0
VERTEX
8
0
10
5.918
20
4.061
0
VERTEX
8
0
10
5.889
20
4.029
0
VERTEX
8
0
10
5.831
20
4.004
0
VERTEX
8
0
10
5.654
20
3.977
0
VERTEX
8
0
10
5.501
20
3.978
0
VERTEX
8
0
10
5.336
20
4.000
0
VERTEX
8
0
10
5.164
20
4.045
0
VERTEX
8
0
10
4.990
20
4.111
0
VERTEX
8
0
10
4.821
20
4.193
0
VERTEX
8
0
10
4.753
20
4.246
0
VERTEX
8
0
10
4.699
20
4.315
0
VERTEX
8
0
10
4.649
20
4.419
0
VERTEX
8
0
10
4.603
20
4.574
0
VERTEX
8
0
10
4.564
20
4.786
0
VERTEX
8
0
10
4.540
20
5.036
0
VERTEX
8
0
10
4.555
20
5.077
0
VERTEX
8
0
10
4.669
20
5.210
0
VERTEX
8
0
10
4.965
20
5.507
0
VERTEX
8
0
10
5.192
20
5.763
0
VERTEX
8
0
10
5.336
20
5.949
0
VERTEX
8
0
10
5.376
20
6.027
0
VERTEX
8
0
10
5.387
20
6.086
0
VERTEX
8
0
10
5.377
20
6.133
0
VERTEX
8
0
10
5.337
20
6.179
0
VERTEX
8
0
10
5.306
20
6.186
0
VERTEX
8
0
10
5.270
20
6.173
0
VERTEX
8
0
10
5.221
20
6.124
0
VERTEX
8
0
10
5.096
20
5.958
0
VERTEX
8
0
10
4.860
20
5.711
0
VERTEX
8
0
10
4.596
20
5.470
0
VERTEX
8
0
10
4.566
20
5.458
0
VERTEX
8
0
10
4.556
20
5.470
0
VERTEX
8
0
10
4.566
20
5.511
0
VERTEX
8
0
10
4.699
20
5.859
0
VERTEX
8
0
10
4.785
20
6.141
0
VERTEX
8
0
10
4.900
20
6.604
0
VERTEX
8
0
10
4.899
20
6.661
0
VERTEX
8
0
10
4.882
20
6.687
  0
SEQEND
  0
ENDSEC
  0
EOF
