   0
SECTION
  2
HEADER
  9
$ACADVER
  1
AC1006
  9
$INSBASE
 10
0.0
 20
0.0
 30
0.0
  9
$EXTMIN
 10
0
 20
0
  9
$EXTMAX
 10
2.000000
 20
2.660661
  9
$LUNITS
 70
     2
 9
$VIEWCTR
 10
1.000000 
 20
1.330330
  9
$VIEWSIZE
	40
2.660661
  0
ENDSEC
  0
SECTION
  2
TABLES
  0
TABLE
  2
LAYER
 70
     9
  0
LAYER
  2
0
 70
     0
 62
     5
  6
CONTINUOUS
  0
LAYER
  2
1
 70
     0
 62
     1
  6
CONTINUOUS
  0
LAYER
  2
2
 70
     0
 62
     6
  6
CONTINUOUS
  0
LAYER
  2
3
 70
     0
 62
     6
  6
CONTINUOUS
  0
ENDTAB
  0
TABLE
  2
VPORT
 70
     2
  0
VPORT
  2
*ACTIVE
 70
     0
10
0.0
 20
0.0
11
2.000000
 21
2.660661
12
1.000000
 22
1.330330
13
0.0
 23
0.0
 14
1.0
 24
1.0
 15
0.0
 25
0.0
 16
0.0
 26
 0.0
  36
1.0
  17
0.0
 27
0.0
 37
0.0
40
2.660661
41
2.669565217391304
42
50.0
 43
0.0
 44
0.0
 50
0.0
 51
0.0
71
     0
 72
   100
 73
     1
 74
     1
 75
     0
76
     0
 77
     0
 78
     0
  0
ENDTAB
  0
ENDSEC
  0
SECTION
  2
ENTITIES
  0
POLYLINE
  8
0
  6
CONTINUOUS
 66
  1
 70
  1
  0
VERTEX
  8
0
  10
0.35135
  20
2.57357
  0
VERTEX
  8
0
  10
0.34857
  20
2.57133
  0
VERTEX
  8
0
  10
0.34566
  20
2.56826
  0
VERTEX
  8
0
  10
0.34268
  20
2.56444
  0
VERTEX
  8
0
  10
0.33968
  20
2.55993
  0
VERTEX
  8
0
  10
0.33671
  20
2.55480
  0
VERTEX
  8
0
  10
0.33384
  20
2.54914
  0
VERTEX
  8
0
  10
0.33111
  20
2.54301
  0
VERTEX
  8
0
  10
0.32858
  20
2.53648
  0
VERTEX
  8
0
  10
0.32630
  20
2.52963
  0
VERTEX
  8
0
  10
0.32432
  20
2.52252
  0
VERTEX
  8
0
  10
0.32342
  20
2.52064
  0
VERTEX
  8
0
  10
0.32252
  20
2.51861
  0
VERTEX
  8
0
  10
0.32162
  20
2.51647
  0
VERTEX
  8
0
  10
0.32072
  20
2.51426
  0
VERTEX
  8
0
  10
0.31982
  20
2.51201
  0
VERTEX
  8
0
  10
0.31892
  20
2.50977
  0
VERTEX
  8
0
  10
0.31802
  20
2.50756
  0
VERTEX
  8
0
  10
0.31712
  20
2.50542
  0
VERTEX
  8
0
  10
0.31622
  20
2.50339
  0
VERTEX
  8
0
  10
0.31532
  20
2.50150
  0
VERTEX
  8
0
  10
0.30631
  20
2.46847
  0
VERTEX
  8
0
  10
0.29429
  20
2.42943
  0
VERTEX
  8
0
  10
0.27928
  20
2.36937
  0
VERTEX
  8
0
  10
0.27911
  20
2.36731
  0
VERTEX
  8
0
  10
0.27861
  20
2.36476
  0
VERTEX
  8
0
  10
0.27782
  20
2.36177
  0
VERTEX
  8
0
  10
0.27678
  20
2.35841
  0
VERTEX
  8
0
  10
0.27553
  20
2.35473
  0
VERTEX
  8
0
  10
0.27409
  20
2.35077
  0
VERTEX
  8
0
  10
0.27251
  20
2.34660
  0
VERTEX
  8
0
  10
0.27082
  20
2.34227
  0
VERTEX
  8
0
  10
0.26906
  20
2.33783
  0
VERTEX
  8
0
  10
0.26727
  20
2.33333
  0
VERTEX
  8
0
  10
0.26629
  20
2.32876
  0
VERTEX
  8
0
  10
0.26518
  20
2.32411
  0
VERTEX
  8
0
  10
0.26400
  20
2.31950
  0
VERTEX
  8
0
  10
0.26280
  20
2.31503
  0
VERTEX
  8
0
  10
0.26164
  20
2.31081
  0
VERTEX
  8
0
  10
0.26056
  20
2.30695
  0
VERTEX
  8
0
  10
0.25964
  20
2.30357
  0
VERTEX
  8
0
  10
0.25891
  20
2.30076
  0
VERTEX
  8
0
  10
0.25843
  20
2.29863
  0
VERTEX
  8
0
  10
0.25826
  20
2.29730
  0
VERTEX
  8
0
  10
0.25225
  20
2.27628
  0
VERTEX
  8
0
  10
0.25217
  20
2.27457
  0
VERTEX
  8
0
  10
0.25192
  20
2.27306
  0
VERTEX
  8
0
  10
0.25152
  20
2.27176
  0
VERTEX
  8
0
  10
0.25100
  20
2.27070
  0
VERTEX
  8
0
  10
0.25038
  20
2.26989
  0
VERTEX
  8
0
  10
0.24966
  20
2.26936
  0
VERTEX
  8
0
  10
0.24887
  20
2.26911
  0
VERTEX
  8
0
  10
0.24802
  20
2.26917
  0
VERTEX
  8
0
  10
0.24714
  20
2.26955
  0
VERTEX
  8
0
  10
0.24625
  20
2.27027
  0
VERTEX
  8
0
  10
0.24300
  20
2.27199
  0
VERTEX
  8
0
  10
0.24046
  20
2.27685
  0
VERTEX
  8
0
  10
0.23860
  20
2.28438
  0
VERTEX
  8
0
  10
0.23741
  20
2.29410
  0
VERTEX
  8
0
  10
0.23686
  20
2.30556
  0
VERTEX
  8
0
  10
0.23695
  20
2.31827
  0
VERTEX
  8
0
  10
0.23765
  20
2.33178
  0
VERTEX
  8
0
  10
0.23894
  20
2.34561
  0
VERTEX
  8
0
  10
0.24081
  20
2.35930
  0
VERTEX
  8
0
  10
0.24324
  20
2.37237
  0
VERTEX
  8
0
  10
0.24406
  20
2.37515
  0
VERTEX
  8
0
  10
0.24471
  20
2.37804
  0
VERTEX
  8
0
  10
0.24522
  20
2.38097
  0
VERTEX
  8
0
  10
0.24560
  20
2.38386
  0
VERTEX
  8
0
  10
0.24587
  20
2.38664
  0
VERTEX
  8
0
  10
0.24605
  20
2.38924
  0
VERTEX
  8
0
  10
0.24617
  20
2.39159
  0
VERTEX
  8
0
  10
0.24622
  20
2.39361
  0
VERTEX
  8
0
  10
0.24624
  20
2.39524
  0
VERTEX
  8
0
  10
0.24625
  20
2.39640
  0
VERTEX
  8
0
  10
0.24561
  20
2.39856
  0
VERTEX
  8
0
  10
0.24550
  20
2.40149
  0
VERTEX
  8
0
  10
0.24589
  20
2.40521
  0
VERTEX
  8
0
  10
0.24677
  20
2.40975
  0
VERTEX
  8
0
  10
0.24812
  20
2.41517
  0
VERTEX
  8
0
  10
0.24992
  20
2.42148
  0
VERTEX
  8
0
  10
0.25215
  20
2.42873
  0
VERTEX
  8
0
  10
0.25480
  20
2.43695
  0
VERTEX
  8
0
  10
0.25784
  20
2.44618
  0
VERTEX
  8
0
  10
0.26126
  20
2.45646
  0
VERTEX
  8
0
  10
0.26939
  20
2.48259
  0
VERTEX
  8
0
  10
0.27587
  20
2.50371
  0
VERTEX
  8
0
  10
0.28083
  20
2.52040
  0
VERTEX
  8
0
  10
0.28442
  20
2.53324
  0
VERTEX
  8
0
  10
0.28679
  20
2.54279
  0
VERTEX
  8
0
  10
0.28807
  20
2.54965
  0
VERTEX
  8
0
  10
0.28842
  20
2.55437
  0
VERTEX
  8
0
  10
0.28798
  20
2.55755
  0
VERTEX
  8
0
  10
0.28688
  20
2.55975
  0
VERTEX
  8
0
  10
0.28529
  20
2.56156
  0
VERTEX
  8
0
  10
0.28348
  20
2.56318
  0
VERTEX
  8
0
  10
0.28163
  20
2.56440
  0
VERTEX
  8
0
  10
0.27972
  20
2.56518
  0
VERTEX
  8
0
  10
0.27769
  20
2.56550
  0
VERTEX
  8
0
  10
0.27553
  20
2.56532
  0
VERTEX
  8
0
  10
0.27318
  20
2.56459
  0
VERTEX
  8
0
  10
0.27061
  20
2.56329
  0
VERTEX
  8
0
  10
0.26780
  20
2.56137
  0
VERTEX
  8
0
  10
0.26469
  20
2.55880
  0
VERTEX
  8
0
  10
0.26126
  20
2.55556
  0
VERTEX
  8
0
  10
0.25521
  20
2.54887
  0
VERTEX
  8
0
  10
0.24961
  20
2.54136
  0
VERTEX
  8
0
  10
0.24437
  20
2.53291
  0
VERTEX
  8
0
  10
0.23940
  20
2.52341
  0
VERTEX
  8
0
  10
0.23461
  20
2.51276
  0
VERTEX
  8
0
  10
0.22991
  20
2.50085
  0
VERTEX
  8
0
  10
0.22521
  20
2.48757
  0
VERTEX
  8
0
  10
0.22042
  20
2.47282
  0
VERTEX
  8
0
  10
0.21545
  20
2.45647
  0
VERTEX
  8
0
  10
0.21021
  20
2.43844
  0
VERTEX
  8
0
  10
0.20923
  20
2.43232
  0
VERTEX
  8
0
  10
0.20812
  20
2.42662
  0
VERTEX
  8
0
  10
0.20694
  20
2.42138
  0
VERTEX
  8
0
  10
0.20574
  20
2.41667
  0
VERTEX
  8
0
  10
0.20458
  20
2.41254
  0
VERTEX
  8
0
  10
0.20351
  20
2.40903
  0
VERTEX
  8
0
  10
0.20258
  20
2.40621
  0
VERTEX
  8
0
  10
0.20185
  20
2.40413
  0
VERTEX
  8
0
  10
0.20137
  20
2.40284
  0
VERTEX
  8
0
  10
0.20120
  20
2.40240
  0
VERTEX
  8
0
  10
0.20022
  20
2.39966
  0
VERTEX
  8
0
  10
0.19909
  20
2.39524
  0
VERTEX
  8
0
  10
0.19785
  20
2.38946
  0
VERTEX
  8
0
  10
0.19654
  20
2.38261
  0
VERTEX
  8
0
  10
0.19520
  20
2.37500
  0
VERTEX
  8
0
  10
0.19385
  20
2.36694
  0
VERTEX
  8
0
  10
0.19254
  20
2.35874
  0
VERTEX
  8
0
  10
0.19130
  20
2.35070
  0
VERTEX
  8
0
  10
0.19017
  20
2.34313
  0
VERTEX
  8
0
  10
0.18919
  20
2.33634
  0
VERTEX
  8
0
  10
0.18838
  20
2.32868
  0
VERTEX
  8
0
  10
0.18775
  20
2.31873
  0
VERTEX
  8
0
  10
0.18730
  20
2.30704
  0
VERTEX
  8
0
  10
0.18703
  20
2.29420
  0
VERTEX
  8
0
  10
0.18694
  20
2.28078
  0
VERTEX
  8
0
  10
0.18703
  20
2.26736
  0
VERTEX
  8
0
  10
0.18730
  20
2.25452
  0
VERTEX
  8
0
  10
0.18775
  20
2.24283
  0
VERTEX
  8
0
  10
0.18838
  20
2.23288
  0
VERTEX
  8
0
  10
0.18919
  20
2.22523
  0
VERTEX
  8
0
  10
0.18927
  20
2.22235
  0
VERTEX
  8
0
  10
0.18950
  20
2.21917
  0
VERTEX
  8
0
  10
0.18984
  20
2.21574
  0
VERTEX
  8
0
  10
0.19025
  20
2.21211
  0
VERTEX
  8
0
  10
0.19069
  20
2.20833
  0
VERTEX
  8
0
  10
0.19114
  20
2.20447
  0
VERTEX
  8
0
  10
0.19154
  20
2.20057
  0
VERTEX
  8
0
  10
0.19188
  20
2.19668
  0
VERTEX
  8
0
  10
0.19211
  20
2.19287
  0
VERTEX
  8
0
  10
0.19219
  20
2.18919
  0
VERTEX
  8
0
  10
0.19520
  20
2.16817
  0
VERTEX
  8
0
  10
0.18018
  20
2.15015
  0
VERTEX
  8
0
  10
0.15315
  20
2.10811
  0
VERTEX
  8
0
  10
0.12613
  20
2.04204
  0
VERTEX
  8
0
  10
0.12532
  20
2.03437
  0
VERTEX
  8
0
  10
0.12471
  20
2.02285
  0
VERTEX
  8
0
  10
0.12432
  20
2.00847
  0
VERTEX
  8
0
  10
0.12416
  20
1.99226
  0
VERTEX
  8
0
  10
0.12425
  20
1.97523
  0
VERTEX
  8
0
  10
0.12461
  20
1.95837
  0
VERTEX
  8
0
  10
0.12526
  20
1.94270
  0
VERTEX
  8
0
  10
0.12622
  20
1.92923
  0
VERTEX
  8
0
  10
0.12750
  20
1.91896
  0
VERTEX
  8
0
  10
0.12913
  20
1.91291
  0
VERTEX
  8
0
  10
0.13003
  20
1.91094
  0
VERTEX
  8
0
  10
0.13093
  20
1.90868
  0
VERTEX
  8
0
  10
0.13183
  20
1.90621
  0
VERTEX
  8
0
  10
0.13273
  20
1.90359
  0
VERTEX
  8
0
  10
0.13363
  20
1.90090
  0
VERTEX
  8
0
  10
0.13453
  20
1.89821
  0
VERTEX
  8
0
  10
0.13544
  20
1.89559
  0
VERTEX
  8
0
  10
0.13634
  20
1.89312
  0
VERTEX
  8
0
  10
0.13724
  20
1.89086
  0
VERTEX
  8
0
  10
0.13814
  20
1.88889
  0
VERTEX
  8
0
  10
0.13965
  20
1.88469
  0
VERTEX
  8
0
  10
0.14227
  20
1.87942
  0
VERTEX
  8
0
  10
0.14587
  20
1.87329
  0
VERTEX
  8
0
  10
0.15029
  20
1.86650
  0
VERTEX
  8
0
  10
0.15541
  20
1.85923
  0
VERTEX
  8
0
  10
0.16106
  20
1.85170
  0
VERTEX
  8
0
  10
0.16711
  20
1.84409
  0
VERTEX
  8
0
  10
0.17341
  20
1.83661
  0
VERTEX
  8
0
  10
0.17981
  20
1.82946
  0
VERTEX
  8
0
  10
0.18619
  20
1.82282
  0
VERTEX
  8
0
  10
0.19049
  20
1.81788
  0
VERTEX
  8
0
  10
0.19613
  20
1.81213
  0
VERTEX
  8
0
  10
0.20300
  20
1.80566
  0
VERTEX
  8
0
  10
0.21098
  20
1.79856
  0
VERTEX
  8
0
  10
0.21997
  20
1.79092
  0
VERTEX
  8
0
  10
0.22986
  20
1.78282
  0
VERTEX
  8
0
  10
0.24055
  20
1.77437
  0
VERTEX
  8
0
  10
0.25192
  20
1.76565
  0
VERTEX
  8
0
  10
0.26386
  20
1.75674
  0
VERTEX
  8
0
  10
0.27628
  20
1.74775
  0
VERTEX
  8
0
  10
0.28034
  20
1.74439
  0
VERTEX
  8
0
  10
0.28356
  20
1.74145
  0
VERTEX
  8
0
  10
0.28598
  20
1.73880
  0
VERTEX
  8
0
  10
0.28766
  20
1.73631
  0
VERTEX
  8
0
  10
0.28866
  20
1.73386
  0
VERTEX
  8
0
  10
0.28903
  20
1.73132
  0
VERTEX
  8
0
  10
0.28883
  20
1.72856
  0
VERTEX
  8
0
  10
0.28810
  20
1.72545
  0
VERTEX
  8
0
  10
0.28690
  20
1.72188
  0
VERTEX
  8
0
  10
0.28529
  20
1.71772
  0
VERTEX
  8
0
  10
0.28377
  20
1.71391
  0
VERTEX
  8
0
  10
0.28288
  20
1.70960
  0
VERTEX
  8
0
  10
0.28272
  20
1.70464
  0
VERTEX
  8
0
  10
0.28336
  20
1.69888
  0
VERTEX
  8
0
  10
0.28491
  20
1.69219
  0
VERTEX
  8
0
  10
0.28745
  20
1.68442
  0
VERTEX
  8
0
  10
0.29107
  20
1.67542
  0
VERTEX
  8
0
  10
0.29586
  20
1.66506
  0
VERTEX
  8
0
  10
0.30191
  20
1.65318
  0
VERTEX
  8
0
  10
0.30931
  20
1.63964
  0
VERTEX
  8
0
  10
0.31529
  20
1.62625
  0
VERTEX
  8
0
  10
0.32074
  20
1.61468
  0
VERTEX
  8
0
  10
0.32588
  20
1.60459
  0
VERTEX
  8
0
  10
0.33088
  20
1.59563
  0
VERTEX
  8
0
  10
0.33596
  20
1.58746
  0
VERTEX
  8
0
  10
0.34131
  20
1.57975
  0
VERTEX
  8
0
  10
0.34713
  20
1.57214
  0
VERTEX
  8
0
  10
0.35361
  20
1.56430
  0
VERTEX
  8
0
  10
0.36096
  20
1.55588
  0
VERTEX
  8
0
  10
0.36937
  20
1.54655
  0
VERTEX
  8
0
  10
0.37361
  20
1.54212
  0
VERTEX
  8
0
  10
0.37737
  20
1.53783
  0
VERTEX
  8
0
  10
0.38069
  20
1.53360
  0
VERTEX
  8
0
  10
0.38364
  20
1.52939
  0
VERTEX
  8
0
  10
0.38626
  20
1.52515
  0
VERTEX
  8
0
  10
0.38861
  20
1.52082
  0
VERTEX
  8
0
  10
0.39075
  20
1.51634
  0
VERTEX
  8
0
  10
0.39272
  20
1.51166
  0
VERTEX
  8
0
  10
0.39459
  20
1.50674
  0
VERTEX
  8
0
  10
0.39640
  20
1.50150
  0
VERTEX
  8
0
  10
0.39821
  20
1.49644
  0
VERTEX
  8
0
  10
0.40007
  20
1.49196
  0
VERTEX
  8
0
  10
0.40205
  20
1.48796
  0
VERTEX
  8
0
  10
0.40418
  20
1.48430
  0
VERTEX
  8
0
  10
0.40653
  20
1.48086
  0
VERTEX
  8
0
  10
0.40915
  20
1.47750
  0
VERTEX
  8
0
  10
0.41210
  20
1.47411
  0
VERTEX
  8
0
  10
0.41542
  20
1.47056
  0
VERTEX
  8
0
  10
0.41918
  20
1.46672
  0
VERTEX
  8
0
  10
0.42342
  20
1.46246
  0
VERTEX
  8
0
  10
0.42787
  20
1.45812
  0
VERTEX
  8
0
  10
0.43234
  20
1.45403
  0
VERTEX
  8
0
  10
0.43702
  20
1.45008
  0
VERTEX
  8
0
  10
0.44211
  20
1.44617
  0
VERTEX
  8
0
  10
0.44782
  20
1.44219
  0
VERTEX
  8
0
  10
0.45434
  20
1.43803
  0
VERTEX
  8
0
  10
0.46187
  20
1.43358
  0
VERTEX
  8
0
  10
0.47061
  20
1.42873
  0
VERTEX
  8
0
  10
0.48075
  20
1.42338
  0
VERTEX
  8
0
  10
0.49249
  20
1.41742
  0
VERTEX
  8
0
  10
0.55255
  20
1.38438
  0
VERTEX
  8
0
  10
0.55568
  20
1.38250
  0
VERTEX
  8
0
  10
0.55952
  20
1.38052
  0
VERTEX
  8
0
  10
0.56390
  20
1.37849
  0
VERTEX
  8
0
  10
0.56865
  20
1.37650
  0
VERTEX
  8
0
  10
0.57357
  20
1.37462
  0
VERTEX
  8
0
  10
0.57850
  20
1.37292
  0
VERTEX
  8
0
  10
0.58324
  20
1.37148
  0
VERTEX
  8
0
  10
0.58763
  20
1.37035
  0
VERTEX
  8
0
  10
0.59147
  20
1.36963
  0
VERTEX
  8
0
  10
0.59459
  20
1.36937
  0
VERTEX
  8
0
  10
0.59648
  20
1.36937
  0
VERTEX
  8
0
  10
0.59853
  20
1.36935
  0
VERTEX
  8
0
  10
0.60073
  20
1.36929
  0
VERTEX
  8
0
  10
0.60305
  20
1.36918
  0
VERTEX
  8
0
  10
0.60548
  20
1.36899
  0
VERTEX
  8
0
  10
0.60800
  20
1.36872
  0
VERTEX
  8
0
  10
0.61059
  20
1.36834
  0
VERTEX
  8
0
  10
0.61324
  20
1.36783
  0
VERTEX
  8
0
  10
0.61592
  20
1.36718
  0
VERTEX
  8
0
  10
0.61862
  20
1.36637
  0
VERTEX
  8
0
  10
0.62278
  20
1.36545
  0
VERTEX
  8
0
  10
0.62633
  20
1.36447
  0
VERTEX
  8
0
  10
0.62938
  20
1.36334
  0
VERTEX
  8
0
  10
0.63202
  20
1.36199
  0
VERTEX
  8
0
  10
0.63438
  20
1.36036
  0
VERTEX
  8
0
  10
0.63656
  20
1.35837
  0
VERTEX
  8
0
  10
0.63867
  20
1.35594
  0
VERTEX
  8
0
  10
0.64082
  20
1.35301
  0
VERTEX
  8
0
  10
0.64311
  20
1.34950
  0
VERTEX
  8
0
  10
0.64565
  20
1.34535
  0
VERTEX
  8
0
  10
0.65142
  20
1.33693
  0
VERTEX
  8
0
  10
0.65614
  20
1.32956
  0
VERTEX
  8
0
  10
0.65986
  20
1.32302
  0
VERTEX
  8
0
  10
0.66261
  20
1.31709
  0
VERTEX
  8
0
  10
0.66441
  20
1.31156
  0
VERTEX
  8
0
  10
0.66532
  20
1.30621
  0
VERTEX
  8
0
  10
0.66536
  20
1.30082
  0
VERTEX
  8
0
  10
0.66458
  20
1.29518
  0
VERTEX
  8
0
  10
0.66300
  20
1.28908
  0
VERTEX
  8
0
  10
0.66066
  20
1.28228
  0
VERTEX
  8
0
  10
0.65642
  20
1.26840
  0
VERTEX
  8
0
  10
0.65271
  20
1.25552
  0
VERTEX
  8
0
  10
0.64950
  20
1.24358
  0
VERTEX
  8
0
  10
0.64677
  20
1.23250
  0
VERTEX
  8
0
  10
0.64452
  20
1.22222
  0
VERTEX
  8
0
  10
0.64271
  20
1.21266
  0
VERTEX
  8
0
  10
0.64134
  20
1.20375
  0
VERTEX
  8
0
  10
0.64038
  20
1.19541
  0
VERTEX
  8
0
  10
0.63982
  20
1.18758
  0
VERTEX
  8
0
  10
0.63964
  20
1.18018
  0
VERTEX
  8
0
  10
0.63972
  20
1.17659
  0
VERTEX
  8
0
  10
0.63995
  20
1.17307
  0
VERTEX
  8
0
  10
0.64029
  20
1.16969
  0
VERTEX
  8
0
  10
0.64070
  20
1.16653
  0
VERTEX
  8
0
  10
0.64114
  20
1.16366
  0
VERTEX
  8
0
  10
0.64159
  20
1.16115
  0
VERTEX
  8
0
  10
0.64199
  20
1.15908
  0
VERTEX
  8
0
  10
0.64233
  20
1.15750
  0
VERTEX
  8
0
  10
0.64256
  20
1.15650
  0
VERTEX
  8
0
  10
0.64264
  20
1.15616
  0
VERTEX
  8
0
  10
0.64362
  20
1.15270
  0
VERTEX
  8
0
  10
0.64471
  20
1.14794
  0
VERTEX
  8
0
  10
0.64583
  20
1.14221
  0
VERTEX
  8
0
  10
0.64692
  20
1.13583
  0
VERTEX
  8
0
  10
0.64790
  20
1.12913
  0
VERTEX
  8
0
  10
0.64870
  20
1.12243
  0
VERTEX
  8
0
  10
0.64924
  20
1.11605
  0
VERTEX
  8
0
  10
0.64947
  20
1.11032
  0
VERTEX
  8
0
  10
0.64929
  20
1.10556
  0
VERTEX
  8
0
  10
0.64865
  20
1.10210
  0
VERTEX
  8
0
  10
0.64720
  20
1.09633
  0
VERTEX
  8
0
  10
0.64639
  20
1.08836
  0
VERTEX
  8
0
  10
0.64616
  20
1.07870
  0
VERTEX
  8
0
  10
0.64644
  20
1.06784
  0
VERTEX
  8
0
  10
0.64715
  20
1.05631
  0
VERTEX
  8
0
  10
0.64822
  20
1.04459
  0
VERTEX
  8
0
  10
0.64957
  20
1.03320
  0
VERTEX
  8
0
  10
0.65115
  20
1.02263
  0
VERTEX
  8
0
  10
0.65286
  20
1.01340
  0
VERTEX
  8
0
  10
0.65465
  20
1.00601
  0
VERTEX
  8
0
  10
0.65619
  20
1.00159
  0
VERTEX
  8
0
  10
0.65723
  20
0.99736
  0
VERTEX
  8
0
  10
0.65779
  20
0.99330
  0
VERTEX
  8
0
  10
0.65792
  20
0.98943
  0
VERTEX
  8
0
  10
0.65766
  20
0.98574
  0
VERTEX
  8
0
  10
0.65703
  20
0.98222
  0
VERTEX
  8
0
  10
0.65608
  20
0.97889
  0
VERTEX
  8
0
  10
0.65485
  20
0.97574
  0
VERTEX
  8
0
  10
0.65336
  20
0.97276
  0
VERTEX
  8
0
  10
0.65165
  20
0.96997
  0
VERTEX
  8
0
  10
0.65057
  20
0.96927
  0
VERTEX
  8
0
  10
0.64915
  20
0.96723
  0
VERTEX
  8
0
  10
0.64741
  20
0.96397
  0
VERTEX
  8
0
  10
0.64536
  20
0.95959
  0
VERTEX
  8
0
  10
0.64302
  20
0.95420
  0
VERTEX
  8
0
  10
0.64041
  20
0.94792
  0
VERTEX
  8
0
  10
0.63755
  20
0.94083
  0
VERTEX
  8
0
  10
0.63445
  20
0.93307
  0
VERTEX
  8
0
  10
0.63114
  20
0.92473
  0
VERTEX
  8
0
  10
0.62763
  20
0.91592
  0
VERTEX
  8
0
  10
0.62159
  20
0.90186
  0
VERTEX
  8
0
  10
0.61610
  20
0.88850
  0
VERTEX
  8
0
  10
0.61114
  20
0.87583
  0
VERTEX
  8
0
  10
0.60673
  20
0.86383
  0
VERTEX
  8
0
  10
0.60285
  20
0.85248
  0
VERTEX
  8
0
  10
0.59952
  20
0.84175
  0
VERTEX
  8
0
  10
0.59673
  20
0.83164
  0
VERTEX
  8
0
  10
0.59447
  20
0.82213
  0
VERTEX
  8
0
  10
0.59276
  20
0.81319
  0
VERTEX
  8
0
  10
0.59159
  20
0.80480
  0
VERTEX
  8
0
  10
0.59151
  20
0.80292
  0
VERTEX
  8
0
  10
0.59128
  20
0.80091
  0
VERTEX
  8
0
  10
0.59094
  20
0.79883
  0
VERTEX
  8
0
  10
0.59053
  20
0.79673
  0
VERTEX
  8
0
  10
0.59009
  20
0.79467
  0
VERTEX
  8
0
  10
0.58965
  20
0.79270
  0
VERTEX
  8
0
  10
0.58924
  20
0.79087
  0
VERTEX
  8
0
  10
0.58890
  20
0.78924
  0
VERTEX
  8
0
  10
0.58867
  20
0.78786
  0
VERTEX
  8
0
  10
0.58859
  20
0.78679
  0
VERTEX
  8
0
  10
0.58850
  20
0.78571
  0
VERTEX
  8
0
  10
0.58828
  20
0.78434
  0
VERTEX
  8
0
  10
0.58794
  20
0.78271
  0
VERTEX
  8
0
  10
0.58753
  20
0.78088
  0
VERTEX
  8
0
  10
0.58709
  20
0.77890
  0
VERTEX
  8
0
  10
0.58664
  20
0.77684
  0
VERTEX
  8
0
  10
0.58623
  20
0.77474
  0
VERTEX
  8
0
  10
0.58590
  20
0.77266
  0
VERTEX
  8
0
  10
0.58567
  20
0.77065
  0
VERTEX
  8
0
  10
0.58559
  20
0.76877
  0
VERTEX
  8
0
  10
0.58558
  20
0.76680
  0
VERTEX
  8
0
  10
0.58556
  20
0.76452
  0
VERTEX
  8
0
  10
0.58550
  20
0.76199
  0
VERTEX
  8
0
  10
0.58539
  20
0.75926
  0
VERTEX
  8
0
  10
0.58521
  20
0.75638
  0
VERTEX
  8
0
  10
0.58494
  20
0.75342
  0
VERTEX
  8
0
  10
0.58456
  20
0.75042
  0
VERTEX
  8
0
  10
0.58405
  20
0.74744
  0
VERTEX
  8
0
  10
0.58340
  20
0.74453
  0
VERTEX
  8
0
  10
0.58258
  20
0.74174
  0
VERTEX
  8
0
  10
0.58168
  20
0.73986
  0
VERTEX
  8
0
  10
0.58080
  20
0.73787
  0
VERTEX
  8
0
  10
0.57996
  20
0.73585
  0
VERTEX
  8
0
  10
0.57917
  20
0.73386
  0
VERTEX
  8
0
  10
0.57845
  20
0.73198
  0
VERTEX
  8
0
  10
0.57783
  20
0.73028
  0
VERTEX
  8
0
  10
0.57731
  20
0.72883
  0
VERTEX
  8
0
  10
0.57691
  20
0.72771
  0
VERTEX
  8
0
  10
0.57666
  20
0.72698
  0
VERTEX
  8
0
  10
0.57658
  20
0.72673
  0
VERTEX
  8
0
  10
0.57658
  20
0.70871
  0
VERTEX
  8
0
  10
0.57495
  20
0.70361
  0
VERTEX
  8
0
  10
0.57367
  20
0.69744
  0
VERTEX
  8
0
  10
0.57271
  20
0.69041
  0
VERTEX
  8
0
  10
0.57206
  20
0.68271
  0
VERTEX
  8
0
  10
0.57170
  20
0.67455
  0
VERTEX
  8
0
  10
0.57160
  20
0.66611
  0
VERTEX
  8
0
  10
0.57176
  20
0.65761
  0
VERTEX
  8
0
  10
0.57216
  20
0.64923
  0
VERTEX
  8
0
  10
0.57277
  20
0.64117
  0
VERTEX
  8
0
  10
0.57357
  20
0.63363
  0
VERTEX
  8
0
  10
0.57366
  20
0.63158
  0
VERTEX
  8
0
  10
0.57389
  20
0.62907
  0
VERTEX
  8
0
  10
0.57422
  20
0.62620
  0
VERTEX
  8
0
  10
0.57463
  20
0.62306
  0
VERTEX
  8
0
  10
0.57508
  20
0.61974
  0
VERTEX
  8
0
  10
0.57552
  20
0.61634
  0
VERTEX
  8
0
  10
0.57593
  20
0.61293
  0
VERTEX
  8
0
  10
0.57626
  20
0.60961
  0
VERTEX
  8
0
  10
0.57649
  20
0.60647
  0
VERTEX
  8
0
  10
0.57658
  20
0.60360
  0
VERTEX
  8
0
  10
0.57666
  20
0.60082
  0
VERTEX
  8
0
  10
0.57691
  20
0.59791
  0
VERTEX
  8
0
  10
0.57731
  20
0.59493
  0
VERTEX
  8
0
  10
0.57783
  20
0.59193
  0
VERTEX
  8
0
  10
0.57845
  20
0.58896
  0
VERTEX
  8
0
  10
0.57917
  20
0.58609
  0
VERTEX
  8
0
  10
0.57996
  20
0.58336
  0
VERTEX
  8
0
  10
0.58080
  20
0.58083
  0
VERTEX
  8
0
  10
0.58168
  20
0.57855
  0
VERTEX
  8
0
  10
0.58258
  20
0.57658
  0
VERTEX
  8
0
  10
0.58340
  20
0.57469
  0
VERTEX
  8
0
  10
0.58405
  20
0.57266
  0
VERTEX
  8
0
  10
0.58456
  20
0.57052
  0
VERTEX
  8
0
  10
0.58494
  20
0.56831
  0
VERTEX
  8
0
  10
0.58521
  20
0.56607
  0
VERTEX
  8
0
  10
0.58539
  20
0.56382
  0
VERTEX
  8
0
  10
0.58550
  20
0.56161
  0
VERTEX
  8
0
  10
0.58556
  20
0.55947
  0
VERTEX
  8
0
  10
0.58558
  20
0.55744
  0
VERTEX
  8
0
  10
0.58559
  20
0.55556
  0
VERTEX
  8
0
  10
0.58567
  20
0.55376
  0
VERTEX
  8
0
  10
0.58590
  20
0.55200
  0
VERTEX
  8
0
  10
0.58623
  20
0.55031
  0
VERTEX
  8
0
  10
0.58664
  20
0.54873
  0
VERTEX
  8
0
  10
0.58709
  20
0.54730
  0
VERTEX
  8
0
  10
0.58753
  20
0.54604
  0
VERTEX
  8
0
  10
0.58794
  20
0.54500
  0
VERTEX
  8
0
  10
0.58828
  20
0.54422
  0
VERTEX
  8
0
  10
0.58850
  20
0.54372
  0
VERTEX
  8
0
  10
0.58859
  20
0.54354
  0
VERTEX
  8
0
  10
0.58867
  20
0.54247
  0
VERTEX
  8
0
  10
0.58890
  20
0.54107
  0
VERTEX
  8
0
  10
0.58924
  20
0.53938
  0
VERTEX
  8
0
  10
0.58965
  20
0.53744
  0
VERTEX
  8
0
  10
0.59009
  20
0.53529
  0
VERTEX
  8
0
  10
0.59053
  20
0.53295
  0
VERTEX
  8
0
  10
0.59094
  20
0.53047
  0
VERTEX
  8
0
  10
0.59128
  20
0.52788
  0
VERTEX
  8
0
  10
0.59151
  20
0.52522
  0
VERTEX
  8
0
  10
0.59159
  20
0.52252
  0
VERTEX
  8
0
  10
0.59275
  20
0.51678
  0
VERTEX
  8
0
  10
0.59440
  20
0.51046
  0
VERTEX
  8
0
  10
0.59648
  20
0.50371
  0
VERTEX
  8
0
  10
0.59894
  20
0.49667
  0
VERTEX
  8
0
  10
0.60173
  20
0.48949
  0
VERTEX
  8
0
  10
0.60478
  20
0.48231
  0
VERTEX
  8
0
  10
0.60805
  20
0.47527
  0
VERTEX
  8
0
  10
0.61148
  20
0.46852
  0
VERTEX
  8
0
  10
0.61502
  20
0.46220
  0
VERTEX
  8
0
  10
0.61862
  20
0.45646
  0
VERTEX
  8
0
  10
0.61960
  20
0.45458
  0
VERTEX
  8
0
  10
0.62071
  20
0.45259
  0
VERTEX
  8
0
  10
0.62189
  20
0.45056
  0
VERTEX
  8
0
  10
0.62309
  20
0.44858
  0
VERTEX
  8
0
  10
0.62425
  20
0.44670
  0
VERTEX
  8
0
  10
0.62532
  20
0.44500
  0
VERTEX
  8
0
  10
0.62625
  20
0.44355
  0
VERTEX
  8
0
  10
0.62698
  20
0.44243
  0
VERTEX
  8
0
  10
0.62746
  20
0.44170
  0
VERTEX
  8
0
  10
0.62763
  20
0.44144
  0
VERTEX
  8
0
  10
0.62763
  20
0.44054
  0
VERTEX
  8
0
  10
0.62768
  20
0.43964
  0
VERTEX
  8
0
  10
0.62779
  20
0.43874
  0
VERTEX
  8
0
  10
0.62801
  20
0.43784
  0
VERTEX
  8
0
  10
0.62838
  20
0.43694
  0
VERTEX
  8
0
  10
0.62892
  20
0.43604
  0
VERTEX
  8
0
  10
0.62969
  20
0.43514
  0
VERTEX
  8
0
  10
0.63070
  20
0.43423
  0
VERTEX
  8
0
  10
0.63201
  20
0.43333
  0
VERTEX
  8
0
  10
0.63363
  20
0.43243
  0
VERTEX
  8
0
  10
0.63453
  20
0.43153
  0
VERTEX
  8
0
  10
0.63541
  20
0.43063
  0
VERTEX
  8
0
  10
0.63626
  20
0.42973
  0
VERTEX
  8
0
  10
0.63705
  20
0.42883
  0
VERTEX
  8
0
  10
0.63776
  20
0.42793
  0
VERTEX
  8
0
  10
0.63839
  20
0.42703
  0
VERTEX
  8
0
  10
0.63891
  20
0.42613
  0
VERTEX
  8
0
  10
0.63930
  20
0.42523
  0
VERTEX
  8
0
  10
0.63955
  20
0.42432
  0
VERTEX
  8
0
  10
0.63964
  20
0.42342
  0
VERTEX
  8
0
  10
0.64092
  20
0.42052
  0
VERTEX
  8
0
  10
0.64447
  20
0.41569
  0
VERTEX
  8
0
  10
0.64986
  20
0.40934
  0
VERTEX
  8
0
  10
0.65665
  20
0.40190
  0
VERTEX
  8
0
  10
0.66441
  20
0.39377
  0
VERTEX
  8
0
  10
0.67272
  20
0.38537
  0
VERTEX
  8
0
  10
0.68114
  20
0.37711
  0
VERTEX
  8
0
  10
0.68923
  20
0.36942
  0
VERTEX
  8
0
  10
0.69656
  20
0.36269
  0
VERTEX
  8
0
  10
0.70270
  20
0.35736
  0
VERTEX
  8
0
  10
0.75075
  20
0.32432
  0
VERTEX
  8
0
  10
0.75614
  20
0.32154
  0
VERTEX
  8
0
  10
0.76144
  20
0.31865
  0
VERTEX
  8
0
  10
0.76656
  20
0.31573
  0
VERTEX
  8
0
  10
0.77141
  20
0.31284
  0
VERTEX
  8
0
  10
0.77590
  20
0.31006
  0
VERTEX
  8
0
  10
0.77994
  20
0.30746
  0
VERTEX
  8
0
  10
0.78344
  20
0.30511
  0
VERTEX
  8
0
  10
0.78631
  20
0.30309
  0
VERTEX
  8
0
  10
0.78845
  20
0.30146
  0
VERTEX
  8
0
  10
0.78979
  20
0.30030
  0
VERTEX
  8
0
  10
0.79095
  20
0.30013
  0
VERTEX
  8
0
  10
0.79255
  20
0.29963
  0
VERTEX
  8
0
  10
0.79452
  20
0.29884
  0
VERTEX
  8
0
  10
0.79676
  20
0.29780
  0
VERTEX
  8
0
  10
0.79917
  20
0.29655
  0
VERTEX
  8
0
  10
0.80168
  20
0.29511
  0
VERTEX
  8
0
  10
0.80419
  20
0.29353
  0
VERTEX
  8
0
  10
0.80661
  20
0.29184
  0
VERTEX
  8
0
  10
0.80884
  20
0.29008
  0
VERTEX
  8
0
  10
0.81081
  20
0.28829
  0
VERTEX
  8
0
  10
0.91592
  20
0.21922
  0
VERTEX
  8
0
  10
0.94294
  20
0.18318
  0
VERTEX
  8
0
  10
0.94784
  20
0.17505
  0
VERTEX
  8
0
  10
0.95183
  20
0.16853
  0
VERTEX
  8
0
  10
0.95511
  20
0.16345
  0
VERTEX
  8
0
  10
0.95784
  20
0.15964
  0
VERTEX
  8
0
  10
0.96021
  20
0.15691
  0
VERTEX
  8
0
  10
0.96240
  20
0.15508
  0
VERTEX
  8
0
  10
0.96459
  20
0.15396
  0
VERTEX
  8
0
  10
0.96697
  20
0.15339
  0
VERTEX
  8
0
  10
0.96970
  20
0.15318
  0
VERTEX
  8
0
  10
0.97297
  20
0.15315
  0
VERTEX
  8
0
  10
0.97641
  20
0.15243
  0
VERTEX
  8
0
  10
0.97958
  20
0.15207
  0
VERTEX
  8
0
  10
0.98257
  20
0.15207
  0
VERTEX
  8
0
  10
0.98547
  20
0.15243
  0
VERTEX
  8
0
  10
0.98836
  20
0.15315
  0
VERTEX
  8
0
  10
0.99135
  20
0.15423
  0
VERTEX
  8
0
  10
0.99452
  20
0.15568
  0
VERTEX
  8
0
  10
0.99796
  20
0.15748
  0
VERTEX
  8
0
  10
1.00176
  20
0.15964
  0
VERTEX
  8
0
  10
1.00601
  20
0.16216
  0
VERTEX
  8
0
  10
1.01971
  20
0.16974
  0
VERTEX
  8
0
  10
1.03205
  20
0.17629
  0
VERTEX
  8
0
  10
1.04309
  20
0.18186
  0
VERTEX
  8
0
  10
1.05290
  20
0.18652
  0
VERTEX
  8
0
  10
1.06156
  20
0.19032
  0
VERTEX
  8
0
  10
1.06914
  20
0.19330
  0
VERTEX
  8
0
  10
1.07571
  20
0.19552
  0
VERTEX
  8
0
  10
1.08135
  20
0.19705
  0
VERTEX
  8
0
  10
1.08611
  20
0.19792
  0
VERTEX
  8
0
  10
1.09009
  20
0.19820
  0
VERTEX
  8
0
  10
1.09582
  20
0.19809
  0
VERTEX
  8
0
  10
1.10239
  20
0.19772
  0
VERTEX
  8
0
  10
1.11012
  20
0.19698
  0
VERTEX
  8
0
  10
1.11930
  20
0.19580
  0
VERTEX
  8
0
  10
1.13026
  20
0.19407
  0
VERTEX
  8
0
  10
1.14328
  20
0.19171
  0
VERTEX
  8
0
  10
1.15868
  20
0.18863
  0
VERTEX
  8
0
  10
1.17677
  20
0.18474
  0
VERTEX
  8
0
  10
1.19785
  20
0.17995
  0
VERTEX
  8
0
  10
1.22222
  20
0.17417
  0
VERTEX
  8
0
  10
1.26126
  20
0.16216
  0
VERTEX
  8
0
  10
1.27375
  20
0.15801
  0
VERTEX
  8
0
  10
1.28440
  20
0.15450
  0
VERTEX
  8
0
  10
1.29353
  20
0.15157
  0
VERTEX
  8
0
  10
1.30148
  20
0.14914
  0
VERTEX
  8
0
  10
1.30856
  20
0.14715
  0
VERTEX
  8
0
  10
1.31510
  20
0.14551
  0
VERTEX
  8
0
  10
1.32142
  20
0.14417
  0
VERTEX
  8
0
  10
1.32786
  20
0.14304
  0
VERTEX
  8
0
  10
1.33472
  20
0.14205
  0
VERTEX
  8
0
  10
1.34234
  20
0.14114
  0
VERTEX
  8
0
  10
1.35060
  20
0.14117
  0
VERTEX
  8
0
  10
1.35757
  20
0.14133
  0
VERTEX
  8
0
  10
1.36361
  20
0.14179
  0
VERTEX
  8
0
  10
1.36906
  20
0.14268
  0
VERTEX
  8
0
  10
1.37425
  20
0.14414
  0
VERTEX
  8
0
  10
1.37953
  20
0.14633
  0
VERTEX
  8
0
  10
1.38525
  20
0.14938
  0
VERTEX
  8
0
  10
1.39174
  20
0.15344
  0
VERTEX
  8
0
  10
1.39934
  20
0.15865
  0
VERTEX
  8
0
  10
1.40841
  20
0.16517
  0
VERTEX
  8
0
  10
1.46847
  20
0.20120
  0
VERTEX
  8
0
  10
1.47842
  20
0.20619
  0
VERTEX
  8
0
  10
1.48685
  20
0.21047
  0
VERTEX
  8
0
  10
1.49401
  20
0.21426
  0
VERTEX
  8
0
  10
1.50018
  20
0.21773
  0
VERTEX
  8
0
  10
1.50563
  20
0.22110
  0
VERTEX
  8
0
  10
1.51063
  20
0.22455
  0
VERTEX
  8
0
  10
1.51545
  20
0.22830
  0
VERTEX
  8
0
  10
1.52036
  20
0.23253
  0
VERTEX
  8
0
  10
1.52563
  20
0.23744
  0
VERTEX
  8
0
  10
1.53153
  20
0.24324
  0
VERTEX
  8
0
  10
1.53586
  20
0.24767
  0
VERTEX
  8
0
  10
1.53987
  20
0.25196
  0
VERTEX
  8
0
  10
1.54359
  20
0.25619
  0
VERTEX
  8
0
  10
1.54705
  20
0.26040
  0
VERTEX
  8
0
  10
1.55030
  20
0.26464
  0
VERTEX
  8
0
  10
1.55337
  20
0.26897
  0
VERTEX
  8
0
  10
1.55629
  20
0.27345
  0
VERTEX
  8
0
  10
1.55911
  20
0.27813
  0
VERTEX
  8
0
  10
1.56186
  20
0.28305
  0
VERTEX
  8
0
  10
1.56456
  20
0.28829
  0
VERTEX
  8
0
  10
1.57658
  20
0.30931
  0
VERTEX
  8
0
  10
1.57357
  20
0.34835
  0
VERTEX
  8
0
  10
1.57658
  20
0.47147
  0
VERTEX
  8
0
  10
1.57774
  20
0.48015
  0
VERTEX
  8
0
  10
1.57936
  20
0.48975
  0
VERTEX
  8
0
  10
1.58139
  20
0.49993
  0
VERTEX
  8
0
  10
1.58374
  20
0.51034
  0
VERTEX
  8
0
  10
1.58634
  20
0.52065
  0
VERTEX
  8
0
  10
1.58912
  20
0.53050
  0
VERTEX
  8
0
  10
1.59201
  20
0.53956
  0
VERTEX
  8
0
  10
1.59493
  20
0.54748
  0
VERTEX
  8
0
  10
1.59782
  20
0.55393
  0
VERTEX
  8
0
  10
1.60060
  20
0.55856
  0
VERTEX
  8
0
  10
1.60231
  20
0.56035
  0
VERTEX
  8
0
  10
1.60384
  20
0.56211
  0
VERTEX
  8
0
  10
1.60520
  20
0.56380
  0
VERTEX
  8
0
  10
1.60637
  20
0.56538
  0
VERTEX
  8
0
  10
1.60736
  20
0.56682
  0
VERTEX
  8
0
  10
1.60817
  20
0.56807
  0
VERTEX
  8
0
  10
1.60880
  20
0.56911
  0
VERTEX
  8
0
  10
1.60925
  20
0.56990
  0
VERTEX
  8
0
  10
1.60952
  20
0.57040
  0
VERTEX
  8
0
  10
1.60961
  20
0.57057
  0
VERTEX
  8
0
  10
1.60979
  20
0.57164
  0
VERTEX
  8
0
  10
1.61031
  20
0.57302
  0
VERTEX
  8
0
  10
1.61115
  20
0.57465
  0
VERTEX
  8
0
  10
1.61230
  20
0.57648
  0
VERTEX
  8
0
  10
1.61374
  20
0.57845
  0
VERTEX
  8
0
  10
1.61545
  20
0.58052
  0
VERTEX
  8
0
  10
1.61741
  20
0.58262
  0
VERTEX
  8
0
  10
1.61960
  20
0.58470
  0
VERTEX
  8
0
  10
1.62201
  20
0.58671
  0
VERTEX
  8
0
  10
1.62462
  20
0.58859
  0
VERTEX
  8
0
  10
1.63964
  20
0.60961
  0
VERTEX
  8
0
  10
1.63879
  20
0.61332
  0
VERTEX
  8
0
  10
1.63642
  20
0.61876
  0
VERTEX
  8
0
  10
1.63283
  20
0.62550
  0
VERTEX
  8
0
  10
1.62830
  20
0.63311
  0
VERTEX
  8
0
  10
1.62312
  20
0.64114
  0
VERTEX
  8
0
  10
1.61759
  20
0.64918
  0
VERTEX
  8
0
  10
1.61198
  20
0.65678
  0
VERTEX
  8
0
  10
1.60658
  20
0.66352
  0
VERTEX
  8
0
  10
1.60169
  20
0.66896
  0
VERTEX
  8
0
  10
1.59760
  20
0.67267
  0
VERTEX
  8
0
  10
1.59563
  20
0.67456
  0
VERTEX
  8
0
  10
1.59337
  20
0.67656
  0
VERTEX
  8
0
  10
1.59089
  20
0.67865
  0
VERTEX
  8
0
  10
1.58828
  20
0.68074
  0
VERTEX
  8
0
  10
1.58559
  20
0.68281
  0
VERTEX
  8
0
  10
1.58289
  20
0.68478
  0
VERTEX
  8
0
  10
1.58028
  20
0.68661
  0
VERTEX
  8
0
  10
1.57780
  20
0.68824
  0
VERTEX
  8
0
  10
1.57554
  20
0.68962
  0
VERTEX
  8
0
  10
1.57357
  20
0.69069
  0
VERTEX
  8
0
  10
1.53153
  20
0.71772
  0
VERTEX
  8
0
  10
1.52286
  20
0.72368
  0
VERTEX
  8
0
  10
1.51476
  20
0.72898
  0
VERTEX
  8
0
  10
1.50710
  20
0.73372
  0
VERTEX
  8
0
  10
1.49972
  20
0.73795
  0
VERTEX
  8
0
  10
1.49249
  20
0.74174
  0
VERTEX
  8
0
  10
1.48526
  20
0.74518
  0
VERTEX
  8
0
  10
1.47789
  20
0.74832
  0
VERTEX
  8
0
  10
1.47022
  20
0.75126
  0
VERTEX
  8
0
  10
1.46213
  20
0.75404
  0
VERTEX
  8
0
  10
1.45345
  20
0.75676
  0
VERTEX
  8
0
  10
1.44968
  20
0.75783
  0
VERTEX
  8
0
  10
1.44565
  20
0.75921
  0
VERTEX
  8
0
  10
1.44143
  20
0.76084
  0
VERTEX
  8
0
  10
1.43712
  20
0.76267
  0
VERTEX
  8
0
  10
1.43281
  20
0.76464
  0
VERTEX
  8
0
  10
1.42859
  20
0.76670
  0
VERTEX
  8
0
  10
1.42455
  20
0.76880
  0
VERTEX
  8
0
  10
1.42078
  20
0.77088
  0
VERTEX
  8
0
  10
1.41737
  20
0.77289
  0
VERTEX
  8
0
  10
1.41441
  20
0.77477
  0
VERTEX
  8
0
  10
1.37237
  20
0.80180
  0
VERTEX
  8
0
  10
1.36304
  20
0.80665
  0
VERTEX
  8
0
  10
1.35323
  20
0.81208
  0
VERTEX
  8
0
  10
1.34316
  20
0.81799
  0
VERTEX
  8
0
  10
1.33307
  20
0.82424
  0
VERTEX
  8
0
  10
1.32320
  20
0.83071
  0
VERTEX
  8
0
  10
1.31378
  20
0.83726
  0
VERTEX
  8
0
  10
1.30504
  20
0.84378
  0
VERTEX
  8
0
  10
1.29723
  20
0.85014
  0
VERTEX
  8
0
  10
1.29056
  20
0.85621
  0
VERTEX
  8
0
  10
1.28529
  20
0.86186
  0
VERTEX
  8
0
  10
1.27527
  20
0.87235
  0
VERTEX
  8
0
  10
1.26676
  20
0.88238
  0
VERTEX
  8
0
  10
1.25966
  20
0.89219
  0
VERTEX
  8
0
  10
1.25386
  20
0.90203
  0
VERTEX
  8
0
  10
1.24925
  20
0.91216
  0
VERTEX
  8
0
  10
1.24572
  20
0.92283
  0
VERTEX
  8
0
  10
1.24316
  20
0.93430
  0
VERTEX
  8
0
  10
1.24147
  20
0.94681
  0
VERTEX
  8
0
  10
1.24053
  20
0.96062
  0
VERTEX
  8
0
  10
1.24024
  20
0.97598
  0
VERTEX
  8
0
  10
1.24015
  20
0.98235
  0
VERTEX
  8
0
  10
1.23990
  20
0.98878
  0
VERTEX
  8
0
  10
1.23951
  20
0.99514
  0
VERTEX
  8
0
  10
1.23899
  20
1.00130
  0
VERTEX
  8
0
  10
1.23836
  20
1.00713
  0
VERTEX
  8
0
  10
1.23765
  20
1.01252
  0
VERTEX
  8
0
  10
1.23686
  20
1.01732
  0
VERTEX
  8
0
  10
1.23601
  20
1.02143
  0
VERTEX
  8
0
  10
1.23513
  20
1.02471
  0
VERTEX
  8
0
  10
1.23423
  20
1.02703
  0
VERTEX
  8
0
  10
1.23351
  20
1.02957
  0
VERTEX
  8
0
  10
1.23311
  20
1.03186
  0
VERTEX
  8
0
  10
1.23299
  20
1.03400
  0
VERTEX
  8
0
  10
1.23313
  20
1.03611
  0
VERTEX
  8
0
  10
1.23348
  20
1.03829
  0
VERTEX
  8
0
  10
1.23402
  20
1.04065
  0
VERTEX
  8
0
  10
1.23470
  20
1.04330
  0
VERTEX
  8
0
  10
1.23548
  20
1.04634
  0
VERTEX
  8
0
  10
1.23634
  20
1.04989
  0
VERTEX
  8
0
  10
1.23724
  20
1.05405
  0
VERTEX
  8
0
  10
1.23895
  20
1.05602
  0
VERTEX
  8
0
  10
1.24048
  20
1.05828
  0
VERTEX
  8
0
  10
1.24183
  20
1.06076
  0
VERTEX
  8
0
  10
1.24300
  20
1.06338
  0
VERTEX
  8
0
  10
1.24399
  20
1.06607
  0
VERTEX
  8
0
  10
1.24480
  20
1.06876
  0
VERTEX
  8
0
  10
1.24544
  20
1.07138
  0
VERTEX
  8
0
  10
1.24589
  20
1.07385
  0
VERTEX
  8
0
  10
1.24616
  20
1.07611
  0
VERTEX
  8
0
  10
1.24625
  20
1.07808
  0
VERTEX
  8
0
  10
1.24633
  20
1.07997
  0
VERTEX
  8
0
  10
1.24656
  20
1.08202
  0
VERTEX
  8
0
  10
1.24689
  20
1.08421
  0
VERTEX
  8
0
  10
1.24730
  20
1.08653
  0
VERTEX
  8
0
  10
1.24775
  20
1.08896
  0
VERTEX
  8
0
  10
1.24819
  20
1.09148
  0
VERTEX
  8
0
  10
1.24860
  20
1.09408
  0
VERTEX
  8
0
  10
1.24894
  20
1.09672
  0
VERTEX
  8
0
  10
1.24917
  20
1.09940
  0
VERTEX
  8
0
  10
1.24925
  20
1.10210
  0
VERTEX
  8
0
  10
1.24933
  20
1.10515
  0
VERTEX
  8
0
  10
1.24956
  20
1.10880
  0
VERTEX
  8
0
  10
1.24990
  20
1.11297
  0
VERTEX
  8
0
  10
1.25031
  20
1.11753
  0
VERTEX
  8
0
  10
1.25075
  20
1.12237
  0
VERTEX
  8
0
  10
1.25120
  20
1.12740
  0
VERTEX
  8
0
  10
1.25160
  20
1.13250
  0
VERTEX
  8
0
  10
1.25194
  20
1.13756
  0
VERTEX
  8
0
  10
1.25217
  20
1.14248
  0
VERTEX
  8
0
  10
1.25225
  20
1.14715
  0
VERTEX
  8
0
  10
1.25234
  20
1.15254
  0
VERTEX
  8
0
  10
1.25259
  20
1.15789
  0
VERTEX
  8
0
  10
1.25298
  20
1.16312
  0
VERTEX
  8
0
  10
1.25350
  20
1.16819
  0
VERTEX
  8
0
  10
1.25413
  20
1.17305
  0
VERTEX
  8
0
  10
1.25485
  20
1.17763
  0
VERTEX
  8
0
  10
1.25564
  20
1.18189
  0
VERTEX
  8
0
  10
1.25648
  20
1.18578
  0
VERTEX
  8
0
  10
1.25736
  20
1.18923
  0
VERTEX
  8
0
  10
1.25826
  20
1.19219
  0
VERTEX
  8
0
  10
1.25907
  20
1.19554
  0
VERTEX
  8
0
  10
1.25970
  20
1.19846
  0
VERTEX
  8
0
  10
1.26015
  20
1.20106
  0
VERTEX
  8
0
  10
1.26042
  20
1.20344
  0
VERTEX
  8
0
  10
1.26051
  20
1.20571
  0
VERTEX
  8
0
  10
1.26042
  20
1.20798
  0
VERTEX
  8
0
  10
1.26015
  20
1.21035
  0
VERTEX
  8
0
  10
1.25970
  20
1.21295
  0
VERTEX
  8
0
  10
1.25907
  20
1.21587
  0
VERTEX
  8
0
  10
1.25826
  20
1.21922
  0
VERTEX
  8
0
  10
1.25736
  20
1.22200
  0
VERTEX
  8
0
  10
1.25648
  20
1.22491
  0
VERTEX
  8
0
  10
1.25564
  20
1.22789
  0
VERTEX
  8
0
  10
1.25485
  20
1.23089
  0
VERTEX
  8
0
  10
1.25413
  20
1.23386
  0
VERTEX
  8
0
  10
1.25350
  20
1.23673
  0
VERTEX
  8
0
  10
1.25298
  20
1.23946
  0
VERTEX
  8
0
  10
1.25259
  20
1.24199
  0
VERTEX
  8
0
  10
1.25234
  20
1.24427
  0
VERTEX
  8
0
  10
1.25225
  20
1.24625
  0
VERTEX
  8
0
  10
1.25153
  20
1.24960
  0
VERTEX
  8
0
  10
1.25115
  20
1.25252
  0
VERTEX
  8
0
  10
1.25109
  20
1.25511
  0
VERTEX
  8
0
  10
1.25134
  20
1.25749
  0
VERTEX
  8
0
  10
1.25188
  20
1.25976
  0
VERTEX
  8
0
  10
1.25268
  20
1.26203
  0
VERTEX
  8
0
  10
1.25374
  20
1.26441
  0
VERTEX
  8
0
  10
1.25504
  20
1.26700
  0
VERTEX
  8
0
  10
1.25655
  20
1.26992
  0
VERTEX
  8
0
  10
1.25826
  20
1.27327
  0
VERTEX
  8
0
  10
1.26005
  20
1.27598
  0
VERTEX
  8
0
  10
1.26181
  20
1.27868
  0
VERTEX
  8
0
  10
1.26350
  20
1.28138
  0
VERTEX
  8
0
  10
1.26508
  20
1.28408
  0
VERTEX
  8
0
  10
1.26652
  20
1.28679
  0
VERTEX
  8
0
  10
1.26777
  20
1.28949
  0
VERTEX
  8
0
  10
1.26881
  20
1.29219
  0
VERTEX
  8
0
  10
1.26960
  20
1.29489
  0
VERTEX
  8
0
  10
1.27010
  20
1.29760
  0
VERTEX
  8
0
  10
1.27027
  20
1.30030
  0
VERTEX
  8
0
  10
1.27109
  20
1.30690
  0
VERTEX
  8
0
  10
1.27178
  20
1.31238
  0
VERTEX
  8
0
  10
1.27241
  20
1.31689
  0
VERTEX
  8
0
  10
1.27301
  20
1.32058
  0
VERTEX
  8
0
  10
1.27365
  20
1.32357
  0
VERTEX
  8
0
  10
1.27438
  20
1.32603
  0
VERTEX
  8
0
  10
1.27525
  20
1.32809
  0
VERTEX
  8
0
  10
1.27632
  20
1.32990
  0
VERTEX
  8
0
  10
1.27765
  20
1.33160
  0
VERTEX
  8
0
  10
1.27928
  20
1.33333
  0
VERTEX
  8
0
  10
1.28101
  20
1.33423
  0
VERTEX
  8
0
  10
1.28264
  20
1.33509
  0
VERTEX
  8
0
  10
1.28428
  20
1.33587
  0
VERTEX
  8
0
  10
1.28601
  20
1.33655
  0
VERTEX
  8
0
  10
1.28791
  20
1.33709
  0
VERTEX
  8
0
  10
1.29009
  20
1.33744
  0
VERTEX
  8
0
  10
1.29263
  20
1.33758
  0
VERTEX
  8
0
  10
1.29562
  20
1.33747
  0
VERTEX
  8
0
  10
1.29914
  20
1.33706
  0
VERTEX
  8
0
  10
1.30330
  20
1.33634
  0
VERTEX
  8
0
  10
1.30829
  20
1.33562
  0
VERTEX
  8
0
  10
1.31255
  20
1.33526
  0
VERTEX
  8
0
  10
1.31628
  20
1.33526
  0
VERTEX
  8
0
  10
1.31964
  20
1.33562
  0
VERTEX
  8
0
  10
1.32282
  20
1.33634
  0
VERTEX
  8
0
  10
1.32601
  20
1.33742
  0
VERTEX
  8
0
  10
1.32937
  20
1.33886
  0
VERTEX
  8
0
  10
1.33309
  20
1.34066
  0
VERTEX
  8
0
  10
1.33736
  20
1.34282
  0
VERTEX
  8
0
  10
1.34234
  20
1.34535
  0
VERTEX
  8
0
  10
1.34594
  20
1.34633
  0
VERTEX
  8
0
  10
1.34948
  20
1.34744
  0
VERTEX
  8
0
  10
1.35291
  20
1.34862
  0
VERTEX
  8
0
  10
1.35618
  20
1.34981
  0
VERTEX
  8
0
  10
1.35923
  20
1.35098
  0
VERTEX
  8
0
  10
1.36202
  20
1.35205
  0
VERTEX
  8
0
  10
1.36448
  20
1.35298
  0
VERTEX
  8
0
  10
1.36656
  20
1.35371
  0
VERTEX
  8
0
  10
1.36821
  20
1.35418
  0
VERTEX
  8
0
  10
1.36937
  20
1.35435
  0
VERTEX
  8
0
  10
1.37053
  20
1.35526
  0
VERTEX
  8
0
  10
1.37216
  20
1.35616
  0
VERTEX
  8
0
  10
1.37418
  20
1.35706
  0
VERTEX
  8
0
  10
1.37653
  20
1.35796
  0
VERTEX
  8
0
  10
1.37913
  20
1.35886
  0
VERTEX
  8
0
  10
1.38191
  20
1.35976
  0
VERTEX
  8
0
  10
1.38480
  20
1.36066
  0
VERTEX
  8
0
  10
1.38772
  20
1.36156
  0
VERTEX
  8
0
  10
1.39061
  20
1.36246
  0
VERTEX
  8
0
  10
1.39339
  20
1.36336
  0
VERTEX
  8
0
  10
1.39626
  20
1.36516
  0
VERTEX
  8
0
  10
1.39942
  20
1.36694
  0
VERTEX
  8
0
  10
1.40280
  20
1.36869
  0
VERTEX
  8
0
  10
1.40632
  20
1.37038
  0
VERTEX
  8
0
  10
1.40991
  20
1.37200
  0
VERTEX
  8
0
  10
1.41350
  20
1.37353
  0
VERTEX
  8
0
  10
1.41702
  20
1.37495
  0
VERTEX
  8
0
  10
1.42040
  20
1.37624
  0
VERTEX
  8
0
  10
1.42356
  20
1.37739
  0
VERTEX
  8
0
  10
1.42643
  20
1.37838
  0
VERTEX
  8
0
  10
1.44255
  20
1.38402
  0
VERTEX
  8
0
  10
1.45526
  20
1.38854
  0
VERTEX
  8
0
  10
1.46508
  20
1.39227
  0
VERTEX
  8
0
  10
1.47255
  20
1.39553
  0
VERTEX
  8
0
  10
1.47823
  20
1.39865
  0
VERTEX
  8
0
  10
1.48264
  20
1.40195
  0
VERTEX
  8
0
  10
1.48634
  20
1.40575
  0
VERTEX
  8
0
  10
1.48985
  20
1.41038
  0
VERTEX
  8
0
  10
1.49372
  20
1.41616
  0
VERTEX
  8
0
  10
1.49850
  20
1.42342
  0
VERTEX
  8
0
  10
1.50194
  20
1.42930
  0
VERTEX
  8
0
  10
1.50515
  20
1.43443
  0
VERTEX
  8
0
  10
1.50826
  20
1.43894
  0
VERTEX
  8
0
  10
1.51138
  20
1.44298
  0
VERTEX
  8
0
  10
1.51464
  20
1.44670
  0
VERTEX
  8
0
  10
1.51817
  20
1.45023
  0
VERTEX
  8
0
  10
1.52211
  20
1.45374
  0
VERTEX
  8
0
  10
1.52656
  20
1.45735
  0
VERTEX
  8
0
  10
1.53166
  20
1.46121
  0
VERTEX
  8
0
  10
1.53754
  20
1.46547
  0
VERTEX
  8
0
  10
1.58559
  20
1.50450
  0
VERTEX
  8
0
  10
1.63363
  20
1.54354
  0
VERTEX
  8
0
  10
1.64122
  20
1.54951
  0
VERTEX
  8
0
  10
1.64781
  20
1.55486
  0
VERTEX
  8
0
  10
1.65350
  20
1.55971
  0
VERTEX
  8
0
  10
1.65838
  20
1.56416
  0
VERTEX
  8
0
  10
1.66254
  20
1.56832
  0
VERTEX
  8
0
  10
1.66607
  20
1.57230
  0
VERTEX
  8
0
  10
1.66905
  20
1.57621
  0
VERTEX
  8
0
  10
1.67159
  20
1.58016
  0
VERTEX
  8
0
  10
1.67377
  20
1.58425
  0
VERTEX
  8
0
  10
1.67568
  20
1.58859
  0
VERTEX
  8
0
  10
1.67649
  20
1.59317
  0
VERTEX
  8
0
  10
1.67712
  20
1.59786
  0
VERTEX
  8
0
  10
1.67757
  20
1.60259
  0
VERTEX
  8
0
  10
1.67784
  20
1.60728
  0
VERTEX
  8
0
  10
1.67793
  20
1.61186
  0
VERTEX
  8
0
  10
1.67784
  20
1.61626
  0
VERTEX
  8
0
  10
1.67757
  20
1.62041
  0
VERTEX
  8
0
  10
1.67712
  20
1.62424
  0
VERTEX
  8
0
  10
1.67649
  20
1.62767
  0
VERTEX
  8
0
  10
1.67568
  20
1.63063
  0
VERTEX
  8
0
  10
1.67486
  20
1.63162
  0
VERTEX
  8
0
  10
1.67421
  20
1.63274
  0
VERTEX
  8
0
  10
1.67370
  20
1.63398
  0
VERTEX
  8
0
  10
1.67332
  20
1.63529
  0
VERTEX
  8
0
  10
1.67305
  20
1.63664
  0
VERTEX
  8
0
  10
1.67286
  20
1.63798
  0
VERTEX
  8
0
  10
1.67275
  20
1.63929
  0
VERTEX
  8
0
  10
1.67270
  20
1.64053
  0
VERTEX
  8
0
  10
1.67268
  20
1.64166
  0
VERTEX
  8
0
  10
1.67267
  20
1.64264
  0
VERTEX
  8
0
  10
1.67400
  20
1.64388
  0
VERTEX
  8
0
  10
1.67606
  20
1.64567
  0
VERTEX
  8
0
  10
1.67870
  20
1.64786
  0
VERTEX
  8
0
  10
1.68175
  20
1.65028
  0
VERTEX
  8
0
  10
1.68506
  20
1.65278
  0
VERTEX
  8
0
  10
1.68846
  20
1.65518
  0
VERTEX
  8
0
  10
1.69178
  20
1.65734
  0
VERTEX
  8
0
  10
1.69487
  20
1.65908
  0
VERTEX
  8
0
  10
1.69756
  20
1.66024
  0
VERTEX
  8
0
  10
1.69970
  20
1.66066
  0
VERTEX
  8
0
  10
1.70105
  20
1.66165
  0
VERTEX
  8
0
  10
1.70262
  20
1.66277
  0
VERTEX
  8
0
  10
1.70470
  20
1.66422
  0
VERTEX
  8
0
  10
1.70721
  20
1.66592
  0
VERTEX
  8
0
  10
1.71008
  20
1.66780
  0
VERTEX
  8
0
  10
1.71324
  20
1.66978
  0
VERTEX
  8
0
  10
1.71661
  20
1.67181
  0
VERTEX
  8
0
  10
1.72013
  20
1.67380
  0
VERTEX
  8
0
  10
1.72372
  20
1.67568
  0
VERTEX
  8
0
  10
1.72732
  20
1.67829
  0
VERTEX
  8
0
  10
1.73083
  20
1.68070
  0
VERTEX
  8
0
  10
1.73421
  20
1.68289
  0
VERTEX
  8
0
  10
1.73737
  20
1.68485
  0
VERTEX
  8
0
  10
1.74024
  20
1.68656
  0
VERTEX
  8
0
  10
1.74275
  20
1.68800
  0
VERTEX
  8
0
  10
1.74483
  20
1.68915
  0
VERTEX
  8
0
  10
1.74640
  20
1.68999
  0
VERTEX
  8
0
  10
1.74740
  20
1.69051
  0
VERTEX
  8
0
  10
1.74775
  20
1.69069
  0
VERTEX
  8
0
  10
1.74865
  20
1.69086
  0
VERTEX
  8
0
  10
1.74957
  20
1.69134
  0
VERTEX
  8
0
  10
1.75053
  20
1.69207
  0
VERTEX
  8
0
  10
1.75154
  20
1.69300
  0
VERTEX
  8
0
  10
1.75263
  20
1.69407
  0
VERTEX
  8
0
  10
1.75380
  20
1.69523
  0
VERTEX
  8
0
  10
1.75508
  20
1.69643
  0
VERTEX
  8
0
  10
1.75649
  20
1.69761
  0
VERTEX
  8
0
  10
1.75805
  20
1.69872
  0
VERTEX
  8
0
  10
1.75976
  20
1.69970
  0
VERTEX
  8
0
  10
1.76182
  20
1.70159
  0
VERTEX
  8
0
  10
1.76437
  20
1.70362
  0
VERTEX
  8
0
  10
1.76735
  20
1.70575
  0
VERTEX
  8
0
  10
1.77071
  20
1.70796
  0
VERTEX
  8
0
  10
1.77440
  20
1.71021
  0
VERTEX
  8
0
  10
1.77835
  20
1.71246
  0
VERTEX
  8
0
  10
1.78253
  20
1.71467
  0
VERTEX
  8
0
  10
1.78686
  20
1.71680
  0
VERTEX
  8
0
  10
1.79130
  20
1.71883
  0
VERTEX
  8
0
  10
1.79580
  20
1.72072
  0
VERTEX
  8
0
  10
1.80448
  20
1.72689
  0
VERTEX
  8
0
  10
1.81408
  20
1.73437
  0
VERTEX
  8
0
  10
1.82426
  20
1.74286
  0
VERTEX
  8
0
  10
1.83467
  20
1.75205
  0
VERTEX
  8
0
  10
1.84497
  20
1.76164
  0
VERTEX
  8
0
  10
1.85482
  20
1.77132
  0
VERTEX
  8
0
  10
1.86388
  20
1.78078
  0
VERTEX
  8
0
  10
1.87181
  20
1.78972
  0
VERTEX
  8
0
  10
1.87826
  20
1.79783
  0
VERTEX
  8
0
  10
1.88288
  20
1.80480
  0
VERTEX
  8
0
  10
1.88792
  20
1.81573
  0
VERTEX
  8
0
  10
1.89223
  20
1.82842
  0
VERTEX
  8
0
  10
1.89577
  20
1.84248
  0
VERTEX
  8
0
  10
1.89855
  20
1.85751
  0
VERTEX
  8
0
  10
1.90053
  20
1.87312
  0
VERTEX
  8
0
  10
1.90169
  20
1.88891
  0
VERTEX
  8
0
  10
1.90203
  20
1.90449
  0
VERTEX
  8
0
  10
1.90153
  20
1.91945
  0
VERTEX
  8
0
  10
1.90015
  20
1.93340
  0
VERTEX
  8
0
  10
1.89790
  20
1.94595
  0
VERTEX
  8
0
  10
1.89593
  20
1.95348
  0
VERTEX
  8
0
  10
1.89367
  20
1.96151
  0
VERTEX
  8
0
  10
1.89120
  20
1.96984
  0
VERTEX
  8
0
  10
1.88858
  20
1.97823
  0
VERTEX
  8
0
  10
1.88589
  20
1.98649
  0
VERTEX
  8
0
  10
1.88320
  20
1.99438
  0
VERTEX
  8
0
  10
1.88058
  20
2.00169
  0
VERTEX
  8
0
  10
1.87810
  20
2.00822
  0
VERTEX
  8
0
  10
1.87584
  20
2.01373
  0
VERTEX
  8
0
  10
1.87387
  20
2.01802
  0
VERTEX
  8
0
  10
1.87306
  20
2.01973
  0
VERTEX
  8
0
  10
1.87241
  20
2.02129
  0
VERTEX
  8
0
  10
1.87190
  20
2.02269
  0
VERTEX
  8
0
  10
1.87152
  20
2.02398
  0
VERTEX
  8
0
  10
1.87125
  20
2.02515
  0
VERTEX
  8
0
  10
1.87106
  20
2.02623
  0
VERTEX
  8
0
  10
1.87095
  20
2.02725
  0
VERTEX
  8
0
  10
1.87089
  20
2.02820
  0
VERTEX
  8
0
  10
1.87087
  20
2.02913
  0
VERTEX
  8
0
  10
1.87087
  20
2.03003
  0
VERTEX
  8
0
  10
1.87070
  20
2.03111
  0
VERTEX
  8
0
  10
1.87020
  20
2.03250
  0
VERTEX
  8
0
  10
1.86941
  20
2.03419
  0
VERTEX
  8
0
  10
1.86837
  20
2.03613
  0
VERTEX
  8
0
  10
1.86712
  20
2.03829
  0
VERTEX
  8
0
  10
1.86568
  20
2.04062
  0
VERTEX
  8
0
  10
1.86410
  20
2.04311
  0
VERTEX
  8
0
  10
1.86241
  20
2.04569
  0
VERTEX
  8
0
  10
1.86065
  20
2.04835
  0
VERTEX
  8
0
  10
1.85886
  20
2.05105
  0
VERTEX
  8
0
  10
1.85480
  20
2.05694
  0
VERTEX
  8
0
  10
1.85160
  20
2.06213
  0
VERTEX
  8
0
  10
1.84924
  20
2.06681
  0
VERTEX
  8
0
  10
1.84766
  20
2.07118
  0
VERTEX
  8
0
  10
1.84685
  20
2.07545
  0
VERTEX
  8
0
  10
1.84675
  20
2.07981
  0
VERTEX
  8
0
  10
1.84734
  20
2.08445
  0
VERTEX
  8
0
  10
1.84858
  20
2.08959
  0
VERTEX
  8
0
  10
1.85043
  20
2.09540
  0
VERTEX
  8
0
  10
1.85285
  20
2.10210
  0
VERTEX
  8
0
  10
1.85530
  20
2.10811
  0
VERTEX
  8
0
  10
1.85730
  20
2.11373
  0
VERTEX
  8
0
  10
1.85893
  20
2.11932
  0
VERTEX
  8
0
  10
1.86030
  20
2.12521
  0
VERTEX
  8
0
  10
1.86149
  20
2.13176
  0
VERTEX
  8
0
  10
1.86258
  20
2.13929
  0
VERTEX
  8
0
  10
1.86368
  20
2.14816
  0
VERTEX
  8
0
  10
1.86486
  20
2.15870
  0
VERTEX
  8
0
  10
1.86623
  20
2.17126
  0
VERTEX
  8
0
  10
1.86787
  20
2.18619
  0
VERTEX
  8
0
  10
1.86859
  20
2.19921
  0
VERTEX
  8
0
  10
1.86897
  20
2.21290
  0
VERTEX
  8
0
  10
1.86903
  20
2.22702
  0
VERTEX
  8
0
  10
1.86878
  20
2.24135
  0
VERTEX
  8
0
  10
1.86824
  20
2.25563
  0
VERTEX
  8
0
  10
1.86744
  20
2.26965
  0
VERTEX
  8
0
  10
1.86638
  20
2.28316
  0
VERTEX
  8
0
  10
1.86508
  20
2.29593
  0
VERTEX
  8
0
  10
1.86357
  20
2.30773
  0
VERTEX
  8
0
  10
1.86186
  20
2.31832
  0
VERTEX
  8
0
  10
1.86096
  20
2.32029
  0
VERTEX
  8
0
  10
1.86008
  20
2.32259
  0
VERTEX
  8
0
  10
1.85924
  20
2.32518
  0
VERTEX
  8
0
  10
1.85845
  20
2.32802
  0
VERTEX
  8
0
  10
1.85773
  20
2.33108
  0
VERTEX
  8
0
  10
1.85711
  20
2.33432
  0
VERTEX
  8
0
  10
1.85659
  20
2.33770
  0
VERTEX
  8
0
  10
1.85619
  20
2.34119
  0
VERTEX
  8
0
  10
1.85594
  20
2.34475
  0
VERTEX
  8
0
  10
1.85586
  20
2.34835
  0
VERTEX
  8
0
  10
1.85577
  20
2.35203
  0
VERTEX
  8
0
  10
1.85554
  20
2.35582
  0
VERTEX
  8
0
  10
1.85521
  20
2.35965
  0
VERTEX
  8
0
  10
1.85480
  20
2.36344
  0
VERTEX
  8
0
  10
1.85435
  20
2.36712
  0
VERTEX
  8
0
  10
1.85391
  20
2.37062
  0
VERTEX
  8
0
  10
1.85350
  20
2.37387
  0
VERTEX
  8
0
  10
1.85317
  20
2.37679
  0
VERTEX
  8
0
  10
1.85294
  20
2.37932
  0
VERTEX
  8
0
  10
1.85285
  20
2.38138
  0
VERTEX
  8
0
  10
1.85195
  20
2.38417
  0
VERTEX
  8
0
  10
1.85108
  20
2.38707
  0
VERTEX
  8
0
  10
1.85023
  20
2.39006
  0
VERTEX
  8
0
  10
1.84944
  20
2.39306
  0
VERTEX
  8
0
  10
1.84872
  20
2.39602
  0
VERTEX
  8
0
  10
1.84810
  20
2.39889
  0
VERTEX
  8
0
  10
1.84758
  20
2.40162
  0
VERTEX
  8
0
  10
1.84718
  20
2.40416
  0
VERTEX
  8
0
  10
1.84693
  20
2.40644
  0
VERTEX
  8
0
  10
1.84685
  20
2.40841
  0
VERTEX
  8
0
  10
1.84676
  20
2.41102
  0
VERTEX
  8
0
  10
1.84653
  20
2.41345
  0
VERTEX
  8
0
  10
1.84620
  20
2.41571
  0
VERTEX
  8
0
  10
1.84579
  20
2.41778
  0
VERTEX
  8
0
  10
1.84535
  20
2.41967
  0
VERTEX
  8
0
  10
1.84490
  20
2.42138
  0
VERTEX
  8
0
  10
1.84449
  20
2.42291
  0
VERTEX
  8
0
  10
1.84416
  20
2.42426
  0
VERTEX
  8
0
  10
1.84393
  20
2.42544
  0
VERTEX
  8
0
  10
1.84384
  20
2.42643
  0
VERTEX
  8
0
  10
1.84303
  20
2.42750
  0
VERTEX
  8
0
  10
1.84235
  20
2.42888
  0
VERTEX
  8
0
  10
1.84179
  20
2.43051
  0
VERTEX
  8
0
  10
1.84130
  20
2.43234
  0
VERTEX
  8
0
  10
1.84084
  20
2.43431
  0
VERTEX
  8
0
  10
1.84038
  20
2.43637
  0
VERTEX
  8
0
  10
1.83989
  20
2.43847
  0
VERTEX
  8
0
  10
1.83933
  20
2.44055
  0
VERTEX
  8
0
  10
1.83865
  20
2.44256
  0
VERTEX
  8
0
  10
1.83784
  20
2.44444
  0
VERTEX
  8
0
  10
1.83775
  20
2.44642
  0
VERTEX
  8
0
  10
1.83750
  20
2.44870
  0
VERTEX
  8
0
  10
1.83711
  20
2.45123
  0
VERTEX
  8
0
  10
1.83659
  20
2.45396
  0
VERTEX
  8
0
  10
1.83596
  20
2.45683
  0
VERTEX
  8
0
  10
1.83524
  20
2.45980
  0
VERTEX
  8
0
  10
1.83445
  20
2.46280
  0
VERTEX
  8
0
  10
1.83361
  20
2.46578
  0
VERTEX
  8
0
  10
1.83273
  20
2.46869
  0
VERTEX
  8
0
  10
1.83183
  20
2.47147
  0
VERTEX
  8
0
  10
1.83011
  20
2.47562
  0
VERTEX
  8
0
  10
1.82854
  20
2.47911
  0
VERTEX
  8
0
  10
1.82708
  20
2.48199
  0
VERTEX
  8
0
  10
1.82568
  20
2.48430
  0
VERTEX
  8
0
  10
1.82432
  20
2.48611
  0
VERTEX
  8
0
  10
1.82297
  20
2.48747
  0
VERTEX
  8
0
  10
1.82157
  20
2.48844
  0
VERTEX
  8
0
  10
1.82011
  20
2.48906
  0
VERTEX
  8
0
  10
1.81853
  20
2.48939
  0
VERTEX
  8
0
  10
1.81682
  20
2.48949
  0
VERTEX
  8
0
  10
1.81510
  20
2.48948
  0
VERTEX
  8
0
  10
1.81355
  20
2.48942
  0
VERTEX
  8
0
  10
1.81214
  20
2.48925
  0
VERTEX
  8
0
  10
1.81086
  20
2.48891
  0
VERTEX
  8
0
  10
1.80968
  20
2.48836
  0
VERTEX
  8
0
  10
1.80860
  20
2.48754
  0
VERTEX
  8
0
  10
1.80759
  20
2.48640
  0
VERTEX
  8
0
  10
1.80663
  20
2.48488
  0
VERTEX
  8
0
  10
1.80571
  20
2.48292
  0
VERTEX
  8
0
  10
1.80480
  20
2.48048
  0
VERTEX
  8
0
  10
1.80309
  20
2.47784
  0
VERTEX
  8
0
  10
1.80156
  20
2.47524
  0
VERTEX
  8
0
  10
1.80021
  20
2.47253
  0
VERTEX
  8
0
  10
1.79904
  20
2.46957
  0
VERTEX
  8
0
  10
1.79805
  20
2.46622
  0
VERTEX
  8
0
  10
1.79724
  20
2.46232
  0
VERTEX
  8
0
  10
1.79661
  20
2.45774
  0
VERTEX
  8
0
  10
1.79616
  20
2.45232
  0
VERTEX
  8
0
  10
1.79589
  20
2.44594
  0
VERTEX
  8
0
  10
1.79580
  20
2.43844
  0
VERTEX
  8
0
  10
1.79588
  20
2.43386
  0
VERTEX
  8
0
  10
1.79611
  20
2.42921
  0
VERTEX
  8
0
  10
1.79644
  20
2.42460
  0
VERTEX
  8
0
  10
1.79685
  20
2.42013
  0
VERTEX
  8
0
  10
1.79730
  20
2.41592
  0
VERTEX
  8
0
  10
1.79774
  20
2.41206
  0
VERTEX
  8
0
  10
1.79815
  20
2.40867
  0
VERTEX
  8
0
  10
1.79849
  20
2.40586
  0
VERTEX
  8
0
  10
1.79871
  20
2.40374
  0
VERTEX
  8
0
  10
1.79880
  20
2.40240
  0
VERTEX
  8
0
  10
1.79888
  20
2.40124
  0
VERTEX
  8
0
  10
1.79911
  20
2.39962
  0
VERTEX
  8
0
  10
1.79945
  20
2.39759
  0
VERTEX
  8
0
  10
1.79986
  20
2.39524
  0
VERTEX
  8
0
  10
1.80030
  20
2.39264
  0
VERTEX
  8
0
  10
1.80074
  20
2.38986
  0
VERTEX
  8
0
  10
1.80115
  20
2.38697
  0
VERTEX
  8
0
  10
1.80149
  20
2.38405
  0
VERTEX
  8
0
  10
1.80172
  20
2.38116
  0
VERTEX
  8
0
  10
1.80180
  20
2.37838
  0
VERTEX
  8
0
  10
1.80189
  20
2.37559
  0
VERTEX
  8
0
  10
1.80211
  20
2.37268
  0
VERTEX
  8
0
  10
1.80245
  20
2.36970
  0
VERTEX
  8
0
  10
1.80286
  20
2.36670
  0
VERTEX
  8
0
  10
1.80330
  20
2.36374
  0
VERTEX
  8
0
  10
1.80375
  20
2.36086
  0
VERTEX
  8
0
  10
1.80416
  20
2.35813
  0
VERTEX
  8
0
  10
1.80449
  20
2.35560
  0
VERTEX
  8
0
  10
1.80472
  20
2.35332
  0
VERTEX
  8
0
  10
1.80480
  20
2.35135
  0
VERTEX
  8
0
  10
1.80570
  20
2.34758
  0
VERTEX
  8
0
  10
1.80658
  20
2.34350
  0
VERTEX
  8
0
  10
1.80743
  20
2.33916
  0
VERTEX
  8
0
  10
1.80822
  20
2.33463
  0
VERTEX
  8
0
  10
1.80893
  20
2.32995
  0
VERTEX
  8
0
  10
1.80956
  20
2.32519
  0
VERTEX
  8
0
  10
1.81008
  20
2.32039
  0
VERTEX
  8
0
  10
1.81047
  20
2.31560
  0
VERTEX
  8
0
  10
1.81072
  20
2.31089
  0
VERTEX
  8
0
  10
1.81081
  20
2.30631
  0
VERTEX
  8
0
  10
1.81090
  20
2.30164
  0
VERTEX
  8
0
  10
1.81115
  20
2.29672
  0
VERTEX
  8
0
  10
1.81154
  20
2.29166
  0
VERTEX
  8
0
  10
1.81206
  20
2.28656
  0
VERTEX
  8
0
  10
1.81269
  20
2.28153
  0
VERTEX
  8
0
  10
1.81341
  20
2.27668
  0
VERTEX
  8
0
  10
1.81420
  20
2.27213
  0
VERTEX
  8
0
  10
1.81504
  20
2.26796
  0
VERTEX
  8
0
  10
1.81592
  20
2.26431
  0
VERTEX
  8
0
  10
1.81682
  20
2.26126
  0
VERTEX
  8
0
  10
1.81771
  20
2.25772
  0
VERTEX
  8
0
  10
1.81857
  20
2.25278
  0
VERTEX
  8
0
  10
1.81936
  20
2.24683
  0
VERTEX
  8
0
  10
1.82004
  20
2.24026
  0
VERTEX
  8
0
  10
1.82057
  20
2.23348
  0
VERTEX
  8
0
  10
1.82092
  20
2.22688
  0
VERTEX
  8
0
  10
1.82106
  20
2.22086
  0
VERTEX
  8
0
  10
1.82095
  20
2.21581
  0
VERTEX
  8
0
  10
1.82055
  20
2.21213
  0
VERTEX
  8
0
  10
1.81982
  20
2.21021
  0
VERTEX
  8
0
  10
1.81883
  20
2.20777
  0
VERTEX
  8
0
  10
1.81771
  20
2.20586
  0
VERTEX
  8
0
  10
1.81647
  20
2.20445
  0
VERTEX
  8
0
  10
1.81516
  20
2.20353
  0
VERTEX
  8
0
  10
1.81381
  20
2.20308
  0
VERTEX
  8
0
  10
1.81247
  20
2.20308
  0
VERTEX
  8
0
  10
1.81116
  20
2.20350
  0
VERTEX
  8
0
  10
1.80992
  20
2.20435
  0
VERTEX
  8
0
  10
1.80879
  20
2.20559
  0
VERTEX
  8
0
  10
1.80781
  20
2.20721
  0
VERTEX
  8
0
  10
1.80592
  20
2.21101
  0
VERTEX
  8
0
  10
1.80392
  20
2.21677
  0
VERTEX
  8
0
  10
1.80183
  20
2.22407
  0
VERTEX
  8
0
  10
1.79974
  20
2.23253
  0
VERTEX
  8
0
  10
1.79767
  20
2.24174
  0
VERTEX
  8
0
  10
1.79570
  20
2.25132
  0
VERTEX
  8
0
  10
1.79387
  20
2.26085
  0
VERTEX
  8
0
  10
1.79224
  20
2.26996
  0
VERTEX
  8
0
  10
1.79086
  20
2.27823
  0
VERTEX
  8
0
  10
1.78979
  20
2.28529
  0
VERTEX
  8
0
  10
1.78971
  20
2.28798
  0
VERTEX
  8
0
  10
1.78948
  20
2.29062
  0
VERTEX
  8
0
  10
1.78914
  20
2.29315
  0
VERTEX
  8
0
  10
1.78873
  20
2.29552
  0
VERTEX
  8
0
  10
1.78829
  20
2.29767
  0
VERTEX
  8
0
  10
1.78784
  20
2.29956
  0
VERTEX
  8
0
  10
1.78744
  20
2.30111
  0
VERTEX
  8
0
  10
1.78710
  20
2.30229
  0
VERTEX
  8
0
  10
1.78687
  20
2.30304
  0
VERTEX
  8
0
  10
1.78679
  20
2.30330
  0
VERTEX
  8
0
  10
1.78670
  20
2.30438
  0
VERTEX
  8
0
  10
1.78647
  20
2.30575
  0
VERTEX
  8
0
  10
1.78614
  20
2.30738
  0
VERTEX
  8
0
  10
1.78573
  20
2.30921
  0
VERTEX
  8
0
  10
1.78529
  20
2.31119
  0
VERTEX
  8
0
  10
1.78484
  20
2.31325
  0
VERTEX
  8
0
  10
1.78443
  20
2.31535
  0
VERTEX
  8
0
  10
1.78410
  20
2.31743
  0
VERTEX
  8
0
  10
1.78387
  20
2.31944
  0
VERTEX
  8
0
  10
1.78378
  20
2.32132
  0
VERTEX
  8
0
  10
1.77177
  20
2.37237
  0
VERTEX
  8
0
  10
1.76998
  20
2.37867
  0
VERTEX
  8
0
  10
1.76822
  20
2.38491
  0
VERTEX
  8
0
  10
1.76653
  20
2.39105
  0
VERTEX
  8
0
  10
1.76495
  20
2.39702
  0
VERTEX
  8
0
  10
1.76351
  20
2.40278
  0
VERTEX
  8
0
  10
1.76226
  20
2.40826
  0
VERTEX
  8
0
  10
1.76122
  20
2.41343
  0
VERTEX
  8
0
  10
1.76043
  20
2.41821
  0
VERTEX
  8
0
  10
1.75993
  20
2.42256
  0
VERTEX
  8
0
  10
1.75976
  20
2.42643
  0
VERTEX
  8
0
  10
1.75869
  20
2.43379
  0
VERTEX
  8
0
  10
1.75731
  20
2.44137
  0
VERTEX
  8
0
  10
1.75568
  20
2.44902
  0
VERTEX
  8
0
  10
1.75385
  20
2.45660
  0
VERTEX
  8
0
  10
1.75188
  20
2.46396
  0
VERTEX
  8
0
  10
1.74981
  20
2.47097
  0
VERTEX
  8
0
  10
1.74771
  20
2.47747
  0
VERTEX
  8
0
  10
1.74563
  20
2.48332
  0
VERTEX
  8
0
  10
1.74362
  20
2.48837
  0
VERTEX
  8
0
  10
1.74174
  20
2.49249
  0
VERTEX
  8
0
  10
1.74084
  20
2.49493
  0
VERTEX
  8
0
  10
1.73992
  20
2.49689
  0
VERTEX
  8
0
  10
1.73896
  20
2.49841
  0
VERTEX
  8
0
  10
1.73795
  20
2.49956
  0
VERTEX
  8
0
  10
1.73686
  20
2.50038
  0
VERTEX
  8
0
  10
1.73569
  20
2.50093
  0
VERTEX
  8
0
  10
1.73441
  20
2.50126
  0
VERTEX
  8
0
  10
1.73300
  20
2.50143
  0
VERTEX
  8
0
  10
1.73144
  20
2.50149
  0
VERTEX
  8
0
  10
1.72973
  20
2.50150
  0
VERTEX
  8
0
  10
1.72793
  20
2.50150
  0
VERTEX
  8
0
  10
1.72617
  20
2.50148
  0
VERTEX
  8
0
  10
1.72449
  20
2.50142
  0
VERTEX
  8
0
  10
1.72291
  20
2.50131
  0
VERTEX
  8
0
  10
1.72147
  20
2.50113
  0
VERTEX
  8
0
  10
1.72022
  20
2.50085
  0
VERTEX
  8
0
  10
1.71918
  20
2.50047
  0
VERTEX
  8
0
  10
1.71839
  20
2.49996
  0
VERTEX
  8
0
  10
1.71789
  20
2.49931
  0
VERTEX
  8
0
  10
1.71772
  20
2.49850
  0
VERTEX
  8
0
  10
1.71691
  20
2.49656
  0
VERTEX
  8
0
  10
1.71628
  20
2.49273
  0
VERTEX
  8
0
  10
1.71583
  20
2.48728
  0
VERTEX
  8
0
  10
1.71556
  20
2.48048
  0
VERTEX
  8
0
  10
1.71547
  20
2.47260
  0
VERTEX
  8
0
  10
1.71556
  20
2.46390
  0
VERTEX
  8
0
  10
1.71583
  20
2.45467
  0
VERTEX
  8
0
  10
1.71628
  20
2.44517
  0
VERTEX
  8
0
  10
1.71691
  20
2.43566
  0
VERTEX
  8
0
  10
1.71772
  20
2.42643
  0
VERTEX
  8
0
  10
1.71871
  20
2.41751
  0
VERTEX
  8
0
  10
1.71988
  20
2.40879
  0
VERTEX
  8
0
  10
1.72123
  20
2.40029
  0
VERTEX
  8
0
  10
1.72276
  20
2.39202
  0
VERTEX
  8
0
  10
1.72447
  20
2.38401
  0
VERTEX
  8
0
  10
1.72637
  20
2.37626
  0
VERTEX
  8
0
  10
1.72844
  20
2.36881
  0
VERTEX
  8
0
  10
1.73069
  20
2.36166
  0
VERTEX
  8
0
  10
1.73312
  20
2.35483
  0
VERTEX
  8
0
  10
1.73574
  20
2.34835
  0
VERTEX
  8
0
  10
1.73655
  20
2.34574
  0
VERTEX
  8
0
  10
1.73720
  20
2.34333
  0
VERTEX
  8
0
  10
1.73771
  20
2.34113
  0
VERTEX
  8
0
  10
1.73809
  20
2.33917
  0
VERTEX
  8
0
  10
1.73836
  20
2.33746
  0
VERTEX
  8
0
  10
1.73855
  20
2.33602
  0
VERTEX
  8
0
  10
1.73866
  20
2.33487
  0
VERTEX
  8
0
  10
1.73871
  20
2.33403
  0
VERTEX
  8
0
  10
1.73874
  20
2.33351
  0
VERTEX
  8
0
  10
1.73874
  20
2.33333
  0
VERTEX
  8
0
  10
1.73874
  20
2.33235
  0
VERTEX
  8
0
  10
1.73876
  20
2.33120
  0
VERTEX
  8
0
  10
1.73882
  20
2.32990
  0
VERTEX
  8
0
  10
1.73893
  20
2.32848
  0
VERTEX
  8
0
  10
1.73911
  20
2.32695
  0
VERTEX
  8
0
  10
1.73939
  20
2.32533
  0
VERTEX
  8
0
  10
1.73977
  20
2.32364
  0
VERTEX
  8
0
  10
1.74028
  20
2.32190
  0
VERTEX
  8
0
  10
1.74093
  20
2.32012
  0
VERTEX
  8
0
  10
1.74174
  20
2.31832
  0
VERTEX
  8
0
  10
1.74264
  20
2.31545
  0
VERTEX
  8
0
  10
1.74352
  20
2.31229
  0
VERTEX
  8
0
  10
1.74436
  20
2.30891
  0
VERTEX
  8
0
  10
1.74515
  20
2.30539
  0
VERTEX
  8
0
  10
1.74587
  20
2.30180
  0
VERTEX
  8
0
  10
1.74650
  20
2.29821
  0
VERTEX
  8
0
  10
1.74702
  20
2.29469
  0
VERTEX
  8
0
  10
1.74741
  20
2.29132
  0
VERTEX
  8
0
  10
1.74766
  20
2.28816
  0
VERTEX
  8
0
  10
1.74775
  20
2.28529
  0
VERTEX
  8
0
  10
1.74783
  20
2.28241
  0
VERTEX
  8
0
  10
1.74808
  20
2.27926
  0
VERTEX
  8
0
  10
1.74848
  20
2.27588
  0
VERTEX
  8
0
  10
1.74900
  20
2.27236
  0
VERTEX
  8
0
  10
1.74962
  20
2.26877
  0
VERTEX
  8
0
  10
1.75034
  20
2.26518
  0
VERTEX
  8
0
  10
1.75113
  20
2.26166
  0
VERTEX
  8
0
  10
1.75198
  20
2.25828
  0
VERTEX
  8
0
  10
1.75286
  20
2.25512
  0
VERTEX
  8
0
  10
1.75375
  20
2.25225
  0
VERTEX
  8
0
  10
1.75465
  20
2.24947
  0
VERTEX
  8
0
  10
1.75553
  20
2.24658
  0
VERTEX
  8
0
  10
1.75638
  20
2.24366
  0
VERTEX
  8
0
  10
1.75717
  20
2.24077
  0
VERTEX
  8
0
  10
1.75788
  20
2.23799
  0
VERTEX
  8
0
  10
1.75851
  20
2.23539
  0
VERTEX
  8
0
  10
1.75903
  20
2.23304
  0
VERTEX
  8
0
  10
1.75942
  20
2.23101
  0
VERTEX
  8
0
  10
1.75967
  20
2.22939
  0
VERTEX
  8
0
  10
1.75976
  20
2.22823
  0
VERTEX
  8
0
  10
1.75976
  20
2.22716
  0
VERTEX
  8
0
  10
1.75978
  20
2.22578
  0
VERTEX
  8
0
  10
1.75984
  20
2.22415
  0
VERTEX
  8
0
  10
1.75995
  20
2.22232
  0
VERTEX
  8
0
  10
1.76014
  20
2.22035
  0
VERTEX
  8
0
  10
1.76041
  20
2.21828
  0
VERTEX
  8
0
  10
1.76079
  20
2.21618
  0
VERTEX
  8
0
  10
1.76130
  20
2.21410
  0
VERTEX
  8
0
  10
1.76195
  20
2.21209
  0
VERTEX
  8
0
  10
1.76276
  20
2.21021
  0
VERTEX
  8
0
  10
1.76366
  20
2.20832
  0
VERTEX
  8
0
  10
1.76454
  20
2.20629
  0
VERTEX
  8
0
  10
1.76538
  20
2.20416
  0
VERTEX
  8
0
  10
1.76617
  20
2.20195
  0
VERTEX
  8
0
  10
1.76689
  20
2.19970
  0
VERTEX
  8
0
  10
1.76752
  20
2.19745
  0
VERTEX
  8
0
  10
1.76804
  20
2.19524
  0
VERTEX
  8
0
  10
1.76843
  20
2.19311
  0
VERTEX
  8
0
  10
1.76868
  20
2.19108
  0
VERTEX
  8
0
  10
1.76877
  20
2.18919
  0
VERTEX
  8
0
  10
1.76885
  20
2.18658
  0
VERTEX
  8
0
  10
1.76908
  20
2.18414
  0
VERTEX
  8
0
  10
1.76942
  20
2.18189
  0
VERTEX
  8
0
  10
1.76983
  20
2.17982
  0
VERTEX
  8
0
  10
1.77027
  20
2.17793
  0
VERTEX
  8
0
  10
1.77071
  20
2.17622
  0
VERTEX
  8
0
  10
1.77112
  20
2.17468
  0
VERTEX
  8
0
  10
1.77146
  20
2.17333
  0
VERTEX
  8
0
  10
1.77169
  20
2.17216
  0
VERTEX
  8
0
  10
1.77177
  20
2.17117
  0
VERTEX
  8
0
  10
1.77267
  20
2.16920
  0
VERTEX
  8
0
  10
1.77355
  20
2.16692
  0
VERTEX
  8
0
  10
1.77439
  20
2.16439
  0
VERTEX
  8
0
  10
1.77518
  20
2.16166
  0
VERTEX
  8
0
  10
1.77590
  20
2.15878
  0
VERTEX
  8
0
  10
1.77653
  20
2.15582
  0
VERTEX
  8
0
  10
1.77705
  20
2.15282
  0
VERTEX
  8
0
  10
1.77744
  20
2.14984
  0
VERTEX
  8
0
  10
1.77769
  20
2.14693
  0
VERTEX
  8
0
  10
1.77778
  20
2.14414
  0
VERTEX
  8
0
  10
1.77786
  20
2.14063
  0
VERTEX
  8
0
  10
1.77809
  20
2.13732
  0
VERTEX
  8
0
  10
1.77843
  20
2.13423
  0
VERTEX
  8
0
  10
1.77883
  20
2.13136
  0
VERTEX
  8
0
  10
1.77928
  20
2.12875
  0
VERTEX
  8
0
  10
1.77972
  20
2.12641
  0
VERTEX
  8
0
  10
1.78013
  20
2.12436
  0
VERTEX
  8
0
  10
1.78047
  20
2.12262
  0
VERTEX
  8
0
  10
1.78070
  20
2.12120
  0
VERTEX
  8
0
  10
1.78078
  20
2.12012
  0
VERTEX
  8
0
  10
1.78142
  20
2.11897
  0
VERTEX
  8
0
  10
1.78157
  20
2.11741
  0
VERTEX
  8
0
  10
1.78129
  20
2.11555
  0
VERTEX
  8
0
  10
1.78064
  20
2.11354
  0
VERTEX
  8
0
  10
1.77965
  20
2.11149
  0
VERTEX
  8
0
  10
1.77840
  20
2.10953
  0
VERTEX
  8
0
  10
1.77693
  20
2.10778
  0
VERTEX
  8
0
  10
1.77530
  20
2.10638
  0
VERTEX
  8
0
  10
1.77356
  20
2.10544
  0
VERTEX
  8
0
  10
1.77177
  20
2.10511
  0
VERTEX
  8
0
  10
1.76994
  20
2.10613
  0
VERTEX
  8
0
  10
1.76651
  20
2.10895
  0
VERTEX
  8
0
  10
1.76185
  20
2.11321
  0
VERTEX
  8
0
  10
1.75635
  20
2.11856
  0
VERTEX
  8
0
  10
1.75038
  20
2.12462
  0
VERTEX
  8
0
  10
1.74431
  20
2.13105
  0
VERTEX
  8
0
  10
1.73854
  20
2.13748
  0
VERTEX
  8
0
  10
1.73343
  20
2.14354
  0
VERTEX
  8
0
  10
1.72937
  20
2.14889
  0
VERTEX
  8
0
  10
1.72673
  20
2.15315
  0
VERTEX
  8
0
  10
1.72621
  20
2.15449
  0
VERTEX
  8
0
  10
1.72473
  20
2.15666
  0
VERTEX
  8
0
  10
1.72243
  20
2.15959
  0
VERTEX
  8
0
  10
1.71942
  20
2.16320
  0
VERTEX
  8
0
  10
1.71584
  20
2.16742
  0
VERTEX
  8
0
  10
1.71181
  20
2.17218
  0
VERTEX
  8
0
  10
1.70745
  20
2.17741
  0
VERTEX
  8
0
  10
1.70289
  20
2.18304
  0
VERTEX
  8
0
  10
1.69827
  20
2.18899
  0
VERTEX
  8
0
  10
1.69369
  20
2.19520
  0
VERTEX
  8
0
  10
1.68553
  20
2.20452
  0
VERTEX
  8
0
  10
1.67736
  20
2.21427
  0
VERTEX
  8
0
  10
1.66937
  20
2.22417
  0
VERTEX
  8
0
  10
1.66174
  20
2.23392
  0
VERTEX
  8
0
  10
1.65465
  20
2.24324
  0
VERTEX
  8
0
  10
1.64829
  20
2.25184
  0
VERTEX
  8
0
  10
1.64282
  20
2.25944
  0
VERTEX
  8
0
  10
1.63844
  20
2.26573
  0
VERTEX
  8
0
  10
1.63532
  20
2.27044
  0
VERTEX
  8
0
  10
1.63363
  20
2.27327
  0
VERTEX
  8
0
  10
1.63337
  20
2.27444
  0
VERTEX
  8
0
  10
1.63260
  20
2.27611
  0
VERTEX
  8
0
  10
1.63136
  20
2.27825
  0
VERTEX
  8
0
  10
1.62969
  20
2.28082
  0
VERTEX
  8
0
  10
1.62763
  20
2.28378
  0
VERTEX
  8
0
  10
1.62520
  20
2.28711
  0
VERTEX
  8
0
  10
1.62245
  20
2.29076
  0
VERTEX
  8
0
  10
1.61941
  20
2.29470
  0
VERTEX
  8
0
  10
1.61612
  20
2.29889
  0
VERTEX
  8
0
  10
1.61261
  20
2.30330
  0
VERTEX
  8
0
  10
1.60396
  20
2.31429
  0
VERTEX
  8
0
  10
1.59599
  20
2.32382
  0
VERTEX
  8
0
  10
1.58867
  20
2.33187
  0
VERTEX
  8
0
  10
1.58196
  20
2.33843
  0
VERTEX
  8
0
  10
1.57583
  20
2.34347
  0
VERTEX
  8
0
  10
1.57023
  20
2.34698
  0
VERTEX
  8
0
  10
1.56515
  20
2.34894
  0
VERTEX
  8
0
  10
1.56053
  20
2.34933
  0
VERTEX
  8
0
  10
1.55634
  20
2.34814
  0
VERTEX
  8
0
  10
1.55255
  20
2.34535
  0
VERTEX
  8
0
  10
1.55156
  20
2.33878
  0
VERTEX
  8
0
  10
1.55366
  20
2.32704
  0
VERTEX
  8
0
  10
1.55831
  20
2.31126
  0
VERTEX
  8
0
  10
1.56500
  20
2.29259
  0
VERTEX
  8
0
  10
1.57320
  20
2.27215
  0
VERTEX
  8
0
  10
1.58239
  20
2.25108
  0
VERTEX
  8
0
  10
1.59205
  20
2.23051
  0
VERTEX
  8
0
  10
1.60166
  20
2.21158
  0
VERTEX
  8
0
  10
1.61069
  20
2.19543
  0
VERTEX
  8
0
  10
1.61862
  20
2.18318
  0
VERTEX
  8
0
  10
1.62141
  20
2.18104
  0
VERTEX
  8
0
  10
1.62436
  20
2.17828
  0
VERTEX
  8
0
  10
1.62746
  20
2.17502
  0
VERTEX
  8
0
  10
1.63068
  20
2.17136
  0
VERTEX
  8
0
  10
1.63401
  20
2.16742
  0
VERTEX
  8
0
  10
1.63743
  20
2.16329
  0
VERTEX
  8
0
  10
1.64092
  20
2.15909
  0
VERTEX
  8
0
  10
1.64447
  20
2.15493
  0
VERTEX
  8
0
  10
1.64805
  20
2.15091
  0
VERTEX
  8
0
  10
1.65165
  20
2.14715
  0
VERTEX
  8
0
  10
1.68168
  20
2.10811
  0
VERTEX
  8
0
  10
1.68831
  20
2.09990
  0
VERTEX
  8
0
  10
1.69540
  20
2.09002
  0
VERTEX
  8
0
  10
1.70271
  20
2.07895
  0
VERTEX
  8
0
  10
1.70998
  20
2.06717
  0
VERTEX
  8
0
  10
1.71697
  20
2.05518
  0
VERTEX
  8
0
  10
1.72341
  20
2.04346
  0
VERTEX
  8
0
  10
1.72906
  20
2.03250
  0
VERTEX
  8
0
  10
1.73367
  20
2.02277
  0
VERTEX
  8
0
  10
1.73698
  20
2.01478
  0
VERTEX
  8
0
  10
1.73874
  20
2.00901
  0
VERTEX
  8
0
  10
1.73955
  20
2.00640
  0
VERTEX
  8
0
  10
1.74020
  20
2.00396
  0
VERTEX
  8
0
  10
1.74071
  20
2.00171
  0
VERTEX
  8
0
  10
1.74109
  20
1.99964
  0
VERTEX
  8
0
  10
1.74137
  20
1.99775
  0
VERTEX
  8
0
  10
1.74155
  20
1.99604
  0
VERTEX
  8
0
  10
1.74166
  20
1.99450
  0
VERTEX
  8
0
  10
1.74172
  20
1.99315
  0
VERTEX
  8
0
  10
1.74174
  20
1.99198
  0
VERTEX
  8
0
  10
1.74174
  20
1.99099
  0
VERTEX
  8
0
  10
1.74143
  20
1.98929
  0
VERTEX
  8
0
  10
1.74109
  20
1.98726
  0
VERTEX
  8
0
  10
1.74068
  20
1.98455
  0
VERTEX
  8
0
  10
1.74024
  20
1.98123
  0
VERTEX
  8
0
  10
1.73980
  20
1.97737
  0
VERTEX
  8
0
  10
1.73939
  20
1.97304
  0
VERTEX
  8
0
  10
1.73905
  20
1.96831
  0
VERTEX
  8
0
  10
1.73882
  20
1.96326
  0
VERTEX
  8
0
  10
1.73874
  20
1.95796
  0
VERTEX
  8
0
  10
1.73946
  20
1.95036
  0
VERTEX
  8
0
  10
1.73984
  20
1.94366
  0
VERTEX
  8
0
  10
1.73990
  20
1.93769
  0
VERTEX
  8
0
  10
1.73965
  20
1.93225
  0
VERTEX
  8
0
  10
1.73911
  20
1.92718
  0
VERTEX
  8
0
  10
1.73831
  20
1.92228
  0
VERTEX
  8
0
  10
1.73725
  20
1.91739
  0
VERTEX
  8
0
  10
1.73595
  20
1.91231
  0
VERTEX
  8
0
  10
1.73444
  20
1.90688
  0
VERTEX
  8
0
  10
1.73273
  20
1.90090
  0
VERTEX
  8
0
  10
1.72673
  20
1.87387
  0
VERTEX
  8
0
  10
1.72647
  20
1.87253
  0
VERTEX
  8
0
  10
1.72574
  20
1.87037
  0
VERTEX
  8
0
  10
1.72462
  20
1.86744
  0
VERTEX
  8
0
  10
1.72317
  20
1.86383
  0
VERTEX
  8
0
  10
1.72147
  20
1.85961
  0
VERTEX
  8
0
  10
1.71959
  20
1.85485
  0
VERTEX
  8
0
  10
1.71760
  20
1.84962
  0
VERTEX
  8
0
  10
1.71558
  20
1.84399
  0
VERTEX
  8
0
  10
1.71359
  20
1.83804
  0
VERTEX
  8
0
  10
1.71171
  20
1.83183
  0
VERTEX
  8
0
  10
1.70630
  20
1.81974
  0
VERTEX
  8
0
  10
1.70085
  20
1.80865
  0
VERTEX
  8
0
  10
1.69533
  20
1.79845
  0
VERTEX
  8
0
  10
1.68971
  20
1.78907
  0
VERTEX
  8
0
  10
1.68393
  20
1.78041
  0
VERTEX
  8
0
  10
1.67798
  20
1.77237
  0
VERTEX
  8
0
  10
1.67181
  20
1.76488
  0
VERTEX
  8
0
  10
1.66539
  20
1.75784
  0
VERTEX
  8
0
  10
1.65868
  20
1.75116
  0
VERTEX
  8
0
  10
1.65165
  20
1.74474
  0
VERTEX
  8
0
  10
1.64532
  20
1.74123
  0
VERTEX
  8
0
  10
1.63880
  20
1.73787
  0
VERTEX
  8
0
  10
1.63192
  20
1.73466
  0
VERTEX
  8
0
  10
1.62450
  20
1.73158
  0
VERTEX
  8
0
  10
1.61637
  20
1.72860
  0
VERTEX
  8
0
  10
1.60733
  20
1.72572
  0
VERTEX
  8
0
  10
1.59721
  20
1.72290
  0
VERTEX
  8
0
  10
1.58583
  20
1.72014
  0
VERTEX
  8
0
  10
1.57300
  20
1.71742
  0
VERTEX
  8
0
  10
1.55856
  20
1.71471
  0
VERTEX
  8
0
  10
1.54762
  20
1.71310
  0
VERTEX
  8
0
  10
1.53775
  20
1.71186
  0
VERTEX
  8
0
  10
1.52821
  20
1.71101
  0
VERTEX
  8
0
  10
1.51825
  20
1.71058
  0
VERTEX
  8
0
  10
1.50713
  20
1.71059
  0
VERTEX
  8
0
  10
1.49413
  20
1.71104
  0
VERTEX
  8
0
  10
1.47849
  20
1.71196
  0
VERTEX
  8
0
  10
1.45948
  20
1.71337
  0
VERTEX
  8
0
  10
1.43637
  20
1.71528
  0
VERTEX
  8
0
  10
1.40841
  20
1.71772
  0
VERTEX
  8
0
  10
1.39144
  20
1.71871
  0
VERTEX
  8
0
  10
1.37648
  20
1.71990
  0
VERTEX
  8
0
  10
1.36335
  20
1.72131
  0
VERTEX
  8
0
  10
1.35190
  20
1.72295
  0
VERTEX
  8
0
  10
1.34197
  20
1.72485
  0
VERTEX
  8
0
  10
1.33338
  20
1.72702
  0
VERTEX
  8
0
  10
1.32599
  20
1.72947
  0
VERTEX
  8
0
  10
1.31962
  20
1.73223
  0
VERTEX
  8
0
  10
1.31411
  20
1.73531
  0
VERTEX
  8
0
  10
1.30931
  20
1.73874
  0
VERTEX
  8
0
  10
1.30735
  20
1.74129
  0
VERTEX
  8
0
  10
1.30515
  20
1.74513
  0
VERTEX
  8
0
  10
1.30285
  20
1.74990
  0
VERTEX
  8
0
  10
1.30056
  20
1.75527
  0
VERTEX
  8
0
  10
1.29842
  20
1.76089
  0
VERTEX
  8
0
  10
1.29655
  20
1.76641
  0
VERTEX
  8
0
  10
1.29508
  20
1.77151
  0
VERTEX
  8
0
  10
1.29413
  20
1.77583
  0
VERTEX
  8
0
  10
1.29382
  20
1.77904
  0
VERTEX
  8
0
  10
1.29429
  20
1.78078
  0
VERTEX
  8
0
  10
1.29511
  20
1.78730
  0
VERTEX
  8
0
  10
1.29574
  20
1.80192
  0
VERTEX
  8
0
  10
1.29619
  20
1.82267
  0
VERTEX
  8
0
  10
1.29646
  20
1.84757
  0
VERTEX
  8
0
  10
1.29655
  20
1.87462
  0
VERTEX
  8
0
  10
1.29646
  20
1.90186
  0
VERTEX
  8
0
  10
1.29619
  20
1.92730
  0
VERTEX
  8
0
  10
1.29574
  20
1.94895
  0
VERTEX
  8
0
  10
1.29511
  20
1.96483
  0
VERTEX
  8
0
  10
1.29429
  20
1.97297
  0
VERTEX
  8
0
  10
1.29421
  20
1.97504
  0
VERTEX
  8
0
  10
1.29398
  20
1.97759
  0
VERTEX
  8
0
  10
1.29365
  20
1.98057
  0
VERTEX
  8
0
  10
1.29324
  20
1.98393
  0
VERTEX
  8
0
  10
1.29279
  20
1.98761
  0
VERTEX
  8
0
  10
1.29235
  20
1.99157
  0
VERTEX
  8
0
  10
1.29194
  20
1.99574
  0
VERTEX
  8
0
  10
1.29160
  20
2.00007
  0
VERTEX
  8
0
  10
1.29138
  20
2.00451
  0
VERTEX
  8
0
  10
1.29129
  20
2.00901
  0
VERTEX
  8
0
  10
1.28228
  20
2.04505
  0
VERTEX
  8
0
  10
1.27966
  20
2.05073
  0
VERTEX
  8
0
  10
1.27717
  20
2.05518
  0
VERTEX
  8
0
  10
1.27474
  20
2.05845
  0
VERTEX
  8
0
  10
1.27234
  20
2.06056
  0
VERTEX
  8
0
  10
1.26989
  20
2.06156
  0
VERTEX
  8
0
  10
1.26736
  20
2.06148
  0
VERTEX
  8
0
  10
1.26469
  20
2.06035
  0
VERTEX
  8
0
  10
1.26181
  20
2.05821
  0
VERTEX
  8
0
  10
1.25869
  20
2.05510
  0
VERTEX
  8
0
  10
1.25526
  20
2.05105
  0
VERTEX
  8
0
  10
1.25282
  20
2.04653
  0
VERTEX
  8
0
  10
1.25091
  20
2.04195
  0
VERTEX
  8
0
  10
1.24950
  20
2.03721
  0
VERTEX
  8
0
  10
1.24858
  20
2.03226
  0
VERTEX
  8
0
  10
1.24812
  20
2.02703
  0
VERTEX
  8
0
  10
1.24812
  20
2.02143
  0
VERTEX
  8
0
  10
1.24855
  20
2.01540
  0
VERTEX
  8
0
  10
1.24939
  20
2.00886
  0
VERTEX
  8
0
  10
1.25063
  20
2.00175
  0
VERTEX
  8
0
  10
1.25225
  20
1.99399
  0
VERTEX
  8
0
  10
1.25315
  20
1.98956
  0
VERTEX
  8
0
  10
1.25401
  20
1.98515
  0
VERTEX
  8
0
  10
1.25479
  20
1.98064
  0
VERTEX
  8
0
  10
1.25547
  20
1.97588
  0
VERTEX
  8
0
  10
1.25601
  20
1.97072
  0
VERTEX
  8
0
  10
1.25636
  20
1.96502
  0
VERTEX
  8
0
  10
1.25650
  20
1.95864
  0
VERTEX
  8
0
  10
1.25638
  20
1.95142
  0
VERTEX
  8
0
  10
1.25598
  20
1.94324
  0
VERTEX
  8
0
  10
1.25526
  20
1.93393
  0
VERTEX
  8
0
  10
1.25517
  20
1.92683
  0
VERTEX
  8
0
  10
1.25494
  20
1.91998
  0
VERTEX
  8
0
  10
1.25461
  20
1.91345
  0
VERTEX
  8
0
  10
1.25420
  20
1.90732
  0
VERTEX
  8
0
  10
1.25375
  20
1.90165
  0
VERTEX
  8
0
  10
1.25331
  20
1.89653
  0
VERTEX
  8
0
  10
1.25290
  20
1.89202
  0
VERTEX
  8
0
  10
1.25256
  20
1.88819
  0
VERTEX
  8
0
  10
1.25234
  20
1.88512
  0
VERTEX
  8
0
  10
1.25225
  20
1.88288
  0
VERTEX
  8
0
  10
1.25135
  20
1.88091
  0
VERTEX
  8
0
  10
1.25047
  20
1.87863
  0
VERTEX
  8
0
  10
1.24963
  20
1.87610
  0
VERTEX
  8
0
  10
1.24884
  20
1.87337
  0
VERTEX
  8
0
  10
1.24812
  20
1.87050
  0
VERTEX
  8
0
  10
1.24750
  20
1.86753
  0
VERTEX
  8
0
  10
1.24698
  20
1.86453
  0
VERTEX
  8
0
  10
1.24658
  20
1.86155
  0
VERTEX
  8
0
  10
1.24633
  20
1.85864
  0
VERTEX
  8
0
  10
1.24625
  20
1.85586
  0
VERTEX
  8
0
  10
1.24607
  20
1.85217
  0
VERTEX
  8
0
  10
1.24557
  20
1.84831
  0
VERTEX
  8
0
  10
1.24479
  20
1.84432
  0
VERTEX
  8
0
  10
1.24375
  20
1.84019
  0
VERTEX
  8
0
  10
1.24249
  20
1.83596
  0
VERTEX
  8
0
  10
1.24106
  20
1.83164
  0
VERTEX
  8
0
  10
1.23948
  20
1.82725
  0
VERTEX
  8
0
  10
1.23779
  20
1.82280
  0
VERTEX
  8
0
  10
1.23603
  20
1.81832
  0
VERTEX
  8
0
  10
1.23423
  20
1.81381
  0
VERTEX
  8
0
  10
1.23244
  20
1.81005
  0
VERTEX
  8
0
  10
1.23065
  20
1.80603
  0
VERTEX
  8
0
  10
1.22891
  20
1.80187
  0
VERTEX
  8
0
  10
1.22722
  20
1.79767
  0
VERTEX
  8
0
  10
1.22560
  20
1.79354
  0
VERTEX
  8
0
  10
1.22407
  20
1.78960
  0
VERTEX
  8
0
  10
1.22265
  20
1.78594
  0
VERTEX
  8
0
  10
1.22136
  20
1.78268
  0
VERTEX
  8
0
  10
1.22021
  20
1.77992
  0
VERTEX
  8
0
  10
1.21922
  20
1.77778
  0
VERTEX
  8
0
  10
1.21330
  20
1.76250
  0
VERTEX
  8
0
  10
1.20649
  20
1.74746
  0
VERTEX
  8
0
  10
1.19895
  20
1.73289
  0
VERTEX
  8
0
  10
1.19087
  20
1.71902
  0
VERTEX
  8
0
  10
1.18243
  20
1.70608
  0
VERTEX
  8
0
  10
1.17381
  20
1.69432
  0
VERTEX
  8
0
  10
1.16520
  20
1.68396
  0
VERTEX
  8
0
  10
1.15676
  20
1.67524
  0
VERTEX
  8
0
  10
1.14868
  20
1.66840
  0
VERTEX
  8
0
  10
1.14114
  20
1.66366
  0
VERTEX
  8
0
  10
1.09910
  20
1.64865
  0
VERTEX
  8
0
  10
1.09223
  20
1.64612
  0
VERTEX
  8
0
  10
1.08596
  20
1.64394
  0
VERTEX
  8
0
  10
1.08015
  20
1.64208
  0
VERTEX
  8
0
  10
1.07469
  20
1.64053
  0
VERTEX
  8
0
  10
1.06944
  20
1.63926
  0
VERTEX
  8
0
  10
1.06429
  20
1.63827
  0
VERTEX
  8
0
  10
1.05910
  20
1.63753
  0
VERTEX
  8
0
  10
1.05374
  20
1.63702
  0
VERTEX
  8
0
  10
1.04810
  20
1.63673
  0
VERTEX
  8
0
  10
1.04204
  20
1.63664
  0
VERTEX
  8
0
  10
1.03729
  20
1.63655
  0
VERTEX
  8
0
  10
1.03210
  20
1.63632
  0
VERTEX
  8
0
  10
1.02658
  20
1.63599
  0
VERTEX
  8
0
  10
1.02085
  20
1.63558
  0
VERTEX
  8
0
  10
1.01502
  20
1.63514
  0
VERTEX
  8
0
  10
1.00918
  20
1.63469
  0
VERTEX
  8
0
  10
1.00345
  20
1.63428
  0
VERTEX
  8
0
  10
0.99793
  20
1.63395
  0
VERTEX
  8
0
  10
0.99274
  20
1.63372
  0
VERTEX
  8
0
  10
0.98799
  20
1.63363
  0
VERTEX
  8
0
  10
0.98212
  20
1.63283
  0
VERTEX
  8
0
  10
0.97706
  20
1.63222
  0
VERTEX
  8
0
  10
0.97272
  20
1.63182
  0
VERTEX
  8
0
  10
0.96901
  20
1.63166
  0
VERTEX
  8
0
  10
0.96584
  20
1.63176
  0
VERTEX
  8
0
  10
0.96312
  20
1.63212
  0
VERTEX
  8
0
  10
0.96077
  20
1.63277
  0
VERTEX
  8
0
  10
0.95868
  20
1.63373
  0
VERTEX
  8
0
  10
0.95677
  20
1.63501
  0
VERTEX
  8
0
  10
0.95495
  20
1.63664
  0
VERTEX
  8
0
  10
0.95102
  20
1.63924
  0
VERTEX
  8
0
  10
0.94650
  20
1.64163
  0
VERTEX
  8
0
  10
0.94155
  20
1.64377
  0
VERTEX
  8
0
  10
0.93631
  20
1.64562
  0
VERTEX
  8
0
  10
0.93093
  20
1.64715
  0
VERTEX
  8
0
  10
0.92555
  20
1.64831
  0
VERTEX
  8
0
  10
0.92031
  20
1.64908
  0
VERTEX
  8
0
  10
0.91536
  20
1.64942
  0
VERTEX
  8
0
  10
0.91085
  20
1.64929
  0
VERTEX
  8
0
  10
0.90691
  20
1.64865
  0
VERTEX
  8
0
  10
0.90323
  20
1.64801
  0
VERTEX
  8
0
  10
0.89944
  20
1.64788
  0
VERTEX
  8
0
  10
0.89561
  20
1.64822
  0
VERTEX
  8
0
  10
0.89182
  20
1.64898
  0
VERTEX
  8
0
  10
0.88814
  20
1.65015
  0
VERTEX
  8
0
  10
0.88464
  20
1.65168
  0
VERTEX
  8
0
  10
0.88139
  20
1.65353
  0
VERTEX
  8
0
  10
0.87846
  20
1.65566
  0
VERTEX
  8
0
  10
0.87593
  20
1.65805
  0
VERTEX
  8
0
  10
0.87387
  20
1.66066
  0
VERTEX
  8
0
  10
0.87131
  20
1.66271
  0
VERTEX
  8
0
  10
0.86744
  20
1.66515
  0
VERTEX
  8
0
  10
0.86255
  20
1.66785
  0
VERTEX
  8
0
  10
0.85696
  20
1.67065
  0
VERTEX
  8
0
  10
0.85098
  20
1.67342
  0
VERTEX
  8
0
  10
0.84490
  20
1.67601
  0
VERTEX
  8
0
  10
0.83904
  20
1.67828
  0
VERTEX
  8
0
  10
0.83371
  20
1.68007
  0
VERTEX
  8
0
  10
0.82920
  20
1.68126
  0
VERTEX
  8
0
  10
0.82583
  20
1.68168
  0
VERTEX
  8
0
  10
0.82304
  20
1.68212
  0
VERTEX
  8
0
  10
0.82011
  20
1.68339
  0
VERTEX
  8
0
  10
0.81707
  20
1.68541
  0
VERTEX
  8
0
  10
0.81396
  20
1.68812
  0
VERTEX
  8
0
  10
0.81081
  20
1.69144
  0
VERTEX
  8
0
  10
0.80766
  20
1.69530
  0
VERTEX
  8
0
  10
0.80455
  20
1.69963
  0
VERTEX
  8
0
  10
0.80151
  20
1.70436
  0
VERTEX
  8
0
  10
0.79858
  20
1.70941
  0
VERTEX
  8
0
  10
0.79580
  20
1.71471
  0
VERTEX
  8
0
  10
0.79481
  20
1.71750
  0
VERTEX
  8
0
  10
0.79368
  20
1.72038
  0
VERTEX
  8
0
  10
0.79244
  20
1.72331
  0
VERTEX
  8
0
  10
0.79114
  20
1.72620
  0
VERTEX
  8
0
  10
0.78979
  20
1.72898
  0
VERTEX
  8
0
  10
0.78844
  20
1.73158
  0
VERTEX
  8
0
  10
0.78714
  20
1.73393
  0
VERTEX
  8
0
  10
0.78590
  20
1.73595
  0
VERTEX
  8
0
  10
0.78477
  20
1.73758
  0
VERTEX
  8
0
  10
0.78378
  20
1.73874
  0
VERTEX
  8
0
  10
0.78271
  20
1.74130
  0
VERTEX
  8
0
  10
0.78136
  20
1.74520
  0
VERTEX
  8
0
  10
0.77978
  20
1.75014
  0
VERTEX
  8
0
  10
0.77807
  20
1.75584
  0
VERTEX
  8
0
  10
0.77628
  20
1.76201
  0
VERTEX
  8
0
  10
0.77449
  20
1.76836
  0
VERTEX
  8
0
  10
0.77277
  20
1.77460
  0
VERTEX
  8
0
  10
0.77120
  20
1.78044
  0
VERTEX
  8
0
  10
0.76984
  20
1.78560
  0
VERTEX
  8
0
  10
0.76877
  20
1.78979
  0
VERTEX
  8
0
  10
0.76868
  20
1.79168
  0
VERTEX
  8
0
  10
0.76846
  20
1.79371
  0
VERTEX
  8
0
  10
0.76812
  20
1.79584
  0
VERTEX
  8
0
  10
0.76771
  20
1.79805
  0
VERTEX
  8
0
  10
0.76727
  20
1.80030
  0
VERTEX
  8
0
  10
0.76682
  20
1.80255
  0
VERTEX
  8
0
  10
0.76641
  20
1.80476
  0
VERTEX
  8
0
  10
0.76608
  20
1.80689
  0
VERTEX
  8
0
  10
0.76585
  20
1.80892
  0
VERTEX
  8
0
  10
0.76577
  20
1.81081
  0
VERTEX
  8
0
  10
0.76568
  20
1.81269
  0
VERTEX
  8
0
  10
0.76545
  20
1.81470
  0
VERTEX
  8
0
  10
0.76512
  20
1.81678
  0
VERTEX
  8
0
  10
0.76471
  20
1.81888
  0
VERTEX
  8
0
  10
0.76426
  20
1.82095
  0
VERTEX
  8
0
  10
0.76382
  20
1.82292
  0
VERTEX
  8
0
  10
0.76341
  20
1.82475
  0
VERTEX
  8
0
  10
0.76308
  20
1.82638
  0
VERTEX
  8
0
  10
0.76285
  20
1.82776
  0
VERTEX
  8
0
  10
0.76276
  20
1.82883
  0
VERTEX
  8
0
  10
0.76114
  20
1.83804
  0
VERTEX
  8
0
  10
0.75990
  20
1.84774
  0
VERTEX
  8
0
  10
0.75906
  20
1.85804
  0
VERTEX
  8
0
  10
0.75863
  20
1.86909
  0
VERTEX
  8
0
  10
0.75863
  20
1.88101
  0
VERTEX
  8
0
  10
0.75909
  20
1.89391
  0
VERTEX
  8
0
  10
0.76001
  20
1.90793
  0
VERTEX
  8
0
  10
0.76142
  20
1.92320
  0
VERTEX
  8
0
  10
0.76333
  20
1.93983
  0
VERTEX
  8
0
  10
0.76577
  20
1.95796
  0
VERTEX
  8
0
  10
0.76666
  20
1.96280
  0
VERTEX
  8
0
  10
0.76754
  20
1.96822
  0
VERTEX
  8
0
  10
0.76839
  20
1.97407
  0
VERTEX
  8
0
  10
0.76918
  20
1.98020
  0
VERTEX
  8
0
  10
0.76989
  20
1.98649
  0
VERTEX
  8
0
  10
0.77052
  20
1.99277
  0
VERTEX
  8
0
  10
0.77104
  20
1.99891
  0
VERTEX
  8
0
  10
0.77144
  20
2.00476
  0
VERTEX
  8
0
  10
0.77168
  20
2.01017
  0
VERTEX
  8
0
  10
0.77177
  20
2.01502
  0
VERTEX
  8
0
  10
0.77186
  20
2.01780
  0
VERTEX
  8
0
  10
0.77208
  20
2.02071
  0
VERTEX
  8
0
  10
0.77242
  20
2.02369
  0
VERTEX
  8
0
  10
0.77283
  20
2.02669
  0
VERTEX
  8
0
  10
0.77327
  20
2.02965
  0
VERTEX
  8
0
  10
0.77372
  20
2.03253
  0
VERTEX
  8
0
  10
0.77413
  20
2.03526
  0
VERTEX
  8
0
  10
0.77446
  20
2.03779
  0
VERTEX
  8
0
  10
0.77469
  20
2.04007
  0
VERTEX
  8
0
  10
0.77477
  20
2.04204
  0
VERTEX
  8
0
  10
0.77550
  20
2.04636
  0
VERTEX
  8
0
  10
0.77588
  20
2.05031
  0
VERTEX
  8
0
  10
0.77594
  20
2.05385
  0
VERTEX
  8
0
  10
0.77569
  20
2.05698
  0
VERTEX
  8
0
  10
0.77515
  20
2.05968
  0
VERTEX
  8
0
  10
0.77434
  20
2.06193
  0
VERTEX
  8
0
  10
0.77328
  20
2.06371
  0
VERTEX
  8
0
  10
0.77199
  20
2.06501
  0
VERTEX
  8
0
  10
0.77048
  20
2.06580
  0
VERTEX
  8
0
  10
0.76877
  20
2.06607
  0
VERTEX
  8
0
  10
0.76638
  20
2.06521
  0
VERTEX
  8
0
  10
0.76295
  20
2.06280
  0
VERTEX
  8
0
  10
0.75874
  20
2.05909
  0
VERTEX
  8
0
  10
0.75397
  20
2.05434
  0
VERTEX
  8
0
  10
0.74887
  20
2.04880
  0
VERTEX
  8
0
  10
0.74369
  20
2.04271
  0
VERTEX
  8
0
  10
0.73865
  20
2.03634
  0
VERTEX
  8
0
  10
0.73398
  20
2.02993
  0
VERTEX
  8
0
  10
0.72993
  20
2.02374
  0
VERTEX
  8
0
  10
0.72673
  20
2.01802
  0
VERTEX
  8
0
  10
0.72412
  20
2.01344
  0
VERTEX
  8
0
  10
0.72171
  20
2.00879
  0
VERTEX
  8
0
  10
0.71951
  20
2.00418
  0
VERTEX
  8
0
  10
0.71755
  20
1.99971
  0
VERTEX
  8
0
  10
0.71584
  20
1.99550
  0
VERTEX
  8
0
  10
0.71440
  20
1.99164
  0
VERTEX
  8
0
  10
0.71325
  20
1.98825
  0
VERTEX
  8
0
  10
0.71241
  20
1.98544
  0
VERTEX
  8
0
  10
0.71189
  20
1.98332
  0
VERTEX
  8
0
  10
0.71171
  20
1.98198
  0
VERTEX
  8
0
  10
0.71162
  20
1.98074
  0
VERTEX
  8
0
  10
0.71135
  20
1.97886
  0
VERTEX
  8
0
  10
0.71090
  20
1.97644
  0
VERTEX
  8
0
  10
0.71027
  20
1.97357
  0
VERTEX
  8
0
  10
0.70946
  20
1.97035
  0
VERTEX
  8
0
  10
0.70847
  20
1.96685
  0
VERTEX
  8
0
  10
0.70730
  20
1.96317
  0
VERTEX
  8
0
  10
0.70595
  20
1.95940
  0
VERTEX
  8
0
  10
0.70441
  20
1.95563
  0
VERTEX
  8
0
  10
0.70270
  20
1.95195
  0
VERTEX
  8
0
  10
0.70180
  20
1.94819
  0
VERTEX
  8
0
  10
0.70092
  20
1.94417
  0
VERTEX
  8
0
  10
0.70008
  20
1.94001
  0
VERTEX
  8
0
  10
0.69929
  20
1.93581
  0
VERTEX
  8
0
  10
0.69857
  20
1.93168
  0
VERTEX
  8
0
  10
0.69795
  20
1.92774
  0
VERTEX
  8
0
  10
0.69743
  20
1.92408
  0
VERTEX
  8
0
  10
0.69703
  20
1.92082
  0
VERTEX
  8
0
  10
0.69678
  20
1.91806
  0
VERTEX
  8
0
  10
0.69670
  20
1.91592
  0
VERTEX
  8
0
  10
0.69661
  20
1.91493
  0
VERTEX
  8
0
  10
0.69638
  20
1.91380
  0
VERTEX
  8
0
  10
0.69605
  20
1.91256
  0
VERTEX
  8
0
  10
0.69564
  20
1.91126
  0
VERTEX
  8
0
  10
0.69520
  20
1.90991
  0
VERTEX
  8
0
  10
0.69475
  20
1.90856
  0
VERTEX
  8
0
  10
0.69434
  20
1.90726
  0
VERTEX
  8
0
  10
0.69401
  20
1.90602
  0
VERTEX
  8
0
  10
0.69378
  20
1.90489
  0
VERTEX
  8
0
  10
0.69369
  20
1.90390
  0
VERTEX
  8
0
  10
0.69353
  20
1.90129
  0
VERTEX
  8
0
  10
0.69307
  20
1.89413
  0
VERTEX
  8
0
  10
0.69240
  20
1.88347
  0
VERTEX
  8
0
  10
0.69158
  20
1.87037
  0
VERTEX
  8
0
  10
0.69069
  20
1.85586
  0
VERTEX
  8
0
  10
0.68980
  20
1.84098
  0
VERTEX
  8
0
  10
0.68898
  20
1.82680
  0
VERTEX
  8
0
  10
0.68831
  20
1.81434
  0
VERTEX
  8
0
  10
0.68786
  20
1.80466
  0
VERTEX
  8
0
  10
0.68769
  20
1.79880
  0
VERTEX
  8
0
  10
0.68841
  20
1.79447
  0
VERTEX
  8
0
  10
0.68877
  20
1.79049
  0
VERTEX
  8
0
  10
0.68877
  20
1.78683
  0
VERTEX
  8
0
  10
0.68841
  20
1.78347
  0
VERTEX
  8
0
  10
0.68769
  20
1.78041
  0
VERTEX
  8
0
  10
0.68661
  20
1.77761
  0
VERTEX
  8
0
  10
0.68517
  20
1.77507
  0
VERTEX
  8
0
  10
0.68336
  20
1.77276
  0
VERTEX
  8
0
  10
0.68120
  20
1.77066
  0
VERTEX
  8
0
  10
0.67868
  20
1.76877
  0
VERTEX
  8
0
  10
0.67365
  20
1.76616
  0
VERTEX
  8
0
  10
0.66763
  20
1.76375
  0
VERTEX
  8
0
  10
0.66071
  20
1.76155
  0
VERTEX
  8
0
  10
0.65297
  20
1.75959
  0
VERTEX
  8
0
  10
0.64452
  20
1.75788
  0
VERTEX
  8
0
  10
0.63544
  20
1.75644
  0
VERTEX
  8
0
  10
0.62581
  20
1.75529
  0
VERTEX
  8
0
  10
0.61574
  20
1.75445
  0
VERTEX
  8
0
  10
0.60530
  20
1.75393
  0
VERTEX
  8
0
  10
0.59459
  20
1.75375
  0
VERTEX
  8
0
  10
0.58463
  20
1.75295
  0
VERTEX
  8
0
  10
0.57612
  20
1.75236
  0
VERTEX
  8
0
  10
0.56873
  20
1.75202
  0
VERTEX
  8
0
  10
0.56211
  20
1.75198
  0
VERTEX
  8
0
  10
0.55593
  20
1.75225
  0
VERTEX
  8
0
  10
0.54984
  20
1.75289
  0
VERTEX
  8
0
  10
0.54349
  20
1.75392
  0
VERTEX
  8
0
  10
0.53655
  20
1.75539
  0
VERTEX
  8
0
  10
0.52868
  20
1.75732
  0
VERTEX
  8
0
  10
0.51952
  20
1.75976
  0
VERTEX
  8
0
  10
0.51323
  20
1.76156
  0
VERTEX
  8
0
  10
0.50700
  20
1.76332
  0
VERTEX
  8
0
  10
0.50092
  20
1.76500
  0
VERTEX
  8
0
  10
0.49506
  20
1.76658
  0
VERTEX
  8
0
  10
0.48949
  20
1.76802
  0
VERTEX
  8
0
  10
0.48428
  20
1.76927
  0
VERTEX
  8
0
  10
0.47950
  20
1.77031
  0
VERTEX
  8
0
  10
0.47522
  20
1.77110
  0
VERTEX
  8
0
  10
0.47152
  20
1.77160
  0
VERTEX
  8
0
  10
0.46847
  20
1.77177
  0
VERTEX
  8
0
  10
0.46577
  20
1.77267
  0
VERTEX
  8
0
  10
0.46311
  20
1.77355
  0
VERTEX
  8
0
  10
0.46052
  20
1.77439
  0
VERTEX
  8
0
  10
0.45804
  20
1.77518
  0
VERTEX
  8
0
  10
0.45571
  20
1.77590
  0
VERTEX
  8
0
  10
0.45355
  20
1.77653
  0
VERTEX
  8
0
  10
0.45161
  20
1.77705
  0
VERTEX
  8
0
  10
0.44992
  20
1.77744
  0
VERTEX
  8
0
  10
0.44852
  20
1.77769
  0
VERTEX
  8
0
  10
0.44745
  20
1.77778
  0
VERTEX
  8
0
  10
0.44728
  20
1.77859
  0
VERTEX
  8
0
  10
0.44680
  20
1.77924
  0
VERTEX
  8
0
  10
0.44607
  20
1.77975
  0
VERTEX
  8
0
  10
0.44514
  20
1.78013
  0
VERTEX
  8
0
  10
0.44407
  20
1.78041
  0
VERTEX
  8
0
  10
0.44291
  20
1.78059
  0
VERTEX
  8
0
  10
0.44171
  20
1.78070
  0
VERTEX
  8
0
  10
0.44053
  20
1.78076
  0
VERTEX
  8
0
  10
0.43942
  20
1.78078
  0
VERTEX
  8
0
  10
0.43844
  20
1.78078
  0
VERTEX
  8
0
  10
0.43503
  20
1.78163
  0
VERTEX
  8
0
  10
0.42883
  20
1.78398
  0
VERTEX
  8
0
  10
0.42047
  20
1.78751
  0
VERTEX
  8
0
  10
0.41057
  20
1.79193
  0
VERTEX
  8
0
  10
0.39977
  20
1.79692
  0
VERTEX
  8
0
  10
0.38871
  20
1.80219
  0
VERTEX
  8
0
  10
0.37800
  20
1.80741
  0
VERTEX
  8
0
  10
0.36829
  20
1.81230
  0
VERTEX
  8
0
  10
0.36020
  20
1.81654
  0
VERTEX
  8
0
  10
0.35435
  20
1.81982
  0
VERTEX
  8
0
  10
0.35247
  20
1.82162
  0
VERTEX
  8
0
  10
0.35046
  20
1.82340
  0
VERTEX
  8
0
  10
0.34838
  20
1.82514
  0
VERTEX
  8
0
  10
0.34628
  20
1.82683
  0
VERTEX
  8
0
  10
0.34422
  20
1.82845
  0
VERTEX
  8
0
  10
0.34225
  20
1.82998
  0
VERTEX
  8
0
  10
0.34042
  20
1.83140
  0
VERTEX
  8
0
  10
0.33879
  20
1.83270
  0
VERTEX
  8
0
  10
0.33741
  20
1.83385
  0
VERTEX
  8
0
  10
0.33634
  20
1.83483
  0
VERTEX
  8
0
  10
0.33338
  20
1.83921
  0
VERTEX
  8
0
  10
0.32999
  20
1.84495
  0
VERTEX
  8
0
  10
0.32628
  20
1.85181
  0
VERTEX
  8
0
  10
0.32235
  20
1.85953
  0
VERTEX
  8
0
  10
0.31832
  20
1.86787
  0
VERTEX
  8
0
  10
0.31428
  20
1.87656
  0
VERTEX
  8
0
  10
0.31035
  20
1.88537
  0
VERTEX
  8
0
  10
0.30664
  20
1.89403
  0
VERTEX
  8
0
  10
0.30326
  20
1.90229
  0
VERTEX
  8
0
  10
0.30030
  20
1.90991
  0
VERTEX
  8
0
  10
0.29842
  20
1.91760
  0
VERTEX
  8
0
  10
0.29646
  20
1.92603
  0
VERTEX
  8
0
  10
0.29449
  20
1.93486
  0
VERTEX
  8
0
  10
0.29261
  20
1.94374
  0
VERTEX
  8
0
  10
0.29092
  20
1.95233
  0
VERTEX
  8
0
  10
0.28949
  20
1.96029
  0
VERTEX
  8
0
  10
0.28842
  20
1.96728
  0
VERTEX
  8
0
  10
0.28781
  20
1.97295
  0
VERTEX
  8
0
  10
0.28773
  20
1.97696
  0
VERTEX
  8
0
  10
0.28829
  20
1.97898
  0
VERTEX
  8
0
  10
0.28820
  20
1.97997
  0
VERTEX
  8
0
  10
0.28795
  20
1.98112
  0
VERTEX
  8
0
  10
0.28756
  20
1.98241
  0
VERTEX
  8
0
  10
0.28704
  20
1.98383
  0
VERTEX
  8
0
  10
0.28641
  20
1.98536
  0
VERTEX
  8
0
  10
0.28569
  20
1.98698
  0
VERTEX
  8
0
  10
0.28490
  20
1.98867
  0
VERTEX
  8
0
  10
0.28406
  20
1.99041
  0
VERTEX
  8
0
  10
0.28318
  20
1.99220
  0
VERTEX
  8
0
  10
0.28228
  20
1.99399
  0
VERTEX
  8
0
  10
0.28147
  20
1.99687
  0
VERTEX
  8
0
  10
0.28082
  20
2.00005
  0
VERTEX
  8
0
  10
0.28031
  20
2.00348
  0
VERTEX
  8
0
  10
0.27993
  20
2.00711
  0
VERTEX
  8
0
  10
0.27965
  20
2.01089
  0
VERTEX
  8
0
  10
0.27947
  20
2.01475
  0
VERTEX
  8
0
  10
0.27936
  20
2.01865
  0
VERTEX
  8
0
  10
0.27930
  20
2.02253
  0
VERTEX
  8
0
  10
0.27928
  20
2.02635
  0
VERTEX
  8
0
  10
0.27928
  20
2.03003
  0
VERTEX
  8
0
  10
0.27919
  20
2.03623
  0
VERTEX
  8
0
  10
0.27894
  20
2.04219
  0
VERTEX
  8
0
  10
0.27855
  20
2.04781
  0
VERTEX
  8
0
  10
0.27803
  20
2.05305
  0
VERTEX
  8
0
  10
0.27740
  20
2.05781
  0
VERTEX
  8
0
  10
0.27668
  20
2.06203
  0
VERTEX
  8
0
  10
0.27589
  20
2.06564
  0
VERTEX
  8
0
  10
0.27505
  20
2.06856
  0
VERTEX
  8
0
  10
0.27417
  20
2.07073
  0
VERTEX
  8
0
  10
0.27327
  20
2.07207
  0
VERTEX
  8
0
  10
0.27332
  20
2.07481
  0
VERTEX
  8
0
  10
0.27510
  20
2.07923
  0
VERTEX
  8
0
  10
0.27835
  20
2.08502
  0
VERTEX
  8
0
  10
0.28283
  20
2.09187
  0
VERTEX
  8
0
  10
0.28829
  20
2.09947
  0
VERTEX
  8
0
  10
0.29446
  20
2.10753
  0
VERTEX
  8
0
  10
0.30111
  20
2.11573
  0
VERTEX
  8
0
  10
0.30796
  20
2.12377
  0
VERTEX
  8
0
  10
0.31479
  20
2.13134
  0
VERTEX
  8
0
  10
0.32132
  20
2.13814
  0
VERTEX
  8
0
  10
0.42943
  20
2.25225
  0
VERTEX
  8
0
  10
0.46547
  20
2.29429
  0
VERTEX
  8
0
  10
0.46989
  20
2.29889
  0
VERTEX
  8
0
  10
0.47419
  20
2.30371
  0
VERTEX
  8
0
  10
0.47841
  20
2.30878
  0
VERTEX
  8
0
  10
0.48262
  20
2.31414
  0
VERTEX
  8
0
  10
0.48686
  20
2.31982
  0
VERTEX
  8
0
  10
0.49120
  20
2.32586
  0
VERTEX
  8
0
  10
0.49567
  20
2.33230
  0
VERTEX
  8
0
  10
0.50035
  20
2.33917
  0
VERTEX
  8
0
  10
0.50528
  20
2.34651
  0
VERTEX
  8
0
  10
0.51051
  20
2.35435
  0
VERTEX
  8
0
  10
0.51320
  20
2.35894
  0
VERTEX
  8
0
  10
0.51584
  20
2.36363
  0
VERTEX
  8
0
  10
0.51838
  20
2.36835
  0
VERTEX
  8
0
  10
0.52074
  20
2.37304
  0
VERTEX
  8
0
  10
0.52290
  20
2.37763
  0
VERTEX
  8
0
  10
0.52478
  20
2.38203
  0
VERTEX
  8
0
  10
0.52634
  20
2.38618
  0
VERTEX
  8
0
  10
0.52752
  20
2.39001
  0
VERTEX
  8
0
  10
0.52827
  20
2.39344
  0
VERTEX
  8
0
  10
0.52853
  20
2.39640
  0
VERTEX
  8
0
  10
0.52793
  20
2.40178
  0
VERTEX
  8
0
  10
0.52627
  20
2.40702
  0
VERTEX
  8
0
  10
0.52374
  20
2.41196
  0
VERTEX
  8
0
  10
0.52055
  20
2.41648
  0
VERTEX
  8
0
  10
0.51689
  20
2.42042
  0
VERTEX
  8
0
  10
0.51296
  20
2.42364
  0
VERTEX
  8
0
  10
0.50896
  20
2.42599
  0
VERTEX
  8
0
  10
0.50508
  20
2.42734
  0
VERTEX
  8
0
  10
0.50153
  20
2.42753
  0
VERTEX
  8
0
  10
0.49850
  20
2.42643
  0
VERTEX
  8
0
  10
0.49734
  20
2.42526
  0
VERTEX
  8
0
  10
0.49571
  20
2.42359
  0
VERTEX
  8
0
  10
0.49369
  20
2.42145
  0
VERTEX
  8
0
  10
0.49134
  20
2.41888
  0
VERTEX
  8
0
  10
0.48874
  20
2.41592
  0
VERTEX
  8
0
  10
0.48596
  20
2.41259
  0
VERTEX
  8
0
  10
0.48307
  20
2.40894
  0
VERTEX
  8
0
  10
0.48014
  20
2.40500
  0
VERTEX
  8
0
  10
0.47726
  20
2.40080
  0
VERTEX
  8
0
  10
0.47447
  20
2.39640
  0
VERTEX
  8
0
  10
0.42943
  20
2.33934
  0
VERTEX
  8
0
  10
0.41671
  20
2.32582
  0
VERTEX
  8
0
  10
0.40086
  20
2.30938
  0
VERTEX
  8
0
  10
0.38289
  20
2.29107
  0
VERTEX
  8
0
  10
0.36380
  20
2.27193
  0
VERTEX
  8
0
  10
0.34459
  20
2.25300
  0
VERTEX
  8
0
  10
0.32629
  20
2.23534
  0
VERTEX
  8
0
  10
0.30990
  20
2.21998
  0
VERTEX
  8
0
  10
0.29643
  20
2.20798
  0
VERTEX
  8
0
  10
0.28689
  20
2.20037
  0
VERTEX
  8
0
  10
0.28228
  20
2.19820
  0
VERTEX
  8
0
  10
0.28068
  20
2.19922
  0
VERTEX
  8
0
  10
0.27952
  20
2.20062
  0
VERTEX
  8
0
  10
0.27890
  20
2.20260
  0
VERTEX
  8
0
  10
0.27892
  20
2.20536
  0
VERTEX
  8
0
  10
0.27965
  20
2.20908
  0
VERTEX
  8
0
  10
0.28120
  20
2.21398
  0
VERTEX
  8
0
  10
0.28365
  20
2.22025
  0
VERTEX
  8
0
  10
0.28709
  20
2.22808
  0
VERTEX
  8
0
  10
0.29161
  20
2.23768
  0
VERTEX
  8
0
  10
0.29730
  20
2.24925
  0
VERTEX
  8
0
  10
0.29739
  20
2.25041
  0
VERTEX
  8
0
  10
0.29766
  20
2.25204
  0
VERTEX
  8
0
  10
0.29811
  20
2.25406
  0
VERTEX
  8
0
  10
0.29874
  20
2.25641
  0
VERTEX
  8
0
  10
0.29955
  20
2.25901
  0
VERTEX
  8
0
  10
0.30054
  20
2.26179
  0
VERTEX
  8
0
  10
0.30171
  20
2.26468
  0
VERTEX
  8
0
  10
0.30306
  20
2.26760
  0
VERTEX
  8
0
  10
0.30459
  20
2.27049
  0
VERTEX
  8
0
  10
0.30631
  20
2.27327
  0
VERTEX
  8
0
  10
0.30721
  20
2.27687
  0
VERTEX
  8
0
  10
0.30811
  20
2.28041
  0
VERTEX
  8
0
  10
0.30901
  20
2.28384
  0
VERTEX
  8
0
  10
0.30991
  20
2.28711
  0
VERTEX
  8
0
  10
0.31081
  20
2.29017
  0
VERTEX
  8
0
  10
0.31171
  20
2.29295
  0
VERTEX
  8
0
  10
0.31261
  20
2.29541
  0
VERTEX
  8
0
  10
0.31351
  20
2.29749
  0
VERTEX
  8
0
  10
0.31441
  20
2.29914
  0
VERTEX
  8
0
  10
0.31532
  20
2.30030
  0
VERTEX
  8
0
  10
0.32132
  20
2.31231
  0
VERTEX
  8
0
  10
0.32733
  20
2.33934
  0
VERTEX
  8
0
  10
0.33934
  20
2.38438
  0
VERTEX
  8
0
  10
0.34835
  20
2.42042
  0
VERTEX
  8
0
  10
0.34933
  20
2.42256
  0
VERTEX
  8
0
  10
0.35046
  20
2.42532
  0
VERTEX
  8
0
  10
0.35170
  20
2.42858
  0
VERTEX
  8
0
  10
0.35301
  20
2.43224
  0
VERTEX
  8
0
  10
0.35435
  20
2.43619
  0
VERTEX
  8
0
  10
0.35570
  20
2.44031
  0
VERTEX
  8
0
  10
0.35701
  20
2.44451
  0
VERTEX
  8
0
  10
0.35825
  20
2.44867
  0
VERTEX
  8
0
  10
0.35938
  20
2.45269
  0
VERTEX
  8
0
  10
0.36036
  20
2.45646
  0
VERTEX
  8
0
  10
0.36937
  20
2.49249
  0
VERTEX
  8
0
  10
0.36945
  20
2.49519
  0
VERTEX
  8
0
  10
0.36968
  20
2.49785
  0
VERTEX
  8
0
  10
0.37002
  20
2.50044
  0
VERTEX
  8
0
  10
0.37043
  20
2.50292
  0
VERTEX
  8
0
  10
0.37087
  20
2.50526
  0
VERTEX
  8
0
  10
0.37132
  20
2.50741
  0
VERTEX
  8
0
  10
0.37172
  20
2.50935
  0
VERTEX
  8
0
  10
0.37206
  20
2.51104
  0
VERTEX
  8
0
  10
0.37229
  20
2.51244
  0
VERTEX
  8
0
  10
0.37237
  20
2.51351
  0
VERTEX
  8
0
  10
0.37246
  20
2.51450
  0
VERTEX
  8
0
  10
0.37268
  20
2.51565
  0
VERTEX
  8
0
  10
0.37302
  20
2.51695
  0
VERTEX
  8
0
  10
0.37343
  20
2.51837
  0
VERTEX
  8
0
  10
0.37387
  20
2.51989
  0
VERTEX
  8
0
  10
0.37432
  20
2.52151
  0
VERTEX
  8
0
  10
0.37473
  20
2.52320
  0
VERTEX
  8
0
  10
0.37506
  20
2.52495
  0
VERTEX
  8
0
  10
0.37529
  20
2.52673
  0
VERTEX
  8
0
  10
0.37538
  20
2.52853
  0
VERTEX
  8
0
  10
0.37636
  20
2.53067
  0
VERTEX
  8
0
  10
0.37747
  20
2.53343
  0
VERTEX
  8
0
  10
0.37865
  20
2.53669
  0
VERTEX
  8
0
  10
0.37984
  20
2.54035
  0
VERTEX
  8
0
  10
0.38101
  20
2.54429
  0
VERTEX
  8
0
  10
0.38208
  20
2.54842
  0
VERTEX
  8
0
  10
0.38301
  20
2.55262
  0
VERTEX
  8
0
  10
0.38374
  20
2.55678
  0
VERTEX
  8
0
  10
0.38421
  20
2.56080
  0
VERTEX
  8
0
  10
0.38438
  20
2.56456
  0
VERTEX
  8
0
  10
0.38413
  20
2.56644
  0
VERTEX
  8
0
  10
0.38340
  20
2.56843
  0
VERTEX
  8
0
  10
0.38228
  20
2.57046
  0
VERTEX
  8
0
  10
0.38083
  20
2.57244
  0
VERTEX
  8
0
  10
0.37913
  20
2.57432
  0
VERTEX
  8
0
  10
0.37725
  20
2.57602
  0
VERTEX
  8
0
  10
0.37526
  20
2.57747
  0
VERTEX
  8
0
  10
0.37324
  20
2.57859
  0
VERTEX
  8
0
  10
0.37125
  20
2.57932
  0
VERTEX
  8
0
  10
0.36937
  20
2.57958
  0
VERTEX
  8
0
  10
0.36830
  20
2.57949
  0
VERTEX
  8
0
  10
0.36692
  20
2.57924
  0
VERTEX
  8
0
  10
0.36529
  20
2.57885
  0
VERTEX
  8
0
  10
0.36346
  20
2.57833
  0
VERTEX
  8
0
  10
0.36149
  20
2.57770
  0
VERTEX
  8
0
  10
0.35942
  20
2.57698
  0
VERTEX
  8
0
  10
0.35732
  20
2.57620
  0
VERTEX
  8
0
  10
0.35524
  20
2.57535
  0
VERTEX
  8
0
  10
0.35323
  20
2.57447
  0
SEQEND
  0
POLYLINE
  8
1
  6
CONTINUOUS
 66
  1
 70
  1
  0
VERTEX
  8
1
  10
1.13844
  20
0.96567
  0
VERTEX
  8
1
  10
1.13576
  20
0.96716
  0
VERTEX
  8
1
  10
1.13311
  20
0.96840
  0
VERTEX
  8
1
  10
1.13052
  20
0.96935
  0
VERTEX
  8
1
  10
1.12800
  20
0.96997
  0
VERTEX
  8
1
  10
1.12557
  20
0.97023
  0
VERTEX
  8
1
  10
1.12325
  20
0.97010
  0
VERTEX
  8
1
  10
1.12106
  20
0.96954
  0
VERTEX
  8
1
  10
1.11901
  20
0.96850
  0
VERTEX
  8
1
  10
1.11712
  20
0.96697
  0
VERTEX
  8
1
  10
1.11613
  20
0.96607
  0
VERTEX
  8
1
  10
1.11500
  20
0.96519
  0
VERTEX
  8
1
  10
1.11377
  20
0.96435
  0
VERTEX
  8
1
  10
1.11246
  20
0.96356
  0
VERTEX
  8
1
  10
1.11111
  20
0.96284
  0
VERTEX
  8
1
  10
1.10977
  20
0.96221
  0
VERTEX
  8
1
  10
1.10846
  20
0.96169
  0
VERTEX
  8
1
  10
1.10722
  20
0.96130
  0
VERTEX
  8
1
  10
1.10609
  20
0.96105
  0
VERTEX
  8
1
  10
1.10511
  20
0.96096
  0
VERTEX
  8
1
  10
1.10313
  20
0.96070
  0
VERTEX
  8
1
  10
1.10085
  20
0.95998
  0
VERTEX
  8
1
  10
1.09832
  20
0.95885
  0
VERTEX
  8
1
  10
1.09559
  20
0.95741
  0
VERTEX
  8
1
  10
1.09272
  20
0.95571
  0
VERTEX
  8
1
  10
1.08975
  20
0.95383
  0
VERTEX
  8
1
  10
1.08675
  20
0.95184
  0
VERTEX
  8
1
  10
1.08377
  20
0.94981
  0
VERTEX
  8
1
  10
1.08086
  20
0.94783
  0
VERTEX
  8
1
  10
1.07808
  20
0.94595
  0
VERTEX
  8
1
  10
1.07317
  20
0.94269
  0
VERTEX
  8
1
  10
1.06909
  20
0.94008
  0
VERTEX
  8
1
  10
1.06559
  20
0.93805
  0
VERTEX
  8
1
  10
1.06241
  20
0.93653
  0
VERTEX
  8
1
  10
1.05931
  20
0.93544
  0
VERTEX
  8
1
  10
1.05602
  20
0.93470
  0
VERTEX
  8
1
  10
1.05231
  20
0.93426
  0
VERTEX
  8
1
  10
1.04790
  20
0.93403
  0
VERTEX
  8
1
  10
1.04256
  20
0.93395
  0
VERTEX
  8
1
  10
1.03604
  20
0.93393
  0
VERTEX
  8
1
  10
1.03145
  20
0.93321
  0
VERTEX
  8
1
  10
1.02671
  20
0.93280
  0
VERTEX
  8
1
  10
1.02187
  20
0.93269
  0
VERTEX
  8
1
  10
1.01696
  20
0.93283
  0
VERTEX
  8
1
  10
1.01201
  20
0.93318
  0
VERTEX
  8
1
  10
1.00706
  20
0.93372
  0
VERTEX
  8
1
  10
1.00215
  20
0.93440
  0
VERTEX
  8
1
  10
0.99731
  20
0.93518
  0
VERTEX
  8
1
  10
0.99258
  20
0.93604
  0
VERTEX
  8
1
  10
0.98799
  20
0.93694
  0
VERTEX
  8
1
  10
0.98273
  20
0.93775
  0
VERTEX
  8
1
  10
0.97766
  20
0.93840
  0
VERTEX
  8
1
  10
0.97258
  20
0.93891
  0
VERTEX
  8
1
  10
0.96733
  20
0.93929
  0
VERTEX
  8
1
  10
0.96171
  20
0.93956
  0
VERTEX
  8
1
  10
0.95556
  20
0.93975
  0
VERTEX
  8
1
  10
0.94868
  20
0.93986
  0
VERTEX
  8
1
  10
0.94090
  20
0.93992
  0
VERTEX
  8
1
  10
0.93204
  20
0.93994
  0
VERTEX
  8
1
  10
0.92192
  20
0.93994
  0
VERTEX
  8
1
  10
0.90899
  20
0.93923
  0
VERTEX
  8
1
  10
0.89706
  20
0.93891
  0
VERTEX
  8
1
  10
0.88584
  20
0.93902
  0
VERTEX
  8
1
  10
0.87508
  20
0.93960
  0
VERTEX
  8
1
  10
0.86449
  20
0.94069
  0
VERTEX
  8
1
  10
0.85381
  20
0.94232
  0
VERTEX
  8
1
  10
0.84278
  20
0.94452
  0
VERTEX
  8
1
  10
0.83111
  20
0.94734
  0
VERTEX
  8
1
  10
0.81854
  20
0.95080
  0
VERTEX
  8
1
  10
0.80480
  20
0.95495
  0
VERTEX
  8
1
  10
0.79752
  20
0.95666
  0
VERTEX
  8
1
  10
0.79015
  20
0.95813
  0
VERTEX
  8
1
  10
0.78278
  20
0.95931
  0
VERTEX
  8
1
  10
0.77550
  20
0.96014
  0
VERTEX
  8
1
  10
0.76839
  20
0.96059
  0
VERTEX
  8
1
  10
0.76156
  20
0.96058
  0
VERTEX
  8
1
  10
0.75509
  20
0.96006
  0
VERTEX
  8
1
  10
0.74907
  20
0.95899
  0
VERTEX
  8
1
  10
0.74359
  20
0.95731
  0
VERTEX
  8
1
  10
0.73874
  20
0.95495
  0
VERTEX
  8
1
  10
0.73253
  20
0.95272
  0
VERTEX
  8
1
  10
0.72651
  20
0.94967
  0
VERTEX
  8
1
  10
0.72071
  20
0.94590
  0
VERTEX
  8
1
  10
0.71515
  20
0.94150
  0
VERTEX
  8
1
  10
0.70983
  20
0.93656
  0
VERTEX
  8
1
  10
0.70479
  20
0.93117
  0
VERTEX
  8
1
  10
0.70004
  20
0.92542
  0
VERTEX
  8
1
  10
0.69559
  20
0.91940
  0
VERTEX
  8
1
  10
0.69147
  20
0.91320
  0
VERTEX
  8
1
  10
0.68769
  20
0.90691
  0
VERTEX
  8
1
  10
0.68606
  20
0.90265
  0
VERTEX
  8
1
  10
0.68476
  20
0.89876
  0
VERTEX
  8
1
  10
0.68374
  20
0.89510
  0
VERTEX
  8
1
  10
0.68298
  20
0.89148
  0
VERTEX
  8
1
  10
0.68243
  20
0.88776
  0
VERTEX
  8
1
  10
0.68207
  20
0.88377
  0
VERTEX
  8
1
  10
0.68184
  20
0.87935
  0
VERTEX
  8
1
  10
0.68173
  20
0.87433
  0
VERTEX
  8
1
  10
0.68169
  20
0.86856
  0
VERTEX
  8
1
  10
0.68168
  20
0.86186
  0
VERTEX
  8
1
  10
0.68169
  20
0.85663
  0
VERTEX
  8
1
  10
0.68173
  20
0.85172
  0
VERTEX
  8
1
  10
0.68184
  20
0.84711
  0
VERTEX
  8
1
  10
0.68207
  20
0.84274
  0
VERTEX
  8
1
  10
0.68243
  20
0.83859
  0
VERTEX
  8
1
  10
0.68298
  20
0.83462
  0
VERTEX
  8
1
  10
0.68374
  20
0.83079
  0
VERTEX
  8
1
  10
0.68476
  20
0.82708
  0
VERTEX
  8
1
  10
0.68606
  20
0.82343
  0
VERTEX
  8
1
  10
0.68769
  20
0.81982
  0
VERTEX
  8
1
  10
0.68859
  20
0.81613
  0
VERTEX
  8
1
  10
0.68947
  20
0.81228
  0
VERTEX
  8
1
  10
0.69031
  20
0.80828
  0
VERTEX
  8
1
  10
0.69110
  20
0.80416
  0
VERTEX
  8
1
  10
0.69182
  20
0.79992
  0
VERTEX
  8
1
  10
0.69244
  20
0.79560
  0
VERTEX
  8
1
  10
0.69296
  20
0.79121
  0
VERTEX
  8
1
  10
0.69336
  20
0.78676
  0
VERTEX
  8
1
  10
0.69361
  20
0.78228
  0
VERTEX
  8
1
  10
0.69369
  20
0.77778
  0
VERTEX
  8
1
  10
0.69471
  20
0.76332
  0
VERTEX
  8
1
  10
0.69602
  20
0.75041
  0
VERTEX
  8
1
  10
0.69777
  20
0.73880
  0
VERTEX
  8
1
  10
0.70008
  20
0.72824
  0
VERTEX
  8
1
  10
0.70308
  20
0.71847
  0
VERTEX
  8
1
  10
0.70688
  20
0.70924
  0
VERTEX
  8
1
  10
0.71162
  20
0.70029
  0
VERTEX
  8
1
  10
0.71743
  20
0.69139
  0
VERTEX
  8
1
  10
0.72442
  20
0.68226
  0
VERTEX
  8
1
  10
0.73273
  20
0.67267
  0
VERTEX
  8
1
  10
0.75375
  20
0.65165
  0
VERTEX
  8
1
  10
0.77177
  20
0.65165
  0
VERTEX
  8
1
  10
0.77464
  20
0.65174
  0
VERTEX
  8
1
  10
0.77780
  20
0.65196
  0
VERTEX
  8
1
  10
0.78118
  20
0.65230
  0
VERTEX
  8
1
  10
0.78470
  20
0.65271
  0
VERTEX
  8
1
  10
0.78829
  20
0.65315
  0
VERTEX
  8
1
  10
0.79188
  20
0.65360
  0
VERTEX
  8
1
  10
0.79540
  20
0.65401
  0
VERTEX
  8
1
  10
0.79877
  20
0.65434
  0
VERTEX
  8
1
  10
0.80193
  20
0.65457
  0
VERTEX
  8
1
  10
0.80480
  20
0.65465
  0
VERTEX
  8
1
  10
0.80906
  20
0.65538
  0
VERTEX
  8
1
  10
0.81292
  20
0.65576
  0
VERTEX
  8
1
  10
0.81653
  20
0.65582
  0
VERTEX
  8
1
  10
0.82004
  20
0.65557
  0
VERTEX
  8
1
  10
0.82357
  20
0.65503
  0
VERTEX
  8
1
  10
0.82729
  20
0.65422
  0
VERTEX
  8
1
  10
0.83133
  20
0.65316
  0
VERTEX
  8
1
  10
0.83584
  20
0.65187
  0
VERTEX
  8
1
  10
0.84097
  20
0.65036
  0
VERTEX
  8
1
  10
0.84685
  20
0.64865
  0
VERTEX
  8
1
  10
0.86053
  20
0.64477
  0
VERTEX
  8
1
  10
0.87447
  20
0.64211
  0
VERTEX
  8
1
  10
0.88860
  20
0.64065
  0
VERTEX
  8
1
  10
0.90282
  20
0.64034
  0
VERTEX
  8
1
  10
0.91704
  20
0.64114
  0
VERTEX
  8
1
  10
0.93117
  20
0.64303
  0
VERTEX
  8
1
  10
0.94512
  20
0.64596
  0
VERTEX
  8
1
  10
0.95880
  20
0.64990
  0
VERTEX
  8
1
  10
0.97212
  20
0.65481
  0
VERTEX
  8
1
  10
0.98498
  20
0.66066
  0
VERTEX
  8
1
  10
0.99135
  20
0.66451
  0
VERTEX
  8
1
  10
0.99774
  20
0.66876
  0
VERTEX
  8
1
  10
1.00398
  20
0.67326
  0
VERTEX
  8
1
  10
1.00992
  20
0.67786
  0
VERTEX
  8
1
  10
1.01539
  20
0.68243
  0
VERTEX
  8
1
  10
1.02023
  20
0.68682
  0
VERTEX
  8
1
  10
1.02427
  20
0.69089
  0
VERTEX
  8
1
  10
1.02736
  20
0.69449
  0
VERTEX
  8
1
  10
1.02934
  20
0.69747
  0
VERTEX
  8
1
  10
1.03003
  20
0.69970
  0
VERTEX
  8
1
  10
1.03003
  20
0.70068
  0
VERTEX
  8
1
  10
1.03005
  20
0.70181
  0
VERTEX
  8
1
  10
1.03011
  20
0.70305
  0
VERTEX
  8
1
  10
1.03022
  20
0.70436
  0
VERTEX
  8
1
  10
1.03041
  20
0.70571
  0
VERTEX
  8
1
  10
1.03068
  20
0.70705
  0
VERTEX
  8
1
  10
1.03106
  20
0.70836
  0
VERTEX
  8
1
  10
1.03157
  20
0.70960
  0
VERTEX
  8
1
  10
1.03222
  20
0.71073
  0
VERTEX
  8
1
  10
1.03303
  20
0.71171
  0
VERTEX
  8
1
  10
1.03393
  20
0.71269
  0
VERTEX
  8
1
  10
1.03481
  20
0.71380
  0
VERTEX
  8
1
  10
1.03565
  20
0.71498
  0
VERTEX
  8
1
  10
1.03644
  20
0.71618
  0
VERTEX
  8
1
  10
1.03716
  20
0.71734
  0
VERTEX
  8
1
  10
1.03779
  20
0.71841
  0
VERTEX
  8
1
  10
1.03831
  20
0.71934
  0
VERTEX
  8
1
  10
1.03870
  20
0.72007
  0
VERTEX
  8
1
  10
1.03904
  20
0.72072
  0
VERTEX
  8
1
  10
1.03913
  20
0.72180
  0
VERTEX
  8
1
  10
1.03940
  20
0.72322
  0
VERTEX
  8
1
  10
1.03985
  20
0.72496
  0
VERTEX
  8
1
  10
1.04048
  20
0.72702
  0
VERTEX
  8
1
  10
1.04129
  20
0.72935
  0
VERTEX
  8
1
  10
1.04228
  20
0.73196
  0
VERTEX
  8
1
  10
1.04345
  20
0.73483
  0
VERTEX
  8
1
  10
1.04480
  20
0.73792
  0
VERTEX
  8
1
  10
1.04634
  20
0.74123
  0
VERTEX
  8
1
  10
1.04805
  20
0.74474
  0
VERTEX
  8
1
  10
1.04912
  20
0.74770
  0
VERTEX
  8
1
  10
1.05047
  20
0.75109
  0
VERTEX
  8
1
  10
1.05205
  20
0.75480
  0
VERTEX
  8
1
  10
1.05377
  20
0.75873
  0
VERTEX
  8
1
  10
1.05556
  20
0.76276
  0
VERTEX
  8
1
  10
1.05735
  20
0.76680
  0
VERTEX
  8
1
  10
1.05906
  20
0.77073
  0
VERTEX
  8
1
  10
1.06064
  20
0.77444
  0
VERTEX
  8
1
  10
1.06199
  20
0.77783
  0
VERTEX
  8
1
  10
1.06306
  20
0.78078
  0
VERTEX
  8
1
  10
1.06692
  20
0.79085
  0
VERTEX
  8
1
  10
1.07123
  20
0.80113
  0
VERTEX
  8
1
  10
1.07590
  20
0.81148
  0
VERTEX
  8
1
  10
1.08084
  20
0.82177
  0
VERTEX
  8
1
  10
1.08596
  20
0.83183
  0
VERTEX
  8
1
  10
1.09117
  20
0.84154
  0
VERTEX
  8
1
  10
1.09638
  20
0.85074
  0
VERTEX
  8
1
  10
1.10150
  20
0.85929
  0
VERTEX
  8
1
  10
1.10644
  20
0.86705
  0
VERTEX
  8
1
  10
1.11111
  20
0.87387
  0
VERTEX
  8
1
  10
1.11381
  20
0.87756
  0
VERTEX
  8
1
  10
1.11647
  20
0.88135
  0
VERTEX
  8
1
  10
1.11906
  20
0.88517
  0
VERTEX
  8
1
  10
1.12154
  20
0.88896
  0
VERTEX
  8
1
  10
1.12387
  20
0.89264
  0
VERTEX
  8
1
  10
1.12603
  20
0.89614
  0
VERTEX
  8
1
  10
1.12797
  20
0.89939
  0
VERTEX
  8
1
  10
1.12966
  20
0.90232
  0
VERTEX
  8
1
  10
1.13106
  20
0.90485
  0
VERTEX
  8
1
  10
1.13213
  20
0.90691
  0
VERTEX
  8
1
  10
1.13312
  20
0.90969
  0
VERTEX
  8
1
  10
1.13425
  20
0.91260
  0
VERTEX
  8
1
  10
1.13548
  20
0.91558
  0
VERTEX
  8
1
  10
1.13679
  20
0.91858
  0
VERTEX
  8
1
  10
1.13814
  20
0.92155
  0
VERTEX
  8
1
  10
1.13948
  20
0.92442
  0
VERTEX
  8
1
  10
1.14079
  20
0.92715
  0
VERTEX
  8
1
  10
1.14203
  20
0.92968
  0
VERTEX
  8
1
  10
1.14316
  20
0.93196
  0
VERTEX
  8
1
  10
1.14414
  20
0.93393
  0
VERTEX
  8
1
  10
1.14576
  20
0.93818
  0
VERTEX
  8
1
  10
1.14700
  20
0.94196
  0
VERTEX
  8
1
  10
1.14785
  20
0.94534
  0
VERTEX
  8
1
  10
1.14828
  20
0.94840
  0
VERTEX
  8
1
  10
1.14827
  20
0.95120
  0
VERTEX
  8
1
  10
1.14782
  20
0.95383
  0
VERTEX
  8
1
  10
1.14690
  20
0.95634
  0
VERTEX
  8
1
  10
1.14549
  20
0.95882
  0
VERTEX
  8
1
  10
1.14358
  20
0.96134
  0
VERTEX
  8
1
  10
1.14114
  20
0.96396
  0
SEQEND
  0
POLYLINE
  8
1
  6
CONTINUOUS
 66
  1
 70
  1
  0
VERTEX
  8
1
  10
0.65140
  20
0.85610
  0
VERTEX
  8
1
  10
0.65069
  20
0.85864
  0
VERTEX
  8
1
  10
0.64962
  20
0.86050
  0
VERTEX
  8
1
  10
0.64829
  20
0.86169
  0
VERTEX
  8
1
  10
0.64677
  20
0.86224
  0
VERTEX
  8
1
  10
0.64517
  20
0.86215
  0
VERTEX
  8
1
  10
0.64356
  20
0.86145
  0
VERTEX
  8
1
  10
0.64204
  20
0.86016
  0
VERTEX
  8
1
  10
0.64071
  20
0.85829
  0
VERTEX
  8
1
  10
0.63964
  20
0.85586
  0
VERTEX
  8
1
  10
0.63955
  20
0.85405
  0
VERTEX
  8
1
  10
0.63930
  20
0.85225
  0
VERTEX
  8
1
  10
0.63891
  20
0.85045
  0
VERTEX
  8
1
  10
0.63839
  20
0.84865
  0
VERTEX
  8
1
  10
0.63776
  20
0.84685
  0
VERTEX
  8
1
  10
0.63705
  20
0.84505
  0
VERTEX
  8
1
  10
0.63626
  20
0.84324
  0
VERTEX
  8
1
  10
0.63541
  20
0.84144
  0
VERTEX
  8
1
  10
0.63453
  20
0.83964
  0
VERTEX
  8
1
  10
0.63363
  20
0.83784
  0
VERTEX
  8
1
  10
0.63355
  20
0.83604
  0
VERTEX
  8
1
  10
0.63332
  20
0.83423
  0
VERTEX
  8
1
  10
0.63298
  20
0.83243
  0
VERTEX
  8
1
  10
0.63258
  20
0.83063
  0
VERTEX
  8
1
  10
0.63213
  20
0.82883
  0
VERTEX
  8
1
  10
0.63169
  20
0.82703
  0
VERTEX
  8
1
  10
0.63128
  20
0.82523
  0
VERTEX
  8
1
  10
0.63094
  20
0.82342
  0
VERTEX
  8
1
  10
0.63071
  20
0.82162
  0
VERTEX
  8
1
  10
0.63063
  20
0.81982
  0
VERTEX
  8
1
  10
0.63055
  20
0.81883
  0
VERTEX
  8
1
  10
0.63032
  20
0.81771
  0
VERTEX
  8
1
  10
0.62998
  20
0.81647
  0
VERTEX
  8
1
  10
0.62957
  20
0.81516
  0
VERTEX
  8
1
  10
0.62913
  20
0.81381
  0
VERTEX
  8
1
  10
0.62868
  20
0.81247
  0
VERTEX
  8
1
  10
0.62828
  20
0.81116
  0
VERTEX
  8
1
  10
0.62794
  20
0.80992
  0
VERTEX
  8
1
  10
0.62771
  20
0.80879
  0
VERTEX
  8
1
  10
0.62763
  20
0.80781
  0
VERTEX
  8
1
  10
0.62665
  20
0.80409
  0
VERTEX
  8
1
  10
0.62554
  20
0.79861
  0
VERTEX
  8
1
  10
0.62436
  20
0.79175
  0
VERTEX
  8
1
  10
0.62316
  20
0.78393
  0
VERTEX
  8
1
  10
0.62200
  20
0.77553
  0
VERTEX
  8
1
  10
0.62092
  20
0.76694
  0
VERTEX
  8
1
  10
0.62000
  20
0.75858
  0
VERTEX
  8
1
  10
0.61927
  20
0.75082
  0
VERTEX
  8
1
  10
0.61879
  20
0.74408
  0
VERTEX
  8
1
  10
0.61862
  20
0.73874
  0
VERTEX
  8
1
  10
0.61862
  20
0.70270
  0
VERTEX
  8
1
  10
0.61944
  20
0.69812
  0
VERTEX
  8
1
  10
0.62011
  20
0.69343
  0
VERTEX
  8
1
  10
0.62067
  20
0.68870
  0
VERTEX
  8
1
  10
0.62117
  20
0.68401
  0
VERTEX
  8
1
  10
0.62162
  20
0.67943
  0
VERTEX
  8
1
  10
0.62208
  20
0.67503
  0
VERTEX
  8
1
  10
0.62257
  20
0.67088
  0
VERTEX
  8
1
  10
0.62314
  20
0.66705
  0
VERTEX
  8
1
  10
0.62381
  20
0.66362
  0
VERTEX
  8
1
  10
0.62462
  20
0.66066
  0
VERTEX
  8
1
  10
0.62552
  20
0.65706
  0
VERTEX
  8
1
  10
0.62640
  20
0.65350
  0
VERTEX
  8
1
  10
0.62725
  20
0.65001
  0
VERTEX
  8
1
  10
0.62804
  20
0.64663
  0
VERTEX
  8
1
  10
0.62875
  20
0.64339
  0
VERTEX
  8
1
  10
0.62938
  20
0.64034
  0
VERTEX
  8
1
  10
0.62990
  20
0.63750
  0
VERTEX
  8
1
  10
0.63029
  20
0.63491
  0
VERTEX
  8
1
  10
0.63054
  20
0.63261
  0
VERTEX
  8
1
  10
0.63063
  20
0.63063
  0
VERTEX
  8
1
  10
0.63170
  20
0.62571
  0
VERTEX
  8
1
  10
0.63306
  20
0.62011
  0
VERTEX
  8
1
  10
0.63463
  20
0.61404
  0
VERTEX
  8
1
  10
0.63635
  20
0.60771
  0
VERTEX
  8
1
  10
0.63814
  20
0.60135
  0
VERTEX
  8
1
  10
0.63993
  20
0.59517
  0
VERTEX
  8
1
  10
0.64165
  20
0.58939
  0
VERTEX
  8
1
  10
0.64322
  20
0.58422
  0
VERTEX
  8
1
  10
0.64458
  20
0.57987
  0
VERTEX
  8
1
  10
0.64565
  20
0.57658
  0
VERTEX
  8
1
  10
0.65165
  20
0.56456
  0
VERTEX
  8
1
  10
0.65293
  20
0.56065
  0
VERTEX
  8
1
  10
0.65646
  20
0.55303
  0
VERTEX
  8
1
  10
0.66179
  20
0.54254
  0
VERTEX
  8
1
  10
0.66847
  20
0.52997
  0
VERTEX
  8
1
  10
0.67605
  20
0.51614
  0
VERTEX
  8
1
  10
0.68408
  20
0.50186
  0
VERTEX
  8
1
  10
0.69212
  20
0.48794
  0
VERTEX
  8
1
  10
0.69970
  20
0.47520
  0
VERTEX
  8
1
  10
0.70638
  20
0.46443
  0
VERTEX
  8
1
  10
0.71171
  20
0.45646
  0
VERTEX
  8
1
  10
0.71926
  20
0.44738
  0
VERTEX
  8
1
  10
0.72742
  20
0.43825
  0
VERTEX
  8
1
  10
0.73609
  20
0.42919
  0
VERTEX
  8
1
  10
0.74515
  20
0.42032
  0
VERTEX
  8
1
  10
0.75450
  20
0.41179
  0
VERTEX
  8
1
  10
0.76404
  20
0.40370
  0
VERTEX
  8
1
  10
0.77364
  20
0.39619
  0
VERTEX
  8
1
  10
0.78321
  20
0.38938
  0
VERTEX
  8
1
  10
0.79263
  20
0.38340
  0
VERTEX
  8
1
  10
0.80180
  20
0.37838
  0
VERTEX
  8
1
  10
0.80459
  20
0.37658
  0
VERTEX
  8
1
  10
0.80752
  20
0.37480
  0
VERTEX
  8
1
  10
0.81056
  20
0.37305
  0
VERTEX
  8
1
  10
0.81367
  20
0.37136
  0
VERTEX
  8
1
  10
0.81682
  20
0.36974
  0
VERTEX
  8
1
  10
0.81996
  20
0.36822
  0
VERTEX
  8
1
  10
0.82308
  20
0.36680
  0
VERTEX
  8
1
  10
0.82611
  20
0.36550
  0
VERTEX
  8
1
  10
0.82905
  20
0.36435
  0
VERTEX
  8
1
  10
0.83183
  20
0.36336
  0
VERTEX
  8
1
  10
0.83849
  20
0.35956
  0
VERTEX
  8
1
  10
0.84401
  20
0.35712
  0
VERTEX
  8
1
  10
0.84835
  20
0.35593
  0
VERTEX
  8
1
  10
0.85144
  20
0.35592
  0
VERTEX
  8
1
  10
0.85323
  20
0.35698
  0
VERTEX
  8
1
  10
0.85367
  20
0.35904
  0
VERTEX
  8
1
  10
0.85271
  20
0.36200
  0
VERTEX
  8
1
  10
0.85028
  20
0.36577
  0
VERTEX
  8
1
  10
0.84635
  20
0.37026
  0
VERTEX
  8
1
  10
0.84084
  20
0.37538
  0
VERTEX
  8
1
  10
0.83416
  20
0.38206
  0
VERTEX
  8
1
  10
0.82849
  20
0.38777
  0
VERTEX
  8
1
  10
0.82376
  20
0.39262
  0
VERTEX
  8
1
  10
0.81989
  20
0.39671
  0
VERTEX
  8
1
  10
0.81682
  20
0.40015
  0
VERTEX
  8
1
  10
0.81446
  20
0.40305
  0
VERTEX
  8
1
  10
0.81276
  20
0.40552
  0
VERTEX
  8
1
  10
0.81163
  20
0.40766
  0
VERTEX
  8
1
  10
0.81100
  20
0.40959
  0
VERTEX
  8
1
  10
0.81081
  20
0.41141
  0
VERTEX
  8
1
  10
0.81082
  20
0.41312
  0
VERTEX
  8
1
  10
0.81088
  20
0.41463
  0
VERTEX
  8
1
  10
0.81105
  20
0.41592
  0
VERTEX
  8
1
  10
0.81139
  20
0.41698
  0
VERTEX
  8
1
  10
0.81194
  20
0.41779
  0
VERTEX
  8
1
  10
0.81276
  20
0.41833
  0
VERTEX
  8
1
  10
0.81390
  20
0.41858
  0
VERTEX
  8
1
  10
0.81542
  20
0.41852
  0
VERTEX
  8
1
  10
0.81738
  20
0.41814
  0
VERTEX
  8
1
  10
0.81982
  20
0.41742
  0
VERTEX
  8
1
  10
0.82306
  20
0.41759
  0
VERTEX
  8
1
  10
0.82559
  20
0.41811
  0
VERTEX
  8
1
  10
0.82739
  20
0.41896
  0
VERTEX
  8
1
  10
0.82847
  20
0.42011
  0
VERTEX
  8
1
  10
0.82883
  20
0.42155
  0
VERTEX
  8
1
  10
0.82847
  20
0.42326
  0
VERTEX
  8
1
  10
0.82739
  20
0.42522
  0
VERTEX
  8
1
  10
0.82559
  20
0.42741
  0
VERTEX
  8
1
  10
0.82306
  20
0.42982
  0
VERTEX
  8
1
  10
0.81982
  20
0.43243
  0
VERTEX
  8
1
  10
0.80745
  20
0.44228
  0
VERTEX
  8
1
  10
0.79402
  20
0.45357
  0
VERTEX
  8
1
  10
0.77990
  20
0.46595
  0
VERTEX
  8
1
  10
0.76548
  20
0.47904
  0
VERTEX
  8
1
  10
0.75113
  20
0.49249
  0
VERTEX
  8
1
  10
0.73723
  20
0.50595
  0
VERTEX
  8
1
  10
0.72415
  20
0.51904
  0
VERTEX
  8
1
  10
0.71229
  20
0.53141
  0
VERTEX
  8
1
  10
0.70201
  20
0.54270
  0
VERTEX
  8
1
  10
0.69369
  20
0.55255
  0
VERTEX
  8
1
  10
0.68882
  20
0.55924
  0
VERTEX
  8
1
  10
0.68495
  20
0.56497
  0
VERTEX
  8
1
  10
0.68202
  20
0.56988
  0
VERTEX
  8
1
  10
0.67995
  20
0.57408
  0
VERTEX
  8
1
  10
0.67868
  20
0.57770
  0
VERTEX
  8
1
  10
0.67813
  20
0.58088
  0
VERTEX
  8
1
  10
0.67822
  20
0.58373
  0
VERTEX
  8
1
  10
0.67889
  20
0.58638
  0
VERTEX
  8
1
  10
0.68007
  20
0.58896
  0
VERTEX
  8
1
  10
0.68168
  20
0.59159
  0
VERTEX
  8
1
  10
0.68321
  20
0.59252
  0
VERTEX
  8
1
  10
0.68420
  20
0.59361
  0
VERTEX
  8
1
  10
0.68465
  20
0.59502
  0
VERTEX
  8
1
  10
0.68456
  20
0.59692
  0
VERTEX
  8
1
  10
0.68393
  20
0.59947
  0
VERTEX
  8
1
  10
0.68276
  20
0.60283
  0
VERTEX
  8
1
  10
0.68105
  20
0.60717
  0
VERTEX
  8
1
  10
0.67880
  20
0.61264
  0
VERTEX
  8
1
  10
0.67601
  20
0.61940
  0
VERTEX
  8
1
  10
0.67267
  20
0.62763
  0
VERTEX
  8
1
  10
0.66689
  20
0.63855
  0
VERTEX
  8
1
  10
0.66210
  20
0.64795
  0
VERTEX
  8
1
  10
0.65821
  20
0.65595
  0
VERTEX
  8
1
  10
0.65514
  20
0.66265
  0
VERTEX
  8
1
  10
0.65278
  20
0.66817
  0
VERTEX
  8
1
  10
0.65105
  20
0.67260
  0
VERTEX
  8
1
  10
0.64986
  20
0.67606
  0
VERTEX
  8
1
  10
0.64913
  20
0.67865
  0
VERTEX
  8
1
  10
0.64875
  20
0.68049
  0
VERTEX
  8
1
  10
0.64865
  20
0.68168
  0
VERTEX
  8
1
  10
0.64856
  20
0.68267
  0
VERTEX
  8
1
  10
0.64831
  20
0.68380
  0
VERTEX
  8
1
  10
0.64792
  20
0.68503
  0
VERTEX
  8
1
  10
0.64740
  20
0.68634
  0
VERTEX
  8
1
  10
0.64677
  20
0.68769
  0
VERTEX
  8
1
  10
0.64605
  20
0.68903
  0
VERTEX
  8
1
  10
0.64526
  20
0.69034
  0
VERTEX
  8
1
  10
0.64442
  20
0.69158
  0
VERTEX
  8
1
  10
0.64354
  20
0.69271
  0
VERTEX
  8
1
  10
0.64264
  20
0.69369
  0
VERTEX
  8
1
  10
0.64174
  20
0.69650
  0
VERTEX
  8
1
  10
0.64086
  20
0.69958
  0
VERTEX
  8
1
  10
0.64002
  20
0.70302
  0
VERTEX
  8
1
  10
0.63923
  20
0.70691
  0
VERTEX
  8
1
  10
0.63851
  20
0.71134
  0
VERTEX
  8
1
  10
0.63789
  20
0.71640
  0
VERTEX
  8
1
  10
0.63737
  20
0.72218
  0
VERTEX
  8
1
  10
0.63697
  20
0.72877
  0
VERTEX
  8
1
  10
0.63672
  20
0.73626
  0
VERTEX
  8
1
  10
0.63664
  20
0.74474
  0
VERTEX
  8
1
  10
0.63673
  20
0.75665
  0
VERTEX
  8
1
  10
0.63700
  20
0.76718
  0
VERTEX
  8
1
  10
0.63745
  20
0.77642
  0
VERTEX
  8
1
  10
0.63808
  20
0.78443
  0
VERTEX
  8
1
  10
0.63889
  20
0.79129
  0
VERTEX
  8
1
  10
0.63988
  20
0.79707
  0
VERTEX
  8
1
  10
0.64105
  20
0.80184
  0
VERTEX
  8
1
  10
0.64240
  20
0.80567
  0
VERTEX
  8
1
  10
0.64393
  20
0.80864
  0
VERTEX
  8
1
  10
0.64565
  20
0.81081
  0
VERTEX
  8
1
  10
0.64581
  20
0.81304
  0
VERTEX
  8
1
  10
0.64627
  20
0.81605
  0
VERTEX
  8
1
  10
0.64694
  20
0.81970
  0
VERTEX
  8
1
  10
0.64776
  20
0.82388
  0
VERTEX
  8
1
  10
0.64865
  20
0.82845
  0
VERTEX
  8
1
  10
0.64954
  20
0.83330
  0
VERTEX
  8
1
  10
0.65035
  20
0.83829
  0
VERTEX
  8
1
  10
0.65103
  20
0.84329
  0
VERTEX
  8
1
  10
0.65148
  20
0.84819
  0
VERTEX
  8
1
  10
0.65165
  20
0.85285
  0
SEQEND
  0
POLYLINE
  8
1
  6
CONTINUOUS
 66
  1
 70
  1
  0
VERTEX
  8
1
  10
1.20720
  20
1.06284
  0
VERTEX
  8
1
  10
1.20716
  20
1.06763
  0
VERTEX
  8
1
  10
1.20705
  20
1.07152
  0
VERTEX
  8
1
  10
1.20682
  20
1.07459
  0
VERTEX
  8
1
  10
1.20646
  20
1.07695
  0
VERTEX
  8
1
  10
1.20591
  20
1.07868
  0
VERTEX
  8
1
  10
1.20515
  20
1.07986
  0
VERTEX
  8
1
  10
1.20413
  20
1.08060
  0
VERTEX
  8
1
  10
1.20283
  20
1.08098
  0
VERTEX
  8
1
  10
1.20120
  20
1.08108
  0
VERTEX
  8
1
  10
1.19881
  20
1.08121
  0
VERTEX
  8
1
  10
1.19544
  20
1.07995
  0
VERTEX
  8
1
  10
1.19134
  20
1.07754
  0
VERTEX
  8
1
  10
1.18679
  20
1.07421
  0
VERTEX
  8
1
  10
1.18206
  20
1.07020
  0
VERTEX
  8
1
  10
1.17742
  20
1.06573
  0
VERTEX
  8
1
  10
1.17314
  20
1.06105
  0
VERTEX
  8
1
  10
1.16949
  20
1.05638
  0
VERTEX
  8
1
  10
1.16674
  20
1.05197
  0
VERTEX
  8
1
  10
1.16517
  20
1.04805
  0
VERTEX
  8
1
  10
1.16517
  20
1.03303
  0
VERTEX
  8
1
  10
1.16598
  20
1.03205
  0
VERTEX
  8
1
  10
1.16663
  20
1.03092
  0
VERTEX
  8
1
  10
1.16714
  20
1.02968
  0
VERTEX
  8
1
  10
1.16752
  20
1.02837
  0
VERTEX
  8
1
  10
1.16779
  20
1.02703
  0
VERTEX
  8
1
  10
1.16798
  20
1.02568
  0
VERTEX
  8
1
  10
1.16809
  20
1.02437
  0
VERTEX
  8
1
  10
1.16814
  20
1.02314
  0
VERTEX
  8
1
  10
1.16817
  20
1.02201
  0
VERTEX
  8
1
  10
1.16817
  20
1.02102
  0
VERTEX
  8
1
  10
1.16656
  20
1.01368
  0
VERTEX
  8
1
  10
1.16536
  20
1.00771
  0
VERTEX
  8
1
  10
1.16463
  20
1.00286
  0
VERTEX
  8
1
  10
1.16442
  20
0.99887
  0
VERTEX
  8
1
  10
1.16479
  20
0.99550
  0
VERTEX
  8
1
  10
1.16579
  20
0.99248
  0
VERTEX
  8
1
  10
1.16747
  20
0.98957
  0
VERTEX
  8
1
  10
1.16990
  20
0.98652
  0
VERTEX
  8
1
  10
1.17311
  20
0.98308
  0
VERTEX
  8
1
  10
1.17718
  20
0.97898
  0
VERTEX
  8
1
  10
1.18124
  20
0.97391
  0
VERTEX
  8
1
  10
1.18443
  20
0.96944
  0
VERTEX
  8
1
  10
1.18680
  20
0.96544
  0
VERTEX
  8
1
  10
1.18837
  20
0.96178
  0
VERTEX
  8
1
  10
1.18919
  20
0.95833
  0
VERTEX
  8
1
  10
1.18929
  20
0.95498
  0
VERTEX
  8
1
  10
1.18870
  20
0.95159
  0
VERTEX
  8
1
  10
1.18746
  20
0.94804
  0
VERTEX
  8
1
  10
1.18561
  20
0.94420
  0
VERTEX
  8
1
  10
1.18318
  20
0.93994
  0
VERTEX
  8
1
  10
1.18310
  20
0.93895
  0
VERTEX
  8
1
  10
1.18287
  20
0.93780
  0
VERTEX
  8
1
  10
1.18253
  20
0.93651
  0
VERTEX
  8
1
  10
1.18213
  20
0.93509
  0
VERTEX
  8
1
  10
1.18168
  20
0.93356
  0
VERTEX
  8
1
  10
1.18124
  20
0.93194
  0
VERTEX
  8
1
  10
1.18083
  20
0.93025
  0
VERTEX
  8
1
  10
1.18049
  20
0.92850
  0
VERTEX
  8
1
  10
1.18026
  20
0.92672
  0
VERTEX
  8
1
  10
1.18018
  20
0.92492
  0
VERTEX
  8
1
  10
1.17992
  20
0.92286
  0
VERTEX
  8
1
  10
1.17917
  20
0.92031
  0
VERTEX
  8
1
  10
1.17799
  20
0.91733
  0
VERTEX
  8
1
  10
1.17643
  20
0.91397
  0
VERTEX
  8
1
  10
1.17455
  20
0.91029
  0
VERTEX
  8
1
  10
1.17240
  20
0.90633
  0
VERTEX
  8
1
  10
1.17003
  20
0.90216
  0
VERTEX
  8
1
  10
1.16750
  20
0.89783
  0
VERTEX
  8
1
  10
1.16486
  20
0.89338
  0
VERTEX
  8
1
  10
1.16216
  20
0.88889
  0
VERTEX
  8
1
  10
1.15639
  20
0.87976
  0
VERTEX
  8
1
  10
1.15164
  20
0.87207
  0
VERTEX
  8
1
  10
1.14786
  20
0.86565
  0
VERTEX
  8
1
  10
1.14501
  20
0.86030
  0
VERTEX
  8
1
  10
1.14302
  20
0.85586
  0
VERTEX
  8
1
  10
1.14184
  20
0.85213
  0
VERTEX
  8
1
  10
1.14141
  20
0.84895
  0
VERTEX
  8
1
  10
1.14169
  20
0.84613
  0
VERTEX
  8
1
  10
1.14262
  20
0.84348
  0
VERTEX
  8
1
  10
1.14414
  20
0.84084
  0
VERTEX
  8
1
  10
1.14577
  20
0.83839
  0
VERTEX
  8
1
  10
1.14703
  20
0.83637
  0
VERTEX
  8
1
  10
1.14793
  20
0.83468
  0
VERTEX
  8
1
  10
1.14847
  20
0.83320
  0
VERTEX
  8
1
  10
1.14865
  20
0.83183
  0
VERTEX
  8
1
  10
1.14847
  20
0.83046
  0
VERTEX
  8
1
  10
1.14793
  20
0.82898
  0
VERTEX
  8
1
  10
1.14703
  20
0.82729
  0
VERTEX
  8
1
  10
1.14577
  20
0.82527
  0
VERTEX
  8
1
  10
1.14414
  20
0.82282
  0
VERTEX
  8
1
  10
1.14334
  20
0.82110
  0
VERTEX
  8
1
  10
1.14273
  20
0.81951
  0
VERTEX
  8
1
  10
1.14233
  20
0.81798
  0
VERTEX
  8
1
  10
1.14217
  20
0.81648
  0
VERTEX
  8
1
  10
1.14227
  20
0.81494
  0
VERTEX
  8
1
  10
1.14263
  20
0.81331
  0
VERTEX
  8
1
  10
1.14328
  20
0.81153
  0
VERTEX
  8
1
  10
1.14424
  20
0.80956
  0
VERTEX
  8
1
  10
1.14552
  20
0.80734
  0
VERTEX
  8
1
  10
1.14715
  20
0.80480
  0
VERTEX
  8
1
  10
1.14877
  20
0.80309
  0
VERTEX
  8
1
  10
1.15008
  20
0.80154
  0
VERTEX
  8
1
  10
1.15109
  20
0.80013
  0
VERTEX
  8
1
  10
1.15186
  20
0.79885
  0
VERTEX
  8
1
  10
1.15240
  20
0.79767
  0
VERTEX
  8
1
  10
1.15277
  20
0.79659
  0
VERTEX
  8
1
  10
1.15299
  20
0.79558
  0
VERTEX
  8
1
  10
1.15311
  20
0.79462
  0
VERTEX
  8
1
  10
1.15315
  20
0.79370
  0
VERTEX
  8
1
  10
1.15315
  20
0.79279
  0
VERTEX
  8
1
  10
1.15216
  20
0.79245
  0
VERTEX
  8
1
  10
1.15099
  20
0.79147
  0
VERTEX
  8
1
  10
1.14964
  20
0.78995
  0
VERTEX
  8
1
  10
1.14811
  20
0.78799
  0
VERTEX
  8
1
  10
1.14640
  20
0.78566
  0
VERTEX
  8
1
  10
1.14450
  20
0.78306
  0
VERTEX
  8
1
  10
1.14243
  20
0.78029
  0
VERTEX
  8
1
  10
1.14018
  20
0.77742
  0
VERTEX
  8
1
  10
1.13775
  20
0.77455
  0
VERTEX
  8
1
  10
1.13514
  20
0.77177
  0
VERTEX
  8
1
  10
1.13107
  20
0.76671
  0
VERTEX
  8
1
  10
1.12786
  20
0.76231
  0
VERTEX
  8
1
  10
1.12543
  20
0.75847
  0
VERTEX
  8
1
  10
1.12375
  20
0.75515
  0
VERTEX
  8
1
  10
1.12275
  20
0.75225
  0
VERTEX
  8
1
  10
1.12238
  20
0.74972
  0
VERTEX
  8
1
  10
1.12259
  20
0.74747
  0
VERTEX
  8
1
  10
1.12332
  20
0.74544
  0
VERTEX
  8
1
  10
1.12451
  20
0.74356
  0
VERTEX
  8
1
  10
1.12613
  20
0.74174
  0
VERTEX
  8
1
  10
1.12702
  20
0.74157
  0
VERTEX
  8
1
  10
1.12790
  20
0.74109
  0
VERTEX
  8
1
  10
1.12875
  20
0.74036
  0
VERTEX
  8
1
  10
1.12954
  20
0.73944
  0
VERTEX
  8
1
  10
1.13026
  20
0.73836
  0
VERTEX
  8
1
  10
1.13088
  20
0.73720
  0
VERTEX
  8
1
  10
1.13140
  20
0.73600
  0
VERTEX
  8
1
  10
1.13180
  20
0.73482
  0
VERTEX
  8
1
  10
1.13205
  20
0.73371
  0
VERTEX
  8
1
  10
1.13213
  20
0.73273
  0
VERTEX
  8
1
  10
1.13094
  20
0.72902
  0
VERTEX
  8
1
  10
1.12762
  20
0.72356
  0
VERTEX
  8
1
  10
1.12256
  20
0.71676
  0
VERTEX
  8
1
  10
1.11618
  20
0.70905
  0
VERTEX
  8
1
  10
1.10886
  20
0.70083
  0
VERTEX
  8
1
  10
1.10100
  20
0.69252
  0
VERTEX
  8
1
  10
1.09299
  20
0.68453
  0
VERTEX
  8
1
  10
1.08524
  20
0.67729
  0
VERTEX
  8
1
  10
1.07813
  20
0.67119
  0
VERTEX
  8
1
  10
1.07207
  20
0.66667
  0
VERTEX
  8
1
  10
1.06793
  20
0.66405
  0
VERTEX
  8
1
  10
1.06450
  20
0.66162
  0
VERTEX
  8
1
  10
1.06180
  20
0.65937
  0
VERTEX
  8
1
  10
1.05982
  20
0.65730
  0
VERTEX
  8
1
  10
1.05856
  20
0.65541
  0
VERTEX
  8
1
  10
1.05802
  20
0.65369
  0
VERTEX
  8
1
  10
1.05820
  20
0.65216
  0
VERTEX
  8
1
  10
1.05910
  20
0.65081
  0
VERTEX
  8
1
  10
1.06072
  20
0.64964
  0
VERTEX
  8
1
  10
1.06306
  20
0.64865
  0
VERTEX
  8
1
  10
1.06542
  20
0.64839
  0
VERTEX
  8
1
  10
1.06895
  20
0.64944
  0
VERTEX
  8
1
  10
1.07374
  20
0.65186
  0
VERTEX
  8
1
  10
1.07988
  20
0.65571
  0
VERTEX
  8
1
  10
1.08746
  20
0.66104
  0
VERTEX
  8
1
  10
1.09658
  20
0.66789
  0
VERTEX
  8
1
  10
1.10731
  20
0.67633
  0
VERTEX
  8
1
  10
1.11976
  20
0.68641
  0
VERTEX
  8
1
  10
1.13401
  20
0.69819
  0
VERTEX
  8
1
  10
1.15015
  20
0.71171
  0
VERTEX
  8
1
  10
1.15293
  20
0.71441
  0
VERTEX
  8
1
  10
1.15584
  20
0.71709
  0
VERTEX
  8
1
  10
1.15883
  20
0.71974
  0
VERTEX
  8
1
  10
1.16183
  20
0.72233
  0
VERTEX
  8
1
  10
1.16479
  20
0.72485
  0
VERTEX
  8
1
  10
1.16766
  20
0.72728
  0
VERTEX
  8
1
  10
1.17039
  20
0.72960
  0
VERTEX
  8
1
  10
1.17292
  20
0.73180
  0
VERTEX
  8
1
  10
1.17520
  20
0.73385
  0
VERTEX
  8
1
  10
1.17718
  20
0.73574
  0
VERTEX
  8
1
  10
1.18326
  20
0.73959
  0
VERTEX
  8
1
  10
1.19049
  20
0.74383
  0
VERTEX
  8
1
  10
1.19858
  20
0.74833
  0
VERTEX
  8
1
  10
1.20726
  20
0.75294
  0
VERTEX
  8
1
  10
1.21622
  20
0.75751
  0
VERTEX
  8
1
  10
1.22518
  20
0.76190
  0
VERTEX
  8
1
  10
1.23385
  20
0.76596
  0
VERTEX
  8
1
  10
1.24195
  20
0.76956
  0
VERTEX
  8
1
  10
1.24918
  20
0.77255
  0
VERTEX
  8
1
  10
1.25526
  20
0.77477
  0
VERTEX
  8
1
  10
1.26346
  20
0.77740
  0
VERTEX
  8
1
  10
1.27005
  20
0.77994
  0
VERTEX
  8
1
  10
1.27507
  20
0.78248
  0
VERTEX
  8
1
  10
1.27851
  20
0.78511
  0
VERTEX
  8
1
  10
1.28041
  20
0.78791
  0
VERTEX
  8
1
  10
1.28077
  20
0.79099
  0
VERTEX
  8
1
  10
1.27962
  20
0.79443
  0
VERTEX
  8
1
  10
1.27697
  20
0.79832
  0
VERTEX
  8
1
  10
1.27285
  20
0.80275
  0
VERTEX
  8
1
  10
1.26727
  20
0.80781
  0
VERTEX
  8
1
  10
1.26187
  20
0.81301
  0
VERTEX
  8
1
  10
1.25655
  20
0.81951
  0
VERTEX
  8
1
  10
1.25138
  20
0.82716
  0
VERTEX
  8
1
  10
1.24641
  20
0.83582
  0
VERTEX
  8
1
  10
1.24174
  20
0.84535
  0
VERTEX
  8
1
  10
1.23743
  20
0.85559
  0
VERTEX
  8
1
  10
1.23355
  20
0.86641
  0
VERTEX
  8
1
  10
1.23017
  20
0.87767
  0
VERTEX
  8
1
  10
1.22738
  20
0.88921
  0
VERTEX
  8
1
  10
1.22523
  20
0.90090
  0
VERTEX
  8
1
  10
1.22514
  20
0.90278
  0
VERTEX
  8
1
  10
1.22491
  20
0.90479
  0
VERTEX
  8
1
  10
1.22458
  20
0.90687
  0
VERTEX
  8
1
  10
1.22417
  20
0.90897
  0
VERTEX
  8
1
  10
1.22372
  20
0.91104
  0
VERTEX
  8
1
  10
1.22328
  20
0.91301
  0
VERTEX
  8
1
  10
1.22287
  20
0.91484
  0
VERTEX
  8
1
  10
1.22253
  20
0.91647
  0
VERTEX
  8
1
  10
1.22231
  20
0.91785
  0
VERTEX
  8
1
  10
1.22222
  20
0.91892
  0
VERTEX
  8
1
  10
1.22132
  20
0.92338
  0
VERTEX
  8
1
  10
1.22044
  20
0.92935
  0
VERTEX
  8
1
  10
1.21960
  20
0.93654
  0
VERTEX
  8
1
  10
1.21881
  20
0.94467
  0
VERTEX
  8
1
  10
1.21809
  20
0.95345
  0
VERTEX
  8
1
  10
1.21747
  20
0.96259
  0
VERTEX
  8
1
  10
1.21695
  20
0.97181
  0
VERTEX
  8
1
  10
1.21655
  20
0.98080
  0
VERTEX
  8
1
  10
1.21630
  20
0.98930
  0
VERTEX
  8
1
  10
1.21622
  20
0.99700
  0
VERTEX
  8
1
  10
1.21621
  20
1.00059
  0
VERTEX
  8
1
  10
1.21619
  20
1.00416
  0
VERTEX
  8
1
  10
1.21614
  20
1.00765
  0
VERTEX
  8
1
  10
1.21602
  20
1.01103
  0
VERTEX
  8
1
  10
1.21584
  20
1.01426
  0
VERTEX
  8
1
  10
1.21557
  20
1.01732
  0
VERTEX
  8
1
  10
1.21519
  20
1.02016
  0
VERTEX
  8
1
  10
1.21468
  20
1.02275
  0
VERTEX
  8
1
  10
1.21403
  20
1.02505
  0
VERTEX
  8
1
  10
1.21321
  20
1.02703
  0
VERTEX
  8
1
  10
1.21232
  20
1.02900
  0
VERTEX
  8
1
  10
1.21144
  20
1.03130
  0
VERTEX
  8
1
  10
1.21059
  20
1.03389
  0
VERTEX
  8
1
  10
1.20980
  20
1.03673
  0
VERTEX
  8
1
  10
1.20908
  20
1.03979
  0
VERTEX
  8
1
  10
1.20846
  20
1.04303
  0
VERTEX
  8
1
  10
1.20794
  20
1.04641
  0
VERTEX
  8
1
  10
1.20754
  20
1.04990
  0
VERTEX
  8
1
  10
1.20729
  20
1.05346
  0
VERTEX
  8
1
  10
1.20721
  20
1.05706
  0
SEQEND
  0
POLYLINE
  8
1
  6
CONTINUOUS
 66
  1
 70
  1
  0
VERTEX
  8
1
  10
1.00258
  20
1.07751
  0
VERTEX
  8
1
  10
0.99947
  20
1.07940
  0
VERTEX
  8
1
  10
0.99665
  20
1.08075
  0
VERTEX
  8
1
  10
0.99409
  20
1.08156
  0
VERTEX
  8
1
  10
0.99174
  20
1.08183
  0
VERTEX
  8
1
  10
0.98957
  20
1.08156
  0
VERTEX
  8
1
  10
0.98755
  20
1.08075
  0
VERTEX
  8
1
  10
0.98563
  20
1.07940
  0
VERTEX
  8
1
  10
0.98379
  20
1.07751
  0
VERTEX
  8
1
  10
0.98198
  20
1.07508
  0
VERTEX
  8
1
  10
0.98044
  20
1.07238
  0
VERTEX
  8
1
  10
0.97941
  20
1.06969
  0
VERTEX
  8
1
  10
0.97885
  20
1.06705
  0
VERTEX
  8
1
  10
0.97871
  20
1.06446
  0
VERTEX
  8
1
  10
0.97898
  20
1.06194
  0
VERTEX
  8
1
  10
0.97960
  20
1.05951
  0
VERTEX
  8
1
  10
0.98055
  20
1.05719
  0
VERTEX
  8
1
  10
0.98179
  20
1.05499
  0
VERTEX
  8
1
  10
0.98328
  20
1.05294
  0
VERTEX
  8
1
  10
0.98498
  20
1.05105
  0
VERTEX
  8
1
  10
0.99298
  20
1.04781
  0
VERTEX
  8
1
  10
1.00067
  20
1.04529
  0
VERTEX
  8
1
  10
1.00793
  20
1.04348
  0
VERTEX
  8
1
  10
1.01463
  20
1.04240
  0
VERTEX
  8
1
  10
1.02065
  20
1.04204
  0
VERTEX
  8
1
  10
1.02585
  20
1.04240
  0
VERTEX
  8
1
  10
1.03012
  20
1.04348
  0
VERTEX
  8
1
  10
1.03332
  20
1.04529
  0
VERTEX
  8
1
  10
1.03534
  20
1.04781
  0
VERTEX
  8
1
  10
1.03604
  20
1.05105
  0
VERTEX
  8
1
  10
1.03595
  20
1.05277
  0
VERTEX
  8
1
  10
1.03568
  20
1.05432
  0
VERTEX
  8
1
  10
1.03523
  20
1.05573
  0
VERTEX
  8
1
  10
1.03459
  20
1.05701
  0
VERTEX
  8
1
  10
1.03378
  20
1.05818
  0
VERTEX
  8
1
  10
1.03279
  20
1.05927
  0
VERTEX
  8
1
  10
1.03162
  20
1.06028
  0
VERTEX
  8
1
  10
1.03027
  20
1.06124
  0
VERTEX
  8
1
  10
1.02874
  20
1.06216
  0
VERTEX
  8
1
  10
1.02703
  20
1.06306
  0
VERTEX
  8
1
  10
1.02514
  20
1.06324
  0
VERTEX
  8
1
  10
1.02311
  20
1.06374
  0
VERTEX
  8
1
  10
1.02097
  20
1.06452
  0
VERTEX
  8
1
  10
1.01876
  20
1.06556
  0
VERTEX
  8
1
  10
1.01652
  20
1.06682
  0
VERTEX
  8
1
  10
1.01427
  20
1.06825
  0
VERTEX
  8
1
  10
1.01206
  20
1.06983
  0
VERTEX
  8
1
  10
1.00992
  20
1.07152
  0
VERTEX
  8
1
  10
1.00789
  20
1.07328
  0
VERTEX
  8
1
  10
1.00601
  20
1.07508
  0
SEQEND
  0
POLYLINE
  8
1
  6
CONTINUOUS
 66
  1
 70
  1
  0
VERTEX
  8
1
  10
0.85835
  20
1.02865
  0
VERTEX
  8
1
  10
0.85504
  20
1.02991
  0
VERTEX
  8
1
  10
0.85194
  20
1.03081
  0
VERTEX
  8
1
  10
0.84908
  20
1.03135
  0
VERTEX
  8
1
  10
0.84647
  20
1.03153
  0
VERTEX
  8
1
  10
0.84413
  20
1.03135
  0
VERTEX
  8
1
  10
0.84208
  20
1.03081
  0
VERTEX
  8
1
  10
0.84034
  20
1.02991
  0
VERTEX
  8
1
  10
0.83892
  20
1.02865
  0
VERTEX
  8
1
  10
0.83784
  20
1.02703
  0
VERTEX
  8
1
  10
0.83706
  20
1.02538
  0
VERTEX
  8
1
  10
0.83668
  20
1.02393
  0
VERTEX
  8
1
  10
0.83692
  20
1.02251
  0
VERTEX
  8
1
  10
0.83798
  20
1.02097
  0
VERTEX
  8
1
  10
0.84009
  20
1.01914
  0
VERTEX
  8
1
  10
0.84346
  20
1.01686
  0
VERTEX
  8
1
  10
0.84831
  20
1.01397
  0
VERTEX
  8
1
  10
0.85485
  20
1.01031
  0
VERTEX
  8
1
  10
0.86330
  20
1.00570
  0
VERTEX
  8
1
  10
0.87387
  20
1.00000
  0
VERTEX
  8
1
  10
0.88605
  20
0.99405
  0
VERTEX
  8
1
  10
0.89739
  20
0.98883
  0
VERTEX
  8
1
  10
0.90798
  20
0.98432
  0
VERTEX
  8
1
  10
0.91789
  20
0.98054
  0
VERTEX
  8
1
  10
0.92718
  20
0.97748
  0
VERTEX
  8
1
  10
0.93593
  20
0.97514
  0
VERTEX
  8
1
  10
0.94421
  20
0.97351
  0
VERTEX
  8
1
  10
0.95210
  20
0.97261
  0
VERTEX
  8
1
  10
0.95966
  20
0.97243
  0
VERTEX
  8
1
  10
0.96697
  20
0.97297
  0
VERTEX
  8
1
  10
0.97579
  20
0.97478
  0
VERTEX
  8
1
  10
0.98422
  20
0.97662
  0
VERTEX
  8
1
  10
0.99221
  20
0.97854
  0
VERTEX
  8
1
  10
0.99974
  20
0.98056
  0
VERTEX
  8
1
  10
1.00676
  20
0.98273
  0
VERTEX
  8
1
  10
1.01324
  20
0.98508
  0
VERTEX
  8
1
  10
1.01914
  20
0.98765
  0
VERTEX
  8
1
  10
1.02443
  20
0.99046
  0
VERTEX
  8
1
  10
1.02908
  20
0.99357
  0
VERTEX
  8
1
  10
1.03303
  20
0.99700
  0
VERTEX
  8
1
  10
1.03853
  20
1.00213
  0
VERTEX
  8
1
  10
1.04243
  20
1.00668
  0
VERTEX
  8
1
  10
1.04474
  20
1.01062
  0
VERTEX
  8
1
  10
1.04548
  20
1.01391
  0
VERTEX
  8
1
  10
1.04467
  20
1.01652
  0
VERTEX
  8
1
  10
1.04233
  20
1.01840
  0
VERTEX
  8
1
  10
1.03848
  20
1.01953
  0
VERTEX
  8
1
  10
1.03313
  20
1.01987
  0
VERTEX
  8
1
  10
1.02630
  20
1.01938
  0
VERTEX
  8
1
  10
1.01802
  20
1.01802
  0
VERTEX
  8
1
  10
1.01440
  20
1.01720
  0
VERTEX
  8
1
  10
1.01071
  20
1.01655
  0
VERTEX
  8
1
  10
1.00688
  20
1.01605
  0
VERTEX
  8
1
  10
1.00283
  20
1.01566
  0
VERTEX
  8
1
  10
0.99850
  20
1.01539
  0
VERTEX
  8
1
  10
0.99380
  20
1.01521
  0
VERTEX
  8
1
  10
0.98867
  20
1.01510
  0
VERTEX
  8
1
  10
0.98304
  20
1.01504
  0
VERTEX
  8
1
  10
0.97683
  20
1.01502
  0
VERTEX
  8
1
  10
0.96997
  20
1.01502
  0
VERTEX
  8
1
  10
0.93994
  20
1.01502
  0
VERTEX
  8
1
  10
0.93078
  20
1.01519
  0
VERTEX
  8
1
  10
0.92144
  20
1.01569
  0
VERTEX
  8
1
  10
0.91210
  20
1.01647
  0
VERTEX
  8
1
  10
0.90294
  20
1.01751
  0
VERTEX
  8
1
  10
0.89414
  20
1.01877
  0
VERTEX
  8
1
  10
0.88589
  20
1.02020
  0
VERTEX
  8
1
  10
0.87835
  20
1.02178
  0
VERTEX
  8
1
  10
0.87171
  20
1.02347
  0
VERTEX
  8
1
  10
0.86616
  20
1.02523
  0
VERTEX
  8
1
  10
0.86186
  20
1.02703
  0
SEQEND
  0
POLYLINE
  8
1
  6
CONTINUOUS
 66
  1
 70
  1
  0
VERTEX
  8
1
  10
1.82012
  20
1.92088
  0
VERTEX
  8
1
  10
1.81744
  20
1.92497
  0
VERTEX
  8
1
  10
1.81480
  20
1.92824
  0
VERTEX
  8
1
  10
1.81220
  20
1.93071
  0
VERTEX
  8
1
  10
1.80968
  20
1.93243
  0
VERTEX
  8
1
  10
1.80726
  20
1.93343
  0
VERTEX
  8
1
  10
1.80493
  20
1.93374
  0
VERTEX
  8
1
  10
1.80274
  20
1.93341
  0
VERTEX
  8
1
  10
1.80069
  20
1.93246
  0
VERTEX
  8
1
  10
1.79880
  20
1.93093
  0
VERTEX
  8
1
  10
1.79798
  20
1.93003
  0
VERTEX
  8
1
  10
1.79733
  20
1.92913
  0
VERTEX
  8
1
  10
1.79683
  20
1.92823
  0
VERTEX
  8
1
  10
1.79644
  20
1.92733
  0
VERTEX
  8
1
  10
1.79617
  20
1.92643
  0
VERTEX
  8
1
  10
1.79599
  20
1.92553
  0
VERTEX
  8
1
  10
1.79588
  20
1.92462
  0
VERTEX
  8
1
  10
1.79582
  20
1.92372
  0
VERTEX
  8
1
  10
1.79580
  20
1.92282
  0
VERTEX
  8
1
  10
1.79580
  20
1.92192
  0
VERTEX
  8
1
  10
1.79571
  20
1.92166
  0
VERTEX
  8
1
  10
1.79546
  20
1.92094
  0
VERTEX
  8
1
  10
1.79507
  20
1.91981
  0
VERTEX
  8
1
  10
1.79455
  20
1.91837
  0
VERTEX
  8
1
  10
1.79392
  20
1.91667
  0
VERTEX
  8
1
  10
1.79320
  20
1.91479
  0
VERTEX
  8
1
  10
1.79241
  20
1.91280
  0
VERTEX
  8
1
  10
1.79157
  20
1.91077
  0
VERTEX
  8
1
  10
1.79069
  20
1.90879
  0
VERTEX
  8
1
  10
1.78979
  20
1.90691
  0
VERTEX
  8
1
  10
1.78727
  20
1.90134
  0
VERTEX
  8
1
  10
1.78513
  20
1.89554
  0
VERTEX
  8
1
  10
1.78338
  20
1.88964
  0
VERTEX
  8
1
  10
1.78205
  20
1.88375
  0
VERTEX
  8
1
  10
1.78116
  20
1.87800
  0
VERTEX
  8
1
  10
1.78071
  20
1.87253
  0
VERTEX
  8
1
  10
1.78073
  20
1.86745
  0
VERTEX
  8
1
  10
1.78124
  20
1.86289
  0
VERTEX
  8
1
  10
1.78225
  20
1.85899
  0
VERTEX
  8
1
  10
1.78378
  20
1.85586
  0
VERTEX
  8
1
  10
1.78551
  20
1.85343
  0
VERTEX
  8
1
  10
1.78717
  20
1.85160
  0
VERTEX
  8
1
  10
1.78886
  20
1.85042
  0
VERTEX
  8
1
  10
1.79070
  20
1.84995
  0
VERTEX
  8
1
  10
1.79279
  20
1.85023
  0
VERTEX
  8
1
  10
1.79524
  20
1.85132
  0
VERTEX
  8
1
  10
1.79816
  20
1.85327
  0
VERTEX
  8
1
  10
1.80166
  20
1.85614
  0
VERTEX
  8
1
  10
1.80584
  20
1.85999
  0
VERTEX
  8
1
  10
1.81081
  20
1.86486
  0
VERTEX
  8
1
  10
1.81342
  20
1.86756
  0
VERTEX
  8
1
  10
1.81586
  20
1.87025
  0
VERTEX
  8
1
  10
1.81811
  20
1.87289
  0
VERTEX
  8
1
  10
1.82018
  20
1.87548
  0
VERTEX
  8
1
  10
1.82207
  20
1.87800
  0
VERTEX
  8
1
  10
1.82378
  20
1.88043
  0
VERTEX
  8
1
  10
1.82532
  20
1.88275
  0
VERTEX
  8
1
  10
1.82667
  20
1.88495
  0
VERTEX
  8
1
  10
1.82784
  20
1.88700
  0
VERTEX
  8
1
  10
1.82883
  20
1.88889
  0
VERTEX
  8
1
  10
1.82955
  20
1.89224
  0
VERTEX
  8
1
  10
1.82993
  20
1.89516
  0
VERTEX
  8
1
  10
1.82999
  20
1.89775
  0
VERTEX
  8
1
  10
1.82974
  20
1.90013
  0
VERTEX
  8
1
  10
1.82920
  20
1.90240
  0
VERTEX
  8
1
  10
1.82840
  20
1.90467
  0
VERTEX
  8
1
  10
1.82734
  20
1.90705
  0
VERTEX
  8
1
  10
1.82604
  20
1.90965
  0
VERTEX
  8
1
  10
1.82453
  20
1.91256
  0
VERTEX
  8
1
  10
1.82282
  20
1.91592
  0
SEQEND
  0
POLYLINE
  8
1
  6
CONTINUOUS
 66
  1
 70
  1
  0
VERTEX
  8
1
  10
0.92458
  20
1.08051
  0
VERTEX
  8
1
  10
0.92166
  20
1.08238
  0
VERTEX
  8
1
  10
0.91906
  20
1.08367
  0
VERTEX
  8
1
  10
0.91668
  20
1.08437
  0
VERTEX
  8
1
  10
0.91441
  20
1.08446
  0
VERTEX
  8
1
  10
0.91214
  20
1.08392
  0
VERTEX
  8
1
  10
0.90977
  20
1.08272
  0
VERTEX
  8
1
  10
0.90717
  20
1.08086
  0
VERTEX
  8
1
  10
0.90425
  20
1.07832
  0
VERTEX
  8
1
  10
0.90090
  20
1.07508
  0
VERTEX
  8
1
  10
0.89910
  20
1.07255
  0
VERTEX
  8
1
  10
0.89727
  20
1.07037
  0
VERTEX
  8
1
  10
0.89541
  20
1.06851
  0
VERTEX
  8
1
  10
0.89350
  20
1.06695
  0
VERTEX
  8
1
  10
0.89152
  20
1.06569
  0
VERTEX
  8
1
  10
0.88944
  20
1.06470
  0
VERTEX
  8
1
  10
0.88726
  20
1.06395
  0
VERTEX
  8
1
  10
0.88495
  20
1.06345
  0
VERTEX
  8
1
  10
0.88250
  20
1.06316
  0
VERTEX
  8
1
  10
0.87988
  20
1.06306
  0
VERTEX
  8
1
  10
0.87629
  20
1.06280
  0
VERTEX
  8
1
  10
0.87279
  20
1.06208
  0
VERTEX
  8
1
  10
0.86947
  20
1.06095
  0
VERTEX
  8
1
  10
0.86643
  20
1.05951
  0
VERTEX
  8
1
  10
0.86374
  20
1.05781
  0
VERTEX
  8
1
  10
0.86150
  20
1.05593
  0
VERTEX
  8
1
  10
0.85980
  20
1.05394
  0
VERTEX
  8
1
  10
0.85874
  20
1.05192
  0
VERTEX
  8
1
  10
0.85839
  20
1.04993
  0
VERTEX
  8
1
  10
0.85886
  20
1.04805
  0
VERTEX
  8
1
  10
0.86092
  20
1.04553
  0
VERTEX
  8
1
  10
0.86350
  20
1.04336
  0
VERTEX
  8
1
  10
0.86653
  20
1.04156
  0
VERTEX
  8
1
  10
0.87001
  20
1.04012
  0
VERTEX
  8
1
  10
0.87387
  20
1.03904
  0
VERTEX
  8
1
  10
0.87810
  20
1.03832
  0
VERTEX
  8
1
  10
0.88265
  20
1.03796
  0
VERTEX
  8
1
  10
0.88750
  20
1.03796
  0
VERTEX
  8
1
  10
0.89259
  20
1.03832
  0
VERTEX
  8
1
  10
0.89790
  20
1.03904
  0
VERTEX
  8
1
  10
0.90231
  20
1.04012
  0
VERTEX
  8
1
  10
0.90652
  20
1.04154
  0
VERTEX
  8
1
  10
0.91052
  20
1.04328
  0
VERTEX
  8
1
  10
0.91428
  20
1.04533
  0
VERTEX
  8
1
  10
0.91779
  20
1.04767
  0
VERTEX
  8
1
  10
0.92103
  20
1.05028
  0
VERTEX
  8
1
  10
0.92398
  20
1.05314
  0
VERTEX
  8
1
  10
0.92663
  20
1.05624
  0
VERTEX
  8
1
  10
0.92895
  20
1.05955
  0
VERTEX
  8
1
  10
0.93093
  20
1.06306
  0
VERTEX
  8
1
  10
0.93255
  20
1.06551
  0
VERTEX
  8
1
  10
0.93379
  20
1.06751
  0
VERTEX
  8
1
  10
0.93463
  20
1.06914
  0
VERTEX
  8
1
  10
0.93506
  20
1.07051
  0
VERTEX
  8
1
  10
0.93506
  20
1.07170
  0
VERTEX
  8
1
  10
0.93461
  20
1.07279
  0
VERTEX
  8
1
  10
0.93368
  20
1.07389
  0
VERTEX
  8
1
  10
0.93228
  20
1.07508
  0
VERTEX
  8
1
  10
0.93036
  20
1.07644
  0
VERTEX
  8
1
  10
0.92793
  20
1.07808
  0
SEQEND
  0
POLYLINE
  8
1
  6
CONTINUOUS
 66
  1
 70
  1
  0
VERTEX
  8
1
  10
1.57541
  20
1.56618
  0
VERTEX
  8
1
  10
1.57184
  20
1.56740
  0
VERTEX
  8
1
  10
1.56874
  20
1.56819
  0
VERTEX
  8
1
  10
1.56598
  20
1.56850
  0
VERTEX
  8
1
  10
1.56344
  20
1.56832
  0
VERTEX
  8
1
  10
1.56098
  20
1.56759
  0
VERTEX
  8
1
  10
1.55850
  20
1.56629
  0
VERTEX
  8
1
  10
1.55584
  20
1.56437
  0
VERTEX
  8
1
  10
1.55290
  20
1.56181
  0
VERTEX
  8
1
  10
1.54955
  20
1.55856
  0
VERTEX
  8
1
  10
1.54775
  20
1.55758
  0
VERTEX
  8
1
  10
1.54597
  20
1.55647
  0
VERTEX
  8
1
  10
1.54423
  20
1.55529
  0
VERTEX
  8
1
  10
1.54253
  20
1.55409
  0
VERTEX
  8
1
  10
1.54092
  20
1.55293
  0
VERTEX
  8
1
  10
1.53939
  20
1.55186
  0
VERTEX
  8
1
  10
1.53797
  20
1.55093
  0
VERTEX
  8
1
  10
1.53667
  20
1.55020
  0
VERTEX
  8
1
  10
1.53552
  20
1.54972
  0
VERTEX
  8
1
  10
1.53453
  20
1.54955
  0
VERTEX
  8
1
  10
1.53346
  20
1.54946
  0
VERTEX
  8
1
  10
1.53208
  20
1.54921
  0
VERTEX
  8
1
  10
1.53045
  20
1.54882
  0
VERTEX
  8
1
  10
1.52862
  20
1.54830
  0
VERTEX
  8
1
  10
1.52665
  20
1.54767
  0
VERTEX
  8
1
  10
1.52459
  20
1.54695
  0
VERTEX
  8
1
  10
1.52249
  20
1.54617
  0
VERTEX
  8
1
  10
1.52041
  20
1.54532
  0
VERTEX
  8
1
  10
1.51840
  20
1.54444
  0
VERTEX
  8
1
  10
1.51652
  20
1.54354
  0
VERTEX
  8
1
  10
1.51398
  20
1.54111
  0
VERTEX
  8
1
  10
1.51169
  20
1.53917
  0
VERTEX
  8
1
  10
1.50954
  20
1.53771
  0
VERTEX
  8
1
  10
1.50744
  20
1.53667
  0
VERTEX
  8
1
  10
1.50526
  20
1.53604
  0
VERTEX
  8
1
  10
1.50289
  20
1.53576
  0
VERTEX
  8
1
  10
1.50025
  20
1.53581
  0
VERTEX
  8
1
  10
1.49720
  20
1.53614
  0
VERTEX
  8
1
  10
1.49365
  20
1.53673
  0
VERTEX
  8
1
  10
1.48949
  20
1.53754
  0
VERTEX
  8
1
  10
1.48614
  20
1.53835
  0
VERTEX
  8
1
  10
1.48324
  20
1.53895
  0
VERTEX
  8
1
  10
1.48071
  20
1.53935
  0
VERTEX
  8
1
  10
1.47844
  20
1.53951
  0
VERTEX
  8
1
  10
1.47635
  20
1.53941
  0
VERTEX
  8
1
  10
1.47435
  20
1.53905
  0
VERTEX
  8
1
  10
1.47236
  20
1.53840
  0
VERTEX
  8
1
  10
1.47027
  20
1.53744
  0
VERTEX
  8
1
  10
1.46800
  20
1.53616
  0
VERTEX
  8
1
  10
1.46547
  20
1.53453
  0
VERTEX
  8
1
  10
1.46374
  20
1.53364
  0
VERTEX
  8
1
  10
1.46215
  20
1.53280
  0
VERTEX
  8
1
  10
1.46063
  20
1.53208
  0
VERTEX
  8
1
  10
1.45912
  20
1.53151
  0
VERTEX
  8
1
  10
1.45758
  20
1.53116
  0
VERTEX
  8
1
  10
1.45595
  20
1.53108
  0
VERTEX
  8
1
  10
1.45418
  20
1.53132
  0
VERTEX
  8
1
  10
1.45220
  20
1.53194
  0
VERTEX
  8
1
  10
1.44998
  20
1.53299
  0
VERTEX
  8
1
  10
1.44745
  20
1.53453
  0
VERTEX
  8
1
  10
1.44492
  20
1.53535
  0
VERTEX
  8
1
  10
1.44271
  20
1.53598
  0
VERTEX
  8
1
  10
1.44080
  20
1.53643
  0
VERTEX
  8
1
  10
1.43914
  20
1.53670
  0
VERTEX
  8
1
  10
1.43769
  20
1.53679
  0
VERTEX
  8
1
  10
1.43642
  20
1.53670
  0
VERTEX
  8
1
  10
1.43530
  20
1.53643
  0
VERTEX
  8
1
  10
1.43428
  20
1.53598
  0
VERTEX
  8
1
  10
1.43334
  20
1.53535
  0
VERTEX
  8
1
  10
1.43243
  20
1.53453
  0
VERTEX
  8
1
  10
1.43162
  20
1.53289
  0
VERTEX
  8
1
  10
1.43102
  20
1.53148
  0
VERTEX
  8
1
  10
1.43062
  20
1.53018
  0
VERTEX
  8
1
  10
1.43046
  20
1.52886
  0
VERTEX
  8
1
  10
1.43056
  20
1.52740
  0
VERTEX
  8
1
  10
1.43092
  20
1.52567
  0
VERTEX
  8
1
  10
1.43157
  20
1.52354
  0
VERTEX
  8
1
  10
1.43253
  20
1.52089
  0
VERTEX
  8
1
  10
1.43381
  20
1.51759
  0
VERTEX
  8
1
  10
1.43544
  20
1.51351
  0
VERTEX
  8
1
  10
1.43929
  20
1.50685
  0
VERTEX
  8
1
  10
1.44358
  20
1.50131
  0
VERTEX
  8
1
  10
1.44819
  20
1.49692
  0
VERTEX
  8
1
  10
1.45302
  20
1.49372
  0
VERTEX
  8
1
  10
1.45796
  20
1.49174
  0
VERTEX
  8
1
  10
1.46289
  20
1.49103
  0
VERTEX
  8
1
  10
1.46772
  20
1.49161
  0
VERTEX
  8
1
  10
1.47234
  20
1.49353
  0
VERTEX
  8
1
  10
1.47662
  20
1.49681
  0
VERTEX
  8
1
  10
1.48048
  20
1.50150
  0
VERTEX
  8
1
  10
1.48141
  20
1.50313
  0
VERTEX
  8
1
  10
1.48247
  20
1.50446
  0
VERTEX
  8
1
  10
1.48383
  20
1.50553
  0
VERTEX
  8
1
  10
1.48562
  20
1.50640
  0
VERTEX
  8
1
  10
1.48799
  20
1.50713
  0
VERTEX
  8
1
  10
1.49108
  20
1.50777
  0
VERTEX
  8
1
  10
1.49503
  20
1.50838
  0
VERTEX
  8
1
  10
1.49999
  20
1.50900
  0
VERTEX
  8
1
  10
1.50610
  20
1.50969
  0
VERTEX
  8
1
  10
1.51351
  20
1.51051
  0
VERTEX
  8
1
  10
1.52559
  20
1.51087
  0
VERTEX
  8
1
  10
1.53662
  20
1.51195
  0
VERTEX
  8
1
  10
1.54665
  20
1.51375
  0
VERTEX
  8
1
  10
1.55570
  20
1.51628
  0
VERTEX
  8
1
  10
1.56381
  20
1.51952
  0
VERTEX
  8
1
  10
1.57103
  20
1.52348
  0
VERTEX
  8
1
  10
1.57738
  20
1.52817
  0
VERTEX
  8
1
  10
1.58289
  20
1.53357
  0
VERTEX
  8
1
  10
1.58762
  20
1.53970
  0
VERTEX
  8
1
  10
1.59159
  20
1.54655
  0
VERTEX
  8
1
  10
1.59312
  20
1.54908
  0
VERTEX
  8
1
  10
1.59409
  20
1.55130
  0
VERTEX
  8
1
  10
1.59448
  20
1.55328
  0
VERTEX
  8
1
  10
1.59428
  20
1.55505
  0
VERTEX
  8
1
  10
1.59347
  20
1.55668
  0
VERTEX
  8
1
  10
1.59202
  20
1.55822
  0
VERTEX
  8
1
  10
1.58993
  20
1.55973
  0
VERTEX
  8
1
  10
1.58717
  20
1.56125
  0
VERTEX
  8
1
  10
1.58373
  20
1.56284
  0
VERTEX
  8
1
  10
1.57958
  20
1.56456
  0
SEQEND
  0
POLYLINE
  8
1
  6
CONTINUOUS
 66
  1
 70
  1
  0
VERTEX
  8
1
  10
1.04033
  20
1.14504
  0
VERTEX
  8
1
  10
1.03877
  20
1.14590
  0
VERTEX
  8
1
  10
1.03737
  20
1.14668
  0
VERTEX
  8
1
  10
1.03608
  20
1.14736
  0
VERTEX
  8
1
  10
1.03491
  20
1.14790
  0
VERTEX
  8
1
  10
1.03383
  20
1.14825
  0
VERTEX
  8
1
  10
1.03281
  20
1.14839
  0
VERTEX
  8
1
  10
1.03186
  20
1.14828
  0
VERTEX
  8
1
  10
1.03093
  20
1.14787
  0
VERTEX
  8
1
  10
1.03003
  20
1.14715
  0
VERTEX
  8
1
  10
1.03003
  20
1.14114
  0
VERTEX
  8
1
  10
1.02986
  20
1.13926
  0
VERTEX
  8
1
  10
1.02936
  20
1.13723
  0
VERTEX
  8
1
  10
1.02857
  20
1.13509
  0
VERTEX
  8
1
  10
1.02753
  20
1.13288
  0
VERTEX
  8
1
  10
1.02628
  20
1.13063
  0
VERTEX
  8
1
  10
1.02484
  20
1.12838
  0
VERTEX
  8
1
  10
1.02326
  20
1.12617
  0
VERTEX
  8
1
  10
1.02157
  20
1.12404
  0
VERTEX
  8
1
  10
1.01981
  20
1.12201
  0
VERTEX
  8
1
  10
1.01802
  20
1.12012
  0
VERTEX
  8
1
  10
1.01476
  20
1.11678
  0
VERTEX
  8
1
  10
1.01216
  20
1.11392
  0
VERTEX
  8
1
  10
1.01013
  20
1.11150
  0
VERTEX
  8
1
  10
1.00860
  20
1.10945
  0
VERTEX
  8
1
  10
1.00751
  20
1.10773
  0
VERTEX
  8
1
  10
1.00677
  20
1.10628
  0
VERTEX
  8
1
  10
1.00633
  20
1.10505
  0
VERTEX
  8
1
  10
1.00610
  20
1.10398
  0
VERTEX
  8
1
  10
1.00602
  20
1.10301
  0
VERTEX
  8
1
  10
1.00601
  20
1.10210
  0
VERTEX
  8
1
  10
1.00782
  20
1.09959
  0
VERTEX
  8
1
  10
1.00968
  20
1.09747
  0
VERTEX
  8
1
  10
1.01165
  20
1.09578
  0
VERTEX
  8
1
  10
1.01379
  20
1.09456
  0
VERTEX
  8
1
  10
1.01614
  20
1.09384
  0
VERTEX
  8
1
  10
1.01876
  20
1.09367
  0
VERTEX
  8
1
  10
1.02171
  20
1.09407
  0
VERTEX
  8
1
  10
1.02503
  20
1.09509
  0
VERTEX
  8
1
  10
1.02879
  20
1.09675
  0
VERTEX
  8
1
  10
1.03303
  20
1.09910
  0
VERTEX
  8
1
  10
1.03880
  20
1.10352
  0
VERTEX
  8
1
  10
1.04348
  20
1.10782
  0
VERTEX
  8
1
  10
1.04709
  20
1.11205
  0
VERTEX
  8
1
  10
1.04961
  20
1.11625
  0
VERTEX
  8
1
  10
1.05105
  20
1.12050
  0
VERTEX
  8
1
  10
1.05141
  20
1.12483
  0
VERTEX
  8
1
  10
1.05069
  20
1.12931
  0
VERTEX
  8
1
  10
1.04889
  20
1.13398
  0
VERTEX
  8
1
  10
1.04601
  20
1.13891
  0
VERTEX
  8
1
  10
1.04204
  20
1.14414
  0
SEQEND
  0
POLYLINE
  8
1
  6
CONTINUOUS
 66
  1
 70
  1
  0
VERTEX
  8
1
  10
1.20588
  20
1.26712
  0
VERTEX
  8
1
  10
1.20190
  20
1.27207
  0
VERTEX
  8
1
  10
1.19824
  20
1.27613
  0
VERTEX
  8
1
  10
1.19488
  20
1.27928
  0
VERTEX
  8
1
  10
1.19182
  20
1.28153
  0
VERTEX
  8
1
  10
1.18902
  20
1.28288
  0
VERTEX
  8
1
  10
1.18648
  20
1.28333
  0
VERTEX
  8
1
  10
1.18417
  20
1.28288
  0
VERTEX
  8
1
  10
1.18208
  20
1.28153
  0
VERTEX
  8
1
  10
1.18018
  20
1.27928
  0
VERTEX
  8
1
  10
1.17938
  20
1.27755
  0
VERTEX
  8
1
  10
1.17879
  20
1.27592
  0
VERTEX
  8
1
  10
1.17845
  20
1.27428
  0
VERTEX
  8
1
  10
1.17840
  20
1.27255
  0
VERTEX
  8
1
  10
1.17868
  20
1.27065
  0
VERTEX
  8
1
  10
1.17932
  20
1.26847
  0
VERTEX
  8
1
  10
1.18035
  20
1.26593
  0
VERTEX
  8
1
  10
1.18181
  20
1.26294
  0
VERTEX
  8
1
  10
1.18375
  20
1.25941
  0
VERTEX
  8
1
  10
1.18619
  20
1.25526
  0
VERTEX
  8
1
  10
1.18807
  20
1.25229
  0
VERTEX
  8
1
  10
1.19008
  20
1.24886
  0
VERTEX
  8
1
  10
1.19216
  20
1.24504
  0
VERTEX
  8
1
  10
1.19426
  20
1.24089
  0
VERTEX
  8
1
  10
1.19632
  20
1.23649
  0
VERTEX
  8
1
  10
1.19829
  20
1.23190
  0
VERTEX
  8
1
  10
1.20012
  20
1.22721
  0
VERTEX
  8
1
  10
1.20175
  20
1.22249
  0
VERTEX
  8
1
  10
1.20313
  20
1.21780
  0
VERTEX
  8
1
  10
1.20420
  20
1.21321
  0
VERTEX
  8
1
  10
1.20655
  20
1.20653
  0
VERTEX
  8
1
  10
1.20819
  20
1.20082
  0
VERTEX
  8
1
  10
1.20915
  20
1.19597
  0
VERTEX
  8
1
  10
1.20944
  20
1.19188
  0
VERTEX
  8
1
  10
1.20908
  20
1.18844
  0
VERTEX
  8
1
  10
1.20810
  20
1.18554
  0
VERTEX
  8
1
  10
1.20650
  20
1.18307
  0
VERTEX
  8
1
  10
1.20430
  20
1.18092
  0
VERTEX
  8
1
  10
1.20153
  20
1.17900
  0
VERTEX
  8
1
  10
1.19820
  20
1.17718
  0
VERTEX
  8
1
  10
1.19566
  20
1.17616
  0
VERTEX
  8
1
  10
1.19339
  20
1.17482
  0
VERTEX
  8
1
  10
1.19131
  20
1.17301
  0
VERTEX
  8
1
  10
1.18931
  20
1.17059
  0
VERTEX
  8
1
  10
1.18731
  20
1.16742
  0
VERTEX
  8
1
  10
1.18523
  20
1.16334
  0
VERTEX
  8
1
  10
1.18296
  20
1.15822
  0
VERTEX
  8
1
  10
1.18042
  20
1.15190
  0
VERTEX
  8
1
  10
1.17752
  20
1.14426
  0
VERTEX
  8
1
  10
1.17417
  20
1.13514
  0
VERTEX
  8
1
  10
1.17174
  20
1.12845
  0
VERTEX
  8
1
  10
1.16980
  20
1.12276
  0
VERTEX
  8
1
  10
1.16834
  20
1.11797
  0
VERTEX
  8
1
  10
1.16730
  20
1.11399
  0
VERTEX
  8
1
  10
1.16667
  20
1.11074
  0
VERTEX
  8
1
  10
1.16639
  20
1.10811
  0
VERTEX
  8
1
  10
1.16644
  20
1.10602
  0
VERTEX
  8
1
  10
1.16677
  20
1.10438
  0
VERTEX
  8
1
  10
1.16736
  20
1.10311
  0
VERTEX
  8
1
  10
1.16817
  20
1.10210
  0
VERTEX
  8
1
  10
1.16916
  20
1.10138
  0
VERTEX
  8
1
  10
1.17035
  20
1.10105
  0
VERTEX
  8
1
  10
1.17176
  20
1.10110
  0
VERTEX
  8
1
  10
1.17341
  20
1.10157
  0
VERTEX
  8
1
  10
1.17530
  20
1.10248
  0
VERTEX
  8
1
  10
1.17747
  20
1.10383
  0
VERTEX
  8
1
  10
1.17992
  20
1.10565
  0
VERTEX
  8
1
  10
1.18268
  20
1.10796
  0
VERTEX
  8
1
  10
1.18576
  20
1.11078
  0
VERTEX
  8
1
  10
1.18919
  20
1.11411
  0
VERTEX
  8
1
  10
1.19596
  20
1.12026
  0
VERTEX
  8
1
  10
1.20192
  20
1.12620
  0
VERTEX
  8
1
  10
1.20716
  20
1.13206
  0
VERTEX
  8
1
  10
1.21177
  20
1.13799
  0
VERTEX
  8
1
  10
1.21584
  20
1.14414
  0
VERTEX
  8
1
  10
1.21946
  20
1.15065
  0
VERTEX
  8
1
  10
1.22272
  20
1.15767
  0
VERTEX
  8
1
  10
1.22571
  20
1.16533
  0
VERTEX
  8
1
  10
1.22851
  20
1.17379
  0
VERTEX
  8
1
  10
1.23123
  20
1.18318
  0
VERTEX
  8
1
  10
1.23267
  20
1.19040
  0
VERTEX
  8
1
  10
1.23337
  20
1.19765
  0
VERTEX
  8
1
  10
1.23331
  20
1.20497
  0
VERTEX
  8
1
  10
1.23248
  20
1.21240
  0
VERTEX
  8
1
  10
1.23086
  20
1.21997
  0
VERTEX
  8
1
  10
1.22842
  20
1.22772
  0
VERTEX
  8
1
  10
1.22516
  20
1.23569
  0
VERTEX
  8
1
  10
1.22105
  20
1.24392
  0
VERTEX
  8
1
  10
1.21607
  20
1.25243
  0
VERTEX
  8
1
  10
1.21021
  20
1.26126
  0
SEQEND
  0
POLYLINE
  8
1
  6
CONTINUOUS
 66
  1
 70
  1
  0
VERTEX
  8
1
  10
1.24826
  20
1.31693
  0
VERTEX
  8
1
  10
1.24711
  20
1.31817
  0
VERTEX
  8
1
  10
1.24582
  20
1.31902
  0
VERTEX
  8
1
  10
1.24440
  20
1.31945
  0
VERTEX
  8
1
  10
1.24287
  20
1.31944
  0
VERTEX
  8
1
  10
1.24125
  20
1.31899
  0
VERTEX
  8
1
  10
1.23956
  20
1.31807
  0
VERTEX
  8
1
  10
1.23781
  20
1.31666
  0
VERTEX
  8
1
  10
1.23603
  20
1.31475
  0
VERTEX
  8
1
  10
1.23423
  20
1.31231
  0
VERTEX
  8
1
  10
1.23171
  20
1.30880
  0
VERTEX
  8
1
  10
1.22957
  20
1.30547
  0
VERTEX
  8
1
  10
1.22783
  20
1.30231
  0
VERTEX
  8
1
  10
1.22650
  20
1.29934
  0
VERTEX
  8
1
  10
1.22560
  20
1.29655
  0
VERTEX
  8
1
  10
1.22515
  20
1.29393
  0
VERTEX
  8
1
  10
1.22517
  20
1.29150
  0
VERTEX
  8
1
  10
1.22568
  20
1.28925
  0
VERTEX
  8
1
  10
1.22669
  20
1.28718
  0
VERTEX
  8
1
  10
1.22823
  20
1.28529
  0
VERTEX
  8
1
  10
1.22905
  20
1.28447
  0
VERTEX
  8
1
  10
1.22974
  20
1.28384
  0
VERTEX
  8
1
  10
1.23036
  20
1.28339
  0
VERTEX
  8
1
  10
1.23097
  20
1.28312
  0
VERTEX
  8
1
  10
1.23161
  20
1.28303
  0
VERTEX
  8
1
  10
1.23234
  20
1.28312
  0
VERTEX
  8
1
  10
1.23321
  20
1.28339
  0
VERTEX
  8
1
  10
1.23428
  20
1.28384
  0
VERTEX
  8
1
  10
1.23561
  20
1.28447
  0
VERTEX
  8
1
  10
1.23724
  20
1.28529
  0
VERTEX
  8
1
  10
1.23984
  20
1.28742
  0
VERTEX
  8
1
  10
1.24223
  20
1.29014
  0
VERTEX
  8
1
  10
1.24437
  20
1.29329
  0
VERTEX
  8
1
  10
1.24622
  20
1.29672
  0
VERTEX
  8
1
  10
1.24775
  20
1.30030
  0
VERTEX
  8
1
  10
1.24891
  20
1.30388
  0
VERTEX
  8
1
  10
1.24968
  20
1.30732
  0
VERTEX
  8
1
  10
1.25002
  20
1.31046
  0
VERTEX
  8
1
  10
1.24989
  20
1.31318
  0
VERTEX
  8
1
  10
1.24925
  20
1.31532
  0
SEQEND
  0
POLYLINE
  8
1
  6
CONTINUOUS
 66
  1
 70
  1
  0
VERTEX
  8
1
  10
0.88962
  20
1.14594
  0
VERTEX
  8
1
  10
0.89002
  20
1.14772
  0
VERTEX
  8
1
  10
0.89013
  20
1.14947
  0
VERTEX
  8
1
  10
0.88999
  20
1.15116
  0
VERTEX
  8
1
  10
0.88964
  20
1.15278
  0
VERTEX
  8
1
  10
0.88911
  20
1.15431
  0
VERTEX
  8
1
  10
0.88843
  20
1.15573
  0
VERTEX
  8
1
  10
0.88764
  20
1.15702
  0
VERTEX
  8
1
  10
0.88678
  20
1.15817
  0
VERTEX
  8
1
  10
0.88589
  20
1.15916
  0
VERTEX
  8
1
  10
0.88506
  20
1.16078
  0
VERTEX
  8
1
  10
0.88435
  20
1.16202
  0
VERTEX
  8
1
  10
0.88367
  20
1.16286
  0
VERTEX
  8
1
  10
0.88295
  20
1.16329
  0
VERTEX
  8
1
  10
0.88213
  20
1.16329
  0
VERTEX
  8
1
  10
0.88113
  20
1.16283
  0
VERTEX
  8
1
  10
0.87987
  20
1.16191
  0
VERTEX
  8
1
  10
0.87829
  20
1.16050
  0
VERTEX
  8
1
  10
0.87632
  20
1.15859
  0
VERTEX
  8
1
  10
0.87387
  20
1.15616
  0
VERTEX
  8
1
  10
0.87216
  20
1.15427
  0
VERTEX
  8
1
  10
0.87063
  20
1.15226
  0
VERTEX
  8
1
  10
0.86928
  20
1.15018
  0
VERTEX
  8
1
  10
0.86811
  20
1.14808
  0
VERTEX
  8
1
  10
0.86712
  20
1.14602
  0
VERTEX
  8
1
  10
0.86631
  20
1.14405
  0
VERTEX
  8
1
  10
0.86568
  20
1.14222
  0
VERTEX
  8
1
  10
0.86523
  20
1.14059
  0
VERTEX
  8
1
  10
0.86495
  20
1.13921
  0
VERTEX
  8
1
  10
0.86486
  20
1.13814
  0
VERTEX
  8
1
  10
0.86538
  20
1.13438
  0
VERTEX
  8
1
  10
0.86681
  20
1.13043
  0
VERTEX
  8
1
  10
0.86900
  20
1.12644
  0
VERTEX
  8
1
  10
0.87178
  20
1.12257
  0
VERTEX
  8
1
  10
0.87500
  20
1.11899
  0
VERTEX
  8
1
  10
0.87849
  20
1.11587
  0
VERTEX
  8
1
  10
0.88208
  20
1.11335
  0
VERTEX
  8
1
  10
0.88562
  20
1.11162
  0
VERTEX
  8
1
  10
0.88895
  20
1.11081
  0
VERTEX
  8
1
  10
0.89189
  20
1.11111
  0
VERTEX
  8
1
  10
0.89433
  20
1.11146
  0
VERTEX
  8
1
  10
0.89624
  20
1.11243
  0
VERTEX
  8
1
  10
0.89765
  20
1.11395
  0
VERTEX
  8
1
  10
0.89857
  20
1.11592
  0
VERTEX
  8
1
  10
0.89902
  20
1.11824
  0
VERTEX
  8
1
  10
0.89903
  20
1.12084
  0
VERTEX
  8
1
  10
0.89860
  20
1.12362
  0
VERTEX
  8
1
  10
0.89775
  20
1.12649
  0
VERTEX
  8
1
  10
0.89651
  20
1.12935
  0
VERTEX
  8
1
  10
0.89489
  20
1.13213
  0
VERTEX
  8
1
  10
0.89400
  20
1.13312
  0
VERTEX
  8
1
  10
0.89312
  20
1.13425
  0
VERTEX
  8
1
  10
0.89227
  20
1.13548
  0
VERTEX
  8
1
  10
0.89148
  20
1.13679
  0
VERTEX
  8
1
  10
0.89077
  20
1.13814
  0
VERTEX
  8
1
  10
0.89014
  20
1.13948
  0
VERTEX
  8
1
  10
0.88962
  20
1.14079
  0
VERTEX
  8
1
  10
0.88923
  20
1.14203
  0
VERTEX
  8
1
  10
0.88898
  20
1.14316
  0
VERTEX
  8
1
  10
0.88889
  20
1.14414
  0
SEQEND
  0
POLYLINE
  8
1
  6
CONTINUOUS
 66
  1
 70
  1
  0
VERTEX
  8
1
  10
1.11068
  20
1.26321
  0
VERTEX
  8
1
  10
1.10756
  20
1.26727
  0
VERTEX
  8
1
  10
1.10468
  20
1.27042
  0
VERTEX
  8
1
  10
1.10201
  20
1.27267
  0
VERTEX
  8
1
  10
1.09947
  20
1.27402
  0
VERTEX
  8
1
  10
1.09703
  20
1.27447
  0
VERTEX
  8
1
  10
1.09463
  20
1.27402
  0
VERTEX
  8
1
  10
1.09220
  20
1.27267
  0
VERTEX
  8
1
  10
1.08971
  20
1.27042
  0
VERTEX
  8
1
  10
1.08709
  20
1.26727
  0
VERTEX
  8
1
  10
1.08564
  20
1.26338
  0
VERTEX
  8
1
  10
1.08488
  20
1.25742
  0
VERTEX
  8
1
  10
1.08476
  20
1.24983
  0
VERTEX
  8
1
  10
1.08526
  20
1.24108
  0
VERTEX
  8
1
  10
1.08634
  20
1.23161
  0
VERTEX
  8
1
  10
1.08795
  20
1.22186
  0
VERTEX
  8
1
  10
1.09007
  20
1.21230
  0
VERTEX
  8
1
  10
1.09266
  20
1.20336
  0
VERTEX
  8
1
  10
1.09568
  20
1.19551
  0
VERTEX
  8
1
  10
1.09910
  20
1.18919
  0
VERTEX
  8
1
  10
1.10179
  20
1.18513
  0
VERTEX
  8
1
  10
1.10443
  20
1.18193
  0
VERTEX
  8
1
  10
1.10696
  20
1.17957
  0
VERTEX
  8
1
  10
1.10933
  20
1.17799
  0
VERTEX
  8
1
  10
1.11149
  20
1.17718
  0
VERTEX
  8
1
  10
1.11337
  20
1.17708
  0
VERTEX
  8
1
  10
1.11493
  20
1.17767
  0
VERTEX
  8
1
  10
1.11611
  20
1.17891
  0
VERTEX
  8
1
  10
1.11686
  20
1.18076
  0
VERTEX
  8
1
  10
1.11712
  20
1.18318
  0
VERTEX
  8
1
  10
1.11916
  20
1.19151
  0
VERTEX
  8
1
  10
1.12159
  20
1.19683
  0
VERTEX
  8
1
  10
1.12423
  20
1.19937
  0
VERTEX
  8
1
  10
1.12692
  20
1.19938
  0
VERTEX
  8
1
  10
1.12950
  20
1.19707
  0
VERTEX
  8
1
  10
1.13182
  20
1.19270
  0
VERTEX
  8
1
  10
1.13370
  20
1.18648
  0
VERTEX
  8
1
  10
1.13499
  20
1.17867
  0
VERTEX
  8
1
  10
1.13552
  20
1.16948
  0
VERTEX
  8
1
  10
1.13514
  20
1.15916
  0
VERTEX
  8
1
  10
1.13496
  20
1.15221
  0
VERTEX
  8
1
  10
1.13444
  20
1.14573
  0
VERTEX
  8
1
  10
1.13359
  20
1.13965
  0
VERTEX
  8
1
  10
1.13244
  20
1.13389
  0
VERTEX
  8
1
  10
1.13101
  20
1.12838
  0
VERTEX
  8
1
  10
1.12930
  20
1.12305
  0
VERTEX
  8
1
  10
1.12734
  20
1.11783
  0
VERTEX
  8
1
  10
1.12514
  20
1.11265
  0
VERTEX
  8
1
  10
1.12273
  20
1.10743
  0
VERTEX
  8
1
  10
1.12012
  20
1.10210
  0
VERTEX
  8
1
  10
1.11606
  20
1.09632
  0
VERTEX
  8
1
  10
1.11284
  20
1.09151
  0
VERTEX
  8
1
  10
1.11042
  20
1.08756
  0
VERTEX
  8
1
  10
1.10873
  20
1.08437
  0
VERTEX
  8
1
  10
1.10773
  20
1.08183
  0
VERTEX
  8
1
  10
1.10736
  20
1.07983
  0
VERTEX
  8
1
  10
1.10757
  20
1.07826
  0
VERTEX
  8
1
  10
1.10830
  20
1.07702
  0
VERTEX
  8
1
  10
1.10950
  20
1.07599
  0
VERTEX
  8
1
  10
1.11111
  20
1.07508
  0
VERTEX
  8
1
  10
1.11202
  20
1.07427
  0
VERTEX
  8
1
  10
1.11296
  20
1.07371
  0
VERTEX
  8
1
  10
1.11398
  20
1.07343
  0
VERTEX
  8
1
  10
1.11510
  20
1.07349
  0
VERTEX
  8
1
  10
1.11637
  20
1.07395
  0
VERTEX
  8
1
  10
1.11781
  20
1.07486
  0
VERTEX
  8
1
  10
1.11948
  20
1.07627
  0
VERTEX
  8
1
  10
1.12139
  20
1.07825
  0
VERTEX
  8
1
  10
1.12360
  20
1.08083
  0
VERTEX
  8
1
  10
1.12613
  20
1.08408
  0
VERTEX
  8
1
  10
1.13297
  20
1.09360
  0
VERTEX
  8
1
  10
1.13905
  20
1.10398
  0
VERTEX
  8
1
  10
1.14434
  20
1.11500
  0
VERTEX
  8
1
  10
1.14880
  20
1.12646
  0
VERTEX
  8
1
  10
1.15240
  20
1.13814
  0
VERTEX
  8
1
  10
1.15510
  20
1.14981
  0
VERTEX
  8
1
  10
1.15686
  20
1.16127
  0
VERTEX
  8
1
  10
1.15765
  20
1.17230
  0
VERTEX
  8
1
  10
1.15742
  20
1.18268
  0
VERTEX
  8
1
  10
1.15616
  20
1.19219
  0
VERTEX
  8
1
  10
1.15517
  20
1.19498
  0
VERTEX
  8
1
  10
1.15399
  20
1.19793
  0
VERTEX
  8
1
  10
1.15264
  20
1.20103
  0
VERTEX
  8
1
  10
1.15111
  20
1.20425
  0
VERTEX
  8
1
  10
1.14940
  20
1.20758
  0
VERTEX
  8
1
  10
1.14751
  20
1.21100
  0
VERTEX
  8
1
  10
1.14544
  20
1.21450
  0
VERTEX
  8
1
  10
1.14318
  20
1.21804
  0
VERTEX
  8
1
  10
1.14075
  20
1.22162
  0
VERTEX
  8
1
  10
1.13814
  20
1.22523
  0
VERTEX
  8
1
  10
1.13617
  20
1.22810
  0
VERTEX
  8
1
  10
1.13391
  20
1.23126
  0
VERTEX
  8
1
  10
1.13144
  20
1.23463
  0
VERTEX
  8
1
  10
1.12882
  20
1.23815
  0
VERTEX
  8
1
  10
1.12613
  20
1.24174
  0
VERTEX
  8
1
  10
1.12344
  20
1.24533
  0
VERTEX
  8
1
  10
1.12082
  20
1.24885
  0
VERTEX
  8
1
  10
1.11834
  20
1.25223
  0
VERTEX
  8
1
  10
1.11608
  20
1.25539
  0
VERTEX
  8
1
  10
1.11411
  20
1.25826
  0
SEQEND
  0
POLYLINE
  8
1
  6
CONTINUOUS
 66
  1
 70
  1
  0
VERTEX
  8
1
  10
1.48908
  20
1.65189
  0
VERTEX
  8
1
  10
1.47705
  20
1.65444
  0
VERTEX
  8
1
  10
1.46545
  20
1.65630
  0
VERTEX
  8
1
  10
1.45432
  20
1.65749
  0
VERTEX
  8
1
  10
1.44369
  20
1.65803
  0
VERTEX
  8
1
  10
1.43361
  20
1.65795
  0
VERTEX
  8
1
  10
1.42410
  20
1.65725
  0
VERTEX
  8
1
  10
1.41521
  20
1.65595
  0
VERTEX
  8
1
  10
1.40696
  20
1.65408
  0
VERTEX
  8
1
  10
1.39940
  20
1.65165
  0
VERTEX
  8
1
  10
1.39517
  20
1.64985
  0
VERTEX
  8
1
  10
1.39147
  20
1.64802
  0
VERTEX
  8
1
  10
1.38832
  20
1.64617
  0
VERTEX
  8
1
  10
1.38571
  20
1.64425
  0
VERTEX
  8
1
  10
1.38363
  20
1.64227
  0
VERTEX
  8
1
  10
1.38210
  20
1.64019
  0
VERTEX
  8
1
  10
1.38111
  20
1.63801
  0
VERTEX
  8
1
  10
1.38066
  20
1.63570
  0
VERTEX
  8
1
  10
1.38075
  20
1.63325
  0
VERTEX
  8
1
  10
1.38138
  20
1.63063
  0
VERTEX
  8
1
  10
1.38338
  20
1.62841
  0
VERTEX
  8
1
  10
1.38729
  20
1.62551
  0
VERTEX
  8
1
  10
1.39268
  20
1.62214
  0
VERTEX
  8
1
  10
1.39911
  20
1.61852
  0
VERTEX
  8
1
  10
1.40616
  20
1.61486
  0
VERTEX
  8
1
  10
1.41338
  20
1.61139
  0
VERTEX
  8
1
  10
1.42035
  20
1.60831
  0
VERTEX
  8
1
  10
1.42664
  20
1.60584
  0
VERTEX
  8
1
  10
1.43181
  20
1.60420
  0
VERTEX
  8
1
  10
1.43544
  20
1.60360
  0
VERTEX
  8
1
  10
1.43660
  20
1.60351
  0
VERTEX
  8
1
  10
1.43825
  20
1.60324
  0
VERTEX
  8
1
  10
1.44033
  20
1.60279
  0
VERTEX
  8
1
  10
1.44279
  20
1.60216
  0
VERTEX
  8
1
  10
1.44557
  20
1.60135
  0
VERTEX
  8
1
  10
1.44862
  20
1.60036
  0
VERTEX
  8
1
  10
1.45189
  20
1.59919
  0
VERTEX
  8
1
  10
1.45533
  20
1.59784
  0
VERTEX
  8
1
  10
1.45887
  20
1.59631
  0
VERTEX
  8
1
  10
1.46246
  20
1.59459
  0
VERTEX
  8
1
  10
1.46670
  20
1.59215
  0
VERTEX
  8
1
  10
1.47044
  20
1.59020
  0
VERTEX
  8
1
  10
1.47371
  20
1.58868
  0
VERTEX
  8
1
  10
1.47654
  20
1.58753
  0
VERTEX
  8
1
  10
1.47898
  20
1.58671
  0
VERTEX
  8
1
  10
1.48106
  20
1.58616
  0
VERTEX
  8
1
  10
1.48281
  20
1.58583
  0
VERTEX
  8
1
  10
1.48428
  20
1.58566
  0
VERTEX
  8
1
  10
1.48549
  20
1.58559
  0
VERTEX
  8
1
  10
1.48649
  20
1.58559
  0
VERTEX
  8
1
  10
1.48729
  20
1.58649
  0
VERTEX
  8
1
  10
1.48790
  20
1.58744
  0
VERTEX
  8
1
  10
1.48830
  20
1.58845
  0
VERTEX
  8
1
  10
1.48846
  20
1.58957
  0
VERTEX
  8
1
  10
1.48836
  20
1.59084
  0
VERTEX
  8
1
  10
1.48800
  20
1.59229
  0
VERTEX
  8
1
  10
1.48735
  20
1.59395
  0
VERTEX
  8
1
  10
1.48639
  20
1.59587
  0
VERTEX
  8
1
  10
1.48511
  20
1.59807
  0
VERTEX
  8
1
  10
1.48348
  20
1.60060
  0
VERTEX
  8
1
  10
1.48205
  20
1.60385
  0
VERTEX
  8
1
  10
1.48135
  20
1.60639
  0
VERTEX
  8
1
  10
1.48140
  20
1.60825
  0
VERTEX
  8
1
  10
1.48223
  20
1.60944
  0
VERTEX
  8
1
  10
1.48386
  20
1.60998
  0
VERTEX
  8
1
  10
1.48629
  20
1.60990
  0
VERTEX
  8
1
  10
1.48956
  20
1.60920
  0
VERTEX
  8
1
  10
1.49367
  20
1.60790
  0
VERTEX
  8
1
  10
1.49865
  20
1.60603
  0
VERTEX
  8
1
  10
1.50450
  20
1.60360
  0
VERTEX
  8
1
  10
1.51110
  20
1.60109
  0
VERTEX
  8
1
  10
1.51654
  20
1.59897
  0
VERTEX
  8
1
  10
1.52094
  20
1.59728
  0
VERTEX
  8
1
  10
1.52440
  20
1.59606
  0
VERTEX
  8
1
  10
1.52703
  20
1.59535
  0
VERTEX
  8
1
  10
1.52894
  20
1.59517
  0
VERTEX
  8
1
  10
1.53023
  20
1.59557
  0
VERTEX
  8
1
  10
1.53103
  20
1.59659
  0
VERTEX
  8
1
  10
1.53142
  20
1.59825
  0
VERTEX
  8
1
  10
1.53153
  20
1.60060
  0
VERTEX
  8
1
  10
1.53180
  20
1.60385
  0
VERTEX
  8
1
  10
1.53259
  20
1.60641
  0
VERTEX
  8
1
  10
1.53388
  20
1.60833
  0
VERTEX
  8
1
  10
1.53566
  20
1.60963
  0
VERTEX
  8
1
  10
1.53791
  20
1.61036
  0
VERTEX
  8
1
  10
1.54061
  20
1.61055
  0
VERTEX
  8
1
  10
1.54374
  20
1.61023
  0
VERTEX
  8
1
  10
1.54729
  20
1.60944
  0
VERTEX
  8
1
  10
1.55123
  20
1.60822
  0
VERTEX
  8
1
  10
1.55556
  20
1.60661
  0
VERTEX
  8
1
  10
1.55907
  20
1.60498
  0
VERTEX
  8
1
  10
1.56240
  20
1.60372
  0
VERTEX
  8
1
  10
1.56556
  20
1.60282
  0
VERTEX
  8
1
  10
1.56853
  20
1.60228
  0
VERTEX
  8
1
  10
1.57132
  20
1.60210
  0
VERTEX
  8
1
  10
1.57393
  20
1.60228
  0
VERTEX
  8
1
  10
1.57637
  20
1.60282
  0
VERTEX
  8
1
  10
1.57862
  20
1.60372
  0
VERTEX
  8
1
  10
1.58069
  20
1.60498
  0
VERTEX
  8
1
  10
1.58258
  20
1.60661
  0
VERTEX
  8
1
  10
1.58477
  20
1.60957
  0
VERTEX
  8
1
  10
1.58424
  20
1.61300
  0
VERTEX
  8
1
  10
1.58115
  20
1.61682
  0
VERTEX
  8
1
  10
1.57566
  20
1.62097
  0
VERTEX
  8
1
  10
1.56794
  20
1.62538
  0
VERTEX
  8
1
  10
1.55815
  20
1.62996
  0
VERTEX
  8
1
  10
1.54645
  20
1.63465
  0
VERTEX
  8
1
  10
1.53300
  20
1.63938
  0
VERTEX
  8
1
  10
1.51796
  20
1.64407
  0
VERTEX
  8
1
  10
1.50150
  20
1.64865
  0
SEQEND
  0
POLYLINE
  8
1
  6
CONTINUOUS
 66
  1
 70
  1
  0
VERTEX
  8
1
  10
1.50287
  20
1.68640
  0
VERTEX
  8
1
  10
1.49588
  20
1.68793
  0
VERTEX
  8
1
  10
1.48911
  20
1.68928
  0
VERTEX
  8
1
  10
1.48211
  20
1.69045
  0
VERTEX
  8
1
  10
1.47447
  20
1.69144
  0
VERTEX
  8
1
  10
1.46575
  20
1.69225
  0
VERTEX
  8
1
  10
1.45552
  20
1.69288
  0
VERTEX
  8
1
  10
1.44334
  20
1.69333
  0
VERTEX
  8
1
  10
1.42878
  20
1.69360
  0
VERTEX
  8
1
  10
1.41141
  20
1.69369
  0
VERTEX
  8
1
  10
1.33634
  20
1.69369
  0
VERTEX
  8
1
  10
1.22523
  20
1.64865
  0
VERTEX
  8
1
  10
1.21671
  20
1.64411
  0
VERTEX
  8
1
  10
1.20759
  20
1.63791
  0
VERTEX
  8
1
  10
1.19814
  20
1.63038
  0
VERTEX
  8
1
  10
1.18866
  20
1.62184
  0
VERTEX
  8
1
  10
1.17943
  20
1.61261
  0
VERTEX
  8
1
  10
1.17074
  20
1.60303
  0
VERTEX
  8
1
  10
1.16288
  20
1.59341
  0
VERTEX
  8
1
  10
1.15613
  20
1.58407
  0
VERTEX
  8
1
  10
1.15079
  20
1.57535
  0
VERTEX
  8
1
  10
1.14715
  20
1.56757
  0
VERTEX
  8
1
  10
1.14659
  20
1.56488
  0
VERTEX
  8
1
  10
1.14667
  20
1.56226
  0
VERTEX
  8
1
  10
1.14728
  20
1.55978
  0
VERTEX
  8
1
  10
1.14835
  20
1.55753
  0
VERTEX
  8
1
  10
1.14977
  20
1.55556
  0
VERTEX
  8
1
  10
1.15147
  20
1.55395
  0
VERTEX
  8
1
  10
1.15335
  20
1.55277
  0
VERTEX
  8
1
  10
1.15532
  20
1.55210
  0
VERTEX
  8
1
  10
1.15728
  20
1.55200
  0
VERTEX
  8
1
  10
1.15916
  20
1.55255
  0
VERTEX
  8
1
  10
1.19520
  20
1.58859
  0
VERTEX
  8
1
  10
1.20618
  20
1.59944
  0
VERTEX
  8
1
  10
1.21602
  20
1.60877
  0
VERTEX
  8
1
  10
1.22522
  20
1.61683
  0
VERTEX
  8
1
  10
1.23426
  20
1.62390
  0
VERTEX
  8
1
  10
1.24362
  20
1.63026
  0
VERTEX
  8
1
  10
1.25379
  20
1.63616
  0
VERTEX
  8
1
  10
1.26526
  20
1.64188
  0
VERTEX
  8
1
  10
1.27851
  20
1.64769
  0
VERTEX
  8
1
  10
1.29403
  20
1.65386
  0
VERTEX
  8
1
  10
1.31231
  20
1.66066
  0
VERTEX
  8
1
  10
1.31918
  20
1.66400
  0
VERTEX
  8
1
  10
1.32548
  20
1.66686
  0
VERTEX
  8
1
  10
1.33134
  20
1.66928
  0
VERTEX
  8
1
  10
1.33691
  20
1.67133
  0
VERTEX
  8
1
  10
1.34234
  20
1.67305
  0
VERTEX
  8
1
  10
1.34777
  20
1.67450
  0
VERTEX
  8
1
  10
1.35335
  20
1.67573
  0
VERTEX
  8
1
  10
1.35921
  20
1.67680
  0
VERTEX
  8
1
  10
1.36550
  20
1.67777
  0
VERTEX
  8
1
  10
1.37237
  20
1.67868
  0
VERTEX
  8
1
  10
1.38586
  20
1.67949
  0
VERTEX
  8
1
  10
1.39923
  20
1.68010
  0
VERTEX
  8
1
  10
1.41235
  20
1.68049
  0
VERTEX
  8
1
  10
1.42508
  20
1.68065
  0
VERTEX
  8
1
  10
1.43731
  20
1.68056
  0
VERTEX
  8
1
  10
1.44891
  20
1.68019
  0
VERTEX
  8
1
  10
1.45976
  20
1.67954
  0
VERTEX
  8
1
  10
1.46972
  20
1.67858
  0
VERTEX
  8
1
  10
1.47867
  20
1.67730
  0
VERTEX
  8
1
  10
1.48649
  20
1.67568
  0
VERTEX
  8
1
  10
1.49486
  20
1.67345
  0
VERTEX
  8
1
  10
1.50520
  20
1.67051
  0
VERTEX
  8
1
  10
1.51695
  20
1.66703
  0
VERTEX
  8
1
  10
1.52954
  20
1.66318
  0
VERTEX
  8
1
  10
1.54242
  20
1.65916
  0
VERTEX
  8
1
  10
1.55503
  20
1.65514
  0
VERTEX
  8
1
  10
1.56681
  20
1.65129
  0
VERTEX
  8
1
  10
1.57720
  20
1.64781
  0
VERTEX
  8
1
  10
1.58565
  20
1.64486
  0
VERTEX
  8
1
  10
1.59159
  20
1.64264
  0
VERTEX
  8
1
  10
1.59617
  20
1.63977
  0
VERTEX
  8
1
  10
1.60084
  20
1.63659
  0
VERTEX
  8
1
  10
1.60551
  20
1.63316
  0
VERTEX
  8
1
  10
1.61009
  20
1.62953
  0
VERTEX
  8
1
  10
1.61449
  20
1.62575
  0
VERTEX
  8
1
  10
1.61862
  20
1.62189
  0
VERTEX
  8
1
  10
1.62239
  20
1.61799
  0
VERTEX
  8
1
  10
1.62571
  20
1.61410
  0
VERTEX
  8
1
  10
1.62848
  20
1.61029
  0
VERTEX
  8
1
  10
1.63063
  20
1.60661
  0
VERTEX
  8
1
  10
1.63243
  20
1.60328
  0
VERTEX
  8
1
  10
1.63423
  20
1.60053
  0
VERTEX
  8
1
  10
1.63604
  20
1.59839
  0
VERTEX
  8
1
  10
1.63784
  20
1.59690
  0
VERTEX
  8
1
  10
1.63964
  20
1.59610
  0
VERTEX
  8
1
  10
1.64144
  20
1.59601
  0
VERTEX
  8
1
  10
1.64324
  20
1.59668
  0
VERTEX
  8
1
  10
1.64505
  20
1.59815
  0
VERTEX
  8
1
  10
1.64685
  20
1.60044
  0
VERTEX
  8
1
  10
1.64865
  20
1.60360
  0
VERTEX
  8
1
  10
1.64928
  20
1.60631
  0
VERTEX
  8
1
  10
1.64937
  20
1.60906
  0
VERTEX
  8
1
  10
1.64892
  20
1.61187
  0
VERTEX
  8
1
  10
1.64793
  20
1.61480
  0
VERTEX
  8
1
  10
1.64640
  20
1.61787
  0
VERTEX
  8
1
  10
1.64432
  20
1.62112
  0
VERTEX
  8
1
  10
1.64171
  20
1.62458
  0
VERTEX
  8
1
  10
1.63856
  20
1.62830
  0
VERTEX
  8
1
  10
1.63486
  20
1.63231
  0
VERTEX
  8
1
  10
1.63063
  20
1.63664
  0
VERTEX
  8
1
  10
1.62394
  20
1.64187
  0
VERTEX
  8
1
  10
1.61641
  20
1.64682
  0
VERTEX
  8
1
  10
1.60790
  20
1.65156
  0
VERTEX
  8
1
  10
1.59829
  20
1.65614
  0
VERTEX
  8
1
  10
1.58746
  20
1.66066
  0
VERTEX
  8
1
  10
1.57528
  20
1.66518
  0
VERTEX
  8
1
  10
1.56162
  20
1.66977
  0
VERTEX
  8
1
  10
1.54635
  20
1.67450
  0
VERTEX
  8
1
  10
1.52936
  20
1.67945
  0
VERTEX
  8
1
  10
1.51051
  20
1.68468
  0
SEQEND
  0
POLYLINE
  8
1
  6
CONTINUOUS
 66
  1
 70
  1
  0
VERTEX
  8
1
  10
0.68768
  20
1.17317
  0
VERTEX
  8
1
  10
0.68766
  20
1.18280
  0
VERTEX
  8
1
  10
0.68761
  20
1.19114
  0
VERTEX
  8
1
  10
0.68750
  20
1.19825
  0
VERTEX
  8
1
  10
0.68731
  20
1.20420
  0
VERTEX
  8
1
  10
0.68704
  20
1.20908
  0
VERTEX
  8
1
  10
0.68666
  20
1.21295
  0
VERTEX
  8
1
  10
0.68615
  20
1.21588
  0
VERTEX
  8
1
  10
0.68550
  20
1.21795
  0
VERTEX
  8
1
  10
0.68468
  20
1.21922
  0
VERTEX
  8
1
  10
0.68378
  20
1.21921
  0
VERTEX
  8
1
  10
0.68288
  20
1.21917
  0
VERTEX
  8
1
  10
0.68198
  20
1.21906
  0
VERTEX
  8
1
  10
0.68108
  20
1.21883
  0
VERTEX
  8
1
  10
0.68018
  20
1.21847
  0
VERTEX
  8
1
  10
0.67928
  20
1.21792
  0
VERTEX
  8
1
  10
0.67838
  20
1.21716
  0
VERTEX
  8
1
  10
0.67748
  20
1.21614
  0
VERTEX
  8
1
  10
0.67658
  20
1.21484
  0
VERTEX
  8
1
  10
0.67568
  20
1.21321
  0
VERTEX
  8
1
  10
0.67405
  20
1.21057
  0
VERTEX
  8
1
  10
0.67274
  20
1.20793
  0
VERTEX
  8
1
  10
0.67173
  20
1.20511
  0
VERTEX
  8
1
  10
0.67097
  20
1.20192
  0
VERTEX
  8
1
  10
0.67042
  20
1.19820
  0
VERTEX
  8
1
  10
0.67005
  20
1.19375
  0
VERTEX
  8
1
  10
0.66983
  20
1.18841
  0
VERTEX
  8
1
  10
0.66972
  20
1.18198
  0
VERTEX
  8
1
  10
0.66968
  20
1.17429
  0
VERTEX
  8
1
  10
0.66967
  20
1.16517
  0
VERTEX
  8
1
  10
0.66967
  20
1.15870
  0
VERTEX
  8
1
  10
0.66969
  20
1.15200
  0
VERTEX
  8
1
  10
0.66975
  20
1.14519
  0
VERTEX
  8
1
  10
0.66986
  20
1.13840
  0
VERTEX
  8
1
  10
0.67005
  20
1.13176
  0
VERTEX
  8
1
  10
0.67032
  20
1.12538
  0
VERTEX
  8
1
  10
0.67070
  20
1.11940
  0
VERTEX
  8
1
  10
0.67121
  20
1.11395
  0
VERTEX
  8
1
  10
0.67186
  20
1.10914
  0
VERTEX
  8
1
  10
0.67267
  20
1.10511
  0
VERTEX
  8
1
  10
0.67259
  20
1.10142
  0
VERTEX
  8
1
  10
0.67236
  20
1.09763
  0
VERTEX
  8
1
  10
0.67202
  20
1.09381
  0
VERTEX
  8
1
  10
0.67162
  20
1.09002
  0
VERTEX
  8
1
  10
0.67117
  20
1.08634
  0
VERTEX
  8
1
  10
0.67073
  20
1.08283
  0
VERTEX
  8
1
  10
0.67032
  20
1.07959
  0
VERTEX
  8
1
  10
0.66998
  20
1.07666
  0
VERTEX
  8
1
  10
0.66975
  20
1.07413
  0
VERTEX
  8
1
  10
0.66967
  20
1.07207
  0
VERTEX
  8
1
  10
0.66805
  20
1.06953
  0
VERTEX
  8
1
  10
0.66681
  20
1.06727
  0
VERTEX
  8
1
  10
0.66597
  20
1.06518
  0
VERTEX
  8
1
  10
0.66554
  20
1.06318
  0
VERTEX
  8
1
  10
0.66554
  20
1.06119
  0
VERTEX
  8
1
  10
0.66599
  20
1.05910
  0
VERTEX
  8
1
  10
0.66692
  20
1.05683
  0
VERTEX
  8
1
  10
0.66832
  20
1.05429
  0
VERTEX
  8
1
  10
0.67024
  20
1.05140
  0
VERTEX
  8
1
  10
0.67267
  20
1.04805
  0
VERTEX
  8
1
  10
0.67366
  20
1.04617
  0
VERTEX
  8
1
  10
0.67481
  20
1.04416
  0
VERTEX
  8
1
  10
0.67611
  20
1.04208
  0
VERTEX
  8
1
  10
0.67753
  20
1.03998
  0
VERTEX
  8
1
  10
0.67905
  20
1.03791
  0
VERTEX
  8
1
  10
0.68067
  20
1.03594
  0
VERTEX
  8
1
  10
0.68236
  20
1.03411
  0
VERTEX
  8
1
  10
0.68411
  20
1.03248
  0
VERTEX
  8
1
  10
0.68589
  20
1.03110
  0
VERTEX
  8
1
  10
0.68769
  20
1.03003
  0
VERTEX
  8
1
  10
0.69369
  20
1.02402
  0
VERTEX
  8
1
  10
0.70270
  20
1.03604
  0
VERTEX
  8
1
  10
0.70757
  20
1.04174
  0
VERTEX
  8
1
  10
0.71140
  20
1.04639
  0
VERTEX
  8
1
  10
0.71422
  20
1.05017
  0
VERTEX
  8
1
  10
0.71606
  20
1.05329
  0
VERTEX
  8
1
  10
0.71697
  20
1.05593
  0
VERTEX
  8
1
  10
0.71697
  20
1.05831
  0
VERTEX
  8
1
  10
0.71611
  20
1.06061
  0
VERTEX
  8
1
  10
0.71443
  20
1.06304
  0
VERTEX
  8
1
  10
0.71195
  20
1.06579
  0
VERTEX
  8
1
  10
0.70871
  20
1.06907
  0
VERTEX
  8
1
  10
0.70374
  20
1.07524
  0
VERTEX
  8
1
  10
0.69960
  20
1.08135
  0
VERTEX
  8
1
  10
0.69622
  20
1.08766
  0
VERTEX
  8
1
  10
0.69353
  20
1.09449
  0
VERTEX
  8
1
  10
0.69144
  20
1.10210
  0
VERTEX
  8
1
  10
0.68990
  20
1.11080
  0
VERTEX
  8
1
  10
0.68882
  20
1.12086
  0
VERTEX
  8
1
  10
0.68814
  20
1.13259
  0
VERTEX
  8
1
  10
0.68779
  20
1.14626
  0
VERTEX
  8
1
  10
0.68769
  20
1.16216
  0
SEQEND
  0
POLYLINE
  8
1
  6
CONTINUOUS
 66
  1
 70
  1
  0
VERTEX
  8
1
  10
1.01386
  20
1.29462
  0
VERTEX
  8
1
  10
1.01031
  20
1.29739
  0
VERTEX
  8
1
  10
1.00726
  20
1.29959
  0
VERTEX
  8
1
  10
1.00461
  20
1.30119
  0
VERTEX
  8
1
  10
1.00225
  20
1.30218
  0
VERTEX
  8
1
  10
1.00007
  20
1.30253
  0
VERTEX
  8
1
  10
0.99796
  20
1.30224
  0
VERTEX
  8
1
  10
0.99582
  20
1.30129
  0
VERTEX
  8
1
  10
0.99353
  20
1.29964
  0
VERTEX
  8
1
  10
0.99099
  20
1.29730
  0
VERTEX
  8
1
  10
0.98855
  20
1.29556
  0
VERTEX
  8
1
  10
0.98659
  20
1.29386
  0
VERTEX
  8
1
  10
0.98507
  20
1.29205
  0
VERTEX
  8
1
  10
0.98393
  20
1.28999
  0
VERTEX
  8
1
  10
0.98311
  20
1.28754
  0
VERTEX
  8
1
  10
0.98256
  20
1.28454
  0
VERTEX
  8
1
  10
0.98223
  20
1.28086
  0
VERTEX
  8
1
  10
0.98205
  20
1.27635
  0
VERTEX
  8
1
  10
0.98199
  20
1.27086
  0
VERTEX
  8
1
  10
0.98198
  20
1.26426
  0
VERTEX
  8
1
  10
0.98135
  20
1.25505
  0
VERTEX
  8
1
  10
0.98126
  20
1.24711
  0
VERTEX
  8
1
  10
0.98171
  20
1.24029
  0
VERTEX
  8
1
  10
0.98270
  20
1.23443
  0
VERTEX
  8
1
  10
0.98423
  20
1.22935
  0
VERTEX
  8
1
  10
0.98631
  20
1.22491
  0
VERTEX
  8
1
  10
0.98892
  20
1.22094
  0
VERTEX
  8
1
  10
0.99207
  20
1.21727
  0
VERTEX
  8
1
  10
0.99577
  20
1.21375
  0
VERTEX
  8
1
  10
1.00000
  20
1.21021
  0
VERTEX
  8
1
  10
1.00858
  20
1.20398
  0
VERTEX
  8
1
  10
1.01636
  20
1.19784
  0
VERTEX
  8
1
  10
1.02346
  20
1.19170
  0
VERTEX
  8
1
  10
1.02998
  20
1.18547
  0
VERTEX
  8
1
  10
1.03604
  20
1.17905
  0
VERTEX
  8
1
  10
1.04173
  20
1.17237
  0
VERTEX
  8
1
  10
1.04717
  20
1.16533
  0
VERTEX
  8
1
  10
1.05247
  20
1.15784
  0
VERTEX
  8
1
  10
1.05773
  20
1.14980
  0
VERTEX
  8
1
  10
1.06306
  20
1.14114
  0
VERTEX
  8
1
  10
1.06550
  20
1.13745
  0
VERTEX
  8
1
  10
1.06739
  20
1.13362
  0
VERTEX
  8
1
  10
1.06874
  20
1.12968
  0
VERTEX
  8
1
  10
1.06955
  20
1.12567
  0
VERTEX
  8
1
  10
1.06982
  20
1.12162
  0
VERTEX
  8
1
  10
1.06955
  20
1.11757
  0
VERTEX
  8
1
  10
1.06874
  20
1.11356
  0
VERTEX
  8
1
  10
1.06739
  20
1.10962
  0
VERTEX
  8
1
  10
1.06550
  20
1.10579
  0
VERTEX
  8
1
  10
1.06306
  20
1.10210
  0
VERTEX
  8
1
  10
1.06144
  20
1.09940
  0
VERTEX
  8
1
  10
1.06020
  20
1.09670
  0
VERTEX
  8
1
  10
1.05936
  20
1.09399
  0
VERTEX
  8
1
  10
1.05893
  20
1.09129
  0
VERTEX
  8
1
  10
1.05893
  20
1.08859
  0
VERTEX
  8
1
  10
1.05939
  20
1.08589
  0
VERTEX
  8
1
  10
1.06031
  20
1.08318
  0
VERTEX
  8
1
  10
1.06172
  20
1.08048
  0
VERTEX
  8
1
  10
1.06363
  20
1.07778
  0
VERTEX
  8
1
  10
1.06607
  20
1.07508
  0
VERTEX
  8
1
  10
1.06868
  20
1.07256
  0
VERTEX
  8
1
  10
1.07111
  20
1.07041
  0
VERTEX
  8
1
  10
1.07336
  20
1.06867
  0
VERTEX
  8
1
  10
1.07544
  20
1.06734
  0
VERTEX
  8
1
  10
1.07733
  20
1.06644
  0
VERTEX
  8
1
  10
1.07904
  20
1.06599
  0
VERTEX
  8
1
  10
1.08057
  20
1.06602
  0
VERTEX
  8
1
  10
1.08192
  20
1.06652
  0
VERTEX
  8
1
  10
1.08309
  20
1.06753
  0
VERTEX
  8
1
  10
1.08408
  20
1.06907
  0
VERTEX
  8
1
  10
1.08490
  20
1.07041
  0
VERTEX
  8
1
  10
1.08555
  20
1.07258
  0
VERTEX
  8
1
  10
1.08606
  20
1.07550
  0
VERTEX
  8
1
  10
1.08644
  20
1.07911
  0
VERTEX
  8
1
  10
1.08671
  20
1.08333
  0
VERTEX
  8
1
  10
1.08689
  20
1.08810
  0
VERTEX
  8
1
  10
1.08701
  20
1.09333
  0
VERTEX
  8
1
  10
1.08706
  20
1.09895
  0
VERTEX
  8
1
  10
1.08708
  20
1.10491
  0
VERTEX
  8
1
  10
1.08709
  20
1.11111
  0
VERTEX
  8
1
  10
1.08717
  20
1.11650
  0
VERTEX
  8
1
  10
1.08740
  20
1.12178
  0
VERTEX
  8
1
  10
1.08774
  20
1.12684
  0
VERTEX
  8
1
  10
1.08814
  20
1.13158
  0
VERTEX
  8
1
  10
1.08859
  20
1.13589
  0
VERTEX
  8
1
  10
1.08903
  20
1.13965
  0
VERTEX
  8
1
  10
1.08944
  20
1.14277
  0
VERTEX
  8
1
  10
1.08978
  20
1.14513
  0
VERTEX
  8
1
  10
1.09001
  20
1.14662
  0
VERTEX
  8
1
  10
1.09009
  20
1.14715
  0
VERTEX
  8
1
  10
1.09055
  20
1.14973
  0
VERTEX
  8
1
  10
1.09016
  20
1.15375
  0
VERTEX
  8
1
  10
1.08898
  20
1.15904
  0
VERTEX
  8
1
  10
1.08706
  20
1.16541
  0
VERTEX
  8
1
  10
1.08446
  20
1.17267
  0
VERTEX
  8
1
  10
1.08123
  20
1.18066
  0
VERTEX
  8
1
  10
1.07741
  20
1.18919
  0
VERTEX
  8
1
  10
1.07308
  20
1.19808
  0
VERTEX
  8
1
  10
1.06828
  20
1.20715
  0
VERTEX
  8
1
  10
1.06306
  20
1.21622
  0
VERTEX
  8
1
  10
1.05947
  20
1.22178
  0
VERTEX
  8
1
  10
1.05590
  20
1.22758
  0
VERTEX
  8
1
  10
1.05241
  20
1.23349
  0
VERTEX
  8
1
  10
1.04903
  20
1.23938
  0
VERTEX
  8
1
  10
1.04580
  20
1.24512
  0
VERTEX
  8
1
  10
1.04274
  20
1.25059
  0
VERTEX
  8
1
  10
1.03990
  20
1.25567
  0
VERTEX
  8
1
  10
1.03731
  20
1.26023
  0
VERTEX
  8
1
  10
1.03501
  20
1.26414
  0
VERTEX
  8
1
  10
1.03303
  20
1.26727
  0
VERTEX
  8
1
  10
1.01802
  20
1.29129
  0
SEQEND
  0
POLYLINE
  8
1
  6
CONTINUOUS
 66
  1
 70
  1
  0
VERTEX
  8
1
  10
1.17027
  20
1.38820
  0
VERTEX
  8
1
  10
1.16937
  20
1.38885
  0
VERTEX
  8
1
  10
1.16847
  20
1.38936
  0
VERTEX
  8
1
  10
1.16757
  20
1.38974
  0
VERTEX
  8
1
  10
1.16667
  20
1.39002
  0
VERTEX
  8
1
  10
1.16577
  20
1.39020
  0
VERTEX
  8
1
  10
1.16486
  20
1.39031
  0
VERTEX
  8
1
  10
1.16396
  20
1.39037
  0
VERTEX
  8
1
  10
1.16306
  20
1.39039
  0
VERTEX
  8
1
  10
1.16216
  20
1.39039
  0
VERTEX
  8
1
  10
1.16028
  20
1.39013
  0
VERTEX
  8
1
  10
1.15829
  20
1.38941
  0
VERTEX
  8
1
  10
1.15627
  20
1.38828
  0
VERTEX
  8
1
  10
1.15428
  20
1.38683
  0
VERTEX
  8
1
  10
1.15240
  20
1.38514
  0
VERTEX
  8
1
  10
1.15070
  20
1.38326
  0
VERTEX
  8
1
  10
1.14926
  20
1.38127
  0
VERTEX
  8
1
  10
1.14813
  20
1.37924
  0
VERTEX
  8
1
  10
1.14741
  20
1.37726
  0
VERTEX
  8
1
  10
1.14715
  20
1.37538
  0
VERTEX
  8
1
  10
1.14741
  20
1.37423
  0
VERTEX
  8
1
  10
1.14813
  20
1.37266
  0
VERTEX
  8
1
  10
1.14926
  20
1.37081
  0
VERTEX
  8
1
  10
1.15070
  20
1.36879
  0
VERTEX
  8
1
  10
1.15240
  20
1.36674
  0
VERTEX
  8
1
  10
1.15428
  20
1.36478
  0
VERTEX
  8
1
  10
1.15627
  20
1.36304
  0
VERTEX
  8
1
  10
1.15829
  20
1.36163
  0
VERTEX
  8
1
  10
1.16028
  20
1.36070
  0
VERTEX
  8
1
  10
1.16216
  20
1.36036
  0
VERTEX
  8
1
  10
1.16404
  20
1.36070
  0
VERTEX
  8
1
  10
1.16603
  20
1.36166
  0
VERTEX
  8
1
  10
1.16805
  20
1.36312
  0
VERTEX
  8
1
  10
1.17004
  20
1.36497
  0
VERTEX
  8
1
  10
1.17192
  20
1.36712
  0
VERTEX
  8
1
  10
1.17362
  20
1.36944
  0
VERTEX
  8
1
  10
1.17507
  20
1.37184
  0
VERTEX
  8
1
  10
1.17619
  20
1.37420
  0
VERTEX
  8
1
  10
1.17692
  20
1.37641
  0
VERTEX
  8
1
  10
1.17718
  20
1.37838
  0
VERTEX
  8
1
  10
1.17709
  20
1.37928
  0
VERTEX
  8
1
  10
1.17684
  20
1.38018
  0
VERTEX
  8
1
  10
1.17645
  20
1.38108
  0
VERTEX
  8
1
  10
1.17593
  20
1.38198
  0
VERTEX
  8
1
  10
1.17530
  20
1.38288
  0
VERTEX
  8
1
  10
1.17458
  20
1.38378
  0
VERTEX
  8
1
  10
1.17379
  20
1.38468
  0
VERTEX
  8
1
  10
1.17295
  20
1.38559
  0
VERTEX
  8
1
  10
1.17207
  20
1.38649
  0
VERTEX
  8
1
  10
1.17117
  20
1.38739
  0
SEQEND
  0
POLYLINE
  8
1
  6
CONTINUOUS
 66
  1
 70
  1
  0
VERTEX
  8
1
  10
0.95383
  20
1.30026
  0
VERTEX
  8
1
  10
0.94876
  20
1.30381
  0
VERTEX
  8
1
  10
0.94285
  20
1.30505
  0
VERTEX
  8
1
  10
0.93624
  20
1.30410
  0
VERTEX
  8
1
  10
0.92905
  20
1.30105
  0
VERTEX
  8
1
  10
0.92142
  20
1.29602
  0
VERTEX
  8
1
  10
0.91346
  20
1.28912
  0
VERTEX
  8
1
  10
0.90530
  20
1.28046
  0
VERTEX
  8
1
  10
0.89707
  20
1.27013
  0
VERTEX
  8
1
  10
0.88889
  20
1.25826
  0
VERTEX
  8
1
  10
0.88611
  20
1.25368
  0
VERTEX
  8
1
  10
0.88320
  20
1.24901
  0
VERTEX
  8
1
  10
0.88021
  20
1.24434
  0
VERTEX
  8
1
  10
0.87721
  20
1.23976
  0
VERTEX
  8
1
  10
0.87425
  20
1.23536
  0
VERTEX
  8
1
  10
0.87138
  20
1.23123
  0
VERTEX
  8
1
  10
0.86865
  20
1.22746
  0
VERTEX
  8
1
  10
0.86611
  20
1.22414
  0
VERTEX
  8
1
  10
0.86383
  20
1.22137
  0
VERTEX
  8
1
  10
0.86186
  20
1.21922
  0
VERTEX
  8
1
  10
0.85729
  20
1.21306
  0
VERTEX
  8
1
  10
0.85264
  20
1.20560
  0
VERTEX
  8
1
  10
0.84802
  20
1.19717
  0
VERTEX
  8
1
  10
0.84356
  20
1.18808
  0
VERTEX
  8
1
  10
0.83934
  20
1.17868
  0
VERTEX
  8
1
  10
0.83548
  20
1.16927
  0
VERTEX
  8
1
  10
0.83210
  20
1.16019
  0
VERTEX
  8
1
  10
0.82929
  20
1.15176
  0
VERTEX
  8
1
  10
0.82716
  20
1.14430
  0
VERTEX
  8
1
  10
0.82583
  20
1.13814
  0
VERTEX
  8
1
  10
0.82511
  20
1.13202
  0
VERTEX
  8
1
  10
0.82474
  20
1.12632
  0
VERTEX
  8
1
  10
0.82474
  20
1.12108
  0
VERTEX
  8
1
  10
0.82511
  20
1.11637
  0
VERTEX
  8
1
  10
0.82583
  20
1.11224
  0
VERTEX
  8
1
  10
0.82691
  20
1.10873
  0
VERTEX
  8
1
  10
0.82835
  20
1.10591
  0
VERTEX
  8
1
  10
0.83015
  20
1.10383
  0
VERTEX
  8
1
  10
0.83231
  20
1.10254
  0
VERTEX
  8
1
  10
0.83483
  20
1.10210
  0
VERTEX
  8
1
  10
0.83573
  20
1.10221
  0
VERTEX
  8
1
  10
0.83661
  20
1.10261
  0
VERTEX
  8
1
  10
0.83746
  20
1.10340
  0
VERTEX
  8
1
  10
0.83825
  20
1.10470
  0
VERTEX
  8
1
  10
0.83896
  20
1.10661
  0
VERTEX
  8
1
  10
0.83959
  20
1.10924
  0
VERTEX
  8
1
  10
0.84011
  20
1.11270
  0
VERTEX
  8
1
  10
0.84050
  20
1.11709
  0
VERTEX
  8
1
  10
0.84075
  20
1.12253
  0
VERTEX
  8
1
  10
0.84084
  20
1.12913
  0
VERTEX
  8
1
  10
0.84086
  20
1.13664
  0
VERTEX
  8
1
  10
0.84096
  20
1.14309
  0
VERTEX
  8
1
  10
0.84125
  20
1.14867
  0
VERTEX
  8
1
  10
0.84180
  20
1.15359
  0
VERTEX
  8
1
  10
0.84272
  20
1.15803
  0
VERTEX
  8
1
  10
0.84408
  20
1.16221
  0
VERTEX
  8
1
  10
0.84599
  20
1.16632
  0
VERTEX
  8
1
  10
0.84853
  20
1.17055
  0
VERTEX
  8
1
  10
0.85179
  20
1.17510
  0
VERTEX
  8
1
  10
0.85586
  20
1.18018
  0
VERTEX
  8
1
  10
0.86014
  20
1.18386
  0
VERTEX
  8
1
  10
0.86561
  20
1.18763
  0
VERTEX
  8
1
  10
0.87202
  20
1.19140
  0
VERTEX
  8
1
  10
0.87911
  20
1.19508
  0
VERTEX
  8
1
  10
0.88664
  20
1.19857
  0
VERTEX
  8
1
  10
0.89434
  20
1.20180
  0
VERTEX
  8
1
  10
0.90198
  20
1.20467
  0
VERTEX
  8
1
  10
0.90929
  20
1.20709
  0
VERTEX
  8
1
  10
0.91602
  20
1.20896
  0
VERTEX
  8
1
  10
0.92192
  20
1.21021
  0
VERTEX
  8
1
  10
0.92633
  20
1.21129
  0
VERTEX
  8
1
  10
0.93050
  20
1.21273
  0
VERTEX
  8
1
  10
0.93438
  20
1.21453
  0
VERTEX
  8
1
  10
0.93792
  20
1.21670
  0
VERTEX
  8
1
  10
0.94107
  20
1.21922
  0
VERTEX
  8
1
  10
0.94376
  20
1.22210
  0
VERTEX
  8
1
  10
0.94595
  20
1.22535
  0
VERTEX
  8
1
  10
0.94758
  20
1.22895
  0
VERTEX
  8
1
  10
0.94860
  20
1.23291
  0
VERTEX
  8
1
  10
0.94895
  20
1.23724
  0
VERTEX
  8
1
  10
0.94904
  20
1.23904
  0
VERTEX
  8
1
  10
0.94929
  20
1.24084
  0
VERTEX
  8
1
  10
0.94968
  20
1.24264
  0
VERTEX
  8
1
  10
0.95020
  20
1.24444
  0
VERTEX
  8
1
  10
0.95083
  20
1.24625
  0
VERTEX
  8
1
  10
0.95154
  20
1.24805
  0
VERTEX
  8
1
  10
0.95233
  20
1.24985
  0
VERTEX
  8
1
  10
0.95318
  20
1.25165
  0
VERTEX
  8
1
  10
0.95406
  20
1.25345
  0
VERTEX
  8
1
  10
0.95495
  20
1.25526
  0
VERTEX
  8
1
  10
0.95658
  20
1.25765
  0
VERTEX
  8
1
  10
0.95786
  20
1.26104
  0
VERTEX
  8
1
  10
0.95882
  20
1.26520
  0
VERTEX
  8
1
  10
0.95947
  20
1.26986
  0
VERTEX
  8
1
  10
0.95983
  20
1.27477
  0
VERTEX
  8
1
  10
0.95993
  20
1.27969
  0
VERTEX
  8
1
  10
0.95977
  20
1.28435
  0
VERTEX
  8
1
  10
0.95938
  20
1.28850
  0
VERTEX
  8
1
  10
0.95877
  20
1.29190
  0
VERTEX
  8
1
  10
0.95796
  20
1.29429
  0
SEQEND
  0
POLYLINE
  8
1
  6
CONTINUOUS
 66
  1
 70
  1
  0
VERTEX
  8
1
  10
0.82963
  20
1.26761
  0
VERTEX
  8
1
  10
0.83022
  20
1.27051
  0
VERTEX
  8
1
  10
0.83056
  20
1.27305
  0
VERTEX
  8
1
  10
0.83061
  20
1.27532
  0
VERTEX
  8
1
  10
0.83033
  20
1.27740
  0
VERTEX
  8
1
  10
0.82969
  20
1.27940
  0
VERTEX
  8
1
  10
0.82866
  20
1.28140
  0
VERTEX
  8
1
  10
0.82720
  20
1.28348
  0
VERTEX
  8
1
  10
0.82526
  20
1.28575
  0
VERTEX
  8
1
  10
0.82282
  20
1.28829
  0
VERTEX
  8
1
  10
0.81381
  20
1.29730
  0
VERTEX
  8
1
  10
0.80781
  20
1.28829
  0
VERTEX
  8
1
  10
0.80682
  20
1.28713
  0
VERTEX
  8
1
  10
0.80569
  20
1.28553
  0
VERTEX
  8
1
  10
0.80446
  20
1.28356
  0
VERTEX
  8
1
  10
0.80315
  20
1.28132
  0
VERTEX
  8
1
  10
0.80180
  20
1.27890
  0
VERTEX
  8
1
  10
0.80046
  20
1.27640
  0
VERTEX
  8
1
  10
0.79915
  20
1.27389
  0
VERTEX
  8
1
  10
0.79791
  20
1.27147
  0
VERTEX
  8
1
  10
0.79678
  20
1.26923
  0
VERTEX
  8
1
  10
0.79580
  20
1.26727
  0
VERTEX
  8
1
  10
0.78679
  20
1.24925
  0
VERTEX
  8
1
  10
0.79580
  20
1.24324
  0
VERTEX
  8
1
  10
0.79823
  20
1.24011
  0
VERTEX
  8
1
  10
0.80012
  20
1.23618
  0
VERTEX
  8
1
  10
0.80147
  20
1.23157
  0
VERTEX
  8
1
  10
0.80228
  20
1.22638
  0
VERTEX
  8
1
  10
0.80255
  20
1.22072
  0
VERTEX
  8
1
  10
0.80228
  20
1.21470
  0
VERTEX
  8
1
  10
0.80147
  20
1.20843
  0
VERTEX
  8
1
  10
0.80012
  20
1.20202
  0
VERTEX
  8
1
  10
0.79823
  20
1.19557
  0
VERTEX
  8
1
  10
0.79580
  20
1.18919
  0
VERTEX
  8
1
  10
0.79490
  20
1.18731
  0
VERTEX
  8
1
  10
0.79402
  20
1.18532
  0
VERTEX
  8
1
  10
0.79317
  20
1.18330
  0
VERTEX
  8
1
  10
0.79238
  20
1.18131
  0
VERTEX
  8
1
  10
0.79167
  20
1.17943
  0
VERTEX
  8
1
  10
0.79104
  20
1.17773
  0
VERTEX
  8
1
  10
0.79052
  20
1.17628
  0
VERTEX
  8
1
  10
0.79013
  20
1.17516
  0
VERTEX
  8
1
  10
0.78979
  20
1.17417
  0
VERTEX
  8
1
  10
0.78962
  20
1.17310
  0
VERTEX
  8
1
  10
0.78912
  20
1.17170
  0
VERTEX
  8
1
  10
0.78833
  20
1.17001
  0
VERTEX
  8
1
  10
0.78729
  20
1.16807
  0
VERTEX
  8
1
  10
0.78604
  20
1.16592
  0
VERTEX
  8
1
  10
0.78460
  20
1.16358
  0
VERTEX
  8
1
  10
0.78302
  20
1.16110
  0
VERTEX
  8
1
  10
0.78133
  20
1.15851
  0
VERTEX
  8
1
  10
0.77957
  20
1.15585
  0
VERTEX
  8
1
  10
0.77778
  20
1.15315
  0
VERTEX
  8
1
  10
0.77534
  20
1.14708
  0
VERTEX
  8
1
  10
0.77338
  20
1.14136
  0
VERTEX
  8
1
  10
0.77186
  20
1.13577
  0
VERTEX
  8
1
  10
0.77071
  20
1.13014
  0
VERTEX
  8
1
  10
0.76989
  20
1.12425
  0
VERTEX
  8
1
  10
0.76935
  20
1.11791
  0
VERTEX
  8
1
  10
0.76901
  20
1.11092
  0
VERTEX
  8
1
  10
0.76884
  20
1.10309
  0
VERTEX
  8
1
  10
0.76878
  20
1.09421
  0
VERTEX
  8
1
  10
0.76877
  20
1.08408
  0
VERTEX
  8
1
  10
0.76984
  20
1.07734
  0
VERTEX
  8
1
  10
0.77124
  20
1.07154
  0
VERTEX
  8
1
  10
0.77293
  20
1.06676
  0
VERTEX
  8
1
  10
0.77487
  20
1.06304
  0
VERTEX
  8
1
  10
0.77703
  20
1.06044
  0
VERTEX
  8
1
  10
0.77936
  20
1.05900
  0
VERTEX
  8
1
  10
0.78184
  20
1.05880
  0
VERTEX
  8
1
  10
0.78443
  20
1.05987
  0
VERTEX
  8
1
  10
0.78709
  20
1.06227
  0
VERTEX
  8
1
  10
0.78979
  20
1.06607
  0
VERTEX
  8
1
  10
0.79060
  20
1.06788
  0
VERTEX
  8
1
  10
0.79126
  20
1.06977
  0
VERTEX
  8
1
  10
0.79176
  20
1.07180
  0
VERTEX
  8
1
  10
0.79214
  20
1.07404
  0
VERTEX
  8
1
  10
0.79242
  20
1.07658
  0
VERTEX
  8
1
  10
0.79260
  20
1.07947
  0
VERTEX
  8
1
  10
0.79271
  20
1.08280
  0
VERTEX
  8
1
  10
0.79277
  20
1.08663
  0
VERTEX
  8
1
  10
0.79279
  20
1.09104
  0
VERTEX
  8
1
  10
0.79279
  20
1.09610
  0
VERTEX
  8
1
  10
0.79216
  20
1.10404
  0
VERTEX
  8
1
  10
0.79207
  20
1.11169
  0
VERTEX
  8
1
  10
0.79252
  20
1.11912
  0
VERTEX
  8
1
  10
0.79351
  20
1.12641
  0
VERTEX
  8
1
  10
0.79505
  20
1.13363
  0
VERTEX
  8
1
  10
0.79712
  20
1.14085
  0
VERTEX
  8
1
  10
0.79973
  20
1.14814
  0
VERTEX
  8
1
  10
0.80288
  20
1.15558
  0
VERTEX
  8
1
  10
0.80658
  20
1.16323
  0
VERTEX
  8
1
  10
0.81081
  20
1.17117
  0
VERTEX
  8
1
  10
0.81179
  20
1.17387
  0
VERTEX
  8
1
  10
0.81290
  20
1.17653
  0
VERTEX
  8
1
  10
0.81408
  20
1.17912
  0
VERTEX
  8
1
  10
0.81528
  20
1.18160
  0
VERTEX
  8
1
  10
0.81644
  20
1.18393
  0
VERTEX
  8
1
  10
0.81751
  20
1.18609
  0
VERTEX
  8
1
  10
0.81844
  20
1.18803
  0
VERTEX
  8
1
  10
0.81917
  20
1.18972
  0
VERTEX
  8
1
  10
0.81965
  20
1.19112
  0
VERTEX
  8
1
  10
0.81982
  20
1.19219
  0
VERTEX
  8
1
  10
0.81991
  20
1.19326
  0
VERTEX
  8
1
  10
0.82018
  20
1.19464
  0
VERTEX
  8
1
  10
0.82063
  20
1.19627
  0
VERTEX
  8
1
  10
0.82126
  20
1.19810
  0
VERTEX
  8
1
  10
0.82207
  20
1.20008
  0
VERTEX
  8
1
  10
0.82306
  20
1.20214
  0
VERTEX
  8
1
  10
0.82423
  20
1.20424
  0
VERTEX
  8
1
  10
0.82559
  20
1.20632
  0
VERTEX
  8
1
  10
0.82712
  20
1.20833
  0
VERTEX
  8
1
  10
0.82883
  20
1.21021
  0
VERTEX
  8
1
  10
0.83126
  20
1.21527
  0
VERTEX
  8
1
  10
0.83318
  20
1.21970
  0
VERTEX
  8
1
  10
0.83459
  20
1.22359
  0
VERTEX
  8
1
  10
0.83551
  20
1.22703
  0
VERTEX
  8
1
  10
0.83596
  20
1.23011
  0
VERTEX
  8
1
  10
0.83596
  20
1.23291
  0
VERTEX
  8
1
  10
0.83553
  20
1.23554
  0
VERTEX
  8
1
  10
0.83469
  20
1.23808
  0
VERTEX
  8
1
  10
0.83345
  20
1.24062
  0
VERTEX
  8
1
  10
0.83183
  20
1.24324
  0
VERTEX
  8
1
  10
0.83021
  20
1.24570
  0
VERTEX
  8
1
  10
0.82892
  20
1.24774
  0
VERTEX
  8
1
  10
0.82797
  20
1.24949
  0
VERTEX
  8
1
  10
0.82732
  20
1.25108
  0
VERTEX
  8
1
  10
0.82695
  20
1.25263
  0
VERTEX
  8
1
  10
0.82686
  20
1.25427
  0
VERTEX
  8
1
  10
0.82702
  20
1.25613
  0
VERTEX
  8
1
  10
0.82741
  20
1.25833
  0
VERTEX
  8
1
  10
0.82802
  20
1.26100
  0
VERTEX
  8
1
  10
0.82883
  20
1.26426
  0
SEQEND
  0
POLYLINE
  8
1
  6
CONTINUOUS
 66
  1
 70
  1
  0
VERTEX
  8
1
  10
1.35091
  20
1.62023
  0
VERTEX
  8
1
  10
1.34770
  20
1.62145
  0
VERTEX
  8
1
  10
1.34460
  20
1.62224
  0
VERTEX
  8
1
  10
1.34148
  20
1.62256
  0
VERTEX
  8
1
  10
1.33821
  20
1.62237
  0
VERTEX
  8
1
  10
1.33468
  20
1.62165
  0
VERTEX
  8
1
  10
1.33075
  20
1.62034
  0
VERTEX
  8
1
  10
1.32629
  20
1.61843
  0
VERTEX
  8
1
  10
1.32119
  20
1.61586
  0
VERTEX
  8
1
  10
1.31532
  20
1.61261
  0
VERTEX
  8
1
  10
1.30650
  20
1.60858
  0
VERTEX
  8
1
  10
1.29814
  20
1.60377
  0
VERTEX
  8
1
  10
1.29032
  20
1.59832
  0
VERTEX
  8
1
  10
1.28312
  20
1.59234
  0
VERTEX
  8
1
  10
1.27665
  20
1.58596
  0
VERTEX
  8
1
  10
1.27099
  20
1.57932
  0
VERTEX
  8
1
  10
1.26623
  20
1.57253
  0
VERTEX
  8
1
  10
1.26246
  20
1.56572
  0
VERTEX
  8
1
  10
1.25977
  20
1.55902
  0
VERTEX
  8
1
  10
1.25826
  20
1.55255
  0
VERTEX
  8
1
  10
1.25861
  20
1.54968
  0
VERTEX
  8
1
  10
1.25965
  20
1.54655
  0
VERTEX
  8
1
  10
1.26134
  20
1.54323
  0
VERTEX
  8
1
  10
1.26364
  20
1.53982
  0
VERTEX
  8
1
  10
1.26652
  20
1.53641
  0
VERTEX
  8
1
  10
1.26993
  20
1.53309
  0
VERTEX
  8
1
  10
1.27386
  20
1.52996
  0
VERTEX
  8
1
  10
1.27825
  20
1.52709
  0
VERTEX
  8
1
  10
1.28307
  20
1.52458
  0
VERTEX
  8
1
  10
1.28829
  20
1.52252
  0
VERTEX
  8
1
  10
1.29342
  20
1.52063
  0
VERTEX
  8
1
  10
1.29799
  20
1.51858
  0
VERTEX
  8
1
  10
1.30199
  20
1.51639
  0
VERTEX
  8
1
  10
1.30539
  20
1.51407
  0
VERTEX
  8
1
  10
1.30818
  20
1.51164
  0
VERTEX
  8
1
  10
1.31034
  20
1.50912
  0
VERTEX
  8
1
  10
1.31185
  20
1.50653
  0
VERTEX
  8
1
  10
1.31270
  20
1.50388
  0
VERTEX
  8
1
  10
1.31286
  20
1.50120
  0
VERTEX
  8
1
  10
1.31231
  20
1.49850
  0
VERTEX
  8
1
  10
1.31222
  20
1.49687
  0
VERTEX
  8
1
  10
1.31190
  20
1.49554
  0
VERTEX
  8
1
  10
1.31134
  20
1.49447
  0
VERTEX
  8
1
  10
1.31049
  20
1.49360
  0
VERTEX
  8
1
  10
1.30931
  20
1.49287
  0
VERTEX
  8
1
  10
1.30777
  20
1.49223
  0
VERTEX
  8
1
  10
1.30584
  20
1.49162
  0
VERTEX
  8
1
  10
1.30347
  20
1.49100
  0
VERTEX
  8
1
  10
1.30064
  20
1.49031
  0
VERTEX
  8
1
  10
1.29730
  20
1.48949
  0
VERTEX
  8
1
  10
1.29541
  20
1.48941
  0
VERTEX
  8
1
  10
1.29341
  20
1.48918
  0
VERTEX
  8
1
  10
1.29132
  20
1.48884
  0
VERTEX
  8
1
  10
1.28923
  20
1.48843
  0
VERTEX
  8
1
  10
1.28716
  20
1.48799
  0
VERTEX
  8
1
  10
1.28519
  20
1.48754
  0
VERTEX
  8
1
  10
1.28336
  20
1.48714
  0
VERTEX
  8
1
  10
1.28173
  20
1.48680
  0
VERTEX
  8
1
  10
1.28035
  20
1.48657
  0
VERTEX
  8
1
  10
1.27928
  20
1.48649
  0
VERTEX
  8
1
  10
1.27911
  20
1.48559
  0
VERTEX
  8
1
  10
1.27863
  20
1.48471
  0
VERTEX
  8
1
  10
1.27790
  20
1.48386
  0
VERTEX
  8
1
  10
1.27697
  20
1.48308
  0
VERTEX
  8
1
  10
1.27590
  20
1.48236
  0
VERTEX
  8
1
  10
1.27474
  20
1.48173
  0
VERTEX
  8
1
  10
1.27354
  20
1.48121
  0
VERTEX
  8
1
  10
1.27236
  20
1.48082
  0
VERTEX
  8
1
  10
1.27125
  20
1.48057
  0
VERTEX
  8
1
  10
1.27027
  20
1.48048
  0
VERTEX
  8
1
  10
1.26814
  20
1.48023
  0
VERTEX
  8
1
  10
1.26547
  20
1.47952
  0
VERTEX
  8
1
  10
1.26243
  20
1.47845
  0
VERTEX
  8
1
  10
1.25922
  20
1.47712
  0
VERTEX
  8
1
  10
1.25601
  20
1.47560
  0
VERTEX
  8
1
  10
1.25297
  20
1.47399
  0
VERTEX
  8
1
  10
1.25030
  20
1.47239
  0
VERTEX
  8
1
  10
1.24817
  20
1.47087
  0
VERTEX
  8
1
  10
1.24676
  20
1.46953
  0
VERTEX
  8
1
  10
1.24625
  20
1.46847
  0
VERTEX
  8
1
  10
1.25225
  20
1.45045
  0
VERTEX
  8
1
  10
1.25396
  20
1.44702
  0
VERTEX
  8
1
  10
1.25547
  20
1.44389
  0
VERTEX
  8
1
  10
1.25677
  20
1.44102
  0
VERTEX
  8
1
  10
1.25783
  20
1.43834
  0
VERTEX
  8
1
  10
1.25863
  20
1.43581
  0
VERTEX
  8
1
  10
1.25917
  20
1.43337
  0
VERTEX
  8
1
  10
1.25942
  20
1.43096
  0
VERTEX
  8
1
  10
1.25936
  20
1.42854
  0
VERTEX
  8
1
  10
1.25898
  20
1.42605
  0
VERTEX
  8
1
  10
1.25826
  20
1.42342
  0
VERTEX
  8
1
  10
1.25826
  20
1.42080
  0
VERTEX
  8
1
  10
1.25831
  20
1.41833
  0
VERTEX
  8
1
  10
1.25842
  20
1.41596
  0
VERTEX
  8
1
  10
1.25864
  20
1.41367
  0
VERTEX
  8
1
  10
1.25901
  20
1.41141
  0
VERTEX
  8
1
  10
1.25956
  20
1.40915
  0
VERTEX
  8
1
  10
1.26032
  20
1.40686
  0
VERTEX
  8
1
  10
1.26133
  20
1.40449
  0
VERTEX
  8
1
  10
1.26264
  20
1.40202
  0
VERTEX
  8
1
  10
1.26426
  20
1.39940
  0
VERTEX
  8
1
  10
1.27027
  20
1.38138
  0
VERTEX
  8
1
  10
1.27028
  20
1.38048
  0
VERTEX
  8
1
  10
1.27032
  20
1.37958
  0
VERTEX
  8
1
  10
1.27043
  20
1.37868
  0
VERTEX
  8
1
  10
1.27065
  20
1.37778
  0
VERTEX
  8
1
  10
1.27102
  20
1.37688
  0
VERTEX
  8
1
  10
1.27157
  20
1.37598
  0
VERTEX
  8
1
  10
1.27233
  20
1.37508
  0
VERTEX
  8
1
  10
1.27335
  20
1.37417
  0
VERTEX
  8
1
  10
1.27465
  20
1.37327
  0
VERTEX
  8
1
  10
1.27628
  20
1.37237
  0
VERTEX
  8
1
  10
1.27718
  20
1.37238
  0
VERTEX
  8
1
  10
1.27810
  20
1.37240
  0
VERTEX
  8
1
  10
1.27906
  20
1.37245
  0
VERTEX
  8
1
  10
1.28007
  20
1.37256
  0
VERTEX
  8
1
  10
1.28116
  20
1.37275
  0
VERTEX
  8
1
  10
1.28233
  20
1.37302
  0
VERTEX
  8
1
  10
1.28361
  20
1.37340
  0
VERTEX
  8
1
  10
1.28502
  20
1.37391
  0
VERTEX
  8
1
  10
1.28657
  20
1.37456
  0
VERTEX
  8
1
  10
1.28829
  20
1.37538
  0
VERTEX
  8
1
  10
1.28919
  20
1.37700
  0
VERTEX
  8
1
  10
1.29011
  20
1.37828
  0
VERTEX
  8
1
  10
1.29107
  20
1.37924
  0
VERTEX
  8
1
  10
1.29208
  20
1.37989
  0
VERTEX
  8
1
  10
1.29317
  20
1.38026
  0
VERTEX
  8
1
  10
1.29434
  20
1.38035
  0
VERTEX
  8
1
  10
1.29562
  20
1.38019
  0
VERTEX
  8
1
  10
1.29703
  20
1.37980
  0
VERTEX
  8
1
  10
1.29859
  20
1.37919
  0
VERTEX
  8
1
  10
1.30030
  20
1.37838
  0
VERTEX
  8
1
  10
1.30210
  20
1.37676
  0
VERTEX
  8
1
  10
1.30390
  20
1.37550
  0
VERTEX
  8
1
  10
1.30571
  20
1.37459
  0
VERTEX
  8
1
  10
1.30751
  20
1.37405
  0
VERTEX
  8
1
  10
1.30931
  20
1.37387
  0
VERTEX
  8
1
  10
1.31111
  20
1.37405
  0
VERTEX
  8
1
  10
1.31291
  20
1.37459
  0
VERTEX
  8
1
  10
1.31471
  20
1.37550
  0
VERTEX
  8
1
  10
1.31652
  20
1.37676
  0
VERTEX
  8
1
  10
1.31832
  20
1.37838
  0
VERTEX
  8
1
  10
1.31930
  20
1.37928
  0
VERTEX
  8
1
  10
1.32043
  20
1.38018
  0
VERTEX
  8
1
  10
1.32167
  20
1.38108
  0
VERTEX
  8
1
  10
1.32298
  20
1.38198
  0
VERTEX
  8
1
  10
1.32432
  20
1.38288
  0
VERTEX
  8
1
  10
1.32567
  20
1.38378
  0
VERTEX
  8
1
  10
1.32698
  20
1.38468
  0
VERTEX
  8
1
  10
1.32822
  20
1.38559
  0
VERTEX
  8
1
  10
1.32935
  20
1.38649
  0
VERTEX
  8
1
  10
1.33033
  20
1.38739
  0
VERTEX
  8
1
  10
1.33349
  20
1.38944
  0
VERTEX
  8
1
  10
1.33576
  20
1.39193
  0
VERTEX
  8
1
  10
1.33717
  20
1.39474
  0
VERTEX
  8
1
  10
1.33773
  20
1.39777
  0
VERTEX
  8
1
  10
1.33746
  20
1.40090
  0
VERTEX
  8
1
  10
1.33638
  20
1.40404
  0
VERTEX
  8
1
  10
1.33451
  20
1.40706
  0
VERTEX
  8
1
  10
1.33187
  20
1.40987
  0
VERTEX
  8
1
  10
1.32847
  20
1.41236
  0
VERTEX
  8
1
  10
1.32432
  20
1.41441
  0
VERTEX
  8
1
  10
1.32252
  20
1.41441
  0
VERTEX
  8
1
  10
1.32070
  20
1.41439
  0
VERTEX
  8
1
  10
1.31884
  20
1.41433
  0
VERTEX
  8
1
  10
1.31692
  20
1.41422
  0
VERTEX
  8
1
  10
1.31494
  20
1.41404
  0
VERTEX
  8
1
  10
1.31286
  20
1.41377
  0
VERTEX
  8
1
  10
1.31068
  20
1.41338
  0
VERTEX
  8
1
  10
1.30837
  20
1.41288
  0
VERTEX
  8
1
  10
1.30592
  20
1.41223
  0
VERTEX
  8
1
  10
1.30330
  20
1.41141
  0
VERTEX
  8
1
  10
1.29996
  20
1.41060
  0
VERTEX
  8
1
  10
1.29713
  20
1.40997
  0
VERTEX
  8
1
  10
1.29476
  20
1.40952
  0
VERTEX
  8
1
  10
1.29283
  20
1.40925
  0
VERTEX
  8
1
  10
1.29129
  20
1.40916
  0
VERTEX
  8
1
  10
1.29011
  20
1.40925
  0
VERTEX
  8
1
  10
1.28926
  20
1.40952
  0
VERTEX
  8
1
  10
1.28870
  20
1.40997
  0
VERTEX
  8
1
  10
1.28838
  20
1.41060
  0
VERTEX
  8
1
  10
1.28829
  20
1.41141
  0
VERTEX
  8
1
  10
1.28667
  20
1.41386
  0
VERTEX
  8
1
  10
1.28545
  20
1.41590
  0
VERTEX
  8
1
  10
1.28467
  20
1.41765
  0
VERTEX
  8
1
  10
1.28435
  20
1.41924
  0
VERTEX
  8
1
  10
1.28453
  20
1.42080
  0
VERTEX
  8
1
  10
1.28526
  20
1.42244
  0
VERTEX
  8
1
  10
1.28656
  20
1.42430
  0
VERTEX
  8
1
  10
1.28848
  20
1.42650
  0
VERTEX
  8
1
  10
1.29104
  20
1.42917
  0
VERTEX
  8
1
  10
1.29429
  20
1.43243
  0
VERTEX
  8
1
  10
1.29708
  20
1.43586
  0
VERTEX
  8
1
  10
1.30004
  20
1.43892
  0
VERTEX
  8
1
  10
1.30313
  20
1.44162
  0
VERTEX
  8
1
  10
1.30635
  20
1.44396
  0
VERTEX
  8
1
  10
1.30968
  20
1.44595
  0
VERTEX
  8
1
  10
1.31311
  20
1.44757
  0
VERTEX
  8
1
  10
1.31660
  20
1.44883
  0
VERTEX
  8
1
  10
1.32014
  20
1.44973
  0
VERTEX
  8
1
  10
1.32373
  20
1.45027
  0
VERTEX
  8
1
  10
1.32733
  20
1.45045
  0
VERTEX
  8
1
  10
1.33036
  20
1.45011
  0
VERTEX
  8
1
  10
1.33393
  20
1.44915
  0
VERTEX
  8
1
  10
1.33787
  20
1.44769
  0
VERTEX
  8
1
  10
1.34198
  20
1.44584
  0
VERTEX
  8
1
  10
1.34610
  20
1.44369
  0
VERTEX
  8
1
  10
1.35003
  20
1.44137
  0
VERTEX
  8
1
  10
1.35360
  20
1.43897
  0
VERTEX
  8
1
  10
1.35664
  20
1.43661
  0
VERTEX
  8
1
  10
1.35895
  20
1.43440
  0
VERTEX
  8
1
  10
1.36036
  20
1.43243
  0
VERTEX
  8
1
  10
1.36311
  20
1.42641
  0
VERTEX
  8
1
  10
1.36754
  20
1.42102
  0
VERTEX
  8
1
  10
1.37339
  20
1.41635
  0
VERTEX
  8
1
  10
1.38035
  20
1.41249
  0
VERTEX
  8
1
  10
1.38814
  20
1.40953
  0
VERTEX
  8
1
  10
1.39647
  20
1.40757
  0
VERTEX
  8
1
  10
1.40505
  20
1.40668
  0
VERTEX
  8
1
  10
1.41360
  20
1.40697
  0
VERTEX
  8
1
  10
1.42182
  20
1.40851
  0
VERTEX
  8
1
  10
1.42943
  20
1.41141
  0
VERTEX
  8
1
  10
1.43267
  20
1.41313
  0
VERTEX
  8
1
  10
1.43515
  20
1.41470
  0
VERTEX
  8
1
  10
1.43683
  20
1.41617
  0
VERTEX
  8
1
  10
1.43769
  20
1.41756
  0
VERTEX
  8
1
  10
1.43769
  20
1.41892
  0
VERTEX
  8
1
  10
1.43678
  20
1.42028
  0
VERTEX
  8
1
  10
1.43494
  20
1.42167
  0
VERTEX
  8
1
  10
1.43212
  20
1.42314
  0
VERTEX
  8
1
  10
1.42829
  20
1.42471
  0
VERTEX
  8
1
  10
1.42342
  20
1.42643
  0
VERTEX
  8
1
  10
1.42082
  20
1.42814
  0
VERTEX
  8
1
  10
1.41843
  20
1.42969
  0
VERTEX
  8
1
  10
1.41629
  20
1.43110
  0
VERTEX
  8
1
  10
1.41444
  20
1.43238
  0
VERTEX
  8
1
  10
1.41291
  20
1.43356
  0
VERTEX
  8
1
  10
1.41175
  20
1.43464
  0
VERTEX
  8
1
  10
1.41098
  20
1.43565
  0
VERTEX
  8
1
  10
1.41064
  20
1.43661
  0
VERTEX
  8
1
  10
1.41077
  20
1.43753
  0
VERTEX
  8
1
  10
1.41141
  20
1.43844
  0
VERTEX
  8
1
  10
1.41150
  20
1.44007
  0
VERTEX
  8
1
  10
1.41180
  20
1.44137
  0
VERTEX
  8
1
  10
1.41230
  20
1.44238
  0
VERTEX
  8
1
  10
1.41305
  20
1.44315
  0
VERTEX
  8
1
  10
1.41404
  20
1.44369
  0
VERTEX
  8
1
  10
1.41530
  20
1.44406
  0
VERTEX
  8
1
  10
1.41686
  20
1.44428
  0
VERTEX
  8
1
  10
1.41871
  20
1.44440
  0
VERTEX
  8
1
  10
1.42090
  20
1.44444
  0
VERTEX
  8
1
  10
1.42342
  20
1.44444
  0
VERTEX
  8
1
  10
1.42749
  20
1.44445
  0
VERTEX
  8
1
  10
1.43070
  20
1.44452
  0
VERTEX
  8
1
  10
1.43313
  20
1.44469
  0
VERTEX
  8
1
  10
1.43481
  20
1.44502
  0
VERTEX
  8
1
  10
1.43581
  20
1.44557
  0
VERTEX
  8
1
  10
1.43618
  20
1.44639
  0
VERTEX
  8
1
  10
1.43597
  20
1.44753
  0
VERTEX
  8
1
  10
1.43524
  20
1.44906
  0
VERTEX
  8
1
  10
1.43405
  20
1.45101
  0
VERTEX
  8
1
  10
1.43243
  20
1.45345
  0
VERTEX
  8
1
  10
1.43089
  20
1.45427
  0
VERTEX
  8
1
  10
1.42986
  20
1.45497
  0
VERTEX
  8
1
  10
1.42930
  20
1.45559
  0
VERTEX
  8
1
  10
1.42917
  20
1.45619
  0
VERTEX
  8
1
  10
1.42943
  20
1.45683
  0
VERTEX
  8
1
  10
1.43005
  20
1.45756
  0
VERTEX
  8
1
  10
1.43100
  20
1.45844
  0
VERTEX
  8
1
  10
1.43224
  20
1.45951
  0
VERTEX
  8
1
  10
1.43373
  20
1.46083
  0
VERTEX
  8
1
  10
1.43544
  20
1.46246
  0
VERTEX
  8
1
  10
1.43705
  20
1.46426
  0
VERTEX
  8
1
  10
1.43827
  20
1.46604
  0
VERTEX
  8
1
  10
1.43906
  20
1.46779
  0
VERTEX
  8
1
  10
1.43938
  20
1.46948
  0
VERTEX
  8
1
  10
1.43919
  20
1.47110
  0
VERTEX
  8
1
  10
1.43846
  20
1.47262
  0
VERTEX
  8
1
  10
1.43716
  20
1.47405
  0
VERTEX
  8
1
  10
1.43524
  20
1.47534
  0
VERTEX
  8
1
  10
1.43268
  20
1.47649
  0
VERTEX
  8
1
  10
1.42943
  20
1.47748
  0
VERTEX
  8
1
  10
1.42673
  20
1.47901
  0
VERTEX
  8
1
  10
1.42407
  20
1.48002
  0
VERTEX
  8
1
  10
1.42148
  20
1.48053
  0
VERTEX
  8
1
  10
1.41900
  20
1.48055
  0
VERTEX
  8
1
  10
1.41667
  20
1.48011
  0
VERTEX
  8
1
  10
1.41451
  20
1.47921
  0
VERTEX
  8
1
  10
1.41257
  20
1.47788
  0
VERTEX
  8
1
  10
1.41088
  20
1.47613
  0
VERTEX
  8
1
  10
1.40948
  20
1.47399
  0
VERTEX
  8
1
  10
1.40841
  20
1.47147
  0
VERTEX
  8
1
  10
1.40832
  20
1.47057
  0
VERTEX
  8
1
  10
1.40805
  20
1.46969
  0
VERTEX
  8
1
  10
1.40760
  20
1.46885
  0
VERTEX
  8
1
  10
1.40697
  20
1.46806
  0
VERTEX
  8
1
  10
1.40616
  20
1.46734
  0
VERTEX
  8
1
  10
1.40517
  20
1.46671
  0
VERTEX
  8
1
  10
1.40399
  20
1.46620
  0
VERTEX
  8
1
  10
1.40264
  20
1.46580
  0
VERTEX
  8
1
  10
1.40111
  20
1.46555
  0
VERTEX
  8
1
  10
1.39940
  20
1.46547
  0
VERTEX
  8
1
  10
1.39777
  20
1.46546
  0
VERTEX
  8
1
  10
1.39647
  20
1.46539
  0
VERTEX
  8
1
  10
1.39545
  20
1.46522
  0
VERTEX
  8
1
  10
1.39469
  20
1.46489
  0
VERTEX
  8
1
  10
1.39414
  20
1.46434
  0
VERTEX
  8
1
  10
1.39378
  20
1.46352
  0
VERTEX
  8
1
  10
1.39356
  20
1.46238
  0
VERTEX
  8
1
  10
1.39344
  20
1.46085
  0
VERTEX
  8
1
  10
1.39340
  20
1.45890
  0
VERTEX
  8
1
  10
1.39339
  20
1.45646
  0
VERTEX
  8
1
  10
1.39313
  20
1.45394
  0
VERTEX
  8
1
  10
1.39234
  20
1.45184
  0
VERTEX
  8
1
  10
1.39104
  20
1.45021
  0
VERTEX
  8
1
  10
1.38926
  20
1.44911
  0
VERTEX
  8
1
  10
1.38701
  20
1.44857
  0
VERTEX
  8
1
  10
1.38431
  20
1.44867
  0
VERTEX
  8
1
  10
1.38118
  20
1.44946
  0
VERTEX
  8
1
  10
1.37763
  20
1.45098
  0
VERTEX
  8
1
  10
1.37369
  20
1.45329
  0
VERTEX
  8
1
  10
1.36937
  20
1.45646
  0
VERTEX
  8
1
  10
1.36360
  20
1.45989
  0
VERTEX
  8
1
  10
1.35889
  20
1.46299
  0
VERTEX
  8
1
  10
1.35523
  20
1.46581
  0
VERTEX
  8
1
  10
1.35260
  20
1.46837
  0
VERTEX
  8
1
  10
1.35098
  20
1.47072
  0
VERTEX
  8
1
  10
1.35034
  20
1.47289
  0
VERTEX
  8
1
  10
1.35068
  20
1.47491
  0
VERTEX
  8
1
  10
1.35198
  20
1.47683
  0
VERTEX
  8
1
  10
1.35421
  20
1.47867
  0
VERTEX
  8
1
  10
1.35736
  20
1.48048
  0
VERTEX
  8
1
  10
1.36637
  20
1.48649
  0
VERTEX
  8
1
  10
1.36036
  20
1.48949
  0
VERTEX
  8
1
  10
1.35874
  20
1.49120
  0
VERTEX
  8
1
  10
1.35745
  20
1.49276
  0
VERTEX
  8
1
  10
1.35650
  20
1.49417
  0
VERTEX
  8
1
  10
1.35584
  20
1.49545
  0
VERTEX
  8
1
  10
1.35548
  20
1.49662
  0
VERTEX
  8
1
  10
1.35539
  20
1.49771
  0
VERTEX
  8
1
  10
1.35555
  20
1.49872
  0
VERTEX
  8
1
  10
1.35594
  20
1.49968
  0
VERTEX
  8
1
  10
1.35655
  20
1.50060
  0
VERTEX
  8
1
  10
1.35736
  20
1.50150
  0
VERTEX
  8
1
  10
1.35800
  20
1.50420
  0
VERTEX
  8
1
  10
1.35817
  20
1.50683
  0
VERTEX
  8
1
  10
1.35795
  20
1.50937
  0
VERTEX
  8
1
  10
1.35741
  20
1.51174
  0
VERTEX
  8
1
  10
1.35661
  20
1.51389
  0
VERTEX
  8
1
  10
1.35563
  20
1.51577
  0
VERTEX
  8
1
  10
1.35454
  20
1.51733
  0
VERTEX
  8
1
  10
1.35342
  20
1.51851
  0
VERTEX
  8
1
  10
1.35233
  20
1.51926
  0
VERTEX
  8
1
  10
1.35135
  20
1.51952
  0
VERTEX
  8
1
  10
1.34981
  20
1.51977
  0
VERTEX
  8
1
  10
1.34878
  20
1.52048
  0
VERTEX
  8
1
  10
1.34822
  20
1.52155
  0
VERTEX
  8
1
  10
1.34808
  20
1.52288
  0
VERTEX
  8
1
  10
1.34835
  20
1.52440
  0
VERTEX
  8
1
  10
1.34897
  20
1.52601
  0
VERTEX
  8
1
  10
1.34992
  20
1.52761
  0
VERTEX
  8
1
  10
1.35116
  20
1.52913
  0
VERTEX
  8
1
  10
1.35265
  20
1.53047
  0
VERTEX
  8
1
  10
1.35435
  20
1.53153
  0
VERTEX
  8
1
  10
1.35679
  20
1.53333
  0
VERTEX
  8
1
  10
1.35870
  20
1.53514
  0
VERTEX
  8
1
  10
1.36011
  20
1.53694
  0
VERTEX
  8
1
  10
1.36103
  20
1.53874
  0
VERTEX
  8
1
  10
1.36149
  20
1.54054
  0
VERTEX
  8
1
  10
1.36149
  20
1.54234
  0
VERTEX
  8
1
  10
1.36106
  20
1.54414
  0
VERTEX
  8
1
  10
1.36022
  20
1.54595
  0
VERTEX
  8
1
  10
1.35898
  20
1.54775
  0
VERTEX
  8
1
  10
1.35736
  20
1.54955
  0
VERTEX
  8
1
  10
1.35492
  20
1.55062
  0
VERTEX
  8
1
  10
1.35303
  20
1.55195
  0
VERTEX
  8
1
  10
1.35168
  20
1.55347
  0
VERTEX
  8
1
  10
1.35087
  20
1.55508
  0
VERTEX
  8
1
  10
1.35060
  20
1.55668
  0
VERTEX
  8
1
  10
1.35087
  20
1.55820
  0
VERTEX
  8
1
  10
1.35168
  20
1.55953
  0
VERTEX
  8
1
  10
1.35303
  20
1.56060
  0
VERTEX
  8
1
  10
1.35492
  20
1.56131
  0
VERTEX
  8
1
  10
1.35736
  20
1.56156
  0
VERTEX
  8
1
  10
1.35932
  20
1.56182
  0
VERTEX
  8
1
  10
1.36154
  20
1.56252
  0
VERTEX
  8
1
  10
1.36390
  20
1.56359
  0
VERTEX
  8
1
  10
1.36629
  20
1.56492
  0
VERTEX
  8
1
  10
1.36862
  20
1.56644
  0
VERTEX
  8
1
  10
1.37076
  20
1.56805
  0
VERTEX
  8
1
  10
1.37262
  20
1.56965
  0
VERTEX
  8
1
  10
1.37408
  20
1.57117
  0
VERTEX
  8
1
  10
1.37503
  20
1.57251
  0
VERTEX
  8
1
  10
1.37538
  20
1.57357
  0
VERTEX
  8
1
  10
1.36336
  20
1.58559
  0
VERTEX
  8
1
  10
1.36174
  20
1.58811
  0
VERTEX
  8
1
  10
1.36043
  20
1.59032
  0
VERTEX
  8
1
  10
1.35942
  20
1.59223
  0
VERTEX
  8
1
  10
1.35865
  20
1.59390
  0
VERTEX
  8
1
  10
1.35811
  20
1.59535
  0
VERTEX
  8
1
  10
1.35774
  20
1.59661
  0
VERTEX
  8
1
  10
1.35752
  20
1.59774
  0
VERTEX
  8
1
  10
1.35741
  20
1.59875
  0
VERTEX
  8
1
  10
1.35736
  20
1.59969
  0
VERTEX
  8
1
  10
1.35736
  20
1.60060
  0
VERTEX
  8
1
  10
1.35898
  20
1.60240
  0
VERTEX
  8
1
  10
1.36022
  20
1.60420
  0
VERTEX
  8
1
  10
1.36106
  20
1.60601
  0
VERTEX
  8
1
  10
1.36149
  20
1.60781
  0
VERTEX
  8
1
  10
1.36149
  20
1.60961
  0
VERTEX
  8
1
  10
1.36103
  20
1.61141
  0
VERTEX
  8
1
  10
1.36011
  20
1.61321
  0
VERTEX
  8
1
  10
1.35870
  20
1.61502
  0
VERTEX
  8
1
  10
1.35679
  20
1.61682
  0
VERTEX
  8
1
  10
1.35435
  20
1.61862
  0
SEQEND
  0
POLYLINE
  8
1
  6
CONTINUOUS
 66
  1
 70
  1
  0
VERTEX
  8
1
  10
1.18699
  20
1.52786
  0
VERTEX
  8
1
  10
1.18229
  20
1.53136
  0
VERTEX
  8
1
  10
1.17825
  20
1.53317
  0
VERTEX
  8
1
  10
1.17499
  20
1.53343
  0
VERTEX
  8
1
  10
1.17267
  20
1.53228
  0
VERTEX
  8
1
  10
1.17144
  20
1.52987
  0
VERTEX
  8
1
  10
1.17142
  20
1.52635
  0
VERTEX
  8
1
  10
1.17278
  20
1.52185
  0
VERTEX
  8
1
  10
1.17565
  20
1.51652
  0
VERTEX
  8
1
  10
1.18018
  20
1.51051
  0
VERTEX
  8
1
  10
1.18271
  20
1.50708
  0
VERTEX
  8
1
  10
1.18489
  20
1.50398
  0
VERTEX
  8
1
  10
1.18675
  20
1.50116
  0
VERTEX
  8
1
  10
1.18830
  20
1.49859
  0
VERTEX
  8
1
  10
1.18956
  20
1.49625
  0
VERTEX
  8
1
  10
1.19056
  20
1.49408
  0
VERTEX
  8
1
  10
1.19130
  20
1.49205
  0
VERTEX
  8
1
  10
1.19181
  20
1.49014
  0
VERTEX
  8
1
  10
1.19210
  20
1.48829
  0
VERTEX
  8
1
  10
1.19219
  20
1.48649
  0
VERTEX
  8
1
  10
1.19147
  20
1.48395
  0
VERTEX
  8
1
  10
1.19111
  20
1.48173
  0
VERTEX
  8
1
  10
1.19111
  20
1.47976
  0
VERTEX
  8
1
  10
1.19147
  20
1.47798
  0
VERTEX
  8
1
  10
1.19219
  20
1.47635
  0
VERTEX
  8
1
  10
1.19327
  20
1.47481
  0
VERTEX
  8
1
  10
1.19471
  20
1.47331
  0
VERTEX
  8
1
  10
1.19652
  20
1.47178
  0
VERTEX
  8
1
  10
1.19868
  20
1.47019
  0
VERTEX
  8
1
  10
1.20120
  20
1.46847
  0
VERTEX
  8
1
  10
1.20464
  20
1.46565
  0
VERTEX
  8
1
  10
1.20781
  20
1.46251
  0
VERTEX
  8
1
  10
1.21080
  20
1.45890
  0
VERTEX
  8
1
  10
1.21369
  20
1.45468
  0
VERTEX
  8
1
  10
1.21659
  20
1.44970
  0
VERTEX
  8
1
  10
1.21958
  20
1.44382
  0
VERTEX
  8
1
  10
1.22275
  20
1.43689
  0
VERTEX
  8
1
  10
1.22619
  20
1.42878
  0
VERTEX
  8
1
  10
1.22998
  20
1.41933
  0
VERTEX
  8
1
  10
1.23423
  20
1.40841
  0
VERTEX
  8
1
  10
1.23684
  20
1.40093
  0
VERTEX
  8
1
  10
1.23923
  20
1.39474
  0
VERTEX
  8
1
  10
1.24137
  20
1.38984
  0
VERTEX
  8
1
  10
1.24322
  20
1.38626
  0
VERTEX
  8
1
  10
1.24474
  20
1.38401
  0
VERTEX
  8
1
  10
1.24591
  20
1.38311
  0
VERTEX
  8
1
  10
1.24668
  20
1.38358
  0
VERTEX
  8
1
  10
1.24701
  20
1.38544
  0
VERTEX
  8
1
  10
1.24688
  20
1.38871
  0
VERTEX
  8
1
  10
1.24625
  20
1.39339
  0
VERTEX
  8
1
  10
1.24525
  20
1.39897
  0
VERTEX
  8
1
  10
1.24406
  20
1.40488
  0
VERTEX
  8
1
  10
1.24265
  20
1.41107
  0
VERTEX
  8
1
  10
1.24101
  20
1.41751
  0
VERTEX
  8
1
  10
1.23911
  20
1.42417
  0
VERTEX
  8
1
  10
1.23695
  20
1.43102
  0
VERTEX
  8
1
  10
1.23450
  20
1.43800
  0
VERTEX
  8
1
  10
1.23174
  20
1.44509
  0
VERTEX
  8
1
  10
1.22865
  20
1.45226
  0
VERTEX
  8
1
  10
1.22523
  20
1.45946
  0
VERTEX
  8
1
  10
1.22343
  20
1.46314
  0
VERTEX
  8
1
  10
1.22165
  20
1.46695
  0
VERTEX
  8
1
  10
1.21990
  20
1.47084
  0
VERTEX
  8
1
  10
1.21821
  20
1.47474
  0
VERTEX
  8
1
  10
1.21659
  20
1.47860
  0
VERTEX
  8
1
  10
1.21506
  20
1.48238
  0
VERTEX
  8
1
  10
1.21364
  20
1.48601
  0
VERTEX
  8
1
  10
1.21235
  20
1.48944
  0
VERTEX
  8
1
  10
1.21120
  20
1.49262
  0
VERTEX
  8
1
  10
1.21021
  20
1.49550
  0
VERTEX
  8
1
  10
1.20914
  20
1.49828
  0
VERTEX
  8
1
  10
1.20776
  20
1.50119
  0
VERTEX
  8
1
  10
1.20613
  20
1.50417
  0
VERTEX
  8
1
  10
1.20430
  20
1.50717
  0
VERTEX
  8
1
  10
1.20233
  20
1.51014
  0
VERTEX
  8
1
  10
1.20026
  20
1.51301
  0
VERTEX
  8
1
  10
1.19817
  20
1.51574
  0
VERTEX
  8
1
  10
1.19608
  20
1.51827
  0
VERTEX
  8
1
  10
1.19408
  20
1.52055
  0
VERTEX
  8
1
  10
1.19219
  20
1.52252
  0
SEQEND
  0
POLYLINE
  8
1
  6
CONTINUOUS
 66
  1
 70
  1
  0
VERTEX
  8
1
  10
0.74042
  20
1.30603
  0
VERTEX
  8
1
  10
0.73838
  20
1.30712
  0
VERTEX
  8
1
  10
0.73580
  20
1.30674
  0
VERTEX
  8
1
  10
0.73285
  20
1.30503
  0
VERTEX
  8
1
  10
0.72973
  20
1.30218
  0
VERTEX
  8
1
  10
0.72661
  20
1.29833
  0
VERTEX
  8
1
  10
0.72366
  20
1.29365
  0
VERTEX
  8
1
  10
0.72108
  20
1.28831
  0
VERTEX
  8
1
  10
0.71904
  20
1.28247
  0
VERTEX
  8
1
  10
0.71772
  20
1.27628
  0
VERTEX
  8
1
  10
0.71763
  20
1.27448
  0
VERTEX
  8
1
  10
0.71741
  20
1.27270
  0
VERTEX
  8
1
  10
0.71707
  20
1.27095
  0
VERTEX
  8
1
  10
0.71666
  20
1.26926
  0
VERTEX
  8
1
  10
0.71622
  20
1.26764
  0
VERTEX
  8
1
  10
0.71577
  20
1.26611
  0
VERTEX
  8
1
  10
0.71536
  20
1.26469
  0
VERTEX
  8
1
  10
0.71503
  20
1.26340
  0
VERTEX
  8
1
  10
0.71480
  20
1.26225
  0
VERTEX
  8
1
  10
0.71471
  20
1.26126
  0
VERTEX
  8
1
  10
0.70871
  20
1.18919
  0
VERTEX
  8
1
  10
0.70872
  20
1.17420
  0
VERTEX
  8
1
  10
0.70880
  20
1.16156
  0
VERTEX
  8
1
  10
0.70903
  20
1.15108
  0
VERTEX
  8
1
  10
0.70948
  20
1.14258
  0
VERTEX
  8
1
  10
0.71021
  20
1.13589
  0
VERTEX
  8
1
  10
0.71130
  20
1.13081
  0
VERTEX
  8
1
  10
0.71283
  20
1.12718
  0
VERTEX
  8
1
  10
0.71486
  20
1.12480
  0
VERTEX
  8
1
  10
0.71747
  20
1.12351
  0
VERTEX
  8
1
  10
0.72072
  20
1.12312
  0
VERTEX
  8
1
  10
0.72235
  20
1.12322
  0
VERTEX
  8
1
  10
0.72365
  20
1.12353
  0
VERTEX
  8
1
  10
0.72467
  20
1.12410
  0
VERTEX
  8
1
  10
0.72543
  20
1.12495
  0
VERTEX
  8
1
  10
0.72598
  20
1.12613
  0
VERTEX
  8
1
  10
0.72634
  20
1.12766
  0
VERTEX
  8
1
  10
0.72656
  20
1.12960
  0
VERTEX
  8
1
  10
0.72668
  20
1.13196
  0
VERTEX
  8
1
  10
0.72672
  20
1.13480
  0
VERTEX
  8
1
  10
0.72673
  20
1.13814
  0
VERTEX
  8
1
  10
0.72699
  20
1.14298
  0
VERTEX
  8
1
  10
0.72774
  20
1.14842
  0
VERTEX
  8
1
  10
0.72892
  20
1.15433
  0
VERTEX
  8
1
  10
0.73047
  20
1.16058
  0
VERTEX
  8
1
  10
0.73236
  20
1.16704
  0
VERTEX
  8
1
  10
0.73451
  20
1.17360
  0
VERTEX
  8
1
  10
0.73688
  20
1.18012
  0
VERTEX
  8
1
  10
0.73941
  20
1.18647
  0
VERTEX
  8
1
  10
0.74205
  20
1.19254
  0
VERTEX
  8
1
  10
0.74474
  20
1.19820
  0
VERTEX
  8
1
  10
0.74718
  20
1.20170
  0
VERTEX
  8
1
  10
0.74907
  20
1.20497
  0
VERTEX
  8
1
  10
0.75042
  20
1.20796
  0
VERTEX
  8
1
  10
0.75123
  20
1.21059
  0
VERTEX
  8
1
  10
0.75150
  20
1.21284
  0
VERTEX
  8
1
  10
0.75123
  20
1.21463
  0
VERTEX
  8
1
  10
0.75042
  20
1.21592
  0
VERTEX
  8
1
  10
0.74907
  20
1.21665
  0
VERTEX
  8
1
  10
0.74718
  20
1.21677
  0
VERTEX
  8
1
  10
0.74474
  20
1.21622
  0
VERTEX
  8
1
  10
0.74141
  20
1.21468
  0
VERTEX
  8
1
  10
0.73857
  20
1.21367
  0
VERTEX
  8
1
  10
0.73620
  20
1.21316
  0
VERTEX
  8
1
  10
0.73427
  20
1.21314
  0
VERTEX
  8
1
  10
0.73273
  20
1.21359
  0
VERTEX
  8
1
  10
0.73156
  20
1.21449
  0
VERTEX
  8
1
  10
0.73070
  20
1.21582
  0
VERTEX
  8
1
  10
0.73014
  20
1.21756
  0
VERTEX
  8
1
  10
0.72983
  20
1.21970
  0
VERTEX
  8
1
  10
0.72973
  20
1.22222
  0
VERTEX
  8
1
  10
0.73874
  20
1.28228
  0
VERTEX
  8
1
  10
0.73955
  20
1.28498
  0
VERTEX
  8
1
  10
0.74020
  20
1.28764
  0
VERTEX
  8
1
  10
0.74071
  20
1.29023
  0
VERTEX
  8
1
  10
0.74109
  20
1.29271
  0
VERTEX
  8
1
  10
0.74137
  20
1.29505
  0
VERTEX
  8
1
  10
0.74155
  20
1.29720
  0
VERTEX
  8
1
  10
0.74166
  20
1.29914
  0
VERTEX
  8
1
  10
0.74172
  20
1.30083
  0
VERTEX
  8
1
  10
0.74174
  20
1.30223
  0
VERTEX
  8
1
  10
0.74174
  20
1.30330
  0
SEQEND
  0
POLYLINE
  8
1
  6
CONTINUOUS
 66
  1
 70
  1
  0
VERTEX
  8
1
  10
1.08511
  20
1.56400
  0
VERTEX
  8
1
  10
1.08091
  20
1.56591
  0
VERTEX
  8
1
  10
1.07736
  20
1.56732
  0
VERTEX
  8
1
  10
1.07433
  20
1.56824
  0
VERTEX
  8
1
  10
1.07170
  20
1.56869
  0
VERTEX
  8
1
  10
1.06933
  20
1.56870
  0
VERTEX
  8
1
  10
1.06711
  20
1.56827
  0
VERTEX
  8
1
  10
1.06491
  20
1.56742
  0
VERTEX
  8
1
  10
1.06260
  20
1.56618
  0
VERTEX
  8
1
  10
1.06006
  20
1.56456
  0
VERTEX
  8
1
  10
1.05763
  20
1.56284
  0
VERTEX
  8
1
  10
1.05576
  20
1.56125
  0
VERTEX
  8
1
  10
1.05447
  20
1.55973
  0
VERTEX
  8
1
  10
1.05377
  20
1.55822
  0
VERTEX
  8
1
  10
1.05368
  20
1.55668
  0
VERTEX
  8
1
  10
1.05422
  20
1.55505
  0
VERTEX
  8
1
  10
1.05541
  20
1.55328
  0
VERTEX
  8
1
  10
1.05727
  20
1.55130
  0
VERTEX
  8
1
  10
1.05982
  20
1.54908
  0
VERTEX
  8
1
  10
1.06306
  20
1.54655
  0
VERTEX
  8
1
  10
1.06550
  20
1.54564
  0
VERTEX
  8
1
  10
1.06746
  20
1.54470
  0
VERTEX
  8
1
  10
1.06898
  20
1.54368
  0
VERTEX
  8
1
  10
1.07013
  20
1.54256
  0
VERTEX
  8
1
  10
1.07095
  20
1.54129
  0
VERTEX
  8
1
  10
1.07150
  20
1.53984
  0
VERTEX
  8
1
  10
1.07183
  20
1.53818
  0
VERTEX
  8
1
  10
1.07200
  20
1.53626
  0
VERTEX
  8
1
  10
1.07206
  20
1.53406
  0
VERTEX
  8
1
  10
1.07207
  20
1.53153
  0
VERTEX
  8
1
  10
1.07208
  20
1.52827
  0
VERTEX
  8
1
  10
1.07217
  20
1.52565
  0
VERTEX
  8
1
  10
1.07240
  20
1.52356
  0
VERTEX
  8
1
  10
1.07284
  20
1.52192
  0
VERTEX
  8
1
  10
1.07357
  20
1.52065
  0
VERTEX
  8
1
  10
1.07467
  20
1.51964
  0
VERTEX
  8
1
  10
1.07619
  20
1.51881
  0
VERTEX
  8
1
  10
1.07822
  20
1.51808
  0
VERTEX
  8
1
  10
1.08083
  20
1.51734
  0
VERTEX
  8
1
  10
1.08408
  20
1.51652
  0
VERTEX
  8
1
  10
1.08743
  20
1.51561
  0
VERTEX
  8
1
  10
1.09028
  20
1.51469
  0
VERTEX
  8
1
  10
1.09271
  20
1.51373
  0
VERTEX
  8
1
  10
1.09475
  20
1.51272
  0
VERTEX
  8
1
  10
1.09647
  20
1.51164
  0
VERTEX
  8
1
  10
1.09792
  20
1.51046
  0
VERTEX
  8
1
  10
1.09916
  20
1.50918
  0
VERTEX
  8
1
  10
1.10023
  20
1.50777
  0
VERTEX
  8
1
  10
1.10119
  20
1.50622
  0
VERTEX
  8
1
  10
1.10210
  20
1.50450
  0
VERTEX
  8
1
  10
1.10300
  20
1.50352
  0
VERTEX
  8
1
  10
1.10390
  20
1.50239
  0
VERTEX
  8
1
  10
1.10480
  20
1.50115
  0
VERTEX
  8
1
  10
1.10571
  20
1.49984
  0
VERTEX
  8
1
  10
1.10661
  20
1.49850
  0
VERTEX
  8
1
  10
1.10751
  20
1.49715
  0
VERTEX
  8
1
  10
1.10841
  20
1.49584
  0
VERTEX
  8
1
  10
1.10931
  20
1.49461
  0
VERTEX
  8
1
  10
1.11021
  20
1.49348
  0
VERTEX
  8
1
  10
1.11111
  20
1.49249
  0
VERTEX
  8
1
  10
1.11355
  20
1.49004
  0
VERTEX
  8
1
  10
1.11546
  20
1.48805
  0
VERTEX
  8
1
  10
1.11687
  20
1.48641
  0
VERTEX
  8
1
  10
1.11779
  20
1.48504
  0
VERTEX
  8
1
  10
1.11824
  20
1.48386
  0
VERTEX
  8
1
  10
1.11825
  20
1.48276
  0
VERTEX
  8
1
  10
1.11782
  20
1.48167
  0
VERTEX
  8
1
  10
1.11697
  20
1.48048
  0
VERTEX
  8
1
  10
1.11573
  20
1.47911
  0
VERTEX
  8
1
  10
1.11411
  20
1.47748
  0
VERTEX
  8
1
  10
1.11249
  20
1.47486
  0
VERTEX
  8
1
  10
1.11123
  20
1.47243
  0
VERTEX
  8
1
  10
1.11033
  20
1.47018
  0
VERTEX
  8
1
  10
1.10979
  20
1.46811
  0
VERTEX
  8
1
  10
1.10961
  20
1.46622
  0
VERTEX
  8
1
  10
1.10979
  20
1.46450
  0
VERTEX
  8
1
  10
1.11033
  20
1.46297
  0
VERTEX
  8
1
  10
1.11123
  20
1.46162
  0
VERTEX
  8
1
  10
1.11249
  20
1.46045
  0
VERTEX
  8
1
  10
1.11411
  20
1.45946
  0
VERTEX
  8
1
  10
1.11599
  20
1.45741
  0
VERTEX
  8
1
  10
1.11798
  20
1.45494
  0
VERTEX
  8
1
  10
1.12001
  20
1.45219
  0
VERTEX
  8
1
  10
1.12199
  20
1.44927
  0
VERTEX
  8
1
  10
1.12387
  20
1.44632
  0
VERTEX
  8
1
  10
1.12557
  20
1.44346
  0
VERTEX
  8
1
  10
1.12702
  20
1.44081
  0
VERTEX
  8
1
  10
1.12814
  20
1.43851
  0
VERTEX
  8
1
  10
1.12887
  20
1.43668
  0
VERTEX
  8
1
  10
1.12913
  20
1.43544
  0
VERTEX
  8
1
  10
1.12814
  20
1.43381
  0
VERTEX
  8
1
  10
1.12697
  20
1.43255
  0
VERTEX
  8
1
  10
1.12562
  20
1.43165
  0
VERTEX
  8
1
  10
1.12408
  20
1.43111
  0
VERTEX
  8
1
  10
1.12237
  20
1.43093
  0
VERTEX
  8
1
  10
1.12048
  20
1.43111
  0
VERTEX
  8
1
  10
1.11841
  20
1.43165
  0
VERTEX
  8
1
  10
1.11616
  20
1.43255
  0
VERTEX
  8
1
  10
1.11372
  20
1.43381
  0
VERTEX
  8
1
  10
1.11111
  20
1.43544
  0
VERTEX
  8
1
  10
1.10948
  20
1.43624
  0
VERTEX
  8
1
  10
1.10813
  20
1.43685
  0
VERTEX
  8
1
  10
1.10700
  20
1.43725
  0
VERTEX
  8
1
  10
1.10602
  20
1.43741
  0
VERTEX
  8
1
  10
1.10511
  20
1.43731
  0
VERTEX
  8
1
  10
1.10419
  20
1.43695
  0
VERTEX
  8
1
  10
1.10321
  20
1.43630
  0
VERTEX
  8
1
  10
1.10208
  20
1.43534
  0
VERTEX
  8
1
  10
1.10073
  20
1.43406
  0
VERTEX
  8
1
  10
1.09910
  20
1.43243
  0
VERTEX
  8
1
  10
1.09739
  20
1.43136
  0
VERTEX
  8
1
  10
1.09586
  20
1.42998
  0
VERTEX
  8
1
  10
1.09450
  20
1.42835
  0
VERTEX
  8
1
  10
1.09333
  20
1.42652
  0
VERTEX
  8
1
  10
1.09234
  20
1.42455
  0
VERTEX
  8
1
  10
1.09153
  20
1.42249
  0
VERTEX
  8
1
  10
1.09090
  20
1.42039
  0
VERTEX
  8
1
  10
1.09045
  20
1.41831
  0
VERTEX
  8
1
  10
1.09018
  20
1.41630
  0
VERTEX
  8
1
  10
1.09009
  20
1.41441
  0
VERTEX
  8
1
  10
1.08992
  20
1.41253
  0
VERTEX
  8
1
  10
1.08944
  20
1.41050
  0
VERTEX
  8
1
  10
1.08871
  20
1.40836
  0
VERTEX
  8
1
  10
1.08778
  20
1.40615
  0
VERTEX
  8
1
  10
1.08671
  20
1.40390
  0
VERTEX
  8
1
  10
1.08555
  20
1.40166
  0
VERTEX
  8
1
  10
1.08435
  20
1.39945
  0
VERTEX
  8
1
  10
1.08317
  20
1.39731
  0
VERTEX
  8
1
  10
1.08206
  20
1.39528
  0
VERTEX
  8
1
  10
1.08108
  20
1.39339
  0
VERTEX
  8
1
  10
1.07946
  20
1.39167
  0
VERTEX
  8
1
  10
1.07817
  20
1.39008
  0
VERTEX
  8
1
  10
1.07722
  20
1.38856
  0
VERTEX
  8
1
  10
1.07656
  20
1.38705
  0
VERTEX
  8
1
  10
1.07620
  20
1.38551
  0
VERTEX
  8
1
  10
1.07611
  20
1.38388
  0
VERTEX
  8
1
  10
1.07627
  20
1.38211
  0
VERTEX
  8
1
  10
1.07666
  20
1.38013
  0
VERTEX
  8
1
  10
1.07727
  20
1.37791
  0
VERTEX
  8
1
  10
1.07808
  20
1.37538
  0
VERTEX
  8
1
  10
1.07970
  20
1.37193
  0
VERTEX
  8
1
  10
1.08098
  20
1.36872
  0
VERTEX
  8
1
  10
1.08194
  20
1.36562
  0
VERTEX
  8
1
  10
1.08259
  20
1.36250
  0
VERTEX
  8
1
  10
1.08296
  20
1.35923
  0
VERTEX
  8
1
  10
1.08305
  20
1.35570
  0
VERTEX
  8
1
  10
1.08289
  20
1.35177
  0
VERTEX
  8
1
  10
1.08250
  20
1.34732
  0
VERTEX
  8
1
  10
1.08189
  20
1.34221
  0
VERTEX
  8
1
  10
1.08108
  20
1.33634
  0
VERTEX
  8
1
  10
1.07808
  20
1.32432
  0
VERTEX
  8
1
  10
1.09309
  20
1.31532
  0
VERTEX
  8
1
  10
1.09506
  20
1.31433
  0
VERTEX
  8
1
  10
1.09730
  20
1.31318
  0
VERTEX
  8
1
  10
1.09971
  20
1.31188
  0
VERTEX
  8
1
  10
1.10222
  20
1.31046
  0
VERTEX
  8
1
  10
1.10473
  20
1.30893
  0
VERTEX
  8
1
  10
1.10715
  20
1.30732
  0
VERTEX
  8
1
  10
1.10938
  20
1.30562
  0
VERTEX
  8
1
  10
1.11135
  20
1.30388
  0
VERTEX
  8
1
  10
1.11296
  20
1.30210
  0
VERTEX
  8
1
  10
1.11411
  20
1.30030
  0
VERTEX
  8
1
  10
1.11747
  20
1.29787
  0
VERTEX
  8
1
  10
1.12038
  20
1.29598
  0
VERTEX
  8
1
  10
1.12298
  20
1.29462
  0
VERTEX
  8
1
  10
1.12536
  20
1.29381
  0
VERTEX
  8
1
  10
1.12763
  20
1.29354
  0
VERTEX
  8
1
  10
1.12990
  20
1.29381
  0
VERTEX
  8
1
  10
1.13228
  20
1.29462
  0
VERTEX
  8
1
  10
1.13487
  20
1.29598
  0
VERTEX
  8
1
  10
1.13779
  20
1.29787
  0
VERTEX
  8
1
  10
1.14114
  20
1.30030
  0
VERTEX
  8
1
  10
1.14286
  20
1.30274
  0
VERTEX
  8
1
  10
1.14448
  20
1.30470
  0
VERTEX
  8
1
  10
1.14606
  20
1.30622
  0
VERTEX
  8
1
  10
1.14768
  20
1.30736
  0
VERTEX
  8
1
  10
1.14940
  20
1.30818
  0
VERTEX
  8
1
  10
1.15130
  20
1.30873
  0
VERTEX
  8
1
  10
1.15346
  20
1.30907
  0
VERTEX
  8
1
  10
1.15594
  20
1.30924
  0
VERTEX
  8
1
  10
1.15882
  20
1.30930
  0
VERTEX
  8
1
  10
1.16216
  20
1.30931
  0
VERTEX
  8
1
  10
1.16959
  20
1.30999
  0
VERTEX
  8
1
  10
1.17730
  20
1.31190
  0
VERTEX
  8
1
  10
1.18500
  20
1.31482
  0
VERTEX
  8
1
  10
1.19243
  20
1.31853
  0
VERTEX
  8
1
  10
1.19932
  20
1.32282
  0
VERTEX
  8
1
  10
1.20541
  20
1.32747
  0
VERTEX
  8
1
  10
1.21041
  20
1.33226
  0
VERTEX
  8
1
  10
1.21405
  20
1.33698
  0
VERTEX
  8
1
  10
1.21608
  20
1.34142
  0
VERTEX
  8
1
  10
1.21622
  20
1.34535
  0
VERTEX
  8
1
  10
1.21586
  20
1.34778
  0
VERTEX
  8
1
  10
1.21485
  20
1.34967
  0
VERTEX
  8
1
  10
1.21322
  20
1.35102
  0
VERTEX
  8
1
  10
1.21103
  20
1.35183
  0
VERTEX
  8
1
  10
1.20833
  20
1.35210
  0
VERTEX
  8
1
  10
1.20519
  20
1.35183
  0
VERTEX
  8
1
  10
1.20165
  20
1.35102
  0
VERTEX
  8
1
  10
1.19777
  20
1.34967
  0
VERTEX
  8
1
  10
1.19359
  20
1.34778
  0
VERTEX
  8
1
  10
1.18919
  20
1.34535
  0
VERTEX
  8
1
  10
1.18386
  20
1.34210
  0
VERTEX
  8
1
  10
1.17864
  20
1.33953
  0
VERTEX
  8
1
  10
1.17346
  20
1.33762
  0
VERTEX
  8
1
  10
1.16824
  20
1.33631
  0
VERTEX
  8
1
  10
1.16291
  20
1.33559
  0
VERTEX
  8
1
  10
1.15741
  20
1.33540
  0
VERTEX
  8
1
  10
1.15165
  20
1.33572
  0
VERTEX
  8
1
  10
1.14556
  20
1.33650
  0
VERTEX
  8
1
  10
1.13908
  20
1.33772
  0
VERTEX
  8
1
  10
1.13213
  20
1.33934
  0
VERTEX
  8
1
  10
1.12635
  20
1.34098
  0
VERTEX
  8
1
  10
1.12156
  20
1.34234
  0
VERTEX
  8
1
  10
1.11767
  20
1.34353
  0
VERTEX
  8
1
  10
1.11459
  20
1.34462
  0
VERTEX
  8
1
  10
1.11224
  20
1.34572
  0
VERTEX
  8
1
  10
1.11051
  20
1.34691
  0
VERTEX
  8
1
  10
1.10932
  20
1.34827
  0
VERTEX
  8
1
  10
1.10859
  20
1.34991
  0
VERTEX
  8
1
  10
1.10821
  20
1.35191
  0
VERTEX
  8
1
  10
1.10811
  20
1.35435
  0
VERTEX
  8
1
  10
1.10872
  20
1.35992
  0
VERTEX
  8
1
  10
1.11049
  20
1.36572
  0
VERTEX
  8
1
  10
1.11330
  20
1.37162
  0
VERTEX
  8
1
  10
1.11705
  20
1.37751
  0
VERTEX
  8
1
  10
1.12162
  20
1.38326
  0
VERTEX
  8
1
  10
1.12692
  20
1.38873
  0
VERTEX
  8
1
  10
1.13283
  20
1.39381
  0
VERTEX
  8
1
  10
1.13924
  20
1.39837
  0
VERTEX
  8
1
  10
1.14605
  20
1.40227
  0
VERTEX
  8
1
  10
1.15315
  20
1.40541
  0
VERTEX
  8
1
  10
1.15650
  20
1.40621
  0
VERTEX
  8
1
  10
1.15942
  20
1.40682
  0
VERTEX
  8
1
  10
1.16202
  20
1.40722
  0
VERTEX
  8
1
  10
1.16440
  20
1.40738
  0
VERTEX
  8
1
  10
1.16667
  20
1.40728
  0
VERTEX
  8
1
  10
1.16894
  20
1.40692
  0
VERTEX
  8
1
  10
1.17132
  20
1.40627
  0
VERTEX
  8
1
  10
1.17391
  20
1.40531
  0
VERTEX
  8
1
  10
1.17683
  20
1.40403
  0
VERTEX
  8
1
  10
1.18018
  20
1.40240
  0
VERTEX
  8
1
  10
1.18288
  20
1.40141
  0
VERTEX
  8
1
  10
1.18554
  20
1.40026
  0
VERTEX
  8
1
  10
1.18813
  20
1.39897
  0
VERTEX
  8
1
  10
1.19061
  20
1.39755
  0
VERTEX
  8
1
  10
1.19294
  20
1.39602
  0
VERTEX
  8
1
  10
1.19510
  20
1.39440
  0
VERTEX
  8
1
  10
1.19704
  20
1.39271
  0
VERTEX
  8
1
  10
1.19873
  20
1.39097
  0
VERTEX
  8
1
  10
1.20013
  20
1.38919
  0
VERTEX
  8
1
  10
1.20120
  20
1.38739
  0
VERTEX
  8
1
  10
1.20382
  20
1.38414
  0
VERTEX
  8
1
  10
1.20627
  20
1.38157
  0
VERTEX
  8
1
  10
1.20858
  20
1.37966
  0
VERTEX
  8
1
  10
1.21076
  20
1.37835
  0
VERTEX
  8
1
  10
1.21284
  20
1.37763
  0
VERTEX
  8
1
  10
1.21482
  20
1.37744
  0
VERTEX
  8
1
  10
1.21674
  20
1.37776
  0
VERTEX
  8
1
  10
1.21859
  20
1.37855
  0
VERTEX
  8
1
  10
1.22042
  20
1.37977
  0
VERTEX
  8
1
  10
1.22222
  20
1.38138
  0
VERTEX
  8
1
  10
1.22350
  20
1.38288
  0
VERTEX
  8
1
  10
1.22381
  20
1.38542
  0
VERTEX
  8
1
  10
1.22325
  20
1.38879
  0
VERTEX
  8
1
  10
1.22193
  20
1.39277
  0
VERTEX
  8
1
  10
1.21997
  20
1.39715
  0
VERTEX
  8
1
  10
1.21747
  20
1.40171
  0
VERTEX
  8
1
  10
1.21453
  20
1.40623
  0
VERTEX
  8
1
  10
1.21127
  20
1.41050
  0
VERTEX
  8
1
  10
1.20779
  20
1.41430
  0
VERTEX
  8
1
  10
1.20420
  20
1.41742
  0
VERTEX
  8
1
  10
1.20331
  20
1.41841
  0
VERTEX
  8
1
  10
1.20243
  20
1.41956
  0
VERTEX
  8
1
  10
1.20158
  20
1.42085
  0
VERTEX
  8
1
  10
1.20079
  20
1.42227
  0
VERTEX
  8
1
  10
1.20008
  20
1.42380
  0
VERTEX
  8
1
  10
1.19945
  20
1.42542
  0
VERTEX
  8
1
  10
1.19893
  20
1.42711
  0
VERTEX
  8
1
  10
1.19853
  20
1.42885
  0
VERTEX
  8
1
  10
1.19829
  20
1.43063
  0
VERTEX
  8
1
  10
1.19820
  20
1.43243
  0
VERTEX
  8
1
  10
1.19729
  20
1.43578
  0
VERTEX
  8
1
  10
1.19632
  20
1.43865
  0
VERTEX
  8
1
  10
1.19525
  20
1.44114
  0
VERTEX
  8
1
  10
1.19402
  20
1.44329
  0
VERTEX
  8
1
  10
1.19257
  20
1.44520
  0
VERTEX
  8
1
  10
1.19085
  20
1.44692
  0
VERTEX
  8
1
  10
1.18880
  20
1.44853
  0
VERTEX
  8
1
  10
1.18638
  20
1.45011
  0
VERTEX
  8
1
  10
1.18352
  20
1.45173
  0
VERTEX
  8
1
  10
1.18018
  20
1.45345
  0
VERTEX
  8
1
  10
1.17594
  20
1.45526
  0
VERTEX
  8
1
  10
1.17223
  20
1.45711
  0
VERTEX
  8
1
  10
1.16902
  20
1.45902
  0
VERTEX
  8
1
  10
1.16629
  20
1.46105
  0
VERTEX
  8
1
  10
1.16404
  20
1.46321
  0
VERTEX
  8
1
  10
1.16223
  20
1.46556
  0
VERTEX
  8
1
  10
1.16086
  20
1.46813
  0
VERTEX
  8
1
  10
1.15990
  20
1.47094
  0
VERTEX
  8
1
  10
1.15934
  20
1.47405
  0
VERTEX
  8
1
  10
1.15916
  20
1.47748
  0
VERTEX
  8
1
  10
1.15856
  20
1.48077
  0
VERTEX
  8
1
  10
1.15685
  20
1.48507
  0
VERTEX
  8
1
  10
1.15421
  20
1.49013
  0
VERTEX
  8
1
  10
1.15080
  20
1.49569
  0
VERTEX
  8
1
  10
1.14677
  20
1.50150
  0
VERTEX
  8
1
  10
1.14229
  20
1.50732
  0
VERTEX
  8
1
  10
1.13753
  20
1.51288
  0
VERTEX
  8
1
  10
1.13264
  20
1.51793
  0
VERTEX
  8
1
  10
1.12778
  20
1.52223
  0
VERTEX
  8
1
  10
1.12312
  20
1.52553
  0
VERTEX
  8
1
  10
1.12059
  20
1.52652
  0
VERTEX
  8
1
  10
1.11837
  20
1.52769
  0
VERTEX
  8
1
  10
1.11639
  20
1.52904
  0
VERTEX
  8
1
  10
1.11462
  20
1.53057
  0
VERTEX
  8
1
  10
1.11299
  20
1.53228
  0
VERTEX
  8
1
  10
1.11145
  20
1.53417
  0
VERTEX
  8
1
  10
1.10994
  20
1.53625
  0
VERTEX
  8
1
  10
1.10842
  20
1.53850
  0
VERTEX
  8
1
  10
1.10683
  20
1.54093
  0
VERTEX
  8
1
  10
1.10511
  20
1.54354
  0
VERTEX
  8
1
  10
1.10420
  20
1.54608
  0
VERTEX
  8
1
  10
1.10326
  20
1.54830
  0
VERTEX
  8
1
  10
1.10224
  20
1.55027
  0
VERTEX
  8
1
  10
1.10112
  20
1.55205
  0
VERTEX
  8
1
  10
1.09985
  20
1.55368
  0
VERTEX
  8
1
  10
1.09840
  20
1.55522
  0
VERTEX
  8
1
  10
1.09674
  20
1.55672
  0
VERTEX
  8
1
  10
1.09482
  20
1.55825
  0
VERTEX
  8
1
  10
1.09262
  20
1.55984
  0
VERTEX
  8
1
  10
1.09009
  20
1.56156
  0
SEQEND
  0
POLYLINE
  8
1
  6
CONTINUOUS
 66
  1
 70
  1
  0
VERTEX
  8
1
  10
0.79099
  20
1.41003
  0
VERTEX
  8
1
  10
0.78919
  20
1.41127
  0
VERTEX
  8
1
  10
0.78739
  20
1.41211
  0
VERTEX
  8
1
  10
0.78559
  20
1.41254
  0
VERTEX
  8
1
  10
0.78378
  20
1.41254
  0
VERTEX
  8
1
  10
0.78198
  20
1.41208
  0
VERTEX
  8
1
  10
0.78018
  20
1.41116
  0
VERTEX
  8
1
  10
0.77838
  20
1.40975
  0
VERTEX
  8
1
  10
0.77658
  20
1.40784
  0
VERTEX
  8
1
  10
0.77477
  20
1.40541
  0
VERTEX
  8
1
  10
0.77243
  20
1.40360
  0
VERTEX
  8
1
  10
0.77076
  20
1.40180
  0
VERTEX
  8
1
  10
0.76975
  20
1.40000
  0
VERTEX
  8
1
  10
0.76935
  20
1.39820
  0
VERTEX
  8
1
  10
0.76952
  20
1.39640
  0
VERTEX
  8
1
  10
0.77023
  20
1.39459
  0
VERTEX
  8
1
  10
0.77145
  20
1.39279
  0
VERTEX
  8
1
  10
0.77314
  20
1.39099
  0
VERTEX
  8
1
  10
0.77526
  20
1.38919
  0
VERTEX
  8
1
  10
0.77778
  20
1.38739
  0
VERTEX
  8
1
  10
0.77966
  20
1.38675
  0
VERTEX
  8
1
  10
0.78167
  20
1.38659
  0
VERTEX
  8
1
  10
0.78375
  20
1.38687
  0
VERTEX
  8
1
  10
0.78585
  20
1.38753
  0
VERTEX
  8
1
  10
0.78791
  20
1.38851
  0
VERTEX
  8
1
  10
0.78989
  20
1.38977
  0
VERTEX
  8
1
  10
0.79171
  20
1.39123
  0
VERTEX
  8
1
  10
0.79335
  20
1.39286
  0
VERTEX
  8
1
  10
0.79472
  20
1.39460
  0
VERTEX
  8
1
  10
0.79580
  20
1.39640
  0
VERTEX
  8
1
  10
0.79660
  20
1.39803
  0
VERTEX
  8
1
  10
0.79721
  20
1.39938
  0
VERTEX
  8
1
  10
0.79761
  20
1.40050
  0
VERTEX
  8
1
  10
0.79777
  20
1.40149
  0
VERTEX
  8
1
  10
0.79767
  20
1.40240
  0
VERTEX
  8
1
  10
0.79731
  20
1.40332
  0
VERTEX
  8
1
  10
0.79666
  20
1.40430
  0
VERTEX
  8
1
  10
0.79570
  20
1.40543
  0
VERTEX
  8
1
  10
0.79442
  20
1.40677
  0
VERTEX
  8
1
  10
0.79279
  20
1.40841
  0
SEQEND
  0
POLYLINE
  8
1
  6
CONTINUOUS
 66
  1
 70
  1
  0
VERTEX
  8
1
  10
0.69970
  20
1.41492
  0
VERTEX
  8
1
  10
0.69968
  20
1.41821
  0
VERTEX
  8
1
  10
0.69962
  20
1.42125
  0
VERTEX
  8
1
  10
0.69951
  20
1.42400
  0
VERTEX
  8
1
  10
0.69932
  20
1.42643
  0
VERTEX
  8
1
  10
0.69905
  20
1.42849
  0
VERTEX
  8
1
  10
0.69867
  20
1.43016
  0
VERTEX
  8
1
  10
0.69816
  20
1.43140
  0
VERTEX
  8
1
  10
0.69751
  20
1.43217
  0
VERTEX
  8
1
  10
0.69670
  20
1.43243
  0
VERTEX
  8
1
  10
0.69571
  20
1.43307
  0
VERTEX
  8
1
  10
0.69461
  20
1.43323
  0
VERTEX
  8
1
  10
0.69343
  20
1.43295
  0
VERTEX
  8
1
  10
0.69223
  20
1.43229
  0
VERTEX
  8
1
  10
0.69107
  20
1.43131
  0
VERTEX
  8
1
  10
0.68999
  20
1.43005
  0
VERTEX
  8
1
  10
0.68907
  20
1.42859
  0
VERTEX
  8
1
  10
0.68834
  20
1.42695
  0
VERTEX
  8
1
  10
0.68786
  20
1.42522
  0
VERTEX
  8
1
  10
0.68769
  20
1.42342
  0
VERTEX
  8
1
  10
0.68752
  20
1.42244
  0
VERTEX
  8
1
  10
0.68704
  20
1.42129
  0
VERTEX
  8
1
  10
0.68631
  20
1.41999
  0
VERTEX
  8
1
  10
0.68538
  20
1.41857
  0
VERTEX
  8
1
  10
0.68431
  20
1.41704
  0
VERTEX
  8
1
  10
0.68315
  20
1.41542
  0
VERTEX
  8
1
  10
0.68195
  20
1.41373
  0
VERTEX
  8
1
  10
0.68077
  20
1.41199
  0
VERTEX
  8
1
  10
0.67966
  20
1.41021
  0
VERTEX
  8
1
  10
0.67868
  20
1.40841
  0
VERTEX
  8
1
  10
0.67543
  20
1.40498
  0
VERTEX
  8
1
  10
0.67286
  20
1.40187
  0
VERTEX
  8
1
  10
0.67095
  20
1.39906
  0
VERTEX
  8
1
  10
0.66965
  20
1.39649
  0
VERTEX
  8
1
  10
0.66892
  20
1.39414
  0
VERTEX
  8
1
  10
0.66873
  20
1.39198
  0
VERTEX
  8
1
  10
0.66905
  20
1.38995
  0
VERTEX
  8
1
  10
0.66984
  20
1.38804
  0
VERTEX
  8
1
  10
0.67106
  20
1.38619
  0
VERTEX
  8
1
  10
0.67267
  20
1.38438
  0
VERTEX
  8
1
  10
0.68168
  20
1.36637
  0
VERTEX
  8
1
  10
0.68258
  20
1.36384
  0
VERTEX
  8
1
  10
0.68348
  20
1.36166
  0
VERTEX
  8
1
  10
0.68438
  20
1.35980
  0
VERTEX
  8
1
  10
0.68529
  20
1.35825
  0
VERTEX
  8
1
  10
0.68619
  20
1.35698
  0
VERTEX
  8
1
  10
0.68709
  20
1.35599
  0
VERTEX
  8
1
  10
0.68799
  20
1.35525
  0
VERTEX
  8
1
  10
0.68889
  20
1.35474
  0
VERTEX
  8
1
  10
0.68979
  20
1.35445
  0
VERTEX
  8
1
  10
0.69069
  20
1.35435
  0
VERTEX
  8
1
  10
0.69394
  20
1.35384
  0
VERTEX
  8
1
  10
0.69653
  20
1.35423
  0
VERTEX
  8
1
  10
0.69850
  20
1.35571
  0
VERTEX
  8
1
  10
0.69992
  20
1.35844
  0
VERTEX
  8
1
  10
0.70083
  20
1.36261
  0
VERTEX
  8
1
  10
0.70129
  20
1.36841
  0
VERTEX
  8
1
  10
0.70135
  20
1.37601
  0
VERTEX
  8
1
  10
0.70107
  20
1.38559
  0
VERTEX
  8
1
  10
0.70050
  20
1.39733
  0
VERTEX
  8
1
  10
0.69970
  20
1.41141
  0
SEQEND
  0
POLYLINE
  8
1
  6
CONTINUOUS
 66
  1
 70
  1
  0
VERTEX
  8
1
  10
1.07911
  20
1.61132
  0
VERTEX
  8
1
  10
1.07495
  20
1.61280
  0
VERTEX
  8
1
  10
1.07152
  20
1.61404
  0
VERTEX
  8
1
  10
1.06871
  20
1.61499
  0
VERTEX
  8
1
  10
1.06644
  20
1.61562
  0
VERTEX
  8
1
  10
1.06462
  20
1.61588
  0
VERTEX
  8
1
  10
1.06317
  20
1.61575
  0
VERTEX
  8
1
  10
1.06198
  20
1.61518
  0
VERTEX
  8
1
  10
1.06098
  20
1.61415
  0
VERTEX
  8
1
  10
1.06006
  20
1.61261
  0
VERTEX
  8
1
  10
1.05854
  20
1.61080
  0
VERTEX
  8
1
  10
1.05761
  20
1.60896
  0
VERTEX
  8
1
  10
1.05733
  20
1.60705
  0
VERTEX
  8
1
  10
1.05775
  20
1.60502
  0
VERTEX
  8
1
  10
1.05893
  20
1.60285
  0
VERTEX
  8
1
  10
1.06092
  20
1.60050
  0
VERTEX
  8
1
  10
1.06378
  20
1.59794
  0
VERTEX
  8
1
  10
1.06756
  20
1.59512
  0
VERTEX
  8
1
  10
1.07230
  20
1.59202
  0
VERTEX
  8
1
  10
1.07808
  20
1.58859
  0
VERTEX
  8
1
  10
1.08077
  20
1.58760
  0
VERTEX
  8
1
  10
1.08344
  20
1.58647
  0
VERTEX
  8
1
  10
1.08602
  20
1.58524
  0
VERTEX
  8
1
  10
1.08850
  20
1.58393
  0
VERTEX
  8
1
  10
1.09084
  20
1.58258
  0
VERTEX
  8
1
  10
1.09300
  20
1.58124
  0
VERTEX
  8
1
  10
1.09494
  20
1.57993
  0
VERTEX
  8
1
  10
1.09662
  20
1.57869
  0
VERTEX
  8
1
  10
1.09802
  20
1.57756
  0
VERTEX
  8
1
  10
1.09910
  20
1.57658
  0
VERTEX
  8
1
  10
1.10098
  20
1.57577
  0
VERTEX
  8
1
  10
1.10297
  20
1.57518
  0
VERTEX
  8
1
  10
1.10499
  20
1.57485
  0
VERTEX
  8
1
  10
1.10698
  20
1.57480
  0
VERTEX
  8
1
  10
1.10886
  20
1.57508
  0
VERTEX
  8
1
  10
1.11056
  20
1.57571
  0
VERTEX
  8
1
  10
1.11201
  20
1.57674
  0
VERTEX
  8
1
  10
1.11313
  20
1.57821
  0
VERTEX
  8
1
  10
1.11386
  20
1.58014
  0
VERTEX
  8
1
  10
1.11411
  20
1.58258
  0
VERTEX
  8
1
  10
1.11368
  20
1.58537
  0
VERTEX
  8
1
  10
1.11243
  20
1.58828
  0
VERTEX
  8
1
  10
1.11047
  20
1.59126
  0
VERTEX
  8
1
  10
1.10787
  20
1.59426
  0
VERTEX
  8
1
  10
1.10473
  20
1.59722
  0
VERTEX
  8
1
  10
1.10114
  20
1.60010
  0
VERTEX
  8
1
  10
1.09719
  20
1.60283
  0
VERTEX
  8
1
  10
1.09297
  20
1.60536
  0
VERTEX
  8
1
  10
1.08857
  20
1.60764
  0
VERTEX
  8
1
  10
1.08408
  20
1.60961
  0
SEQEND
  0
POLYLINE
  8
1
  6
CONTINUOUS
 66
  1
 70
  1
  0
VERTEX
  8
1
  10
0.70862
  20
1.45126
  0
VERTEX
  8
1
  10
0.70840
  20
1.45192
  0
VERTEX
  8
1
  10
0.70806
  20
1.45242
  0
VERTEX
  8
1
  10
0.70765
  20
1.45280
  0
VERTEX
  8
1
  10
0.70721
  20
1.45308
  0
VERTEX
  8
1
  10
0.70635
  20
1.45337
  0
VERTEX
  8
1
  10
0.70571
  20
1.45345
  0
VERTEX
  8
1
  10
0.70400
  20
1.45328
  0
VERTEX
  8
1
  10
0.70249
  20
1.45278
  0
VERTEX
  8
1
  10
0.70119
  20
1.45199
  0
VERTEX
  8
1
  10
0.70013
  20
1.45095
  0
VERTEX
  8
1
  10
0.69932
  20
1.44970
  0
VERTEX
  8
1
  10
0.69879
  20
1.44826
  0
VERTEX
  8
1
  10
0.69854
  20
1.44668
  0
VERTEX
  8
1
  10
0.69859
  20
1.44500
  0
VERTEX
  8
1
  10
0.69898
  20
1.44324
  0
VERTEX
  8
1
  10
0.69970
  20
1.44144
  0
VERTEX
  8
1
  10
0.70068
  20
1.44072
  0
VERTEX
  8
1
  10
0.70179
  20
1.44036
  0
VERTEX
  8
1
  10
0.70297
  20
1.44036
  0
VERTEX
  8
1
  10
0.70417
  20
1.44072
  0
VERTEX
  8
1
  10
0.70533
  20
1.44144
  0
VERTEX
  8
1
  10
0.70640
  20
1.44252
  0
VERTEX
  8
1
  10
0.70733
  20
1.44396
  0
VERTEX
  8
1
  10
0.70806
  20
1.44577
  0
VERTEX
  8
1
  10
0.70854
  20
1.44793
  0
VERTEX
  8
1
  10
0.70871
  20
1.45045
  0
SEQEND
  0
POLYLINE
  8
1
  6
CONTINUOUS
 66
  1
 70
  1
  0
VERTEX
  8
1
  10
0.71763
  20
1.47529
  0
VERTEX
  8
1
  10
0.71741
  20
1.47594
  0
VERTEX
  8
1
  10
0.71707
  20
1.47645
  0
VERTEX
  8
1
  10
0.71666
  20
1.47683
  0
VERTEX
  8
1
  10
0.71622
  20
1.47710
  0
VERTEX
  8
1
  10
0.71536
  20
1.47740
  0
VERTEX
  8
1
  10
0.71471
  20
1.47748
  0
VERTEX
  8
1
  10
0.71390
  20
1.47747
  0
VERTEX
  8
1
  10
0.71325
  20
1.47745
  0
VERTEX
  8
1
  10
0.71274
  20
1.47740
  0
VERTEX
  8
1
  10
0.71209
  20
1.47710
  0
VERTEX
  8
1
  10
0.71179
  20
1.47645
  0
VERTEX
  8
1
  10
0.71174
  20
1.47594
  0
VERTEX
  8
1
  10
0.71171
  20
1.47529
  0
VERTEX
  8
1
  10
0.71171
  20
1.47447
  0
VERTEX
  8
1
  10
0.71171
  20
1.47439
  0
VERTEX
  8
1
  10
0.71179
  20
1.47383
  0
VERTEX
  8
1
  10
0.71209
  20
1.47297
  0
VERTEX
  8
1
  10
0.71236
  20
1.47253
  0
VERTEX
  8
1
  10
0.71274
  20
1.47212
  0
VERTEX
  8
1
  10
0.71325
  20
1.47178
  0
VERTEX
  8
1
  10
0.71390
  20
1.47156
  0
VERTEX
  8
1
  10
0.71471
  20
1.47147
  0
VERTEX
  8
1
  10
0.71480
  20
1.47156
  0
VERTEX
  8
1
  10
0.71536
  20
1.47212
  0
VERTEX
  8
1
  10
0.71577
  20
1.47253
  0
VERTEX
  8
1
  10
0.71622
  20
1.47297
  0
VERTEX
  8
1
  10
0.71666
  20
1.47342
  0
VERTEX
  8
1
  10
0.71707
  20
1.47383
  0
VERTEX
  8
1
  10
0.71772
  20
1.47447
  0
SEQEND
  0
POLYLINE
  8
1
  6
CONTINUOUS
 66
  1
 70
  1
  0
VERTEX
  8
1
  10
0.73427
  20
1.51628
  0
VERTEX
  8
1
  10
0.73530
  20
1.51909
  0
VERTEX
  8
1
  10
0.73587
  20
1.52178
  0
VERTEX
  8
1
  10
0.73600
  20
1.52423
  0
VERTEX
  8
1
  10
0.73574
  20
1.52628
  0
VERTEX
  8
1
  10
0.73511
  20
1.52778
  0
VERTEX
  8
1
  10
0.73416
  20
1.52861
  0
VERTEX
  8
1
  10
0.73292
  20
1.52860
  0
VERTEX
  8
1
  10
0.73144
  20
1.52762
  0
VERTEX
  8
1
  10
0.72973
  20
1.52553
  0
VERTEX
  8
1
  10
0.72794
  20
1.52331
  0
VERTEX
  8
1
  10
0.72622
  20
1.52038
  0
VERTEX
  8
1
  10
0.72465
  20
1.51696
  0
VERTEX
  8
1
  10
0.72329
  20
1.51323
  0
VERTEX
  8
1
  10
0.72222
  20
1.50938
  0
VERTEX
  8
1
  10
0.72151
  20
1.50563
  0
VERTEX
  8
1
  10
0.72124
  20
1.50217
  0
VERTEX
  8
1
  10
0.72147
  20
1.49920
  0
VERTEX
  8
1
  10
0.72227
  20
1.49690
  0
VERTEX
  8
1
  10
0.72372
  20
1.49550
  0
VERTEX
  8
1
  10
0.72404
  20
1.49437
  0
VERTEX
  8
1
  10
0.72478
  20
1.49439
  0
VERTEX
  8
1
  10
0.72523
  20
1.49474
  0
VERTEX
  8
1
  10
0.72567
  20
1.49528
  0
VERTEX
  8
1
  10
0.72608
  20
1.49596
  0
VERTEX
  8
1
  10
0.72641
  20
1.49674
  0
VERTEX
  8
1
  10
0.72664
  20
1.49760
  0
VERTEX
  8
1
  10
0.72673
  20
1.49850
  0
VERTEX
  8
1
  10
0.72681
  20
1.49949
  0
VERTEX
  8
1
  10
0.72706
  20
1.50064
  0
VERTEX
  8
1
  10
0.72746
  20
1.50193
  0
VERTEX
  8
1
  10
0.72798
  20
1.50335
  0
VERTEX
  8
1
  10
0.72860
  20
1.50488
  0
VERTEX
  8
1
  10
0.72932
  20
1.50650
  0
VERTEX
  8
1
  10
0.73011
  20
1.50819
  0
VERTEX
  8
1
  10
0.73095
  20
1.50993
  0
VERTEX
  8
1
  10
0.73183
  20
1.51171
  0
VERTEX
  8
1
  10
0.73273
  20
1.51351
  0
SEQEND
  0
POLYLINE
  8
1
  6
CONTINUOUS
 66
  1
 70
  1
  0
VERTEX
  8
1
  10
0.80381
  20
1.55946
  0
VERTEX
  8
1
  10
0.80264
  20
1.56034
  0
VERTEX
  8
1
  10
0.80129
  20
1.56118
  0
VERTEX
  8
1
  10
0.79976
  20
1.56197
  0
VERTEX
  8
1
  10
0.79805
  20
1.56269
  0
VERTEX
  8
1
  10
0.79616
  20
1.56332
  0
VERTEX
  8
1
  10
0.79408
  20
1.56383
  0
VERTEX
  8
1
  10
0.79183
  20
1.56423
  0
VERTEX
  8
1
  10
0.78940
  20
1.56448
  0
VERTEX
  8
1
  10
0.78679
  20
1.56456
  0
VERTEX
  8
1
  10
0.76577
  20
1.53153
  0
VERTEX
  8
1
  10
0.76251
  20
1.52403
  0
VERTEX
  8
1
  10
0.75990
  20
1.51767
  0
VERTEX
  8
1
  10
0.75787
  20
1.51232
  0
VERTEX
  8
1
  10
0.75635
  20
1.50784
  0
VERTEX
  8
1
  10
0.75526
  20
1.50413
  0
VERTEX
  8
1
  10
0.75452
  20
1.50104
  0
VERTEX
  8
1
  10
0.75408
  20
1.49847
  0
VERTEX
  8
1
  10
0.75385
  20
1.49626
  0
VERTEX
  8
1
  10
0.75377
  20
1.49432
  0
VERTEX
  8
1
  10
0.75375
  20
1.49249
  0
VERTEX
  8
1
  10
0.75528
  20
1.48978
  0
VERTEX
  8
1
  10
0.75625
  20
1.48704
  0
VERTEX
  8
1
  10
0.75665
  20
1.48422
  0
VERTEX
  8
1
  10
0.75644
  20
1.48130
  0
VERTEX
  8
1
  10
0.75563
  20
1.47823
  0
VERTEX
  8
1
  10
0.75419
  20
1.47498
  0
VERTEX
  8
1
  10
0.75209
  20
1.47151
  0
VERTEX
  8
1
  10
0.74933
  20
1.46780
  0
VERTEX
  8
1
  10
0.74589
  20
1.46379
  0
VERTEX
  8
1
  10
0.74174
  20
1.45946
  0
VERTEX
  8
1
  10
0.74084
  20
1.45847
  0
VERTEX
  8
1
  10
0.73994
  20
1.45732
  0
VERTEX
  8
1
  10
0.73904
  20
1.45603
  0
VERTEX
  8
1
  10
0.73814
  20
1.45461
  0
VERTEX
  8
1
  10
0.73724
  20
1.45308
  0
VERTEX
  8
1
  10
0.73634
  20
1.45146
  0
VERTEX
  8
1
  10
0.73544
  20
1.44977
  0
VERTEX
  8
1
  10
0.73453
  20
1.44802
  0
VERTEX
  8
1
  10
0.73363
  20
1.44624
  0
VERTEX
  8
1
  10
0.73273
  20
1.44444
  0
VERTEX
  8
1
  10
0.73265
  20
1.44265
  0
VERTEX
  8
1
  10
0.73242
  20
1.44086
  0
VERTEX
  8
1
  10
0.73208
  20
1.43912
  0
VERTEX
  8
1
  10
0.73168
  20
1.43743
  0
VERTEX
  8
1
  10
0.73123
  20
1.43581
  0
VERTEX
  8
1
  10
0.73079
  20
1.43428
  0
VERTEX
  8
1
  10
0.73038
  20
1.43286
  0
VERTEX
  8
1
  10
0.73004
  20
1.43157
  0
VERTEX
  8
1
  10
0.72981
  20
1.43042
  0
VERTEX
  8
1
  10
0.72973
  20
1.42943
  0
VERTEX
  8
1
  10
0.72756
  20
1.42431
  0
VERTEX
  8
1
  10
0.72639
  20
1.41982
  0
VERTEX
  8
1
  10
0.72616
  20
1.41605
  0
VERTEX
  8
1
  10
0.72680
  20
1.41309
  0
VERTEX
  8
1
  10
0.72823
  20
1.41104
  0
VERTEX
  8
1
  10
0.73038
  20
1.40997
  0
VERTEX
  8
1
  10
0.73318
  20
1.40998
  0
VERTEX
  8
1
  10
0.73655
  20
1.41117
  0
VERTEX
  8
1
  10
0.74043
  20
1.41362
  0
VERTEX
  8
1
  10
0.74474
  20
1.41742
  0
VERTEX
  8
1
  10
0.74787
  20
1.42075
  0
VERTEX
  8
1
  10
0.75174
  20
1.42354
  0
VERTEX
  8
1
  10
0.75618
  20
1.42580
  0
VERTEX
  8
1
  10
0.76103
  20
1.42751
  0
VERTEX
  8
1
  10
0.76614
  20
1.42868
  0
VERTEX
  8
1
  10
0.77134
  20
1.42931
  0
VERTEX
  8
1
  10
0.77647
  20
1.42940
  0
VERTEX
  8
1
  10
0.78136
  20
1.42895
  0
VERTEX
  8
1
  10
0.78585
  20
1.42796
  0
VERTEX
  8
1
  10
0.78979
  20
1.42643
  0
VERTEX
  8
1
  10
0.79339
  20
1.42445
  0
VERTEX
  8
1
  10
0.79697
  20
1.42213
  0
VERTEX
  8
1
  10
0.80052
  20
1.41948
  0
VERTEX
  8
1
  10
0.80401
  20
1.41653
  0
VERTEX
  8
1
  10
0.80743
  20
1.41329
  0
VERTEX
  8
1
  10
0.81076
  20
1.40978
  0
VERTEX
  8
1
  10
0.81398
  20
1.40602
  0
VERTEX
  8
1
  10
0.81708
  20
1.40202
  0
VERTEX
  8
1
  10
0.82003
  20
1.39780
  0
VERTEX
  8
1
  10
0.82282
  20
1.39339
  0
VERTEX
  8
1
  10
0.82444
  20
1.38924
  0
VERTEX
  8
1
  10
0.82563
  20
1.38573
  0
VERTEX
  8
1
  10
0.82636
  20
1.38280
  0
VERTEX
  8
1
  10
0.82657
  20
1.38037
  0
VERTEX
  8
1
  10
0.82620
  20
1.37838
  0
VERTEX
  8
1
  10
0.82520
  20
1.37674
  0
VERTEX
  8
1
  10
0.82352
  20
1.37540
  0
VERTEX
  8
1
  10
0.82109
  20
1.37427
  0
VERTEX
  8
1
  10
0.81788
  20
1.37329
  0
VERTEX
  8
1
  10
0.81381
  20
1.37237
  0
VERTEX
  8
1
  10
0.81201
  20
1.37229
  0
VERTEX
  8
1
  10
0.81023
  20
1.37204
  0
VERTEX
  8
1
  10
0.80849
  20
1.37164
  0
VERTEX
  8
1
  10
0.80680
  20
1.37112
  0
VERTEX
  8
1
  10
0.80518
  20
1.37050
  0
VERTEX
  8
1
  10
0.80365
  20
1.36978
  0
VERTEX
  8
1
  10
0.80223
  20
1.36899
  0
VERTEX
  8
1
  10
0.80094
  20
1.36814
  0
VERTEX
  8
1
  10
0.79979
  20
1.36726
  0
VERTEX
  8
1
  10
0.79880
  20
1.36637
  0
VERTEX
  8
1
  10
0.79640
  20
1.36564
  0
VERTEX
  8
1
  10
0.79291
  20
1.36526
  0
VERTEX
  8
1
  10
0.78853
  20
1.36520
  0
VERTEX
  8
1
  10
0.78342
  20
1.36545
  0
VERTEX
  8
1
  10
0.77778
  20
1.36599
  0
VERTEX
  8
1
  10
0.77177
  20
1.36680
  0
VERTEX
  8
1
  10
0.76559
  20
1.36786
  0
VERTEX
  8
1
  10
0.75940
  20
1.36915
  0
VERTEX
  8
1
  10
0.75339
  20
1.37066
  0
VERTEX
  8
1
  10
0.74775
  20
1.37237
  0
VERTEX
  8
1
  10
0.74368
  20
1.37399
  0
VERTEX
  8
1
  10
0.74040
  20
1.37526
  0
VERTEX
  8
1
  10
0.73780
  20
1.37616
  0
VERTEX
  8
1
  10
0.73578
  20
1.37670
  0
VERTEX
  8
1
  10
0.73423
  20
1.37688
  0
VERTEX
  8
1
  10
0.73305
  20
1.37670
  0
VERTEX
  8
1
  10
0.73211
  20
1.37616
  0
VERTEX
  8
1
  10
0.73132
  20
1.37526
  0
VERTEX
  8
1
  10
0.73056
  20
1.37399
  0
VERTEX
  8
1
  10
0.72973
  20
1.37237
  0
VERTEX
  8
1
  10
0.72892
  20
1.37147
  0
VERTEX
  8
1
  10
0.72826
  20
1.37057
  0
VERTEX
  8
1
  10
0.72776
  20
1.36967
  0
VERTEX
  8
1
  10
0.72738
  20
1.36877
  0
VERTEX
  8
1
  10
0.72710
  20
1.36787
  0
VERTEX
  8
1
  10
0.72692
  20
1.36697
  0
VERTEX
  8
1
  10
0.72681
  20
1.36607
  0
VERTEX
  8
1
  10
0.72675
  20
1.36517
  0
VERTEX
  8
1
  10
0.72673
  20
1.36426
  0
VERTEX
  8
1
  10
0.72673
  20
1.36336
  0
VERTEX
  8
1
  10
0.72717
  20
1.36139
  0
VERTEX
  8
1
  10
0.72846
  20
1.35914
  0
VERTEX
  8
1
  10
0.73054
  20
1.35666
  0
VERTEX
  8
1
  10
0.73336
  20
1.35404
  0
VERTEX
  8
1
  10
0.73686
  20
1.35135
  0
VERTEX
  8
1
  10
0.74100
  20
1.34866
  0
VERTEX
  8
1
  10
0.74571
  20
1.34604
  0
VERTEX
  8
1
  10
0.75094
  20
1.34357
  0
VERTEX
  8
1
  10
0.75665
  20
1.34131
  0
VERTEX
  8
1
  10
0.76276
  20
1.33934
  0
VERTEX
  8
1
  10
0.76700
  20
1.33754
  0
VERTEX
  8
1
  10
0.77074
  20
1.33574
  0
VERTEX
  8
1
  10
0.77401
  20
1.33393
  0
VERTEX
  8
1
  10
0.77684
  20
1.33213
  0
VERTEX
  8
1
  10
0.77928
  20
1.33033
  0
VERTEX
  8
1
  10
0.78136
  20
1.32853
  0
VERTEX
  8
1
  10
0.78311
  20
1.32673
  0
VERTEX
  8
1
  10
0.78458
  20
1.32492
  0
VERTEX
  8
1
  10
0.78579
  20
1.32312
  0
VERTEX
  8
1
  10
0.78679
  20
1.32132
  0
VERTEX
  8
1
  10
0.79580
  20
1.31231
  0
VERTEX
  8
1
  10
0.80781
  20
1.33033
  0
VERTEX
  8
1
  10
0.80970
  20
1.33303
  0
VERTEX
  8
1
  10
0.81175
  20
1.33569
  0
VERTEX
  8
1
  10
0.81394
  20
1.33828
  0
VERTEX
  8
1
  10
0.81626
  20
1.34076
  0
VERTEX
  8
1
  10
0.81869
  20
1.34309
  0
VERTEX
  8
1
  10
0.82121
  20
1.34525
  0
VERTEX
  8
1
  10
0.82380
  20
1.34719
  0
VERTEX
  8
1
  10
0.82645
  20
1.34888
  0
VERTEX
  8
1
  10
0.82913
  20
1.35028
  0
VERTEX
  8
1
  10
0.83183
  20
1.35135
  0
VERTEX
  8
1
  10
0.83525
  20
1.35407
  0
VERTEX
  8
1
  10
0.83829
  20
1.35685
  0
VERTEX
  8
1
  10
0.84094
  20
1.35978
  0
VERTEX
  8
1
  10
0.84317
  20
1.36293
  0
VERTEX
  8
1
  10
0.84497
  20
1.36637
  0
VERTEX
  8
1
  10
0.84632
  20
1.37016
  0
VERTEX
  8
1
  10
0.84720
  20
1.37439
  0
VERTEX
  8
1
  10
0.84759
  20
1.37912
  0
VERTEX
  8
1
  10
0.84748
  20
1.38443
  0
VERTEX
  8
1
  10
0.84685
  20
1.39039
  0
VERTEX
  8
1
  10
0.84693
  20
1.39382
  0
VERTEX
  8
1
  10
0.84718
  20
1.39692
  0
VERTEX
  8
1
  10
0.84758
  20
1.39974
  0
VERTEX
  8
1
  10
0.84810
  20
1.40231
  0
VERTEX
  8
1
  10
0.84872
  20
1.40465
  0
VERTEX
  8
1
  10
0.84944
  20
1.40682
  0
VERTEX
  8
1
  10
0.85023
  20
1.40885
  0
VERTEX
  8
1
  10
0.85108
  20
1.41076
  0
VERTEX
  8
1
  10
0.85195
  20
1.41261
  0
VERTEX
  8
1
  10
0.85285
  20
1.41441
  0
VERTEX
  8
1
  10
0.85375
  20
1.41548
  0
VERTEX
  8
1
  10
0.85463
  20
1.41684
  0
VERTEX
  8
1
  10
0.85547
  20
1.41841
  0
VERTEX
  8
1
  10
0.85626
  20
1.42013
  0
VERTEX
  8
1
  10
0.85698
  20
1.42192
  0
VERTEX
  8
1
  10
0.85761
  20
1.42371
  0
VERTEX
  8
1
  10
0.85813
  20
1.42543
  0
VERTEX
  8
1
  10
0.85852
  20
1.42700
  0
VERTEX
  8
1
  10
0.85877
  20
1.42836
  0
VERTEX
  8
1
  10
0.85886
  20
1.42943
  0
VERTEX
  8
1
  10
0.85834
  20
1.43320
  0
VERTEX
  8
1
  10
0.85686
  20
1.43721
  0
VERTEX
  8
1
  10
0.85456
  20
1.44138
  0
VERTEX
  8
1
  10
0.85156
  20
1.44557
  0
VERTEX
  8
1
  10
0.84797
  20
1.44970
  0
VERTEX
  8
1
  10
0.84394
  20
1.45365
  0
VERTEX
  8
1
  10
0.83958
  20
1.45730
  0
VERTEX
  8
1
  10
0.83503
  20
1.46056
  0
VERTEX
  8
1
  10
0.83040
  20
1.46332
  0
VERTEX
  8
1
  10
0.82583
  20
1.46547
  0
VERTEX
  8
1
  10
0.82329
  20
1.46564
  0
VERTEX
  8
1
  10
0.82107
  20
1.46614
  0
VERTEX
  8
1
  10
0.81910
  20
1.46692
  0
VERTEX
  8
1
  10
0.81732
  20
1.46796
  0
VERTEX
  8
1
  10
0.81569
  20
1.46922
  0
VERTEX
  8
1
  10
0.81415
  20
1.47065
  0
VERTEX
  8
1
  10
0.81265
  20
1.47223
  0
VERTEX
  8
1
  10
0.81112
  20
1.47392
  0
VERTEX
  8
1
  10
0.80953
  20
1.47568
  0
VERTEX
  8
1
  10
0.80781
  20
1.47748
  0
VERTEX
  8
1
  10
0.80691
  20
1.47992
  0
VERTEX
  8
1
  10
0.80601
  20
1.48185
  0
VERTEX
  8
1
  10
0.80511
  20
1.48332
  0
VERTEX
  8
1
  10
0.80420
  20
1.48435
  0
VERTEX
  8
1
  10
0.80330
  20
1.48498
  0
VERTEX
  8
1
  10
0.80240
  20
1.48526
  0
VERTEX
  8
1
  10
0.80150
  20
1.48521
  0
VERTEX
  8
1
  10
0.80060
  20
1.48488
  0
VERTEX
  8
1
  10
0.79970
  20
1.48429
  0
VERTEX
  8
1
  10
0.79880
  20
1.48348
  0
VERTEX
  8
1
  10
0.79610
  20
1.48268
  0
VERTEX
  8
1
  10
0.79344
  20
1.48207
  0
VERTEX
  8
1
  10
0.79085
  20
1.48167
  0
VERTEX
  8
1
  10
0.78837
  20
1.48151
  0
VERTEX
  8
1
  10
0.78604
  20
1.48161
  0
VERTEX
  8
1
  10
0.78388
  20
1.48197
  0
VERTEX
  8
1
  10
0.78194
  20
1.48262
  0
VERTEX
  8
1
  10
0.78025
  20
1.48358
  0
VERTEX
  8
1
  10
0.77885
  20
1.48486
  0
VERTEX
  8
1
  10
0.77778
  20
1.48649
  0
VERTEX
  8
1
  10
0.77723
  20
1.48846
  0
VERTEX
  8
1
  10
0.77737
  20
1.49074
  0
VERTEX
  8
1
  10
0.77816
  20
1.49327
  0
VERTEX
  8
1
  10
0.77956
  20
1.49600
  0
VERTEX
  8
1
  10
0.78153
  20
1.49887
  0
VERTEX
  8
1
  10
0.78405
  20
1.50184
  0
VERTEX
  8
1
  10
0.78707
  20
1.50484
  0
VERTEX
  8
1
  10
0.79056
  20
1.50782
  0
VERTEX
  8
1
  10
0.79448
  20
1.51073
  0
VERTEX
  8
1
  10
0.79880
  20
1.51351
  0
VERTEX
  8
1
  10
0.80205
  20
1.51605
  0
VERTEX
  8
1
  10
0.80461
  20
1.51827
  0
VERTEX
  8
1
  10
0.80653
  20
1.52024
  0
VERTEX
  8
1
  10
0.80783
  20
1.52202
  0
VERTEX
  8
1
  10
0.80856
  20
1.52365
  0
VERTEX
  8
1
  10
0.80874
  20
1.52519
  0
VERTEX
  8
1
  10
0.80843
  20
1.52669
  0
VERTEX
  8
1
  10
0.80764
  20
1.52822
  0
VERTEX
  8
1
  10
0.80642
  20
1.52981
  0
VERTEX
  8
1
  10
0.80480
  20
1.53153
  0
VERTEX
  8
1
  10
0.80237
  20
1.53261
  0
VERTEX
  8
1
  10
0.80046
  20
1.53401
  0
VERTEX
  8
1
  10
0.79905
  20
1.53569
  0
VERTEX
  8
1
  10
0.79813
  20
1.53763
  0
VERTEX
  8
1
  10
0.79767
  20
1.53979
  0
VERTEX
  8
1
  10
0.79767
  20
1.54213
  0
VERTEX
  8
1
  10
0.79810
  20
1.54461
  0
VERTEX
  8
1
  10
0.79894
  20
1.54720
  0
VERTEX
  8
1
  10
0.80018
  20
1.54986
  0
VERTEX
  8
1
  10
0.80180
  20
1.55255
  0
VERTEX
  8
1
  10
0.80262
  20
1.55345
  0
VERTEX
  8
1
  10
0.80327
  20
1.55433
  0
VERTEX
  8
1
  10
0.80377
  20
1.55517
  0
VERTEX
  8
1
  10
0.80416
  20
1.55596
  0
VERTEX
  8
1
  10
0.80443
  20
1.55668
  0
VERTEX
  8
1
  10
0.80461
  20
1.55731
  0
VERTEX
  8
1
  10
0.80472
  20
1.55783
  0
VERTEX
  8
1
  10
0.80480
  20
1.55856
  0
SEQEND
  0
POLYLINE
  8
1
  6
CONTINUOUS
 66
  1
 70
  1
  0
VERTEX
  8
1
  10
0.53754
  20
1.51051
  0
VERTEX
  8
1
  10
0.51952
  20
1.51051
  0
VERTEX
  8
1
  10
0.51493
  20
1.51033
  0
VERTEX
  8
1
  10
0.51022
  20
1.50979
  0
VERTEX
  8
1
  10
0.50544
  20
1.50889
  0
VERTEX
  8
1
  10
0.50064
  20
1.50763
  0
VERTEX
  8
1
  10
0.49587
  20
1.50601
  0
VERTEX
  8
1
  10
0.49120
  20
1.50402
  0
VERTEX
  8
1
  10
0.48666
  20
1.50168
  0
VERTEX
  8
1
  10
0.48233
  20
1.49898
  0
VERTEX
  8
1
  10
0.47825
  20
1.49592
  0
VERTEX
  8
1
  10
0.47447
  20
1.49249
  0
VERTEX
  8
1
  10
0.47286
  20
1.49159
  0
VERTEX
  8
1
  10
0.47164
  20
1.49064
  0
VERTEX
  8
1
  10
0.47085
  20
1.48963
  0
VERTEX
  8
1
  10
0.47053
  20
1.48850
  0
VERTEX
  8
1
  10
0.47072
  20
1.48724
  0
VERTEX
  8
1
  10
0.47145
  20
1.48579
  0
VERTEX
  8
1
  10
0.47275
  20
1.48413
  0
VERTEX
  8
1
  10
0.47467
  20
1.48221
  0
VERTEX
  8
1
  10
0.47723
  20
1.48001
  0
VERTEX
  8
1
  10
0.48048
  20
1.47748
  0
VERTEX
  8
1
  10
0.48294
  20
1.47495
  0
VERTEX
  8
1
  10
0.48500
  20
1.47279
  0
VERTEX
  8
1
  10
0.48680
  20
1.47099
  0
VERTEX
  8
1
  10
0.48850
  20
1.46955
  0
VERTEX
  8
1
  10
0.49024
  20
1.46847
  0
VERTEX
  8
1
  10
0.49216
  20
1.46775
  0
VERTEX
  8
1
  10
0.49440
  20
1.46739
  0
VERTEX
  8
1
  10
0.49711
  20
1.46739
  0
VERTEX
  8
1
  10
0.50043
  20
1.46775
  0
VERTEX
  8
1
  10
0.50450
  20
1.46847
  0
VERTEX
  8
1
  10
0.50784
  20
1.46846
  0
VERTEX
  8
1
  10
0.51068
  20
1.46842
  0
VERTEX
  8
1
  10
0.51305
  20
1.46831
  0
VERTEX
  8
1
  10
0.51498
  20
1.46808
  0
VERTEX
  8
1
  10
0.51652
  20
1.46772
  0
VERTEX
  8
1
  10
0.51769
  20
1.46717
  0
VERTEX
  8
1
  10
0.51855
  20
1.46641
  0
VERTEX
  8
1
  10
0.51911
  20
1.46539
  0
VERTEX
  8
1
  10
0.51942
  20
1.46409
  0
VERTEX
  8
1
  10
0.51952
  20
1.46246
  0
VERTEX
  8
1
  10
0.51961
  20
1.46148
  0
VERTEX
  8
1
  10
0.51988
  20
1.46035
  0
VERTEX
  8
1
  10
0.52033
  20
1.45911
  0
VERTEX
  8
1
  10
0.52096
  20
1.45780
  0
VERTEX
  8
1
  10
0.52177
  20
1.45646
  0
VERTEX
  8
1
  10
0.52276
  20
1.45511
  0
VERTEX
  8
1
  10
0.52393
  20
1.45380
  0
VERTEX
  8
1
  10
0.52529
  20
1.45256
  0
VERTEX
  8
1
  10
0.52682
  20
1.45144
  0
VERTEX
  8
1
  10
0.52853
  20
1.45045
  0
VERTEX
  8
1
  10
0.52952
  20
1.45028
  0
VERTEX
  8
1
  10
0.53067
  20
1.44978
  0
VERTEX
  8
1
  10
0.53196
  20
1.44899
  0
VERTEX
  8
1
  10
0.53338
  20
1.44795
  0
VERTEX
  8
1
  10
0.53491
  20
1.44670
  0
VERTEX
  8
1
  10
0.53653
  20
1.44526
  0
VERTEX
  8
1
  10
0.53822
  20
1.44368
  0
VERTEX
  8
1
  10
0.53996
  20
1.44199
  0
VERTEX
  8
1
  10
0.54174
  20
1.44023
  0
VERTEX
  8
1
  10
0.54354
  20
1.43844
  0
VERTEX
  8
1
  10
0.54543
  20
1.43746
  0
VERTEX
  8
1
  10
0.54746
  20
1.43635
  0
VERTEX
  8
1
  10
0.54960
  20
1.43517
  0
VERTEX
  8
1
  10
0.55181
  20
1.43397
  0
VERTEX
  8
1
  10
0.55405
  20
1.43281
  0
VERTEX
  8
1
  10
0.55630
  20
1.43174
  0
VERTEX
  8
1
  10
0.55851
  20
1.43081
  0
VERTEX
  8
1
  10
0.56065
  20
1.43008
  0
VERTEX
  8
1
  10
0.56268
  20
1.42960
  0
VERTEX
  8
1
  10
0.56456
  20
1.42943
  0
VERTEX
  8
1
  10
0.56701
  20
1.42942
  0
VERTEX
  8
1
  10
0.56896
  20
1.42933
  0
VERTEX
  8
1
  10
0.57048
  20
1.42911
  0
VERTEX
  8
1
  10
0.57163
  20
1.42866
  0
VERTEX
  8
1
  10
0.57245
  20
1.42793
  0
VERTEX
  8
1
  10
0.57300
  20
1.42683
  0
VERTEX
  8
1
  10
0.57333
  20
1.42531
  0
VERTEX
  8
1
  10
0.57350
  20
1.42328
  0
VERTEX
  8
1
  10
0.57356
  20
1.42067
  0
VERTEX
  8
1
  10
0.57357
  20
1.41742
  0
VERTEX
  8
1
  10
0.57359
  20
1.41416
  0
VERTEX
  8
1
  10
0.57367
  20
1.41151
  0
VERTEX
  8
1
  10
0.57390
  20
1.40936
  0
VERTEX
  8
1
  10
0.57434
  20
1.40762
  0
VERTEX
  8
1
  10
0.57508
  20
1.40616
  0
VERTEX
  8
1
  10
0.57617
  20
1.40488
  0
VERTEX
  8
1
  10
0.57769
  20
1.40367
  0
VERTEX
  8
1
  10
0.57972
  20
1.40243
  0
VERTEX
  8
1
  10
0.58233
  20
1.40104
  0
VERTEX
  8
1
  10
0.58559
  20
1.39940
  0
VERTEX
  8
1
  10
0.58747
  20
1.39850
  0
VERTEX
  8
1
  10
0.58950
  20
1.39762
  0
VERTEX
  8
1
  10
0.59164
  20
1.39678
  0
VERTEX
  8
1
  10
0.59385
  20
1.39599
  0
VERTEX
  8
1
  10
0.59610
  20
1.39527
  0
VERTEX
  8
1
  10
0.59834
  20
1.39464
  0
VERTEX
  8
1
  10
0.60055
  20
1.39412
  0
VERTEX
  8
1
  10
0.60269
  20
1.39373
  0
VERTEX
  8
1
  10
0.60472
  20
1.39348
  0
VERTEX
  8
1
  10
0.60661
  20
1.39339
  0
VERTEX
  8
1
  10
0.60914
  20
1.39267
  0
VERTEX
  8
1
  10
0.61134
  20
1.39229
  0
VERTEX
  8
1
  10
0.61326
  20
1.39223
  0
VERTEX
  8
1
  10
0.61492
  20
1.39248
  0
VERTEX
  8
1
  10
0.61637
  20
1.39302
  0
VERTEX
  8
1
  10
0.61763
  20
1.39383
  0
VERTEX
  8
1
  10
0.61876
  20
1.39489
  0
VERTEX
  8
1
  10
0.61977
  20
1.39618
  0
VERTEX
  8
1
  10
0.62071
  20
1.39769
  0
VERTEX
  8
1
  10
0.62162
  20
1.39940
  0
VERTEX
  8
1
  10
0.62252
  20
1.40047
  0
VERTEX
  8
1
  10
0.62340
  20
1.40185
  0
VERTEX
  8
1
  10
0.62424
  20
1.40348
  0
VERTEX
  8
1
  10
0.62503
  20
1.40531
  0
VERTEX
  8
1
  10
0.62575
  20
1.40728
  0
VERTEX
  8
1
  10
0.62638
  20
1.40935
  0
VERTEX
  8
1
  10
0.62690
  20
1.41144
  0
VERTEX
  8
1
  10
0.62729
  20
1.41353
  0
VERTEX
  8
1
  10
0.62754
  20
1.41553
  0
VERTEX
  8
1
  10
0.62763
  20
1.41742
  0
VERTEX
  8
1
  10
0.62840
  20
1.41989
  0
VERTEX
  8
1
  10
0.62878
  20
1.42203
  0
VERTEX
  8
1
  10
0.62855
  20
1.42407
  0
VERTEX
  8
1
  10
0.62748
  20
1.42621
  0
VERTEX
  8
1
  10
0.62538
  20
1.42868
  0
VERTEX
  8
1
  10
0.62201
  20
1.43169
  0
VERTEX
  8
1
  10
0.61716
  20
1.43545
  0
VERTEX
  8
1
  10
0.61062
  20
1.44019
  0
VERTEX
  8
1
  10
0.60217
  20
1.44612
  0
VERTEX
  8
1
  10
0.59159
  20
1.45345
  0
VERTEX
  8
1
  10
0.58881
  20
1.45525
  0
VERTEX
  8
1
  10
0.58592
  20
1.45701
  0
VERTEX
  8
1
  10
0.58300
  20
1.45870
  0
VERTEX
  8
1
  10
0.58011
  20
1.46028
  0
VERTEX
  8
1
  10
0.57733
  20
1.46171
  0
VERTEX
  8
1
  10
0.57473
  20
1.46297
  0
VERTEX
  8
1
  10
0.57238
  20
1.46401
  0
VERTEX
  8
1
  10
0.57035
  20
1.46479
  0
VERTEX
  8
1
  10
0.56873
  20
1.46529
  0
VERTEX
  8
1
  10
0.56757
  20
1.46547
  0
VERTEX
  8
1
  10
0.56495
  20
1.46574
  0
VERTEX
  8
1
  10
0.56247
  20
1.46655
  0
VERTEX
  8
1
  10
0.56011
  20
1.46790
  0
VERTEX
  8
1
  10
0.55781
  20
1.46979
  0
VERTEX
  8
1
  10
0.55556
  20
1.47222
  0
VERTEX
  8
1
  10
0.55330
  20
1.47520
  0
VERTEX
  8
1
  10
0.55100
  20
1.47871
  0
VERTEX
  8
1
  10
0.54864
  20
1.48276
  0
VERTEX
  8
1
  10
0.54616
  20
1.48736
  0
VERTEX
  8
1
  10
0.54354
  20
1.49249
  0
SEQEND
  0
POLYLINE
  8
1
  6
CONTINUOUS
 66
  1
 70
  1
  0
VERTEX
  8
1
  10
0.87889
  20
1.63226
  0
VERTEX
  8
1
  10
0.87774
  20
1.63354
  0
VERTEX
  8
1
  10
0.87645
  20
1.63450
  0
VERTEX
  8
1
  10
0.87503
  20
1.63515
  0
VERTEX
  8
1
  10
0.87350
  20
1.63551
  0
VERTEX
  8
1
  10
0.87188
  20
1.63560
  0
VERTEX
  8
1
  10
0.87019
  20
1.63544
  0
VERTEX
  8
1
  10
0.86844
  20
1.63505
  0
VERTEX
  8
1
  10
0.86666
  20
1.63444
  0
VERTEX
  8
1
  10
0.86486
  20
1.63363
  0
VERTEX
  8
1
  10
0.86379
  20
1.63363
  0
VERTEX
  8
1
  10
0.86241
  20
1.63361
  0
VERTEX
  8
1
  10
0.86078
  20
1.63355
  0
VERTEX
  8
1
  10
0.85895
  20
1.63344
  0
VERTEX
  8
1
  10
0.85698
  20
1.63326
  0
VERTEX
  8
1
  10
0.85492
  20
1.63298
  0
VERTEX
  8
1
  10
0.85282
  20
1.63260
  0
VERTEX
  8
1
  10
0.85074
  20
1.63210
  0
VERTEX
  8
1
  10
0.84873
  20
1.63144
  0
VERTEX
  8
1
  10
0.84685
  20
1.63063
  0
VERTEX
  8
1
  10
0.83860
  20
1.63011
  0
VERTEX
  8
1
  10
0.83025
  20
1.62866
  0
VERTEX
  8
1
  10
0.82204
  20
1.62641
  0
VERTEX
  8
1
  10
0.81422
  20
1.62352
  0
VERTEX
  8
1
  10
0.80706
  20
1.62012
  0
VERTEX
  8
1
  10
0.80079
  20
1.61636
  0
VERTEX
  8
1
  10
0.79568
  20
1.61238
  0
VERTEX
  8
1
  10
0.79198
  20
1.60834
  0
VERTEX
  8
1
  10
0.78993
  20
1.60436
  0
VERTEX
  8
1
  10
0.78979
  20
1.60060
  0
VERTEX
  8
1
  10
0.79070
  20
1.59898
  0
VERTEX
  8
1
  10
0.79169
  20
1.59772
  0
VERTEX
  8
1
  10
0.79282
  20
1.59682
  0
VERTEX
  8
1
  10
0.79416
  20
1.59628
  0
VERTEX
  8
1
  10
0.79580
  20
1.59610
  0
VERTEX
  8
1
  10
0.79779
  20
1.59628
  0
VERTEX
  8
1
  10
0.80022
  20
1.59682
  0
VERTEX
  8
1
  10
0.80315
  20
1.59772
  0
VERTEX
  8
1
  10
0.80665
  20
1.59898
  0
VERTEX
  8
1
  10
0.81081
  20
1.60060
  0
VERTEX
  8
1
  10
0.84384
  20
1.60961
  0
VERTEX
  8
1
  10
0.85077
  20
1.61141
  0
VERTEX
  8
1
  10
0.85711
  20
1.61324
  0
VERTEX
  8
1
  10
0.86279
  20
1.61510
  0
VERTEX
  8
1
  10
0.86777
  20
1.61701
  0
VERTEX
  8
1
  10
0.87200
  20
1.61899
  0
VERTEX
  8
1
  10
0.87541
  20
1.62107
  0
VERTEX
  8
1
  10
0.87796
  20
1.62325
  0
VERTEX
  8
1
  10
0.87959
  20
1.62556
  0
VERTEX
  8
1
  10
0.88025
  20
1.62802
  0
VERTEX
  8
1
  10
0.87988
  20
1.63063
  0
SEQEND
  0
POLYLINE
  8
1
  6
CONTINUOUS
 66
  1
 70
  1
  0
VERTEX
  8
1
  10
0.63408
  20
1.63224
  0
VERTEX
  8
1
  10
0.63169
  20
1.63344
  0
VERTEX
  8
1
  10
0.62926
  20
1.63417
  0
VERTEX
  8
1
  10
0.62659
  20
1.63438
  0
VERTEX
  8
1
  10
0.62350
  20
1.63401
  0
VERTEX
  8
1
  10
0.61977
  20
1.63301
  0
VERTEX
  8
1
  10
0.61522
  20
1.63132
  0
VERTEX
  8
1
  10
0.60963
  20
1.62890
  0
VERTEX
  8
1
  10
0.60283
  20
1.62568
  0
VERTEX
  8
1
  10
0.59459
  20
1.62162
  0
VERTEX
  8
1
  10
0.59010
  20
1.61974
  0
VERTEX
  8
1
  10
0.58568
  20
1.61775
  0
VERTEX
  8
1
  10
0.58141
  20
1.61573
  0
VERTEX
  8
1
  10
0.57735
  20
1.61374
  0
VERTEX
  8
1
  10
0.57357
  20
1.61186
  0
VERTEX
  8
1
  10
0.57016
  20
1.61016
  0
VERTEX
  8
1
  10
0.56718
  20
1.60871
  0
VERTEX
  8
1
  10
0.56471
  20
1.60759
  0
VERTEX
  8
1
  10
0.56281
  20
1.60686
  0
VERTEX
  8
1
  10
0.56156
  20
1.60661
  0
VERTEX
  8
1
  10
0.56058
  20
1.60652
  0
VERTEX
  8
1
  10
0.55947
  20
1.60627
  0
VERTEX
  8
1
  10
0.55829
  20
1.60588
  0
VERTEX
  8
1
  10
0.55709
  20
1.60536
  0
VERTEX
  8
1
  10
0.55593
  20
1.60473
  0
VERTEX
  8
1
  10
0.55486
  20
1.60401
  0
VERTEX
  8
1
  10
0.55393
  20
1.60322
  0
VERTEX
  8
1
  10
0.55320
  20
1.60238
  0
VERTEX
  8
1
  10
0.55272
  20
1.60150
  0
VERTEX
  8
1
  10
0.55255
  20
1.60060
  0
VERTEX
  8
1
  10
0.55127
  20
1.59765
  0
VERTEX
  8
1
  10
0.55094
  20
1.59431
  0
VERTEX
  8
1
  10
0.55144
  20
1.59071
  0
VERTEX
  8
1
  10
0.55265
  20
1.58700
  0
VERTEX
  8
1
  10
0.55443
  20
1.58333
  0
VERTEX
  8
1
  10
0.55666
  20
1.57984
  0
VERTEX
  8
1
  10
0.55922
  20
1.57668
  0
VERTEX
  8
1
  10
0.56197
  20
1.57398
  0
VERTEX
  8
1
  10
0.56480
  20
1.57190
  0
VERTEX
  8
1
  10
0.56757
  20
1.57057
  0
VERTEX
  8
1
  10
0.57244
  20
1.56877
  0
VERTEX
  8
1
  10
0.57626
  20
1.56694
  0
VERTEX
  8
1
  10
0.57908
  20
1.56508
  0
VERTEX
  8
1
  10
0.58092
  20
1.56317
  0
VERTEX
  8
1
  10
0.58183
  20
1.56119
  0
VERTEX
  8
1
  10
0.58184
  20
1.55911
  0
VERTEX
  8
1
  10
0.58098
  20
1.55693
  0
VERTEX
  8
1
  10
0.57929
  20
1.55462
  0
VERTEX
  8
1
  10
0.57681
  20
1.55217
  0
VERTEX
  8
1
  10
0.57357
  20
1.54955
  0
VERTEX
  8
1
  10
0.57114
  20
1.54702
  0
VERTEX
  8
1
  10
0.56920
  20
1.54482
  0
VERTEX
  8
1
  10
0.56774
  20
1.54290
  0
VERTEX
  8
1
  10
0.56670
  20
1.54124
  0
VERTEX
  8
1
  10
0.56607
  20
1.53979
  0
VERTEX
  8
1
  10
0.56579
  20
1.53852
  0
VERTEX
  8
1
  10
0.56584
  20
1.53740
  0
VERTEX
  8
1
  10
0.56617
  20
1.53638
  0
VERTEX
  8
1
  10
0.56676
  20
1.53544
  0
VERTEX
  8
1
  10
0.56757
  20
1.53453
  0
VERTEX
  8
1
  10
0.56774
  20
1.53282
  0
VERTEX
  8
1
  10
0.56824
  20
1.53127
  0
VERTEX
  8
1
  10
0.56903
  20
1.52986
  0
VERTEX
  8
1
  10
0.57007
  20
1.52858
  0
VERTEX
  8
1
  10
0.57132
  20
1.52740
  0
VERTEX
  8
1
  10
0.57276
  20
1.52632
  0
VERTEX
  8
1
  10
0.57434
  20
1.52531
  0
VERTEX
  8
1
  10
0.57602
  20
1.52435
  0
VERTEX
  8
1
  10
0.57778
  20
1.52343
  0
VERTEX
  8
1
  10
0.57958
  20
1.52252
  0
VERTEX
  8
1
  10
0.58202
  20
1.52080
  0
VERTEX
  8
1
  10
0.58395
  20
1.51918
  0
VERTEX
  8
1
  10
0.58542
  20
1.51760
  0
VERTEX
  8
1
  10
0.58645
  20
1.51599
  0
VERTEX
  8
1
  10
0.58709
  20
1.51426
  0
VERTEX
  8
1
  10
0.58736
  20
1.51236
  0
VERTEX
  8
1
  10
0.58732
  20
1.51020
  0
VERTEX
  8
1
  10
0.58698
  20
1.50772
  0
VERTEX
  8
1
  10
0.58639
  20
1.50485
  0
VERTEX
  8
1
  10
0.58559
  20
1.50150
  0
VERTEX
  8
1
  10
0.58448
  20
1.49919
  0
VERTEX
  8
1
  10
0.58470
  20
1.49600
  0
VERTEX
  8
1
  10
0.58610
  20
1.49212
  0
VERTEX
  8
1
  10
0.58856
  20
1.48776
  0
VERTEX
  8
1
  10
0.59197
  20
1.48311
  0
VERTEX
  8
1
  10
0.59618
  20
1.47837
  0
VERTEX
  8
1
  10
0.60108
  20
1.47373
  0
VERTEX
  8
1
  10
0.60653
  20
1.46941
  0
VERTEX
  8
1
  10
0.61242
  20
1.46558
  0
VERTEX
  8
1
  10
0.61862
  20
1.46246
  0
VERTEX
  8
1
  10
0.64865
  20
1.44144
  0
VERTEX
  8
1
  10
0.65126
  20
1.43965
  0
VERTEX
  8
1
  10
0.65369
  20
1.43791
  0
VERTEX
  8
1
  10
0.65595
  20
1.43628
  0
VERTEX
  8
1
  10
0.65802
  20
1.43481
  0
VERTEX
  8
1
  10
0.65991
  20
1.43356
  0
VERTEX
  8
1
  10
0.66162
  20
1.43258
  0
VERTEX
  8
1
  10
0.66315
  20
1.43192
  0
VERTEX
  8
1
  10
0.66450
  20
1.43164
  0
VERTEX
  8
1
  10
0.66568
  20
1.43179
  0
VERTEX
  8
1
  10
0.66667
  20
1.43243
  0
VERTEX
  8
1
  10
0.66854
  20
1.43401
  0
VERTEX
  8
1
  10
0.67051
  20
1.43678
  0
VERTEX
  8
1
  10
0.67248
  20
1.44049
  0
VERTEX
  8
1
  10
0.67435
  20
1.44488
  0
VERTEX
  8
1
  10
0.67605
  20
1.44970
  0
VERTEX
  8
1
  10
0.67748
  20
1.45470
  0
VERTEX
  8
1
  10
0.67854
  20
1.45963
  0
VERTEX
  8
1
  10
0.67916
  20
1.46424
  0
VERTEX
  8
1
  10
0.67923
  20
1.46827
  0
VERTEX
  8
1
  10
0.67868
  20
1.47147
  0
VERTEX
  8
1
  10
0.67778
  20
1.47237
  0
VERTEX
  8
1
  10
0.67688
  20
1.47325
  0
VERTEX
  8
1
  10
0.67598
  20
1.47409
  0
VERTEX
  8
1
  10
0.67508
  20
1.47488
  0
VERTEX
  8
1
  10
0.67417
  20
1.47560
  0
VERTEX
  8
1
  10
0.67327
  20
1.47623
  0
VERTEX
  8
1
  10
0.67237
  20
1.47675
  0
VERTEX
  8
1
  10
0.67147
  20
1.47714
  0
VERTEX
  8
1
  10
0.67057
  20
1.47739
  0
VERTEX
  8
1
  10
0.66967
  20
1.47748
  0
VERTEX
  8
1
  10
0.66714
  20
1.47774
  0
VERTEX
  8
1
  10
0.66496
  20
1.47851
  0
VERTEX
  8
1
  10
0.66310
  20
1.47975
  0
VERTEX
  8
1
  10
0.66155
  20
1.48142
  0
VERTEX
  8
1
  10
0.66029
  20
1.48348
  0
VERTEX
  8
1
  10
0.65929
  20
1.48591
  0
VERTEX
  8
1
  10
0.65855
  20
1.48866
  0
VERTEX
  8
1
  10
0.65804
  20
1.49170
  0
VERTEX
  8
1
  10
0.65775
  20
1.49499
  0
VERTEX
  8
1
  10
0.65766
  20
1.49850
  0
VERTEX
  8
1
  10
0.65838
  20
1.50103
  0
VERTEX
  8
1
  10
0.65879
  20
1.50328
  0
VERTEX
  8
1
  10
0.65890
  20
1.50531
  0
VERTEX
  8
1
  10
0.65876
  20
1.50720
  0
VERTEX
  8
1
  10
0.65841
  20
1.50901
  0
VERTEX
  8
1
  10
0.65787
  20
1.51082
  0
VERTEX
  8
1
  10
0.65720
  20
1.51271
  0
VERTEX
  8
1
  10
0.65641
  20
1.51474
  0
VERTEX
  8
1
  10
0.65555
  20
1.51699
  0
VERTEX
  8
1
  10
0.65465
  20
1.51952
  0
VERTEX
  8
1
  10
0.65303
  20
1.52132
  0
VERTEX
  8
1
  10
0.65172
  20
1.52308
  0
VERTEX
  8
1
  10
0.65071
  20
1.52476
  0
VERTEX
  8
1
  10
0.64995
  20
1.52634
  0
VERTEX
  8
1
  10
0.64940
  20
1.52778
  0
VERTEX
  8
1
  10
0.64903
  20
1.52903
  0
VERTEX
  8
1
  10
0.64881
  20
1.53007
  0
VERTEX
  8
1
  10
0.64870
  20
1.53086
  0
VERTEX
  8
1
  10
0.64865
  20
1.53153
  0
VERTEX
  8
1
  10
0.64856
  20
1.53251
  0
VERTEX
  8
1
  10
0.64831
  20
1.53362
  0
VERTEX
  8
1
  10
0.64792
  20
1.53480
  0
VERTEX
  8
1
  10
0.64740
  20
1.53600
  0
VERTEX
  8
1
  10
0.64677
  20
1.53716
  0
VERTEX
  8
1
  10
0.64605
  20
1.53823
  0
VERTEX
  8
1
  10
0.64526
  20
1.53916
  0
VERTEX
  8
1
  10
0.64442
  20
1.53989
  0
VERTEX
  8
1
  10
0.64354
  20
1.54037
  0
VERTEX
  8
1
  10
0.64264
  20
1.54054
  0
VERTEX
  8
1
  10
0.64184
  20
1.54226
  0
VERTEX
  8
1
  10
0.64125
  20
1.54386
  0
VERTEX
  8
1
  10
0.64091
  20
1.54538
  0
VERTEX
  8
1
  10
0.64086
  20
1.54688
  0
VERTEX
  8
1
  10
0.64114
  20
1.54842
  0
VERTEX
  8
1
  10
0.64178
  20
1.55005
  0
VERTEX
  8
1
  10
0.64281
  20
1.55183
  0
VERTEX
  8
1
  10
0.64428
  20
1.55380
  0
VERTEX
  8
1
  10
0.64621
  20
1.55603
  0
VERTEX
  8
1
  10
0.64865
  20
1.55856
  0
VERTEX
  8
1
  10
0.65036
  20
1.56199
  0
VERTEX
  8
1
  10
0.65189
  20
1.56514
  0
VERTEX
  8
1
  10
0.65324
  20
1.56807
  0
VERTEX
  8
1
  10
0.65441
  20
1.57086
  0
VERTEX
  8
1
  10
0.65541
  20
1.57357
  0
VERTEX
  8
1
  10
0.65622
  20
1.57629
  0
VERTEX
  8
1
  10
0.65685
  20
1.57908
  0
VERTEX
  8
1
  10
0.65730
  20
1.58201
  0
VERTEX
  8
1
  10
0.65757
  20
1.58515
  0
VERTEX
  8
1
  10
0.65766
  20
1.58859
  0
VERTEX
  8
1
  10
0.65739
  20
1.59390
  0
VERTEX
  8
1
  10
0.65662
  20
1.59901
  0
VERTEX
  8
1
  10
0.65539
  20
1.60391
  0
VERTEX
  8
1
  10
0.65372
  20
1.60858
  0
VERTEX
  8
1
  10
0.65165
  20
1.61299
  0
VERTEX
  8
1
  10
0.64923
  20
1.61713
  0
VERTEX
  8
1
  10
0.64647
  20
1.62098
  0
VERTEX
  8
1
  10
0.64344
  20
1.62453
  0
VERTEX
  8
1
  10
0.64014
  20
1.62775
  0
VERTEX
  8
1
  10
0.63664
  20
1.63063
  0
SEQEND
  0
POLYLINE
  8
1
  6
CONTINUOUS
 66
  1
 70
  1
  0
VERTEX
  8
1
  10
0.35418
  20
1.66246
  0
VERTEX
  8
1
  10
0.35368
  20
1.66424
  0
VERTEX
  8
1
  10
0.35289
  20
1.66598
  0
VERTEX
  8
1
  10
0.35186
  20
1.66768
  0
VERTEX
  8
1
  10
0.35060
  20
1.66929
  0
VERTEX
  8
1
  10
0.34917
  20
1.67082
  0
VERTEX
  8
1
  10
0.34759
  20
1.67224
  0
VERTEX
  8
1
  10
0.34590
  20
1.67354
  0
VERTEX
  8
1
  10
0.34414
  20
1.67469
  0
VERTEX
  8
1
  10
0.34234
  20
1.67568
  0
VERTEX
  8
1
  10
0.34063
  20
1.67648
  0
VERTEX
  8
1
  10
0.33908
  20
1.67709
  0
VERTEX
  8
1
  10
0.33767
  20
1.67749
  0
VERTEX
  8
1
  10
0.33638
  20
1.67765
  0
VERTEX
  8
1
  10
0.33521
  20
1.67755
  0
VERTEX
  8
1
  10
0.33413
  20
1.67719
  0
VERTEX
  8
1
  10
0.33311
  20
1.67654
  0
VERTEX
  8
1
  10
0.33216
  20
1.67558
  0
VERTEX
  8
1
  10
0.33123
  20
1.67430
  0
VERTEX
  8
1
  10
0.33033
  20
1.67267
  0
VERTEX
  8
1
  10
0.32790
  20
1.67086
  0
VERTEX
  8
1
  10
0.32601
  20
1.66900
  0
VERTEX
  8
1
  10
0.32465
  20
1.66702
  0
VERTEX
  8
1
  10
0.32384
  20
1.66489
  0
VERTEX
  8
1
  10
0.32357
  20
1.66254
  0
VERTEX
  8
1
  10
0.32384
  20
1.65992
  0
VERTEX
  8
1
  10
0.32465
  20
1.65697
  0
VERTEX
  8
1
  10
0.32601
  20
1.65365
  0
VERTEX
  8
1
  10
0.32790
  20
1.64989
  0
VERTEX
  8
1
  10
0.33033
  20
1.64565
  0
VERTEX
  8
1
  10
0.33132
  20
1.64449
  0
VERTEX
  8
1
  10
0.33244
  20
1.64288
  0
VERTEX
  8
1
  10
0.33368
  20
1.64092
  0
VERTEX
  8
1
  10
0.33499
  20
1.63868
  0
VERTEX
  8
1
  10
0.33634
  20
1.63626
  0
VERTEX
  8
1
  10
0.33768
  20
1.63375
  0
VERTEX
  8
1
  10
0.33899
  20
1.63125
  0
VERTEX
  8
1
  10
0.34023
  20
1.62883
  0
VERTEX
  8
1
  10
0.34136
  20
1.62659
  0
VERTEX
  8
1
  10
0.34234
  20
1.62462
  0
VERTEX
  8
1
  10
0.36637
  20
1.59159
  0
VERTEX
  8
1
  10
0.37208
  20
1.58662
  0
VERTEX
  8
1
  10
0.37674
  20
1.58249
  0
VERTEX
  8
1
  10
0.38058
  20
1.57911
  0
VERTEX
  8
1
  10
0.38381
  20
1.57641
  0
VERTEX
  8
1
  10
0.38664
  20
1.57432
  0
VERTEX
  8
1
  10
0.38929
  20
1.57278
  0
VERTEX
  8
1
  10
0.39197
  20
1.57171
  0
VERTEX
  8
1
  10
0.39491
  20
1.57103
  0
VERTEX
  8
1
  10
0.39831
  20
1.57067
  0
VERTEX
  8
1
  10
0.40240
  20
1.57057
  0
VERTEX
  8
1
  10
0.40745
  20
1.57047
  0
VERTEX
  8
1
  10
0.41182
  20
1.57014
  0
VERTEX
  8
1
  10
0.41554
  20
1.56952
  0
VERTEX
  8
1
  10
0.41864
  20
1.56855
  0
VERTEX
  8
1
  10
0.42117
  20
1.56719
  0
VERTEX
  8
1
  10
0.42316
  20
1.56538
  0
VERTEX
  8
1
  10
0.42464
  20
1.56307
  0
VERTEX
  8
1
  10
0.42566
  20
1.56019
  0
VERTEX
  8
1
  10
0.42624
  20
1.55671
  0
VERTEX
  8
1
  10
0.42643
  20
1.55255
  0
VERTEX
  8
1
  10
0.42644
  20
1.54930
  0
VERTEX
  8
1
  10
0.42650
  20
1.54669
  0
VERTEX
  8
1
  10
0.42667
  20
1.54466
  0
VERTEX
  8
1
  10
0.42700
  20
1.54314
  0
VERTEX
  8
1
  10
0.42755
  20
1.54204
  0
VERTEX
  8
1
  10
0.42837
  20
1.54131
  0
VERTEX
  8
1
  10
0.42952
  20
1.54086
  0
VERTEX
  8
1
  10
0.43104
  20
1.54064
  0
VERTEX
  8
1
  10
0.43299
  20
1.54055
  0
VERTEX
  8
1
  10
0.43544
  20
1.54054
  0
VERTEX
  8
1
  10
0.43796
  20
1.53972
  0
VERTEX
  8
1
  10
0.44017
  20
1.53903
  0
VERTEX
  8
1
  10
0.44208
  20
1.53841
  0
VERTEX
  8
1
  10
0.44375
  20
1.53780
  0
VERTEX
  8
1
  10
0.44520
  20
1.53716
  0
VERTEX
  8
1
  10
0.44646
  20
1.53643
  0
VERTEX
  8
1
  10
0.44759
  20
1.53556
  0
VERTEX
  8
1
  10
0.44860
  20
1.53449
  0
VERTEX
  8
1
  10
0.44954
  20
1.53316
  0
VERTEX
  8
1
  10
0.45045
  20
1.53153
  0
VERTEX
  8
1
  10
0.45054
  20
1.53055
  0
VERTEX
  8
1
  10
0.45079
  20
1.52944
  0
VERTEX
  8
1
  10
0.45118
  20
1.52826
  0
VERTEX
  8
1
  10
0.45170
  20
1.52706
  0
VERTEX
  8
1
  10
0.45233
  20
1.52590
  0
VERTEX
  8
1
  10
0.45305
  20
1.52483
  0
VERTEX
  8
1
  10
0.45383
  20
1.52390
  0
VERTEX
  8
1
  10
0.45468
  20
1.52317
  0
VERTEX
  8
1
  10
0.45556
  20
1.52269
  0
VERTEX
  8
1
  10
0.45646
  20
1.52252
  0
VERTEX
  8
1
  10
0.45926
  20
1.52214
  0
VERTEX
  8
1
  10
0.46374
  20
1.52267
  0
VERTEX
  8
1
  10
0.46940
  20
1.52395
  0
VERTEX
  8
1
  10
0.47577
  20
1.52584
  0
VERTEX
  8
1
  10
0.48236
  20
1.52815
  0
VERTEX
  8
1
  10
0.48867
  20
1.53074
  0
VERTEX
  8
1
  10
0.49423
  20
1.53343
  0
VERTEX
  8
1
  10
0.49855
  20
1.53607
  0
VERTEX
  8
1
  10
0.50113
  20
1.53850
  0
VERTEX
  8
1
  10
0.50150
  20
1.54054
  0
VERTEX
  8
1
  10
0.50132
  20
1.54071
  0
VERTEX
  8
1
  10
0.50080
  20
1.54119
  0
VERTEX
  8
1
  10
0.49996
  20
1.54192
  0
VERTEX
  8
1
  10
0.49881
  20
1.54285
  0
VERTEX
  8
1
  10
0.49737
  20
1.54392
  0
VERTEX
  8
1
  10
0.49566
  20
1.54508
  0
VERTEX
  8
1
  10
0.49370
  20
1.54628
  0
VERTEX
  8
1
  10
0.49151
  20
1.54746
  0
VERTEX
  8
1
  10
0.48910
  20
1.54857
  0
VERTEX
  8
1
  10
0.48649
  20
1.54955
  0
VERTEX
  8
1
  10
0.48226
  20
1.55062
  0
VERTEX
  8
1
  10
0.47861
  20
1.55198
  0
VERTEX
  8
1
  10
0.47557
  20
1.55355
  0
VERTEX
  8
1
  10
0.47318
  20
1.55527
  0
VERTEX
  8
1
  10
0.47147
  20
1.55706
  0
VERTEX
  8
1
  10
0.47049
  20
1.55885
  0
VERTEX
  8
1
  10
0.47026
  20
1.56056
  0
VERTEX
  8
1
  10
0.47082
  20
1.56214
  0
VERTEX
  8
1
  10
0.47222
  20
1.56350
  0
VERTEX
  8
1
  10
0.47447
  20
1.56456
  0
VERTEX
  8
1
  10
0.47619
  20
1.56465
  0
VERTEX
  8
1
  10
0.47774
  20
1.56490
  0
VERTEX
  8
1
  10
0.47915
  20
1.56529
  0
VERTEX
  8
1
  10
0.48043
  20
1.56581
  0
VERTEX
  8
1
  10
0.48161
  20
1.56644
  0
VERTEX
  8
1
  10
0.48269
  20
1.56716
  0
VERTEX
  8
1
  10
0.48370
  20
1.56795
  0
VERTEX
  8
1
  10
0.48466
  20
1.56879
  0
VERTEX
  8
1
  10
0.48558
  20
1.56967
  0
VERTEX
  8
1
  10
0.48649
  20
1.57057
  0
VERTEX
  8
1
  10
0.48648
  20
1.57229
  0
VERTEX
  8
1
  10
0.48644
  20
1.57384
  0
VERTEX
  8
1
  10
0.48632
  20
1.57525
  0
VERTEX
  8
1
  10
0.48610
  20
1.57653
  0
VERTEX
  8
1
  10
0.48574
  20
1.57770
  0
VERTEX
  8
1
  10
0.48519
  20
1.57879
  0
VERTEX
  8
1
  10
0.48443
  20
1.57980
  0
VERTEX
  8
1
  10
0.48341
  20
1.58076
  0
VERTEX
  8
1
  10
0.48211
  20
1.58168
  0
VERTEX
  8
1
  10
0.48048
  20
1.58258
  0
VERTEX
  8
1
  10
0.47868
  20
1.58421
  0
VERTEX
  8
1
  10
0.47690
  20
1.58551
  0
VERTEX
  8
1
  10
0.47516
  20
1.58653
  0
VERTEX
  8
1
  10
0.47347
  20
1.58729
  0
VERTEX
  8
1
  10
0.47185
  20
1.58784
  0
VERTEX
  8
1
  10
0.47032
  20
1.58820
  0
VERTEX
  8
1
  10
0.46890
  20
1.58843
  0
VERTEX
  8
1
  10
0.46760
  20
1.58854
  0
VERTEX
  8
1
  10
0.46645
  20
1.58858
  0
VERTEX
  8
1
  10
0.46547
  20
1.58859
  0
VERTEX
  8
1
  10
0.46341
  20
1.58885
  0
VERTEX
  8
1
  10
0.46092
  20
1.58957
  0
VERTEX
  8
1
  10
0.45811
  20
1.59070
  0
VERTEX
  8
1
  10
0.45509
  20
1.59214
  0
VERTEX
  8
1
  10
0.45195
  20
1.59384
  0
VERTEX
  8
1
  10
0.44882
  20
1.59572
  0
VERTEX
  8
1
  10
0.44579
  20
1.59771
  0
VERTEX
  8
1
  10
0.44298
  20
1.59974
  0
VERTEX
  8
1
  10
0.44049
  20
1.60172
  0
VERTEX
  8
1
  10
0.43844
  20
1.60360
  0
VERTEX
  8
1
  10
0.43745
  20
1.60523
  0
VERTEX
  8
1
  10
0.43628
  20
1.60653
  0
VERTEX
  8
1
  10
0.43492
  20
1.60755
  0
VERTEX
  8
1
  10
0.43339
  20
1.60831
  0
VERTEX
  8
1
  10
0.43168
  20
1.60886
  0
VERTEX
  8
1
  10
0.42979
  20
1.60923
  0
VERTEX
  8
1
  10
0.42772
  20
1.60945
  0
VERTEX
  8
1
  10
0.42547
  20
1.60956
  0
VERTEX
  8
1
  10
0.42303
  20
1.60960
  0
VERTEX
  8
1
  10
0.42042
  20
1.60961
  0
VERTEX
  8
1
  10
0.41871
  20
1.60970
  0
VERTEX
  8
1
  10
0.41715
  20
1.60995
  0
VERTEX
  8
1
  10
0.41574
  20
1.61034
  0
VERTEX
  8
1
  10
0.41446
  20
1.61086
  0
VERTEX
  8
1
  10
0.41329
  20
1.61149
  0
VERTEX
  8
1
  10
0.41220
  20
1.61220
  0
VERTEX
  8
1
  10
0.41119
  20
1.61299
  0
VERTEX
  8
1
  10
0.41023
  20
1.61384
  0
VERTEX
  8
1
  10
0.40931
  20
1.61472
  0
VERTEX
  8
1
  10
0.40841
  20
1.61562
  0
VERTEX
  8
1
  10
0.40823
  20
1.61733
  0
VERTEX
  8
1
  10
0.40774
  20
1.61888
  0
VERTEX
  8
1
  10
0.40695
  20
1.62029
  0
VERTEX
  8
1
  10
0.40591
  20
1.62157
  0
VERTEX
  8
1
  10
0.40465
  20
1.62275
  0
VERTEX
  8
1
  10
0.40322
  20
1.62383
  0
VERTEX
  8
1
  10
0.40164
  20
1.62484
  0
VERTEX
  8
1
  10
0.39995
  20
1.62580
  0
VERTEX
  8
1
  10
0.39819
  20
1.62672
  0
VERTEX
  8
1
  10
0.39640
  20
1.62763
  0
VERTEX
  8
1
  10
0.39451
  20
1.62862
  0
VERTEX
  8
1
  10
0.39250
  20
1.62977
  0
VERTEX
  8
1
  10
0.39042
  20
1.63106
  0
VERTEX
  8
1
  10
0.38832
  20
1.63248
  0
VERTEX
  8
1
  10
0.38626
  20
1.63401
  0
VERTEX
  8
1
  10
0.38429
  20
1.63563
  0
VERTEX
  8
1
  10
0.38246
  20
1.63732
  0
VERTEX
  8
1
  10
0.38083
  20
1.63906
  0
VERTEX
  8
1
  10
0.37945
  20
1.64084
  0
VERTEX
  8
1
  10
0.37838
  20
1.64264
  0
VERTEX
  8
1
  10
0.37747
  20
1.64354
  0
VERTEX
  8
1
  10
0.37655
  20
1.64444
  0
VERTEX
  8
1
  10
0.37559
  20
1.64535
  0
VERTEX
  8
1
  10
0.37458
  20
1.64625
  0
VERTEX
  8
1
  10
0.37350
  20
1.64715
  0
VERTEX
  8
1
  10
0.37232
  20
1.64805
  0
VERTEX
  8
1
  10
0.37104
  20
1.64895
  0
VERTEX
  8
1
  10
0.36963
  20
1.64985
  0
VERTEX
  8
1
  10
0.36808
  20
1.65075
  0
VERTEX
  8
1
  10
0.36637
  20
1.65165
  0
VERTEX
  8
1
  10
0.36538
  20
1.65174
  0
VERTEX
  8
1
  10
0.36425
  20
1.65201
  0
VERTEX
  8
1
  10
0.36301
  20
1.65246
  0
VERTEX
  8
1
  10
0.36171
  20
1.65309
  0
VERTEX
  8
1
  10
0.36036
  20
1.65390
  0
VERTEX
  8
1
  10
0.35902
  20
1.65489
  0
VERTEX
  8
1
  10
0.35771
  20
1.65607
  0
VERTEX
  8
1
  10
0.35647
  20
1.65742
  0
VERTEX
  8
1
  10
0.35534
  20
1.65895
  0
VERTEX
  8
1
  10
0.35435
  20
1.66066
  0
SEQEND
  0
POLYLINE
  8
1
  6
CONTINUOUS
 66
  1
 70
  1
  0
VERTEX
  8
1
  10
0.41980
  20
1.70132
  0
VERTEX
  8
1
  10
0.41079
  20
1.70258
  0
VERTEX
  8
1
  10
0.40246
  20
1.70348
  0
VERTEX
  8
1
  10
0.39488
  20
1.70402
  0
VERTEX
  8
1
  10
0.38814
  20
1.70420
  0
VERTEX
  8
1
  10
0.38229
  20
1.70402
  0
VERTEX
  8
1
  10
0.37742
  20
1.70348
  0
VERTEX
  8
1
  10
0.37360
  20
1.70258
  0
VERTEX
  8
1
  10
0.37089
  20
1.70132
  0
VERTEX
  8
1
  10
0.36937
  20
1.69970
  0
VERTEX
  8
1
  10
0.36793
  20
1.69790
  0
VERTEX
  8
1
  10
0.36721
  20
1.69612
  0
VERTEX
  8
1
  10
0.36721
  20
1.69438
  0
VERTEX
  8
1
  10
0.36793
  20
1.69268
  0
VERTEX
  8
1
  10
0.36937
  20
1.69107
  0
VERTEX
  8
1
  10
0.37153
  20
1.68954
  0
VERTEX
  8
1
  10
0.37441
  20
1.68812
  0
VERTEX
  8
1
  10
0.37802
  20
1.68682
  0
VERTEX
  8
1
  10
0.38234
  20
1.68567
  0
VERTEX
  8
1
  10
0.38739
  20
1.68468
  0
VERTEX
  8
1
  10
0.39009
  20
1.68460
  0
VERTEX
  8
1
  10
0.39277
  20
1.68435
  0
VERTEX
  8
1
  10
0.39541
  20
1.68395
  0
VERTEX
  8
1
  10
0.39801
  20
1.68344
  0
VERTEX
  8
1
  10
0.40053
  20
1.68281
  0
VERTEX
  8
1
  10
0.40295
  20
1.68209
  0
VERTEX
  8
1
  10
0.40528
  20
1.68130
  0
VERTEX
  8
1
  10
0.40747
  20
1.68046
  0
VERTEX
  8
1
  10
0.40952
  20
1.67958
  0
VERTEX
  8
1
  10
0.41141
  20
1.67868
  0
VERTEX
  8
1
  10
0.41321
  20
1.67697
  0
VERTEX
  8
1
  10
0.41497
  20
1.67544
  0
VERTEX
  8
1
  10
0.41665
  20
1.67408
  0
VERTEX
  8
1
  10
0.41823
  20
1.67291
  0
VERTEX
  8
1
  10
0.41967
  20
1.67192
  0
VERTEX
  8
1
  10
0.42092
  20
1.67111
  0
VERTEX
  8
1
  10
0.42196
  20
1.67048
  0
VERTEX
  8
1
  10
0.42275
  20
1.67003
  0
VERTEX
  8
1
  10
0.42342
  20
1.66967
  0
VERTEX
  8
1
  10
0.42441
  20
1.66958
  0
VERTEX
  8
1
  10
0.42556
  20
1.66931
  0
VERTEX
  8
1
  10
0.42686
  20
1.66886
  0
VERTEX
  8
1
  10
0.42828
  20
1.66823
  0
VERTEX
  8
1
  10
0.42980
  20
1.66742
  0
VERTEX
  8
1
  10
0.43142
  20
1.66643
  0
VERTEX
  8
1
  10
0.43311
  20
1.66526
  0
VERTEX
  8
1
  10
0.43486
  20
1.66390
  0
VERTEX
  8
1
  10
0.43664
  20
1.66237
  0
VERTEX
  8
1
  10
0.43844
  20
1.66066
  0
VERTEX
  8
1
  10
0.43943
  20
1.65968
  0
VERTEX
  8
1
  10
0.44058
  20
1.65857
  0
VERTEX
  8
1
  10
0.44187
  20
1.65739
  0
VERTEX
  8
1
  10
0.44329
  20
1.65619
  0
VERTEX
  8
1
  10
0.44482
  20
1.65503
  0
VERTEX
  8
1
  10
0.44644
  20
1.65396
  0
VERTEX
  8
1
  10
0.44813
  20
1.65303
  0
VERTEX
  8
1
  10
0.44987
  20
1.65230
  0
VERTEX
  8
1
  10
0.45165
  20
1.65182
  0
VERTEX
  8
1
  10
0.45345
  20
1.65165
  0
VERTEX
  8
1
  10
0.45517
  20
1.65165
  0
VERTEX
  8
1
  10
0.45672
  20
1.65160
  0
VERTEX
  8
1
  10
0.45813
  20
1.65149
  0
VERTEX
  8
1
  10
0.45941
  20
1.65127
  0
VERTEX
  8
1
  10
0.46059
  20
1.65090
  0
VERTEX
  8
1
  10
0.46167
  20
1.65035
  0
VERTEX
  8
1
  10
0.46268
  20
1.64959
  0
VERTEX
  8
1
  10
0.46364
  20
1.64858
  0
VERTEX
  8
1
  10
0.46456
  20
1.64727
  0
VERTEX
  8
1
  10
0.46547
  20
1.64565
  0
VERTEX
  8
1
  10
0.46629
  20
1.64394
  0
VERTEX
  8
1
  10
0.46705
  20
1.64243
  0
VERTEX
  8
1
  10
0.46784
  20
1.64113
  0
VERTEX
  8
1
  10
0.46878
  20
1.64007
  0
VERTEX
  8
1
  10
0.46997
  20
1.63926
  0
VERTEX
  8
1
  10
0.47152
  20
1.63873
  0
VERTEX
  8
1
  10
0.47354
  20
1.63848
  0
VERTEX
  8
1
  10
0.47613
  20
1.63853
  0
VERTEX
  8
1
  10
0.47941
  20
1.63892
  0
VERTEX
  8
1
  10
0.48348
  20
1.63964
  0
VERTEX
  8
1
  10
0.48682
  20
1.64044
  0
VERTEX
  8
1
  10
0.48966
  20
1.64103
  0
VERTEX
  8
1
  10
0.49202
  20
1.64137
  0
VERTEX
  8
1
  10
0.49396
  20
1.64142
  0
VERTEX
  8
1
  10
0.49550
  20
1.64114
  0
VERTEX
  8
1
  10
0.49667
  20
1.64050
  0
VERTEX
  8
1
  10
0.49753
  20
1.63947
  0
VERTEX
  8
1
  10
0.49809
  20
1.63801
  0
VERTEX
  8
1
  10
0.49840
  20
1.63607
  0
VERTEX
  8
1
  10
0.49850
  20
1.63363
  0
VERTEX
  8
1
  10
0.49868
  20
1.63038
  0
VERTEX
  8
1
  10
0.49924
  20
1.62782
  0
VERTEX
  8
1
  10
0.50020
  20
1.62590
  0
VERTEX
  8
1
  10
0.50157
  20
1.62460
  0
VERTEX
  8
1
  10
0.50338
  20
1.62387
  0
VERTEX
  8
1
  10
0.50563
  20
1.62369
  0
VERTEX
  8
1
  10
0.50836
  20
1.62401
  0
VERTEX
  8
1
  10
0.51157
  20
1.62479
  0
VERTEX
  8
1
  10
0.51528
  20
1.62601
  0
VERTEX
  8
1
  10
0.51952
  20
1.62763
  0
VERTEX
  8
1
  10
0.52248
  20
1.62853
  0
VERTEX
  8
1
  10
0.52591
  20
1.62941
  0
VERTEX
  8
1
  10
0.52974
  20
1.63025
  0
VERTEX
  8
1
  10
0.53389
  20
1.63104
  0
VERTEX
  8
1
  10
0.53829
  20
1.63176
  0
VERTEX
  8
1
  10
0.54287
  20
1.63238
  0
VERTEX
  8
1
  10
0.54756
  20
1.63290
  0
VERTEX
  8
1
  10
0.55229
  20
1.63330
  0
VERTEX
  8
1
  10
0.55698
  20
1.63355
  0
VERTEX
  8
1
  10
0.56156
  20
1.63363
  0
VERTEX
  8
1
  10
0.56824
  20
1.63445
  0
VERTEX
  8
1
  10
0.57393
  20
1.63512
  0
VERTEX
  8
1
  10
0.57872
  20
1.63569
  0
VERTEX
  8
1
  10
0.58270
  20
1.63618
  0
VERTEX
  8
1
  10
0.58596
  20
1.63664
  0
VERTEX
  8
1
  10
0.58859
  20
1.63709
  0
VERTEX
  8
1
  10
0.59068
  20
1.63759
  0
VERTEX
  8
1
  10
0.59231
  20
1.63815
  0
VERTEX
  8
1
  10
0.59359
  20
1.63882
  0
VERTEX
  8
1
  10
0.59459
  20
1.63964
  0
VERTEX
  8
1
  10
0.59459
  20
1.64135
  0
VERTEX
  8
1
  10
0.59452
  20
1.64291
  0
VERTEX
  8
1
  10
0.59435
  20
1.64432
  0
VERTEX
  8
1
  10
0.59402
  20
1.64560
  0
VERTEX
  8
1
  10
0.59347
  20
1.64677
  0
VERTEX
  8
1
  10
0.59265
  20
1.64786
  0
VERTEX
  8
1
  10
0.59150
  20
1.64887
  0
VERTEX
  8
1
  10
0.58998
  20
1.64983
  0
VERTEX
  8
1
  10
0.58803
  20
1.65075
  0
VERTEX
  8
1
  10
0.58559
  20
1.65165
  0
VERTEX
  8
1
  10
0.58379
  20
1.65328
  0
VERTEX
  8
1
  10
0.58203
  20
1.65458
  0
VERTEX
  8
1
  10
0.58034
  20
1.65560
  0
VERTEX
  8
1
  10
0.57876
  20
1.65636
  0
VERTEX
  8
1
  10
0.57733
  20
1.65691
  0
VERTEX
  8
1
  10
0.57607
  20
1.65727
  0
VERTEX
  8
1
  10
0.57503
  20
1.65750
  0
VERTEX
  8
1
  10
0.57425
  20
1.65761
  0
VERTEX
  8
1
  10
0.57357
  20
1.65766
  0
VERTEX
  8
1
  10
0.57135
  20
1.65800
  0
VERTEX
  8
1
  10
0.56836
  20
1.65893
  0
VERTEX
  8
1
  10
0.56476
  20
1.66033
  0
VERTEX
  8
1
  10
0.56070
  20
1.66208
  0
VERTEX
  8
1
  10
0.55631
  20
1.66404
  0
VERTEX
  8
1
  10
0.55174
  20
1.66609
  0
VERTEX
  8
1
  10
0.54713
  20
1.66811
  0
VERTEX
  8
1
  10
0.54263
  20
1.66996
  0
VERTEX
  8
1
  10
0.53838
  20
1.67152
  0
VERTEX
  8
1
  10
0.53453
  20
1.67267
  0
VERTEX
  8
1
  10
0.52916
  20
1.67546
  0
VERTEX
  8
1
  10
0.52216
  20
1.67837
  0
VERTEX
  8
1
  10
0.51372
  20
1.68135
  0
VERTEX
  8
1
  10
0.50402
  20
1.68435
  0
VERTEX
  8
1
  10
0.49324
  20
1.68731
  0
VERTEX
  8
1
  10
0.48156
  20
1.69019
  0
VERTEX
  8
1
  10
0.46916
  20
1.69292
  0
VERTEX
  8
1
  10
0.45622
  20
1.69545
  0
VERTEX
  8
1
  10
0.44291
  20
1.69773
  0
VERTEX
  8
1
  10
0.42943
  20
1.69970
  0
SEQEND
  0
POLYLINE
  8
1
  6
CONTINUOUS
 66
  1
 70
  1
  0
VERTEX
  8
1
  10
0.38739
  20
1.74474
  0
VERTEX
  8
1
  10
0.38230
  20
1.74603
  0
VERTEX
  8
1
  10
0.37626
  20
1.74635
  0
VERTEX
  8
1
  10
0.36958
  20
1.74585
  0
VERTEX
  8
1
  10
0.36255
  20
1.74465
  0
VERTEX
  8
1
  10
0.35548
  20
1.74287
  0
VERTEX
  8
1
  10
0.34868
  20
1.74064
  0
VERTEX
  8
1
  10
0.34247
  20
1.73808
  0
VERTEX
  8
1
  10
0.33713
  20
1.73533
  0
VERTEX
  8
1
  10
0.33298
  20
1.73250
  0
VERTEX
  8
1
  10
0.33033
  20
1.72973
  0
VERTEX
  8
1
  10
0.32972
  20
1.72802
  0
VERTEX
  8
1
  10
0.32975
  20
1.72649
  0
VERTEX
  8
1
  10
0.33055
  20
1.72514
  0
VERTEX
  8
1
  10
0.33220
  20
1.72396
  0
VERTEX
  8
1
  10
0.33483
  20
1.72297
  0
VERTEX
  8
1
  10
0.33855
  20
1.72216
  0
VERTEX
  8
1
  10
0.34345
  20
1.72153
  0
VERTEX
  8
1
  10
0.34965
  20
1.72108
  0
VERTEX
  8
1
  10
0.35725
  20
1.72081
  0
VERTEX
  8
1
  10
0.36637
  20
1.72072
  0
VERTEX
  8
1
  10
0.37185
  20
1.72072
  0
VERTEX
  8
1
  10
0.37744
  20
1.72070
  0
VERTEX
  8
1
  10
0.38307
  20
1.72064
  0
VERTEX
  8
1
  10
0.38866
  20
1.72053
  0
VERTEX
  8
1
  10
0.39414
  20
1.72035
  0
VERTEX
  8
1
  10
0.39945
  20
1.72007
  0
VERTEX
  8
1
  10
0.40450
  20
1.71969
  0
VERTEX
  8
1
  10
0.40923
  20
1.71918
  0
VERTEX
  8
1
  10
0.41356
  20
1.71853
  0
VERTEX
  8
1
  10
0.41742
  20
1.71772
  0
VERTEX
  8
1
  10
0.42110
  20
1.71763
  0
VERTEX
  8
1
  10
0.42491
  20
1.71741
  0
VERTEX
  8
1
  10
0.42880
  20
1.71707
  0
VERTEX
  8
1
  10
0.43270
  20
1.71666
  0
VERTEX
  8
1
  10
0.43656
  20
1.71622
  0
VERTEX
  8
1
  10
0.44034
  20
1.71577
  0
VERTEX
  8
1
  10
0.44397
  20
1.71536
  0
VERTEX
  8
1
  10
0.44740
  20
1.71503
  0
VERTEX
  8
1
  10
0.45058
  20
1.71480
  0
VERTEX
  8
1
  10
0.45345
  20
1.71471
  0
VERTEX
  8
1
  10
0.45615
  20
1.71382
  0
VERTEX
  8
1
  10
0.45881
  20
1.71294
  0
VERTEX
  8
1
  10
0.46140
  20
1.71209
  0
VERTEX
  8
1
  10
0.46388
  20
1.71130
  0
VERTEX
  8
1
  10
0.46622
  20
1.71059
  0
VERTEX
  8
1
  10
0.46837
  20
1.70996
  0
VERTEX
  8
1
  10
0.47031
  20
1.70944
  0
VERTEX
  8
1
  10
0.47200
  20
1.70905
  0
VERTEX
  8
1
  10
0.47340
  20
1.70880
  0
VERTEX
  8
1
  10
0.47447
  20
1.70871
  0
VERTEX
  8
1
  10
0.47482
  20
1.70781
  0
VERTEX
  8
1
  10
0.47582
  20
1.70693
  0
VERTEX
  8
1
  10
0.47739
  20
1.70609
  0
VERTEX
  8
1
  10
0.47947
  20
1.70530
  0
VERTEX
  8
1
  10
0.48198
  20
1.70458
  0
VERTEX
  8
1
  10
0.48485
  20
1.70395
  0
VERTEX
  8
1
  10
0.48801
  20
1.70343
  0
VERTEX
  8
1
  10
0.49139
  20
1.70304
  0
VERTEX
  8
1
  10
0.49491
  20
1.70279
  0
VERTEX
  8
1
  10
0.49850
  20
1.70270
  0
VERTEX
  8
1
  10
0.50228
  20
1.70253
  0
VERTEX
  8
1
  10
0.50638
  20
1.70201
  0
VERTEX
  8
1
  10
0.51077
  20
1.70116
  0
VERTEX
  8
1
  10
0.51541
  20
1.70001
  0
VERTEX
  8
1
  10
0.52027
  20
1.69857
  0
VERTEX
  8
1
  10
0.52531
  20
1.69686
  0
VERTEX
  8
1
  10
0.53049
  20
1.69490
  0
VERTEX
  8
1
  10
0.53578
  20
1.69271
  0
VERTEX
  8
1
  10
0.54115
  20
1.69030
  0
VERTEX
  8
1
  10
0.54655
  20
1.68769
  0
VERTEX
  8
1
  10
0.58859
  20
1.67267
  0
VERTEX
  8
1
  10
0.60661
  20
1.66366
  0
VERTEX
  8
1
  10
0.62462
  20
1.65465
  0
VERTEX
  8
1
  10
0.62948
  20
1.65249
  0
VERTEX
  8
1
  10
0.63498
  20
1.64961
  0
VERTEX
  8
1
  10
0.64106
  20
1.64601
  0
VERTEX
  8
1
  10
0.64764
  20
1.64168
  0
VERTEX
  8
1
  10
0.65465
  20
1.63664
  0
VERTEX
  8
1
  10
0.66203
  20
1.63087
  0
VERTEX
  8
1
  10
0.66969
  20
1.62438
  0
VERTEX
  8
1
  10
0.67757
  20
1.61718
  0
VERTEX
  8
1
  10
0.68560
  20
1.60925
  0
VERTEX
  8
1
  10
0.69369
  20
1.60060
  0
VERTEX
  8
1
  10
0.69909
  20
1.59611
  0
VERTEX
  8
1
  10
0.70441
  20
1.59171
  0
VERTEX
  8
1
  10
0.70959
  20
1.58749
  0
VERTEX
  8
1
  10
0.71455
  20
1.58354
  0
VERTEX
  8
1
  10
0.71922
  20
1.57995
  0
VERTEX
  8
1
  10
0.72353
  20
1.57682
  0
VERTEX
  8
1
  10
0.72741
  20
1.57422
  0
VERTEX
  8
1
  10
0.73079
  20
1.57225
  0
VERTEX
  8
1
  10
0.73359
  20
1.57101
  0
VERTEX
  8
1
  10
0.73574
  20
1.57057
  0
VERTEX
  8
1
  10
0.73753
  20
1.57083
  0
VERTEX
  8
1
  10
0.73927
  20
1.57158
  0
VERTEX
  8
1
  10
0.74090
  20
1.57276
  0
VERTEX
  8
1
  10
0.74237
  20
1.57432
  0
VERTEX
  8
1
  10
0.74362
  20
1.57620
  0
VERTEX
  8
1
  10
0.74460
  20
1.57835
  0
VERTEX
  8
1
  10
0.74526
  20
1.58072
  0
VERTEX
  8
1
  10
0.74554
  20
1.58326
  0
VERTEX
  8
1
  10
0.74538
  20
1.58589
  0
VERTEX
  8
1
  10
0.74474
  20
1.58859
  0
VERTEX
  8
1
  10
0.74273
  20
1.59222
  0
VERTEX
  8
1
  10
0.73874
  20
1.59748
  0
VERTEX
  8
1
  10
0.73312
  20
1.60399
  0
VERTEX
  8
1
  10
0.72625
  20
1.61141
  0
VERTEX
  8
1
  10
0.71847
  20
1.61937
  0
VERTEX
  8
1
  10
0.71015
  20
1.62751
  0
VERTEX
  8
1
  10
0.70165
  20
1.63547
  0
VERTEX
  8
1
  10
0.69333
  20
1.64288
  0
VERTEX
  8
1
  10
0.68556
  20
1.64940
  0
VERTEX
  8
1
  10
0.67868
  20
1.65465
  0
VERTEX
  8
1
  10
0.66565
  20
1.66274
  0
VERTEX
  8
1
  10
0.65194
  20
1.67073
  0
VERTEX
  8
1
  10
0.63776
  20
1.67849
  0
VERTEX
  8
1
  10
0.62333
  20
1.68593
  0
VERTEX
  8
1
  10
0.60886
  20
1.69294
  0
VERTEX
  8
1
  10
0.59457
  20
1.69941
  0
VERTEX
  8
1
  10
0.58068
  20
1.70523
  0
VERTEX
  8
1
  10
0.56740
  20
1.71029
  0
VERTEX
  8
1
  10
0.55495
  20
1.71449
  0
VERTEX
  8
1
  10
0.54354
  20
1.71772
  0
VERTEX
  8
1
  10
0.42042
  20
1.73874
  0
SEQEND
  0
POLYLINE
  8
1
  6
CONTINUOUS
 66
  1
 70
  1
  0
VERTEX
  8
1
  10
0.22269
  20
2.00714
  0
VERTEX
  8
1
  10
0.22047
  20
2.01055
  0
VERTEX
  8
1
  10
0.21850
  20
2.01319
  0
VERTEX
  8
1
  10
0.21672
  20
2.01506
  0
VERTEX
  8
1
  10
0.21509
  20
2.01614
  0
VERTEX
  8
1
  10
0.21355
  20
2.01641
  0
VERTEX
  8
1
  10
0.21205
  20
2.01585
  0
VERTEX
  8
1
  10
0.21052
  20
2.01444
  0
VERTEX
  8
1
  10
0.20893
  20
2.01217
  0
VERTEX
  8
1
  10
0.20721
  20
2.00901
  0
VERTEX
  8
1
  10
0.20542
  20
2.00353
  0
VERTEX
  8
1
  10
0.20370
  20
1.99796
  0
VERTEX
  8
1
  10
0.20213
  20
1.99239
  0
VERTEX
  8
1
  10
0.20077
  20
1.98691
  0
VERTEX
  8
1
  10
0.19970
  20
1.98161
  0
VERTEX
  8
1
  10
0.19899
  20
1.97658
  0
VERTEX
  8
1
  10
0.19871
  20
1.97191
  0
VERTEX
  8
1
  10
0.19894
  20
1.96769
  0
VERTEX
  8
1
  10
0.19975
  20
1.96401
  0
VERTEX
  8
1
  10
0.20120
  20
1.96096
  0
VERTEX
  8
1
  10
0.20261
  20
1.95712
  0
VERTEX
  8
1
  10
0.20492
  20
1.95294
  0
VERTEX
  8
1
  10
0.20796
  20
1.94861
  0
VERTEX
  8
1
  10
0.21153
  20
1.94434
  0
VERTEX
  8
1
  10
0.21547
  20
1.94032
  0
VERTEX
  8
1
  10
0.21958
  20
1.93674
  0
VERTEX
  8
1
  10
0.22369
  20
1.93382
  0
VERTEX
  8
1
  10
0.22763
  20
1.93175
  0
VERTEX
  8
1
  10
0.23120
  20
1.93072
  0
VERTEX
  8
1
  10
0.23423
  20
1.93093
  0
VERTEX
  8
1
  10
0.23513
  20
1.93137
  0
VERTEX
  8
1
  10
0.23596
  20
1.93261
  0
VERTEX
  8
1
  10
0.23669
  20
1.93458
  0
VERTEX
  8
1
  10
0.23726
  20
1.93718
  0
VERTEX
  8
1
  10
0.23761
  20
1.94032
  0
VERTEX
  8
1
  10
0.23769
  20
1.94390
  0
VERTEX
  8
1
  10
0.23745
  20
1.94785
  0
VERTEX
  8
1
  10
0.23683
  20
1.95207
  0
VERTEX
  8
1
  10
0.23577
  20
1.95647
  0
VERTEX
  8
1
  10
0.23423
  20
1.96096
  0
VERTEX
  8
1
  10
0.23342
  20
1.96366
  0
VERTEX
  8
1
  10
0.23277
  20
1.96632
  0
VERTEX
  8
1
  10
0.23226
  20
1.96891
  0
VERTEX
  8
1
  10
0.23188
  20
1.97139
  0
VERTEX
  8
1
  10
0.23161
  20
1.97372
  0
VERTEX
  8
1
  10
0.23142
  20
1.97588
  0
VERTEX
  8
1
  10
0.23131
  20
1.97782
  0
VERTEX
  8
1
  10
0.23126
  20
1.97951
  0
VERTEX
  8
1
  10
0.23123
  20
1.98091
  0
VERTEX
  8
1
  10
0.23123
  20
1.98198
  0
VERTEX
  8
1
  10
0.23114
  20
1.98306
  0
VERTEX
  8
1
  10
0.23089
  20
1.98446
  0
VERTEX
  8
1
  10
0.23050
  20
1.98614
  0
VERTEX
  8
1
  10
0.22998
  20
1.98808
  0
VERTEX
  8
1
  10
0.22935
  20
1.99024
  0
VERTEX
  8
1
  10
0.22864
  20
1.99258
  0
VERTEX
  8
1
  10
0.22785
  20
1.99506
  0
VERTEX
  8
1
  10
0.22700
  20
1.99765
  0
VERTEX
  8
1
  10
0.22612
  20
2.00031
  0
VERTEX
  8
1
  10
0.22523
  20
2.00300
  0
SEQEND
  0
ENDSEC
  0
EOF
