0
SECTION
2
HEADER
9
$ACADVER
1
AC1009
9
$ANGDIR
70
0
9
$EXTMIN
10
0
20
0
9
$EXTMAX
10
24.0000
20
18.0000
0
ENDSEC
0
SECTION
2
ENTITIES
0
POLYLINE
8
Layer 1
66
1
0
VERTEX
8
0
10
7.8916
20
1.8442
42
0.0698
0
VERTEX
8
0
10
7.1707
20
1.8711
42
0.0164
0
VERTEX
8
0
10
7.0262
20
1.8674
42
0.3295
0
VERTEX
8
0
10
6.7943
20
1.5842
42
0.5251
0
VERTEX
8
0
10
6.8794
20
1.5633
42
0.0131
0
VERTEX
8
0
10
6.9708
20
1.5632
42
0.0052
0
VERTEX
8
0
10
7.1534
20
1.5675
42
0.0214
0
VERTEX
8
0
10
7.6145
20
1.6010
42
0.1358
0
VERTEX
8
0
10
7.8884
20
1.7428
42
0.0301
0
VERTEX
8
0
10
7.9340
20
1.8016
42
0.7399
0
VERTEX
8
0
10
7.8916
20
1.8442
0
SEQEND
8
0
0
POLYLINE
8
Layer 1
66
1
0
VERTEX
8
0
10
7.6247
20
2.3974
42
-0.0076
0
VERTEX
8
0
10
7.9461
20
2.3931
42
-0.1163
0
VERTEX
8
0
10
8.2664
20
2.3710
42
-0.2741
0
VERTEX
8
0
10
8.2782
20
2.2912
42
-0.2196
0
VERTEX
8
0
10
8.1051
20
2.0793
42
-0.0539
0
VERTEX
8
0
10
7.7773
20
2.0480
42
-0.0069
0
VERTEX
8
0
10
7.4135
20
2.0570
42
-0.1792
0
VERTEX
8
0
10
7.0515
20
2.0852
42
-0.1607
0
VERTEX
8
0
10
7.0596
20
2.1359
42
0.0135
0
VERTEX
8
0
10
7.1211
20
2.2782
0
VERTEX
8
0
10
7.1626
20
2.3818
0
VERTEX
8
0
10
7.3842
20
2.3926
42
-0.0091
0
VERTEX
8
0
10
7.6247
20
2.3974
0
SEQEND
8
0
0
POLYLINE
8
Layer 1
66
1
0
VERTEX
8
0
10
7.5686
20
3.5373
42
0.4292
0
VERTEX
8
0
10
7.4764
20
3.3826
42
0.1653
0
VERTEX
8
0
10
7.5400
20
3.1965
42
0.1269
0
VERTEX
8
0
10
7.7007
20
3.1992
42
-0.0128
0
VERTEX
8
0
10
7.8992
20
3.2100
42
-0.0217
0
VERTEX
8
0
10
8.2081
20
3.1960
0
VERTEX
8
0
10
8.4476
20
3.1820
0
VERTEX
8
0
10
8.4395
20
3.3168
42
0.2042
0
VERTEX
8
0
10
8.3189
20
3.5591
42
0.1113
0
VERTEX
8
0
10
8.0259
20
3.5805
42
0.0242
0
VERTEX
8
0
10
7.6835
20
3.5632
42
0.0040
0
VERTEX
8
0
10
7.5686
20
3.5373
0
SEQEND
8
0
0
POLYLINE
8
Layer 1
66
1
0
VERTEX
8
0
10
7.2898
20
4.0555
42
0.4710
0
VERTEX
8
0
10
7.3316
20
3.9163
42
0.0312
0
VERTEX
8
0
10
7.3939
20
3.7838
42
0.3470
0
VERTEX
8
0
10
7.5399
20
3.7404
42
0.0207
0
VERTEX
8
0
10
7.7007
20
3.7622
42
-0.0683
0
VERTEX
8
0
10
8.2351
20
3.7708
42
0.1218
0
VERTEX
8
0
10
8.3095
20
3.7681
42
0.4667
0
VERTEX
8
0
10
8.2946
20
3.8975
42
0.0375
0
VERTEX
8
0
10
8.2497
20
4.0221
42
0.3764
0
VERTEX
8
0
10
7.9229
20
4.1677
42
0.0327
0
VERTEX
8
0
10
7.6991
20
4.1488
42
0.0477
0
VERTEX
8
0
10
7.2898
20
4.0555
0
SEQEND
8
0
0
POLYLINE
8
Layer 1
66
1
0
VERTEX
8
0
10
7.0450
20
4.6029
42
0.4108
0
VERTEX
8
0
10
6.9920
20
4.4521
42
0.1477
0
VERTEX
8
0
10
7.1016
20
4.3133
42
0.3501
0
VERTEX
8
0
10
7.3901
20
4.3052
42
-0.0608
0
VERTEX
8
0
10
7.9380
20
4.3667
42
0.1940
0
VERTEX
8
0
10
8.0286
20
4.3926
42
0.2021
0
VERTEX
8
0
10
7.9461
20
4.5872
42
0.1145
0
VERTEX
8
0
10
7.8474
20
4.6557
42
0.1723
0
VERTEX
8
0
10
7.5843
20
4.6918
42
0.0796
0
VERTEX
8
0
10
7.0450
20
4.6029
0
SEQEND
8
0
0
POLYLINE
8
Layer 1
66
1
0
VERTEX
8
0
10
6.5619
20
5.0024
42
0.3430
0
VERTEX
8
0
10
6.6988
20
4.8320
42
0.3104
0
VERTEX
8
0
10
6.9943
20
4.8061
42
-0.0392
0
VERTEX
8
0
10
7.4980
20
4.9000
42
0.0579
0
VERTEX
8
0
10
7.6317
20
4.9167
42
0.2428
0
VERTEX
8
0
10
7.5859
20
4.9943
42
0.2312
0
VERTEX
8
0
10
7.2527
20
5.1680
42
0.0698
0
VERTEX
8
0
10
6.8638
20
5.1146
42
0.0753
0
VERTEX
8
0
10
6.5619
20
5.0024
0
SEQEND
8
0
0
POLYLINE
8
Layer 1
66
1
0
VERTEX
8
0
10
6.1138
20
5.5007
42
0.2826
0
VERTEX
8
0
10
6.1955
20
5.3999
42
0.0212
0
VERTEX
8
0
10
6.2885
20
5.3087
42
0.0998
0
VERTEX
8
0
10
6.4006
20
5.2456
42
0.1926
0
VERTEX
8
0
10
6.6050
20
5.2542
42
-0.0243
0
VERTEX
8
0
10
6.9922
20
5.3373
42
0.0557
0
VERTEX
8
0
10
7.1437
20
5.3858
42
0.4334
0
VERTEX
8
0
10
7.1031
20
5.4563
42
0.0271
0
VERTEX
8
0
10
7.0466
20
5.5170
42
0.0558
0
VERTEX
8
0
10
6.9162
20
5.6193
42
0.0983
0
VERTEX
8
0
10
6.7937
20
5.6479
42
0.0946
0
VERTEX
8
0
10
6.4929
20
5.5826
42
-0.0262
0
VERTEX
8
0
10
6.1785
20
5.5136
42
0.0985
0
VERTEX
8
0
10
6.1138
20
5.5007
0
SEQEND
8
0
0
POLYLINE
8
Layer 1
66
1
0
VERTEX
8
0
10
5.6775
20
5.9644
42
0.6413
0
VERTEX
8
0
10
5.6711
20
5.8452
42
0.1583
0
VERTEX
8
0
10
5.8328
20
5.7110
42
0.1561
0
VERTEX
8
0
10
6.0615
20
5.7034
42
0.0609
0
VERTEX
8
0
10
6.6708
20
5.8749
42
0.8604
0
VERTEX
8
0
10
6.6267
20
5.9276
42
0.0195
0
VERTEX
8
0
10
6.5713
20
5.9719
42
0.0347
0
VERTEX
8
0
10
6.4513
20
6.0491
42
0.1712
0
VERTEX
8
0
10
6.2702
20
6.0712
42
0.0811
0
VERTEX
8
0
10
5.6775
20
5.9644
0
SEQEND
8
0
0
POLYLINE
8
Layer 1
66
1
0
VERTEX
8
0
10
5.7050
20
6.6126
42
-0.2571
0
VERTEX
8
0
10
6.1461
20
6.4023
0
VERTEX
8
0
10
6.2017
20
6.3246
0
VERTEX
8
0
10
6.1596
20
6.3084
42
-0.0387
0
VERTEX
8
0
10
6.0507
20
6.2809
42
0.0188
0
VERTEX
8
0
10
5.5007
20
6.1699
42
-0.1958
0
VERTEX
8
0
10
5.1372
20
6.3165
42
-0.3281
0
VERTEX
8
0
10
5.0262
20
6.4670
42
-0.2177
0
VERTEX
8
0
10
5.1292
20
6.5426
42
-0.0112
0
VERTEX
8
0
10
5.2711
20
6.5658
0
VERTEX
8
0
10
5.5562
20
6.6029
42
-0.0350
0
VERTEX
8
0
10
5.7050
20
6.6126
0
SEQEND
8
0
0
POLYLINE
8
Layer 1
66
1
0
VERTEX
8
0
10
5.5950
20
7.2084
42
0.2013
0
VERTEX
8
0
10
5.3517
20
7.2629
42
0.0242
0
VERTEX
8
0
10
5.1006
20
7.2726
42
0.0558
0
VERTEX
8
0
10
4.5225
20
7.2068
42
0.5919
0
VERTEX
8
0
10
4.5047
20
7.0774
42
0.0233
0
VERTEX
8
0
10
4.6126
20
6.9426
42
0.0641
0
VERTEX
8
0
10
4.8439
20
6.7274
42
0.0076
0
VERTEX
8
0
10
4.9485
20
6.7549
42
-0.0647
0
VERTEX
8
0
10
5.5589
20
6.8347
0
VERTEX
8
0
10
5.7207
20
6.8461
0
VERTEX
8
0
10
5.7088
20
6.9517
42
0.1540
0
VERTEX
8
0
10
5.5950
20
7.2084
0
SEQEND
8
0
0
POLYLINE
8
Layer 1
66
1
0
VERTEX
8
0
10
5.6037
20
7.8043
42
0.2895
0
VERTEX
8
0
10
5.3022
20
7.9310
42
0.0610
0
VERTEX
8
0
10
4.4071
20
7.9703
42
0.0228
0
VERTEX
8
0
10
4.2480
20
7.9628
42
0.3040
0
VERTEX
8
0
10
4.1461
20
7.7703
42
0.2199
0
VERTEX
8
0
10
4.2799
20
7.4802
42
0.2675
0
VERTEX
8
0
10
4.4395
20
7.4565
42
-0.0460
0
VERTEX
8
0
10
5.0348
20
7.4726
42
0.0117
0
VERTEX
8
0
10
5.5557
20
7.4872
42
0.4240
0
VERTEX
8
0
10
5.6282
20
7.6363
42
0.1347
0
VERTEX
8
0
10
5.6037
20
7.8043
0
SEQEND
8
0
0
POLYLINE
8
Layer 1
66
1
0
VERTEX
8
0
10
5.8280
20
8.3737
42
0.2247
0
VERTEX
8
0
10
5.4839
20
8.5691
42
0.0342
0
VERTEX
8
0
10
5.0952
20
8.6686
42
0.0334
0
VERTEX
8
0
10
4.6881
20
8.7231
0
VERTEX
8
0
10
4.5581
20
8.7231
0
VERTEX
8
0
10
4.4659
20
8.6309
42
0.1275
0
VERTEX
8
0
10
4.2809
20
8.3165
42
0.5353
0
VERTEX
8
0
10
4.3511
20
8.2576
42
0.0194
0
VERTEX
8
0
10
4.4597
20
8.2444
42
0.0037
0
VERTEX
8
0
10
4.6724
20
8.2238
42
-0.0263
0
VERTEX
8
0
10
5.4834
20
8.1035
42
0.1628
0
VERTEX
8
0
10
5.7228
20
8.1084
42
0.4207
0
VERTEX
8
0
10
5.8280
20
8.3737
0
SEQEND
8
0
0
POLYLINE
8
Layer 1
66
1
0
VERTEX
8
0
10
6.2654
20
8.4409
42
0.0483
0
VERTEX
8
0
10
6.1526
20
8.3311
42
0.1865
0
VERTEX
8
0
10
5.8717
20
7.4931
42
0.1938
0
VERTEX
8
0
10
6.2227
20
6.6223
42
0.0436
0
VERTEX
8
0
10
6.3068
20
6.5489
42
0.7173
0
VERTEX
8
0
10
6.3203
20
6.6190
42
-0.0891
0
VERTEX
8
0
10
6.4276
20
7.2133
42
-0.1105
0
VERTEX
8
0
10
6.8342
20
7.8803
0
VERTEX
8
0
10
6.9641
20
8.0129
0
VERTEX
8
0
10
6.9113
20
8.0787
42
0.0948
0
VERTEX
8
0
10
6.4017
20
8.5160
42
0.2557
0
VERTEX
8
0
10
6.2654
20
8.4409
0
SEQEND
8
0
0
POLYLINE
8
Layer 1
66
1
0
VERTEX
8
0
10
6.0399
20
8.8148
42
0.1825
0
VERTEX
8
0
10
5.2807
20
9.0682
42
0.0861
0
VERTEX
8
0
10
5.0164
20
9.0224
42
0.0501
0
VERTEX
8
0
10
4.9459
20
8.9787
42
0.5966
0
VERTEX
8
0
10
4.9561
20
8.9302
42
-0.0979
0
VERTEX
8
0
10
5.5524
20
8.7414
42
0.0567
0
VERTEX
8
0
10
5.9612
20
8.6034
42
0.2237
0
VERTEX
8
0
10
6.0604
20
8.6471
42
0.5418
0
VERTEX
8
0
10
6.0399
20
8.8148
0
SEQEND
8
0
0
POLYLINE
8
Layer 1
66
1
0
VERTEX
8
0
10
6.2001
20
10.2076
42
-0.0497
0
VERTEX
8
0
10
7.9164
20
10.0410
42
-0.0161
0
VERTEX
8
0
10
8.4815
20
9.9062
0
VERTEX
8
0
10
8.6940
20
9.8485
42
-0.0923
0
VERTEX
8
0
10
9.1561
20
9.5810
42
0.0674
0
VERTEX
8
0
10
9.6592
20
9.2230
42
-0.0371
0
VERTEX
8
0
10
9.9683
20
9.0386
42
-0.1691
0
VERTEX
8
0
10
10.2179
20
8.7840
42
-0.4995
0
VERTEX
8
0
10
10.1704
20
8.5107
42
0.1085
0
VERTEX
8
0
10
10.0917
20
8.3850
42
-0.0624
0
VERTEX
8
0
10
10.0156
20
8.2178
42
-0.0385
0
VERTEX
8
0
10
9.9105
20
8.0975
42
-0.3314
0
VERTEX
8
0
10
9.7865
20
7.9984
42
-0.1043
0
VERTEX
8
0
10
9.7843
20
8.0717
42
0.0285
0
VERTEX
8
0
10
9.7952
20
8.2964
42
0.0132
0
VERTEX
8
0
10
9.7917
20
8.4088
42
0.3035
0
VERTEX
8
0
10
9.7751
20
8.5193
42
0.1609
0
VERTEX
8
0
10
9.7201
20
8.4648
42
-0.0570
0
VERTEX
8
0
10
9.5492
20
8.2619
42
-0.0274
0
VERTEX
8
0
10
9.4487
20
8.1755
42
-0.5597
0
VERTEX
8
0
10
9.3335
20
8.1202
42
-0.0369
0
VERTEX
8
0
10
9.3605
20
8.2486
42
0.0457
0
VERTEX
8
0
10
9.3956
20
8.4631
42
0.3098
0
VERTEX
8
0
10
9.3767
20
8.6773
42
0.1742
0
VERTEX
8
0
10
9.2969
20
8.7059
42
-0.0486
0
VERTEX
8
0
10
8.3446
20
9.1087
42
0.0846
0
VERTEX
8
0
10
7.2435
20
9.4468
42
0.0680
0
VERTEX
8
0
10
6.4659
20
9.5584
42
0.0454
0
VERTEX
8
0
10
6.2996
20
9.5521
42
0.2757
0
VERTEX
8
0
10
6.1634
20
9.4705
42
0.1672
0
VERTEX
8
0
10
6.3033
20
9.2358
42
0.0086
0
VERTEX
8
0
10
6.5360
20
9.0520
42
-0.0321
0
VERTEX
8
0
10
7.1140
20
8.5597
42
0.1285
0
VERTEX
8
0
10
7.7784
20
8.0658
42
0.1393
0
VERTEX
8
0
10
8.3435
20
8.0642
42
-0.0797
0
VERTEX
8
0
10
8.4858
20
8.1019
42
-0.0496
0
VERTEX
8
0
10
8.4945
20
8.0167
42
0.2330
0
VERTEX
8
0
10
8.6579
20
7.7897
42
-0.2445
0
VERTEX
8
0
10
8.7322
20
7.7400
42
-0.1384
0
VERTEX
8
0
10
8.6586
20
7.7095
42
-0.0091
0
VERTEX
8
0
10
8.4821
20
7.6959
42
-0.1623
0
VERTEX
8
0
10
7.6635
20
7.8690
42
-0.0176
0
VERTEX
8
0
10
6.9846
20
8.3958
42
0.0321
0
VERTEX
8
0
10
6.1949
20
9.0113
42
0.1744
0
VERTEX
8
0
10
5.2688
20
9.3443
42
0.1546
0
VERTEX
8
0
10
4.2917
20
8.9404
42
0.1258
0
VERTEX
8
0
10
3.8663
20
8.3607
42
0.0585
0
VERTEX
8
0
10
3.8291
20
8.0329
42
0.0950
0
VERTEX
8
0
10
3.8851
20
7.6382
42
0.1151
0
VERTEX
8
0
10
5.1297
20
5.9790
42
-0.0418
0
VERTEX
8
0
10
5.2505
20
5.8754
0
VERTEX
8
0
10
5.5697
20
5.6080
42
-0.0292
0
VERTEX
8
0
10
6.4508
20
4.8164
42
-0.1043
0
VERTEX
8
0
10
7.1130
20
3.9833
42
-0.0866
0
VERTEX
8
0
10
7.3033
20
3.3136
42
0.0181
0
VERTEX
8
0
10
7.3351
20
3.0461
42
0.2938
0
VERTEX
8
0
10
7.4656
20
2.9774
0
VERTEX
8
0
10
7.6473
20
2.9954
42
-0.0309
0
VERTEX
8
0
10
8.1176
20
3.0073
42
-0.0425
0
VERTEX
8
0
10
8.3427
20
2.9926
42
-0.3358
0
VERTEX
8
0
10
8.4600
20
2.8374
42
-0.2097
0
VERTEX
8
0
10
8.3861
20
2.6190
42
-0.0324
0
VERTEX
8
0
10
7.7870
20
2.5802
42
-0.0755
0
VERTEX
8
0
10
7.2165
20
2.5872
42
-0.0217
0
VERTEX
8
0
10
7.2251
20
2.7711
42
0.1343
0
VERTEX
8
0
10
6.9841
20
3.9450
42
0.0909
0
VERTEX
8
0
10
5.7164
20
5.3243
42
-0.0313
0
VERTEX
8
0
10
4.5750
20
6.2872
42
-0.1135
0
VERTEX
8
0
10
3.6312
20
7.4370
42
-0.1706
0
VERTEX
8
0
10
3.5158
20
8.2065
42
-0.1401
0
VERTEX
8
0
10
3.8398
20
8.8945
42
-0.0893
0
VERTEX
8
0
10
4.4605
20
9.3405
42
-0.0507
0
VERTEX
8
0
10
5.0348
20
9.5524
42
0.0039
0
VERTEX
8
0
10
5.1814
20
9.5913
42
-0.0548
0
VERTEX
8
0
10
6.4411
20
9.7288
42
-0.0396
0
VERTEX
8
0
10
7.5454
20
9.6560
42
-0.1699
0
VERTEX
8
0
10
8.1580
20
9.4608
42
0.1851
0
VERTEX
8
0
10
8.5581
20
9.3039
42
0.1314
0
VERTEX
8
0
10
8.7824
20
9.3394
42
-0.0761
0
VERTEX
8
0
10
8.9296
20
9.3869
42
0.3288
0
VERTEX
8
0
10
9.0046
20
9.4144
42
0.0985
0
VERTEX
8
0
10
8.6471
20
9.7708
0
VERTEX
8
0
10
8.5759
20
9.8177
0
VERTEX
8
0
10
8.2205
20
9.8204
42
-0.0444
0
VERTEX
8
0
10
7.6748
20
9.8512
42
0.1216
0
VERTEX
8
0
10
4.6331
20
9.7385
42
0.0359
0
VERTEX
8
0
10
4.3101
20
9.6279
42
-0.0056
0
VERTEX
8
0
10
4.1806
20
9.5751
42
0.1483
0
VERTEX
8
0
10
3.2192
20
8.8611
42
0.2060
0
VERTEX
8
0
10
2.9544
20
7.8905
42
0.1451
0
VERTEX
8
0
10
3.5767
20
6.7377
42
0.0166
0
VERTEX
8
0
10
4.9253
20
5.6344
42
-0.0216
0
VERTEX
8
0
10
5.7768
20
4.9377
42
-0.0718
0
VERTEX
8
0
10
6.6184
20
4.0192
42
-0.1628
0
VERTEX
8
0
10
7.0105
20
2.8541
42
-0.1922
0
VERTEX
8
0
10
6.4357
20
1.4872
42
0.0181
0
VERTEX
8
0
10
6.3777
20
1.4251
42
0.0255
0
VERTEX
8
0
10
6.3510
20
1.3922
42
0.8146
0
VERTEX
8
0
10
6.3370
20
1.3551
42
0.0485
0
VERTEX
8
0
10
6.9976
20
1.3055
0
VERTEX
8
0
10
7.2893
20
1.3039
0
VERTEX
8
0
10
7.1227
20
1.1815
0
VERTEX
8
0
10
5.2591
20
1.1815
42
0.0133
0
VERTEX
8
0
10
5.4349
20
1.2311
42
0.0416
0
VERTEX
8
0
10
5.8889
20
1.4300
42
0.2097
0
VERTEX
8
0
10
6.6891
20
2.3079
42
0.1492
0
VERTEX
8
0
10
6.6873
20
3.3194
42
0.0980
0
VERTEX
8
0
10
6.1774
20
4.2038
42
0.0696
0
VERTEX
8
0
10
5.4009
20
4.8094
0
VERTEX
8
0
10
5.1383
20
4.9614
0
VERTEX
8
0
10
4.9140
20
5.0914
42
-0.0037
0
VERTEX
8
0
10
4.0340
20
5.6171
42
-0.0150
0
VERTEX
8
0
10
2.9469
20
6.3510
42
-0.0549
0
VERTEX
8
0
10
2.2431
20
6.9563
42
-0.1320
0
VERTEX
8
0
10
1.7886
20
7.7552
42
-0.1297
0
VERTEX
8
0
10
1.7821
20
8.3117
42
-0.1297
0
VERTEX
8
0
10
2.2283
20
9.0538
42
-0.0683
0
VERTEX
8
0
10
2.9496
20
9.5471
42
-0.0692
0
VERTEX
8
0
10
4.6681
20
10.0706
42
0.0023
0
VERTEX
8
0
10
4.8752
20
10.1035
42
-0.0398
0
VERTEX
8
0
10
6.2001
20
10.2076
0
SEQEND
8
0
0
POLYLINE
8
Layer 1
66
1
0
VERTEX
8
0
10
6.0000
20
11.3653
42
-0.4140
0
VERTEX
8
0
10
11.3653
20
6.0000
42
-0.4140
0
VERTEX
8
0
10
6.0000
20
0.6347
42
-0.4140
0
VERTEX
8
0
10
0.6347
20
6.0000
42
-0.4140
0
VERTEX
8
0
10
6.0000
20
11.3653
0
SEQEND
8
0
0
POLYLINE
8
Layer 1
66
1
0
VERTEX
8
0
10
6.0000
20
12.0000
42
0.4140
0
VERTEX
8
0
10
0.0000
20
6.0000
42
0.4140
0
VERTEX
8
0
10
6.0000
20
0.0000
42
0.4140
0
VERTEX
8
0
10
12.0000
20
6.0000
42
0.4140
0
VERTEX
8
0
10
6.0000
20
12.0000
0
SEQEND
8
0
0
POLYLINE
8
Layer 1
66
1
0
VERTEX
8
0
10
7.7088
20
9.1399
42
0.6076
0
VERTEX
8
0
10
7.7040
20
9.1243
42
0.0188
0
VERTEX
8
0
10
7.7660
20
9.0035
42
-0.0243
0
VERTEX
8
0
10
7.8576
20
8.8051
42
0.1223
0
VERTEX
8
0
10
8.1720
20
8.3607
42
0.0407
0
VERTEX
8
0
10
8.2664
20
8.3165
42
0.4457
0
VERTEX
8
0
10
8.2130
20
8.4066
42
-0.0472
0
VERTEX
8
0
10
8.1143
20
8.5764
42
0.0431
0
VERTEX
8
0
10
7.8361
20
9.0752
42
0.1181
0
VERTEX
8
0
10
7.7088
20
9.1399
0
SEQEND
8
0
0
POLYLINE
8
Layer 1
66
1
0
VERTEX
8
0
10
8.3262
20
9.6128
42
-0.0915
0
VERTEX
8
0
10
8.3408
20
9.6161
42
-0.0349
0
VERTEX
8
0
10
8.4553
20
9.6019
42
-0.6139
0
VERTEX
8
0
10
8.5635
20
9.5670
42
-0.1409
0
VERTEX
8
0
10
8.5160
20
9.5411
42
0.0072
0
VERTEX
8
0
10
8.4427
20
9.5244
42
-0.1071
0
VERTEX
8
0
10
8.3722
20
9.5555
42
-0.8902
0
VERTEX
8
0
10
8.3262
20
9.6128
0
SEQEND
8
0
0
POLYLINE
8
Layer 1
66
1
0
VERTEX
8
0
10
9.3227
20
9.0601
42
0.1107
0
VERTEX
8
0
10
9.6937
20
8.8159
42
0.0686
0
VERTEX
8
0
10
9.7802
20
8.7951
42
0.7334
0
VERTEX
8
0
10
9.8576
20
8.8196
42
0.1745
0
VERTEX
8
0
10
9.7406
20
9.0159
42
0.1359
0
VERTEX
8
0
10
9.4284
20
9.1000
42
0.6921
0
VERTEX
8
0
10
9.3227
20
9.0601
0
SEQEND
8
0
0
POLYLINE
8
Layer 1
66
1
0
VERTEX
8
0
10
8.9368
20
8.2149
0
VERTEX
8
0
10
8.9370
20
8.2114
0
VERTEX
8
0
10
8.9369
20
8.2090
42
-0.0343
0
VERTEX
8
0
10
8.8870
20
8.0550
42
-0.0028
0
VERTEX
8
0
10
8.8775
20
8.0316
42
-0.0495
0
VERTEX
8
0
10
8.8346
20
7.9404
42
-0.4669
0
VERTEX
8
0
10
8.7533
20
7.9116
42
0.0544
0
VERTEX
8
0
10
8.6972
20
7.9358
42
-0.4659
0
VERTEX
8
0
10
8.6670
20
7.9596
42
-0.0325
0
VERTEX
8
0
10
8.7791
20
8.0846
42
-0.0757
0
VERTEX
8
0
10
8.9245
20
8.2135
0
VERTEX
8
0
10
8.9263
20
8.2146
0
VERTEX
8
0
10
8.9306
20
8.2169
42
-0.6147
0
VERTEX
8
0
10
8.9368
20
8.2149
0
SEQEND
8
0
0
ENDSEC
0
EOF
