  0
SECTION
  2
HEADER
  9
$ACADVER
  1
AC1015
  9
$ACADMAINTVER
 70
     6
  9
$DWGCODEPAGE
  3
ANSI_1252
  9
$INSBASE
 10
0.0
 20
0.0
 30
0.0
  9
$EXTMIN
 10
1.000000E+20
 20
1.000000E+20
 30
1.000000E+20
  9
$EXTMAX
 10
-1.000000E+20
 20
-1.000000E+20
 30
-1.000000E+20
  9
$LIMMIN
 10
0.0
 20
0.0
  9
$LIMMAX
 10
420.0
 20
297.0
  9
$ORTHOMODE
 70
     0
  9
$REGENMODE
 70
     1
  9
$FILLMODE
 70
     1
  9
$QTEXTMODE
 70
     0
  9
$MIRRTEXT
 70
     1
  9
$LTSCALE
 40
1.0
  9
$ATTMODE
 70
     1
  9
$TEXTSIZE
 40
2.5
  9
$TRACEWID
 40
1.0
  9
$TEXTSTYLE
  7
Standard
  9
$CLAYER
  8
0
  9
$CELTYPE
  6
ByLayer
  9
$CECOLOR
 62
   256
  9
$CELTSCALE
 40
1.0
  9
$DISPSILH
 70
     0
  9
$DIMSCALE
 40
1.0
  9
$DIMASZ
 40
2.5
  9
$DIMEXO
 40
0.625
  9
$DIMDLI
 40
3.75
  9
$DIMRND
 40
0.0
  9
$DIMDLE
 40
0.0
  9
$DIMEXE
 40
1.25
  9
$DIMTP
 40
0.0
  9
$DIMTM
 40
0.0
  9
$DIMTXT
 40
2.5
  9
$DIMCEN
 40
2.5
  9
$DIMTSZ
 40
0.0
  9
$DIMTOL
 70
     0
  9
$DIMLIM
 70
     0
  9
$DIMTIH
 70
     0
  9
$DIMTOH
 70
     0
  9
$DIMSE1
 70
     0
  9
$DIMSE2
 70
     0
  9
$DIMTAD
 70
     1
  9
$DIMZIN
 70
     8
  9
$DIMBLK
  1

  9
$DIMASO
 70
     1
  9
$DIMSHO
 70
     1
  9
$DIMPOST
  1

  9
$DIMAPOST
  1

  9
$DIMALT
 70
     0
  9
$DIMALTD
 70
     3
  9
$DIMALTF
 40
0.03937
  9
$DIMLFAC
 40
1.0
  9
$DIMTOFL
 70
     1
  9
$DIMTVP
 40
0.0
  9
$DIMTIX
 70
     0
  9
$DIMSOXD
 70
     0
  9
$DIMSAH
 70
     0
  9
$DIMBLK1
  1

  9
$DIMBLK2
  1

  9
$DIMSTYLE
  2
ISO-25
  9
$DIMCLRD
 70
     0
  9
$DIMCLRE
 70
     0
  9
$DIMCLRT
 70
     0
  9
$DIMTFAC
 40
1.0
  9
$DIMGAP
 40
0.625
  9
$DIMJUST
 70
     0
  9
$DIMSD1
 70
     0
  9
$DIMSD2
 70
     0
  9
$DIMTOLJ
 70
     0
  9
$DIMTZIN
 70
     8
  9
$DIMALTZ
 70
     0
  9
$DIMALTTZ
 70
     0
  9
$DIMUPT
 70
     0
  9
$DIMDEC
 70
     2
  9
$DIMTDEC
 70
     2
  9
$DIMALTU
 70
     2
  9
$DIMALTTD
 70
     3
  9
$DIMTXSTY
  7
Standard
  9
$DIMAUNIT
 70
     0
  9
$DIMADEC
 70
     0
  9
$DIMALTRND
 40
0.0
  9
$DIMAZIN
 70
     0
  9
$DIMDSEP
 70
    44
  9
$DIMATFIT
 70
     3
  9
$DIMFRAC
 70
     0
  9
$DIMLDRBLK
  1

  9
$DIMLUNIT
 70
     2
  9
$DIMLWD
 70
    -2
  9
$DIMLWE
 70
    -2
  9
$DIMTMOVE
 70
     0
  9
$LUNITS
 70
     2
  9
$LUPREC
 70
     4
  9
$SKETCHINC
 40
1.0
  9
$FILLETRAD
 40
10.0
  9
$AUNITS
 70
     0
  9
$AUPREC
 70
     0
  9
$MENU
  1
.
  9
$ELEVATION
 40
0.0
  9
$PELEVATION
 40
0.0
  9
$THICKNESS
 40
0.0
  9
$LIMCHECK
 70
     0
  9
$CHAMFERA
 40
10.0
  9
$CHAMFERB
 40
10.0
  9
$CHAMFERC
 40
20.0
  9
$CHAMFERD
 40
0.0
  9
$SKPOLY
 70
     0
  9
$TDCREATE
 40
2455270.092002674
  9
$TDUCREATE
 40
2455269.550336007
  9
$TDUPDATE
 40
2455270.092002685
  9
$TDUUPDATE
 40
2455269.550336019
  9
$TDINDWG
 40
0.0000000116
  9
$TDUSRTIMER
 40
0.0000000116
  9
$USRTIMER
 70
     1
  9
$ANGBASE
 50
0.0
  9
$ANGDIR
 70
     0
  9
$PDMODE
 70
     3
  9
$PDSIZE
 40
-0.7
  9
$PLINEWID
 40
0.0
  9
$SPLFRAME
 70
     0
  9
$SPLINETYPE
 70
     6
  9
$SPLINESEGS
 70
     8
  9
$HANDSEED
  5
3A
  9
$SURFTAB1
 70
     6
  9
$SURFTAB2
 70
     6
  9
$SURFTYPE
 70
     6
  9
$SURFU
 70
     6
  9
$SURFV
 70
     6
  9
$UCSBASE
  2

  9
$UCSNAME
  2

  9
$UCSORG
 10
0.0
 20
0.0
 30
0.0
  9
$UCSXDIR
 10
1.0
 20
0.0
 30
0.0
  9
$UCSYDIR
 10
0.0
 20
1.0
 30
0.0
  9
$UCSORTHOREF
  2

  9
$UCSORTHOVIEW
 70
     0
  9
$UCSORGTOP
 10
0.0
 20
0.0
 30
0.0
  9
$UCSORGBOTTOM
 10
0.0
 20
0.0
 30
0.0
  9
$UCSORGLEFT
 10
0.0
 20
0.0
 30
0.0
  9
$UCSORGRIGHT
 10
0.0
 20
0.0
 30
0.0
  9
$UCSORGFRONT
 10
0.0
 20
0.0
 30
0.0
  9
$UCSORGBACK
 10
0.0
 20
0.0
 30
0.0
  9
$PUCSBASE
  2

  9
$PUCSNAME
  2

  9
$PUCSORG
 10
0.0
 20
0.0
 30
0.0
  9
$PUCSXDIR
 10
1.0
 20
0.0
 30
0.0
  9
$PUCSYDIR
 10
0.0
 20
1.0
 30
0.0
  9
$PUCSORTHOREF
  2

  9
$PUCSORTHOVIEW
 70
     0
  9
$PUCSORGTOP
 10
0.0
 20
0.0
 30
0.0
  9
$PUCSORGBOTTOM
 10
0.0
 20
0.0
 30
0.0
  9
$PUCSORGLEFT
 10
0.0
 20
0.0
 30
0.0
  9
$PUCSORGRIGHT
 10
0.0
 20
0.0
 30
0.0
  9
$PUCSORGFRONT
 10
0.0
 20
0.0
 30
0.0
  9
$PUCSORGBACK
 10
0.0
 20
0.0
 30
0.0
  9
$USERI1
 70
     0
  9
$USERI2
 70
     0
  9
$USERI3
 70
     0
  9
$USERI4
 70
     0
  9
$USERI5
 70
     0
  9
$USERR1
 40
0.0
  9
$USERR2
 40
0.0
  9
$USERR3
 40
0.0
  9
$USERR4
 40
0.0
  9
$USERR5
 40
0.0
  9
$WORLDVIEW
 70
     1
  9
$SHADEDGE
 70
     3
  9
$SHADEDIF
 70
    70
  9
$TILEMODE
 70
     1
  9
$MAXACTVP
 70
    64
  9
$PINSBASE
 10
0.0
 20
0.0
 30
0.0
  9
$PLIMCHECK
 70
     0
  9
$PEXTMIN
 10
1.000000E+20
 20
1.000000E+20
 30
1.000000E+20
  9
$PEXTMAX
 10
-1.000000E+20
 20
-1.000000E+20
 30
-1.000000E+20
  9
$PLIMMIN
 10
0.0
 20
0.0
  9
$PLIMMAX
 10
420.0
 20
297.0
  9
$UNITMODE
 70
     0
  9
$VISRETAIN
 70
     1
  9
$PLINEGEN
 70
     0
  9
$PSLTSCALE
 70
     1
  9
$TREEDEPTH
 70
  3020
  9
$CMLSTYLE
  2
Standard
  9
$CMLJUST
 70
     1
  9
$CMLSCALE
 40
1.0
  9
$PROXYGRAPHICS
 70
     1
  9
$MEASUREMENT
 70
     1
  9
$CELWEIGHT
370
    -1
  9
$ENDCAPS
280
     0
  9
$JOINSTYLE
280
     0
  9
$LWDISPLAY
290
     0
  9
$INSUNITS
 70
     4
  9
$HYPERLINKBASE
  1

  9
$STYLESHEET
  1

  9
$XEDIT
290
     1
  9
$CEPSNTYPE
380
     0
  9
$PSTYLEMODE
290
     1
  9
$FINGERPRINTGUID
  2
{FAEB1C30-E019-11D5-929B-00C0DF256EC4}
  9
$VERSIONGUID
  2
{FAEB1C32-E019-11D5-929B-00C0DF256EC4}
  9
$EXTNAMES
290
     1
  9
$PSVPSCALE
 40
0.0
  9
$OLESTARTUP
290
     0
  0
ENDSEC
  0
SECTION
  2
CLASSES
  0
CLASS
  1
ACDBDICTIONARYWDFLT
  2
AcDbDictionaryWithDefault
  3
ObjectDBX Classes
 90
        0
280
     0
281
     0
  0
CLASS
  1
ACDBPLACEHOLDER
  2
AcDbPlaceHolder
  3
ObjectDBX Classes
 90
        0
280
     0
281
     0
  0
CLASS
  1
LAYOUT
  2
AcDbLayout
  3
ObjectDBX Classes
 90
        0
280
     0
281
     0
  0
ENDSEC
  0
SECTION
  2
TABLES
  0
TABLE
  2
VPORT
  5
8
330
0
100
AcDbSymbolTable
 70
     2
  0
VPORT
  5
29
330
8
100
AcDbSymbolTableRecord
100
AcDbViewportTableRecord
  2
*Active
 70
     0
 10
0.0
 20
0.0
 11
1.0
 21
1.0
 12
50.0
 22
50.0
 13
0.0
 23
0.0
 14
10.0
 24
10.0
 15
10.0
 25
10.0
 16
0.0
 26
0.0
 36
1.0
 17
0.0
 27
0.0
 37
0.0
 40
103.921569
 41
1.0
 42
50.0
 43
0.0
 44
0.0
 50
0.0
 51
0.0
 71
     0
 72
   100
 73
     1
 74
     3
 75
     0
 76
     0
 77
     0
 78
     0
281
     0
 65
     1
110
0.0
120
0.0
130
0.0
111
1.0
121
0.0
131
0.0
112
0.0
122
1.0
132
0.0
 79
     0
146
0.0
  0
ENDTAB
  0
TABLE
  2
LTYPE
  5
5
330
0
100
AcDbSymbolTable
 70
     1
  0
LTYPE
  5
14
330
5
100
AcDbSymbolTableRecord
100
AcDbLinetypeTableRecord
  2
ByBlock
 70
     0
  3

 72
    65
 73
     0
 40
0.0
  0
LTYPE
  5
15
330
5
100
AcDbSymbolTableRecord
100
AcDbLinetypeTableRecord
  2
ByLayer
 70
     0
  3

 72
    65
 73
     0
 40
0.0
  0
LTYPE
  5
16
330
5
100
AcDbSymbolTableRecord
100
AcDbLinetypeTableRecord
  2
Continuous
 70
     0
  3

 72
    65
 73
     0
 40
0.0
  0
ENDTAB
  0
TABLE
  2
LAYER
  5
2
330
0
100
AcDbSymbolTable
 70
     1
  0
LAYER
  5
10
330
2
100
AcDbSymbolTableRecord
100
AcDbLayerTableRecord
  2
0
 70
     0
 62
     7
  6
Continuous
370
    -3
390
F
  0
ENDTAB
  0
TABLE
  2
STYLE
  5
3
330
0
100
AcDbSymbolTable
 70
     1
  0
STYLE
  5
11
330
3
100
AcDbSymbolTableRecord
100
AcDbTextStyleTableRecord
  2
Standard
 70
     0
 40
1.0
 41
1.0
 50
0.0
 71
     0
 42
2.5
  3
RomanS
  4

  0
ENDTAB
  0
TABLE
  2
VIEW
  5
6
330
0
100
AcDbSymbolTable
 70
     0
  0
ENDTAB
  0
TABLE
  2
UCS
  5
7
330
0
100
AcDbSymbolTable
 70
     0
  0
ENDTAB
  0
TABLE
  2
APPID
  5
9
330
0
100
AcDbSymbolTable
 70
     1
  0
APPID
  5
12
330
9
100
AcDbSymbolTableRecord
100
AcDbRegAppTableRecord
  2
ACAD
 70
     0
  0
ENDTAB
  0
TABLE
  2
DIMSTYLE
  5
A
330
0
100
AcDbSymbolTable
 70
     1
100
AcDbDimStyleTable
  0
DIMSTYLE
105
27
330
A
100
AcDbSymbolTableRecord
100
AcDbDimStyleTableRecord
  2
ISO-25
 70
     0
 41
2.5
 42
0.625
 44
1.25
 73
     0
 74
     0
 77
     1
 78
     8
 79
     2
140
2.5
141
2.5
146
0.0
147
0.625
271
     2
272
     0
273
     0
274
     0
278
    44
283
     0
289
     0
340
11
  0
ENDTAB
  0
TABLE
  2
BLOCK_RECORD
  5
1
330
0
100
AcDbSymbolTable
 70
     1
  0
BLOCK_RECORD
  5
1F
330
1
100
AcDbSymbolTableRecord
100
AcDbBlockTableRecord
  2
*Model_Space
340
22
  0
BLOCK_RECORD
  5
1B
330
1
100
AcDbSymbolTableRecord
100
AcDbBlockTableRecord
  2
*Paper_Space
340
1E
  0
BLOCK_RECORD
  5
23
330
1
100
AcDbSymbolTableRecord
100
AcDbBlockTableRecord
  2
*Paper_Space0
340
26
  0
ENDTAB
  0
ENDSEC
  0
SECTION
  2
BLOCKS
  0
BLOCK
  5
20
330
1F
100
AcDbEntity
  8
0
100
AcDbBlockBegin
  2
*Model_Space
 70
     0
 71
     0
 10
0.0
 20
0.0
 30
0.0
  3
*Model_Space
  1

  0
ENDBLK
  5
21
330
1F
100
AcDbEntity
  8
0
100
AcDbBlockEnd
  0
BLOCK
  5
1C
330
1B
100
AcDbEntity
 67
     1
  8
0
100
AcDbBlockBegin
  2
*Paper_Space
 70
     0
 71
     0
 10
0.0
 20
0.0
 30
0.0
  3
*Paper_Space
  1

  0
ENDBLK
  5
1D
330
1B
100
AcDbEntity
 67
     1
  8
0
100
AcDbBlockEnd
  0
BLOCK
  5
24
330
23
100
AcDbEntity
  8
0
100
AcDbBlockBegin
  2
*Paper_Space0
 70
     0
 71
     0
 10
0.0
 20
0.0
 30
0.0
  3
*Paper_Space0
  1

  0
ENDBLK
  5
25
330
23
100
AcDbEntity
  8
0
100
AcDbBlockEnd
  0
ENDSEC
  0
SECTION
  2
ENTITIES
  0
LWPOLYLINE
  5
2A
330
1F
100
AcDbEntity
  8
0
100
AcDbPolyline
 90
      485
 70
   128
 43
0.0
 10
531.77025
 20
513.776579
 10
531.776157
 20
513.776662
 10
531.817506
 20
513.777249
 10
531.929738
 20
513.778842
 10
532.148296
 20
513.781943
 10
532.508621
 20
513.787056
 10
533.046154
 20
513.794684
 10
533.796339
 20
513.805329
 10
534.794616
 20
513.819495
 10
536.076427
 20
513.837685
 10
537.677215
 20
513.8604
 10
539.63242
 20
513.888145
 10
541.977485
 20
513.921422
 10
544.747851
 20
513.960735
 10
547.978961
 20
514.006585
 10
551.706255
 20
514.059477
 10
555.965177
 20
514.119912
 10
560.791167
 20
514.188394
 10
566.219667
 20
514.265426
 10
572.28612
 20
514.351511
 10
579.025966
 20
514.447151
 10
586.456928
 20
514.552599
 10
594.525841
 20
514.667099
 10
603.161823
 20
514.789647
 10
612.293991
 20
514.919235
 10
621.851459
 20
515.054858
 10
631.763346
 20
515.195511
 10
641.958766
 20
515.340187
 10
652.366838
 20
515.487881
 10
662.916677
 20
515.637586
 10
673.537399
 20
515.788297
 10
684.158121
 20
515.939009
 10
694.70796
 20
516.088714
 10
705.116031
 20
516.236408
 10
715.311452
 20
516.381084
 10
725.223338
 20
516.521737
 10
734.780807
 20
516.65736
 10
743.912974
 20
516.786948
 10
752.548956
 20
516.909495
 10
760.61787
 20
517.023996
 10
768.048831
 20
517.129443
 10
774.788678
 20
517.225084
 10
780.85513
 20
517.311169
 10
786.283631
 20
517.388201
 10
791.109621
 20
517.456683
 10
795.368542
 20
517.517118
 10
799.095837
 20
517.57001
 10
802.326946
 20
517.61586
 10
805.097313
 20
517.655172
 10
807.442378
 20
517.68845
 10
809.397583
 20
517.716195
 10
810.99837
 20
517.73891
 10
812.280182
 20
517.7571
 10
813.278459
 20
517.771265
 10
814.028643
 20
517.781911
 10
814.566177
 20
517.789539
 10
814.926502
 20
517.794652
 10
815.145059
 20
517.797753
 10
815.257292
 20
517.799346
 10
815.29864
 20
517.799932
 10
815.304547
 20
517.800016
 10
816.208097
 20
517.812913
 10
816.350274
 20
517.81485
 10
816.505211
 20
517.816415
 10
816.672115
 20
517.817041
 10
816.850194
 20
517.816163
 10
817.038654
 20
517.813214
 10
817.236701
 20
517.807629
 10
817.443544
 20
517.798841
 10
817.658389
 20
517.786286
 10
817.880443
 20
517.769396
 10
818.108913
 20
517.747606
 10
818.343006
 20
517.72035
 10
818.581929
 20
517.687061
 10
818.824889
 20
517.647175
 10
819.071093
 20
517.600125
 10
819.319748
 20
517.545345
 10
819.570061
 20
517.482268
 10
819.821238
 20
517.41033
 10
820.072488
 20
517.328964
 10
820.323016
 20
517.237605
 10
820.57203
 20
517.135685
 10
820.818796
 20
517.022805
 10
821.062817
 20
516.899225
 10
821.303657
 20
516.765369
 10
821.540877
 20
516.621663
 10
821.774042
 20
516.468532
 10
822.002712
 20
516.306401
 10
822.226451
 20
516.135695
 10
822.444822
 20
515.95684
 10
822.657388
 20
515.770261
 10
822.86371
 20
515.576382
 10
823.063353
 20
515.375629
 10
823.255877
 20
515.168428
 10
823.440848
 20
514.955203
 10
823.617825
 20
514.73638
 10
823.786374
 20
514.512383
 10
823.946056
 20
514.283638
 10
824.096434
 20
514.05057
 10
824.23707
 20
513.813605
 10
824.367528
 20
513.573167
 10
824.487371
 20
513.329681
 10
824.596323
 20
513.083638
 10
824.694765
 20
512.835781
 10
824.78324
 20
512.586919
 10
824.862291
 20
512.337862
 10
824.932461
 20
512.089417
 10
824.994293
 20
511.842395
 10
825.048329
 20
511.597603
 10
825.095114
 20
511.355851
 10
825.13519
 20
511.117948
 10
825.169099
 20
510.884702
 10
825.197386
 20
510.656922
 10
825.220593
 20
510.435417
 10
825.239262
 20
510.220995
 10
825.253938
 20
510.014467
 10
825.265163
 20
509.816639
 10
825.273479
 20
509.628323
 10
825.279431
 20
509.450325
 10
825.283561
 20
509.283455
 10
825.286413
 20
509.128522
 10
825.301384
 20
508.082702
 10
825.301401
 20
508.08147
 10
825.301524
 20
508.072846
 10
825.301856
 20
508.049435
 10
825.302502
 20
508.003847
 10
825.303569
 20
507.928689
 10
825.30516
 20
507.816567
 10
825.30738
 20
507.660089
 10
825.310334
 20
507.451863
 10
825.314127
 20
507.184495
 10
825.318864
 20
506.850594
 10
825.32465
 20
506.442766
 10
825.33159
 20
505.953619
 10
825.339788
 20
505.37576
 10
825.34935
 20
504.701797
 10
825.36038
 20
503.924336
 10
825.372984
 20
503.035986
 10
825.387265
 20
502.029353
 10
825.40333
 20
500.897045
 10
825.421282
 20
499.63167
 10
825.441228
 20
498.225834
 10
825.463218
 20
496.675841
 10
825.487096
 20
494.992781
 10
825.512653
 20
493.191438
 10
825.539678
 20
491.286599
 10
825.567961
 20
489.293047
 10
825.597294
 20
487.225569
 10
825.627465
 20
485.09895
 10
825.658265
 20
482.927974
 10
825.689486
 20
480.727428
 10
825.720916
 20
478.512097
 10
825.752345
 20
476.296766
 10
825.783566
 20
474.09622
 10
825.814366
 20
471.925245
 10
825.844538
 20
469.798626
 10
825.87387
 20
467.731147
 10
825.902153
 20
465.737596
 10
825.929178
 20
463.832756
 10
825.954735
 20
462.031413
 10
825.978613
 20
460.348353
 10
826.000603
 20
458.79836
 10
826.020549
 20
457.392525
 10
826.038501
 20
456.127149
 10
826.054566
 20
454.994841
 10
826.068847
 20
453.988209
 10
826.081451
 20
453.099858
 10
826.092481
 20
452.322398
 10
826.102043
 20
451.648435
 10
826.110241
 20
451.070576
 10
826.117181
 20
450.581428
 10
826.122967
 20
450.173601
 10
826.127704
 20
449.839699
 10
826.131497
 20
449.572332
 10
826.134452
 20
449.364105
 10
826.136672
 20
449.207627
 10
826.138262
 20
449.095506
 10
826.139329
 20
449.020347
 10
826.139975
 20
448.974759
 10
826.140307
 20
448.951349
 10
826.14043
 20
448.942724
 10
826.140447
 20
448.941492
 10
826.153303
 20
448.037942
 10
826.155234
 20
447.895765
 10
826.156791
 20
447.740828
 10
826.15741
 20
447.573924
 10
826.156524
 20
447.395846
 10
826.153567
 20
447.207386
 10
826.147973
 20
447.009339
 10
826.139178
 20
446.802497
 10
826.126614
 20
446.587653
 10
826.109716
 20
446.3656
 10
826.087918
 20
446.137131
 10
826.060654
 20
445.90304
 10
826.027359
 20
445.664119
 10
825.987466
 20
445.421161
 10
825.94041
 20
445.17496
 10
825.885624
 20
444.926309
 10
825.822543
 20
444.676
 10
825.750601
 20
444.424827
 10
825.669232
 20
444.173582
 10
825.577871
 20
443.923059
 10
825.475951
 20
443.674051
 10
825.363072
 20
443.427291
 10
825.239493
 20
443.183277
 10
825.10564
 20
442.942445
 10
824.961938
 20
442.705232
 10
824.808812
 20
442.472076
 10
824.646687
 20
442.243414
 10
824.475988
 20
442.019683
 10
824.29714
 20
441.80132
 10
824.110569
 20
441.588763
 10
823.916699
 20
441.382448
 10
823.715956
 20
441.182813
 10
823.508765
 20
440.990296
 10
823.295551
 20
440.805332
 10
823.076739
 20
440.62836
 10
822.852753
 20
440.459817
 10
822.62402
 20
440.30014
 10
822.390965
 20
440.149766
 10
822.154011
 20
440.009132
 10
821.913586
 20
439.878676
 10
821.670113
 20
439.758834
 10
821.424081
 20
439.649881
 10
821.176236
 20
439.551437
 10
820.927387
 20
439.462959
 10
820.678342
 20
439.383905
 10
820.42991
 20
439.31373
 10
820.182899
 20
439.251893
 10
819.938119
 20
439.19785
 10
819.696379
 20
439.151059
 10
819.458487
 20
439.110976
 10
819.225252
 20
439.077059
 10
818.997482
 20
439.048764
 10
818.775988
 20
439.02555
 10
818.561576
 20
439.006872
 10
818.355057
 20
438.992188
 10
818.157239
 20
438.980955
 10
817.968931
 20
438.97263
 10
817.790941
 20
438.96667
 10
817.624079
 20
438.962533
 10
817.469153
 20
438.959675
 10
816.423382
 20
438.944656
 10
816.417475
 20
438.944572
 10
816.376126
 20
438.943985
 10
816.263894
 20
438.942393
 10
816.045336
 20
438.939291
 10
815.685012
 20
438.934179
 10
815.147478
 20
438.926551
 10
814.397294
 20
438.915907
 10
813.399018
 20
438.901742
 10
812.117208
 20
438.883553
 10
810.516422
 20
438.860839
 10
808.561219
 20
438.833096
 10
806.216156
 20
438.799821
 10
803.445792
 20
438.760511
 10
800.214685
 20
438.714663
 10
796.487394
 20
438.661775
 10
792.228476
 20
438.601343
 10
787.40249
 20
438.532865
 10
781.973995
 20
438.455838
 10
775.907547
 20
438.369759
 10
769.167707
 20
438.274124
 10
761.736752
 20
438.168683
 10
753.667845
 20
438.05419
 10
745.031871
 20
437.93165
 10
735.899712
 20
437.80207
 10
726.342251
 20
437.666455
 10
716.430374
 20
437.525811
 10
706.234962
 20
437.381144
 10
695.826899
 20
437.233459
 10
685.27707
 20
437.083763
 10
674.656357
 20
436.933061
 10
664.035644
 20
436.782359
 10
653.485815
 20
436.632663
 10
643.077752
 20
436.484978
 10
632.88234
 20
436.340311
 10
622.970463
 20
436.199667
 10
613.413002
 20
436.064052
 10
604.280843
 20
435.934472
 10
595.644869
 20
435.811932
 10
587.575962
 20
435.697439
 10
580.145007
 20
435.591998
 10
573.405167
 20
435.496363
 10
567.338719
 20
435.410284
 10
561.910224
 20
435.333256
 10
557.084238
 20
435.264778
 10
552.82532
 20
435.204347
 10
549.098029
 20
435.151458
 10
545.866922
 20
435.105611
 10
543.096558
 20
435.066301
 10
540.751495
 20
435.033026
 10
538.796292
 20
435.005282
 10
537.195506
 20
434.982568
 10
535.913696
 20
434.96438
 10
534.915419
 20
434.950215
 10
534.165236
 20
434.93957
 10
533.627702
 20
434.931943
 10
533.267378
 20
434.92683
 10
533.04882
 20
434.923729
 10
532.936588
 20
434.922137
 10
532.895239
 20
434.92155
 10
532.889332
 20
434.921466
 10
531.985741
 20
434.90861
 10
531.843558
 20
434.90668
 10
531.688614
 20
434.905122
 10
531.521702
 20
434.904503
 10
531.343615
 20
434.905389
 10
531.155147
 20
434.908346
 10
530.957091
 20
434.913939
 10
530.750239
 20
434.922734
 10
530.535385
 20
434.935297
 10
530.313322
 20
434.952194
 10
530.084842
 20
434.97399
 10
529.85074
 20
435.001252
 10
529.611808
 20
435.034546
 10
529.368839
 20
435.074436
 10
529.122626
 20
435.12149
 10
528.873963
 20
435.176272
 10
528.623641
 20
435.239349
 10
528.372456
 20
435.311287
 10
528.121199
 20
435.392651
 10
527.870664
 20
435.484007
 10
527.621643
 20
435.585921
 10
527.374871
 20
435.698794
 10
527.130845
 20
435.822366
 10
526.89
 20
435.956211
 10
526.652776
 20
436.099906
 10
526.419608
 20
436.253024
 10
526.190935
 20
436.41514
 10
525.967194
 20
436.585831
 10
525.748821
 20
436.76467
 10
525.536255
 20
436.951233
 10
525.329932
 20
437.145095
 10
525.13029
 20
437.34583
 10
524.937766
 20
437.553015
 10
524.752797
 20
437.766222
 10
524.575822
 20
437.985028
 10
524.407276
 20
438.209008
 10
524.247597
 20
438.437737
 10
524.097223
 20
438.670789
 10
523.956592
 20
438.907739
 10
523.826139
 20
439.148163
 10
523.706303
 20
439.391635
 10
523.597357
 20
439.637667
 10
523.498921
 20
439.885514
 10
523.410454
 20
440.134366
 10
523.331411
 20
440.383415
 10
523.261249
 20
440.631852
 10
523.199426
 20
440.878868
 10
523.145399
 20
441.123654
 10
523.098623
 20
441.365401
 10
523.058557
 20
441.6033
 10
523.024656
 20
441.836543
 10
522.996379
 20
442.06432
 10
522.973182
 20
442.285823
 10
522.954521
 20
442.500243
 10
522.939854
 20
442.70677
 10
522.928638
 20
442.904596
 10
522.92033
 20
443.092912
 10
522.914386
 20
443.27091
 10
522.910263
 20
443.437779
 10
522.907419
 20
443.592712
 10
522.892496
 20
444.638532
 10
522.892478
 20
444.639764
 10
522.892356
 20
444.648389
 10
522.892024
 20
444.671799
 10
522.891377
 20
444.717387
 10
522.89031
 20
444.792545
 10
522.888719
 20
444.904667
 10
522.886498
 20
445.061145
 10
522.883543
 20
445.269371
 10
522.879749
 20
445.536739
 10
522.87501
 20
445.87064
 10
522.869223
 20
446.278468
 10
522.862281
 20
446.767615
 10
522.85408
 20
447.345474
 10
522.844515
 20
448.019438
 10
522.833482
 20
448.796898
 10
522.820875
 20
449.685248
 10
522.806589
 20
450.691881
 10
522.79052
 20
451.824189
 10
522.772562
 20
453.089564
 10
522.752611
 20
454.4954
 10
522.730614
 20
456.045393
 10
522.706728
 20
457.728453
 10
522.681164
 20
459.529796
 10
522.654131
 20
461.434636
 10
522.62584
 20
463.428187
 10
522.596499
 20
465.495665
 10
522.566318
 20
467.622285
 10
522.535509
 20
469.79326
 10
522.504279
 20
471.993806
 10
522.47284
 20
474.209137
 10
522.441401
 20
476.424468
 10
522.410172
 20
478.625014
 10
522.379362
 20
480.795989
 10
522.349182
 20
482.922609
 10
522.319841
 20
484.990087
 10
522.291549
 20
486.983638
 10
522.264516
 20
488.888478
 10
522.238952
 20
490.689821
 10
522.215067
 20
492.372881
 10
522.19307
 20
493.922874
 10
522.173118
 20
495.32871
 10
522.155161
 20
496.594085
 10
522.139091
 20
497.726393
 10
522.124806
 20
498.733026
 10
522.112198
 20
499.621376
 10
522.101165
 20
500.398836
 10
522.0916
 20
501.0728
 10
522.0834
 20
501.650659
 10
522.076458
 20
502.139806
 10
522.07067
 20
502.547634
 10
522.065931
 20
502.881535
 10
522.062137
 20
503.148903
 10
522.059182
 20
503.357129
 10
522.056961
 20
503.513607
 10
522.05537
 20
503.625729
 10
522.054303
 20
503.700887
 10
522.053656
 20
503.746475
 10
522.053324
 20
503.769885
 10
522.053202
 20
503.77851
 10
522.053184
 20
503.779742
 10
522.040328
 20
504.683292
 10
522.038398
 20
504.825469
 10
522.03684
 20
504.980406
 10
522.036222
 20
505.14731
 10
522.037108
 20
505.325389
 10
522.040064
 20
505.513848
 10
522.045657
 20
505.711896
 10
522.054452
 20
505.918739
 10
522.067015
 20
506.133584
 10
522.083912
 20
506.355638
 10
522.105709
 20
506.584108
 10
522.132971
 20
506.818201
 10
522.166264
 20
507.057124
 10
522.206154
 20
507.300084
 10
522.253208
 20
507.546288
 10
522.30799
 20
507.794943
 10
522.371068
 20
508.045255
 10
522.443005
 20
508.296433
 10
522.524369
 20
508.547682
 10
522.615725
 20
508.798211
 10
522.717639
 20
509.047225
 10
522.830512
 20
509.293991
 10
522.954084
 20
509.538012
 10
523.08793
 20
509.778852
 10
523.231624
 20
510.016072
 10
523.384742
 20
510.249236
 10
523.546859
 20
510.477907
 10
523.717549
 20
510.701646
 10
523.896389
 20
510.920017
 10
524.082952
 20
511.132583
 10
524.276813
 20
511.338905
 10
524.477549
 20
511.538547
 10
524.684733
 20
511.731072
 10
524.89794
 20
511.916042
 10
525.116747
 20
512.09302
 10
525.340727
 20
512.261569
 10
525.569455
 20
512.421251
 10
525.802507
 20
512.571629
 10
526.039457
 20
512.712265
 10
526.279881
 20
512.842723
 10
526.523354
 20
512.962565
 10
526.769386
 20
513.071518
 10
527.017232
 20
513.16996
 10
527.266084
 20
513.258435
 10
527.515133
 20
513.337486
 10
527.76357
 20
513.407656
 10
528.010586
 20
513.469488
 10
528.255372
 20
513.523524
 10
528.497119
 20
513.570309
 10
528.735018
 20
513.610385
 10
528.968261
 20
513.644294
 10
529.196038
 20
513.672581
 10
529.417541
 20
513.695787
 10
529.631961
 20
513.714457
 10
529.838488
 20
513.729133
 10
530.036314
 20
513.740357
 10
530.224631
 20
513.748674
 10
530.402628
 20
513.754626
 10
530.569498
 20
513.758756
 10
530.72443
 20
513.761607
 10
531.77025
 20
513.776579
  0
LWPOLYLINE
  5
2B
330
1F
100
AcDbEntity
  8
0
100
AcDbPolyline
 90
      365
 70
   128
 43
0.0
 10
114.798903
 20
307.729498
 10
115.016743
 20
307.729498
 10
115.05102
 20
307.72952
 10
115.088372
 20
307.729679
 10
115.128606
 20
307.730107
 10
115.171527
 20
307.730943
 10
115.216944
 20
307.732321
 10
115.264663
 20
307.734376
 10
115.314491
 20
307.737243
 10
115.366234
 20
307.741059
 10
115.419701
 20
307.74596
 10
115.474697
 20
307.752079
 10
115.531029
 20
307.759554
 10
115.588504
 20
307.768519
 10
115.64693
 20
307.779109
 10
115.706113
 20
307.791461
 10
115.765859
 20
307.80571
 10
115.825976
 20
307.821991
 10
115.886272
 20
307.84044
 10
115.946552
 20
307.861192
 10
116.006624
 20
307.884383
 10
116.066293
 20
307.910149
 10
116.125383
 20
307.938583
 10
116.183775
 20
307.96962
 10
116.241363
 20
308.003153
 10
116.298045
 20
308.039073
 10
116.353718
 20
308.077274
 10
116.408275
 20
308.117648
 10
116.461615
 20
308.160088
 10
116.513632
 20
308.204487
 10
116.564223
 20
308.250737
 10
116.613286
 20
308.298733
 10
116.660713
 20
308.348364
 10
116.706403
 20
308.399526
 10
116.750252
 20
308.452109
 10
116.792154
 20
308.506008
 10
116.832008
 20
308.561114
 10
116.869708
 20
308.617321
 10
116.905151
 20
308.674522
 10
116.938232
 20
308.732608
 10
116.96885
 20
308.791472
 10
116.996897
 20
308.851009
 10
117.022311
 20
308.911095
 10
117.045187
 20
308.971553
 10
117.065657
 20
309.032192
 10
117.083854
 20
309.09282
 10
117.099914
 20
309.153242
 10
117.113969
 20
309.213271
 10
117.126153
 20
309.272712
 10
117.136599
 20
309.331373
 10
117.145442
 20
309.389064
 10
117.152814
 20
309.445592
 10
117.158851
 20
309.500765
 10
117.163684
 20
309.554391
 10
117.167448
 20
309.606279
 10
117.170277
 20
309.656235
 10
117.172304
 20
309.704069
 10
117.173663
 20
309.74959
 10
117.174487
 20
309.792602
 10
117.17491
 20
309.832918
 10
117.175066
 20
309.870344
 10
117.175088
 20
310.122944
 10
117.175088
 20
310.123732
 10
117.175088
 20
310.129245
 10
117.175088
 20
310.144208
 10
117.175088
 20
310.173346
 10
117.175088
 20
310.221385
 10
117.175088
 20
310.293051
 10
117.175088
 20
310.393067
 10
117.175088
 20
310.52616
 10
117.175088
 20
310.697056
 10
117.175088
 20
310.910477
 10
117.175088
 20
311.17115
 10
117.175088
 20
311.483801
 10
117.175088
 20
311.853154
 10
117.175088
 20
312.283935
 10
117.175088
 20
312.780868
 10
117.175088
 20
313.34868
 10
117.175088
 20
313.992094
 10
117.175088
 20
314.715837
 10
117.175088
 20
315.524634
 10
117.175088
 20
316.423208
 10
117.175088
 20
317.413926
 10
117.175088
 20
318.489695
 10
117.175088
 20
319.641069
 10
117.175088
 20
320.858594
 10
117.175088
 20
322.132823
 10
117.175088
 20
323.454303
 10
117.175088
 20
324.813585
 10
117.175088
 20
326.201219
 10
117.175088
 20
327.607753
 10
117.175088
 20
329.023738
 10
117.175088
 20
330.439722
 10
117.175088
 20
331.846256
 10
117.175088
 20
333.233889
 10
117.175088
 20
334.593171
 10
117.175088
 20
335.914652
 10
117.175088
 20
337.18888
 10
117.175088
 20
338.406407
 10
117.175088
 20
339.557779
 10
117.175088
 20
340.63355
 10
117.175088
 20
341.624266
 10
117.175088
 20
342.522842
 10
117.175088
 20
343.331638
 10
117.175088
 20
344.055382
 10
117.175088
 20
344.698796
 10
117.175088
 20
345.266607
 10
117.175088
 20
345.763541
 10
117.175088
 20
346.194321
 10
117.175088
 20
346.563674
 10
117.175088
 20
346.876324
 10
117.175088
 20
347.136998
 10
117.175088
 20
347.35042
 10
117.175088
 20
347.521314
 10
117.175088
 20
347.654407
 10
117.175088
 20
347.754424
 10
117.175088
 20
347.826089
 10
117.175088
 20
347.874129
 10
117.175088
 20
347.903268
 10
117.175088
 20
347.918231
 10
117.175088
 20
347.923744
 10
117.175088
 20
347.924532
 10
117.175088
 20
348.142788
 10
117.175066
 20
348.177131
 10
117.17491
 20
348.214557
 10
117.174487
 20
348.254872
 10
117.173663
 20
348.297886
 10
117.172304
 20
348.343406
 10
117.170277
 20
348.39124
 10
117.167448
 20
348.441197
 10
117.163684
 20
348.493084
 10
117.158851
 20
348.54671
 10
117.152814
 20
348.601883
 10
117.145442
 20
348.65841
 10
117.136599
 20
348.716101
 10
117.126153
 20
348.774763
 10
117.113969
 20
348.834204
 10
117.099914
 20
348.894232
 10
117.083854
 20
348.954656
 10
117.065657
 20
349.015283
 10
117.045187
 20
349.075921
 10
117.022311
 20
349.13638
 10
116.996897
 20
349.196466
 10
116.96885
 20
349.256002
 10
116.938232
 20
349.314868
 10
116.905151
 20
349.372954
 10
116.869708
 20
349.430153
 10
116.832008
 20
349.48636
 10
116.792154
 20
349.541467
 10
116.750252
 20
349.595366
 10
116.706403
 20
349.64795
 10
116.660713
 20
349.699111
 10
116.613286
 20
349.748743
 10
116.564223
 20
349.796737
 10
116.513632
 20
349.842987
 10
116.461615
 20
349.887387
 10
116.408275
 20
349.929827
 10
116.353718
 20
349.970201
 10
116.298045
 20
350.008402
 10
116.241363
 20
350.044322
 10
116.183775
 20
350.077854
 10
116.125383
 20
350.108892
 10
116.066293
 20
350.137326
 10
116.006624
 20
350.163091
 10
115.946552
 20
350.186282
 10
115.886272
 20
350.207035
 10
115.825976
 20
350.225484
 10
115.765859
 20
350.241765
 10
115.706113
 20
350.256013
 10
115.64693
 20
350.268365
 10
115.588504
 20
350.278957
 10
115.531029
 20
350.287921
 10
115.474697
 20
350.295395
 10
115.419701
 20
350.301515
 10
115.366234
 20
350.306415
 10
115.314491
 20
350.310232
 10
115.264663
 20
350.3131
 10
115.216944
 20
350.315154
 10
115.171527
 20
350.316532
 10
115.128606
 20
350.317367
 10
115.088372
 20
350.317797
 10
115.05102
 20
350.317954
 10
114.798903
 20
350.317977
 10
114.581063
 20
350.317977
 10
114.546786
 20
350.317954
 10
114.509433
 20
350.317798
 10
114.4692
 20
350.317371
 10
114.426278
 20
350.316541
 10
114.380859
 20
350.315173
 10
114.33314
 20
350.313131
 10
114.283311
 20
350.310282
 10
114.231566
 20
350.30649
 10
114.178097
 20
350.301621
 10
114.123099
 20
350.295542
 10
114.066763
 20
350.288115
 10
114.009283
 20
350.279209
 10
113.950853
 20
350.268686
 10
113.891665
 20
350.256414
 10
113.831911
 20
350.242257
 10
113.771786
 20
350.226082
 10
113.711482
 20
350.207752
 10
113.651192
 20
350.187134
 10
113.59111
 20
350.164093
 10
113.531429
 20
350.138494
 10
113.472326
 20
350.110243
 10
113.41392
 20
350.079403
 10
113.356316
 20
350.046082
 10
113.299617
 20
350.010382
 10
113.243928
 20
349.972408
 10
113.189353
 20
349.932266
 10
113.135996
 20
349.890059
 10
113.08396
 20
349.845892
 10
113.03335
 20
349.799871
 10
112.98427
 20
349.752098
 10
112.936823
 20
349.702681
 10
112.891115
 20
349.651723
 10
112.847248
 20
349.599327
 10
112.805327
 20
349.545601
 10
112.765456
 20
349.490647
 10
112.727739
 20
349.434571
 10
112.692281
 20
349.377477
 10
112.659183
 20
349.31947
 10
112.628553
 20
349.260655
 10
112.600491
 20
349.201135
 10
112.575065
 20
349.141032
 10
112.552179
 20
349.080525
 10
112.5317
 20
349.019806
 10
112.513493
 20
348.959073
 10
112.497426
 20
348.898519
 10
112.483365
 20
348.838338
 10
112.471175
 20
348.778725
 10
112.460724
 20
348.719874
 10
112.451877
 20
348.661981
 10
112.444501
 20
348.605239
 10
112.438462
 20
348.549844
 10
112.433627
 20
348.495989
 10
112.429861
 20
348.443869
 10
112.427031
 20
348.393679
 10
112.425002
 20
348.345613
 10
112.423643
 20
348.299866
 10
112.422819
 20
348.256632
 10
112.422395
 20
348.216105
 10
112.422239
 20
348.178482
 10
112.422217
 20
347.924532
 10
112.422217
 20
347.923744
 10
112.422217
 20
347.918231
 10
112.422217
 20
347.903268
 10
112.422217
 20
347.874129
 10
112.422217
 20
347.826089
 10
112.422217
 20
347.754424
 10
112.422217
 20
347.654407
 10
112.422217
 20
347.521314
 10
112.422217
 20
347.35042
 10
112.422217
 20
347.136998
 10
112.422217
 20
346.876324
 10
112.422217
 20
346.563674
 10
112.422217
 20
346.194321
 10
112.422217
 20
345.763541
 10
112.422217
 20
345.266607
 10
112.422217
 20
344.698796
 10
112.422217
 20
344.055382
 10
112.422217
 20
343.331638
 10
112.422217
 20
342.522842
 10
112.422217
 20
341.624266
 10
112.422217
 20
340.63355
 10
112.422217
 20
339.557779
 10
112.422217
 20
338.406407
 10
112.422217
 20
337.18888
 10
112.422217
 20
335.914652
 10
112.422217
 20
334.593171
 10
112.422217
 20
333.233889
 10
112.422217
 20
331.846256
 10
112.422217
 20
330.439722
 10
112.422217
 20
329.023738
 10
112.422217
 20
327.607753
 10
112.422217
 20
326.201219
 10
112.422217
 20
324.813585
 10
112.422217
 20
323.454303
 10
112.422217
 20
322.132823
 10
112.422217
 20
320.858594
 10
112.422217
 20
319.641069
 10
112.422217
 20
318.489695
 10
112.422217
 20
317.413926
 10
112.422217
 20
316.423208
 10
112.422217
 20
315.524634
 10
112.422217
 20
314.715837
 10
112.422217
 20
313.992094
 10
112.422217
 20
313.34868
 10
112.422217
 20
312.780868
 10
112.422217
 20
312.283935
 10
112.422217
 20
311.853154
 10
112.422217
 20
311.483801
 10
112.422217
 20
311.17115
 10
112.422217
 20
310.910477
 10
112.422217
 20
310.697056
 10
112.422217
 20
310.52616
 10
112.422217
 20
310.393067
 10
112.422217
 20
310.293051
 10
112.422217
 20
310.221385
 10
112.422217
 20
310.173346
 10
112.422217
 20
310.144208
 10
112.422217
 20
310.129245
 10
112.422217
 20
310.123732
 10
112.422217
 20
310.122944
 10
112.422217
 20
309.903561
 10
112.422239
 20
309.869041
 10
112.422395
 20
309.831425
 10
112.422819
 20
309.790906
 10
112.423643
 20
309.74768
 10
112.425002
 20
309.701941
 10
112.427031
 20
309.653884
 10
112.429861
 20
309.603702
 10
112.433627
 20
309.55159
 10
112.438462
 20
309.497743
 10
112.444501
 20
309.442355
 10
112.451877
 20
309.385622
 10
112.460724
 20
309.327736
 10
112.471175
 20
309.268892
 10
112.483365
 20
309.209285
 10
112.497426
 20
309.149109
 10
112.513493
 20
309.088559
 10
112.5317
 20
309.02783
 10
112.552179
 20
308.967115
 10
112.575065
 20
308.906609
 10
112.600491
 20
308.846507
 10
112.628553
 20
308.786986
 10
112.659183
 20
308.728169
 10
112.692281
 20
308.67016
 10
112.727739
 20
308.613062
 10
112.765456
 20
308.556981
 10
112.805327
 20
308.502022
 10
112.847248
 20
308.448289
 10
112.891115
 20
308.395887
 10
112.936823
 20
308.344921
 10
112.98427
 20
308.295496
 10
113.03335
 20
308.247717
 10
113.08396
 20
308.201686
 10
113.135996
 20
308.157512
 10
113.189353
 20
308.115296
 10
113.243928
 20
308.075146
 10
113.299617
 20
308.037164
 10
113.356316
 20
308.001456
 10
113.41392
 20
307.968127
 10
113.472326
 20
307.937281
 10
113.531429
 20
307.909023
 10
113.59111
 20
307.883418
 10
113.651192
 20
307.860372
 10
113.711482
 20
307.839749
 10
113.771786
 20
307.821415
 10
113.831911
 20
307.805235
 10
113.891665
 20
307.791075
 10
113.950853
 20
307.7788
 10
114.009283
 20
307.768276
 10
114.066763
 20
307.759366
 10
114.123099
 20
307.751939
 10
114.178097
 20
307.745857
 10
114.231566
 20
307.740988
 10
114.283311
 20
307.737196
 10
114.33314
 20
307.734345
 10
114.380859
 20
307.732303
 10
114.426278
 20
307.730934
 10
114.4692
 20
307.730104
 10
114.509433
 20
307.729678
 10
114.546786
 20
307.72952
 10
114.798903
 20
307.729498
  0
LWPOLYLINE
  5
2C
330
1F
100
AcDbEntity
  8
0
100
AcDbPolyline
 90
      365
 70
   128
 43
0.0
 10
409.647529
 20
310.698026
 10
409.86537
 20
310.698026
 10
409.899648
 20
310.698048
 10
409.936999
 20
310.698207
 10
409.977232
 20
310.698636
 10
410.020155
 20
310.699471
 10
410.065572
 20
310.700849
 10
410.113291
 20
310.702904
 10
410.163118
 20
310.705772
 10
410.214862
 20
310.709588
 10
410.268327
 20
310.714488
 10
410.323323
 20
310.720607
 10
410.379655
 20
310.728082
 10
410.437131
 20
310.737047
 10
410.495557
 20
310.747637
 10
410.554739
 20
310.759989
 10
410.614486
 20
310.774238
 10
410.674604
 20
310.79052
 10
410.7349
 20
310.808969
 10
410.795179
 20
310.82972
 10
410.85525
 20
310.852912
 10
410.914921
 20
310.878677
 10
410.97401
 20
310.907112
 10
411.032402
 20
310.938148
 10
411.089991
 20
310.971682
 10
411.146673
 20
311.007601
 10
411.202344
 20
311.045803
 10
411.256902
 20
311.086178
 10
411.310242
 20
311.128618
 10
411.362259
 20
311.173018
 10
411.412851
 20
311.219269
 10
411.461912
 20
311.267266
 10
411.50934
 20
311.316899
 10
411.55503
 20
311.368063
 10
411.598879
 20
311.420649
 10
411.640781
 20
311.474551
 10
411.680635
 20
311.52966
 10
411.718335
 20
311.585871
 10
411.753778
 20
311.643075
 10
411.78686
 20
311.701166
 10
411.817476
 20
311.760037
 10
411.845525
 20
311.819579
 10
411.870939
 20
311.879671
 10
411.893814
 20
311.940137
 10
411.914284
 20
312.000783
 10
411.932481
 20
312.061418
 10
411.948541
 20
312.12185
 10
411.962595
 20
312.181888
 10
411.97478
 20
312.241337
 10
411.985226
 20
312.300008
 10
411.994069
 20
312.357708
 10
412.001442
 20
312.414245
 10
412.007477
 20
312.469427
 10
412.012311
 20
312.523063
 10
412.016075
 20
312.574959
 10
412.018904
 20
312.624925
 10
412.020931
 20
312.672768
 10
412.02229
 20
312.718296
 10
412.023114
 20
312.761318
 10
412.023537
 20
312.801641
 10
412.023693
 20
312.839073
 10
412.023715
 20
313.091722
 10
412.023715
 20
313.09251
 10
412.023715
 20
313.098023
 10
412.023715
 20
313.112986
 10
412.023715
 20
313.142124
 10
412.023715
 20
313.190163
 10
412.023715
 20
313.261828
 10
412.023715
 20
313.361845
 10
412.023715
 20
313.494937
 10
412.023715
 20
313.66583
 10
412.023715
 20
313.87925
 10
412.023715
 20
314.139922
 10
412.023715
 20
314.45257
 10
412.023715
 20
314.821921
 10
412.023715
 20
315.252699
 10
412.023715
 20
315.749629
 10
412.023715
 20
316.317437
 10
412.023715
 20
316.960847
 10
412.023715
 20
317.684585
 10
412.023715
 20
318.493376
 10
412.023715
 20
319.391945
 10
412.023715
 20
320.382655
 10
412.023715
 20
321.458418
 10
412.023715
 20
322.609784
 10
412.023715
 20
323.827302
 10
412.023715
 20
325.101522
 10
412.023715
 20
326.422994
 10
412.023715
 20
327.782267
 10
412.023715
 20
329.169891
 10
412.023715
 20
330.576416
 10
412.023715
 20
331.992391
 10
412.023715
 20
333.408366
 10
412.023715
 20
334.814891
 10
412.023715
 20
336.202515
 10
412.023715
 20
337.561788
 10
412.023715
 20
338.883259
 10
412.023715
 20
340.15748
 10
412.023715
 20
341.374997
 10
412.023715
 20
342.526364
 10
412.023715
 20
343.602126
 10
412.023715
 20
344.592837
 10
412.023715
 20
345.491406
 10
412.023715
 20
346.300197
 10
412.023715
 20
347.023935
 10
412.023715
 20
347.667345
 10
412.023715
 20
348.235152
 10
412.023715
 20
348.732083
 10
412.023715
 20
349.162861
 10
412.023715
 20
349.532211
 10
412.023715
 20
349.844859
 10
412.023715
 20
350.105531
 10
412.023715
 20
350.318952
 10
412.023715
 20
350.489845
 10
412.023715
 20
350.622937
 10
412.023715
 20
350.722953
 10
412.023715
 20
350.794618
 10
412.023715
 20
350.842658
 10
412.023715
 20
350.871796
 10
412.023715
 20
350.886759
 10
412.023715
 20
350.892272
 10
412.023715
 20
350.89306
 10
412.023715
 20
351.111358
 10
412.023693
 20
351.145707
 10
412.023537
 20
351.183141
 10
412.023114
 20
351.223463
 10
412.02229
 20
351.266485
 10
412.020931
 20
351.312012
 10
412.018904
 20
351.359855
 10
412.016075
 20
351.409819
 10
412.012311
 20
351.461713
 10
412.007477
 20
351.515346
 10
412.001442
 20
351.570526
 10
411.994069
 20
351.627059
 10
411.985226
 20
351.684755
 10
411.97478
 20
351.743421
 10
411.962595
 20
351.802866
 10
411.948541
 20
351.862896
 10
411.932481
 20
351.92332
 10
411.914284
 20
351.983947
 10
411.893814
 20
352.044584
 10
411.870939
 20
352.105039
 10
411.845525
 20
352.16512
 10
411.817476
 20
352.224648
 10
411.78686
 20
352.283505
 10
411.753778
 20
352.341581
 10
411.718335
 20
352.398769
 10
411.680635
 20
352.454963
 10
411.640781
 20
352.510055
 10
411.598879
 20
352.563939
 10
411.55503
 20
352.616506
 10
411.50934
 20
352.667651
 10
411.461912
 20
352.717266
 10
411.412851
 20
352.765243
 10
411.362259
 20
352.811476
 10
411.310242
 20
352.855858
 10
411.256902
 20
352.89828
 10
411.202344
 20
352.938638
 10
411.146673
 20
352.976822
 10
411.089991
 20
353.012726
 10
411.032402
 20
353.046243
 10
410.97401
 20
353.077266
 10
410.914921
 20
353.105688
 10
410.85525
 20
353.131442
 10
410.795179
 20
353.154622
 10
410.7349
 20
353.175364
 10
410.674604
 20
353.193805
 10
410.614486
 20
353.210078
 10
410.554739
 20
353.224321
 10
410.495557
 20
353.236667
 10
410.437131
 20
353.247253
 10
410.379655
 20
353.256213
 10
410.323323
 20
353.263684
 10
410.268327
 20
353.269801
 10
410.214862
 20
353.274699
 10
410.163118
 20
353.278513
 10
410.113291
 20
353.28138
 10
410.065572
 20
353.283433
 10
410.020155
 20
353.284811
 10
409.977232
 20
353.285646
 10
409.936999
 20
353.286075
 10
409.899648
 20
353.286232
 10
409.647529
 20
353.286255
 10
409.429689
 20
353.286255
 10
409.395412
 20
353.286233
 10
409.35806
 20
353.286076
 10
409.317826
 20
353.285649
 10
409.274904
 20
353.284819
 10
409.229487
 20
353.283451
 10
409.181767
 20
353.28141
 10
409.131938
 20
353.278562
 10
409.080193
 20
353.274771
 10
409.026724
 20
353.269903
 10
408.971725
 20
353.263825
 10
408.91539
 20
353.2564
 10
408.85791
 20
353.247496
 10
408.799479
 20
353.236976
 10
408.740291
 20
353.224707
 10
408.680538
 20
353.210553
 10
408.620413
 20
353.194381
 10
408.56011
 20
353.176055
 10
408.49982
 20
353.155442
 10
408.439738
 20
353.132406
 10
408.380056
 20
353.106813
 10
408.320952
 20
353.078569
 10
408.262547
 20
353.047737
 10
408.204943
 20
353.014423
 10
408.148244
 20
352.978731
 10
408.092556
 20
352.940766
 10
408.037981
 20
352.900631
 10
407.984623
 20
352.858434
 10
407.932587
 20
352.814277
 10
407.881977
 20
352.768265
 10
407.832897
 20
352.720501
 10
407.785451
 20
352.671093
 10
407.739742
 20
352.620144
 10
407.695875
 20
352.567758
 10
407.653954
 20
352.51404
 10
407.614083
 20
352.459096
 10
407.576367
 20
352.403028
 10
407.540907
 20
352.345943
 10
407.50781
 20
352.287943
 10
407.477179
 20
352.229135
 10
407.449118
 20
352.169622
 10
407.423692
 20
352.109525
 10
407.400806
 20
352.049022
 10
407.380327
 20
351.988309
 10
407.36212
 20
351.92758
 10
407.346054
 20
351.867029
 10
407.331992
 20
351.806852
 10
407.319802
 20
351.747242
 10
407.309352
 20
351.688393
 10
407.300504
 20
351.630502
 10
407.293129
 20
351.573762
 10
407.287089
 20
351.518368
 10
407.282253
 20
351.464514
 10
407.278487
 20
351.412396
 10
407.275657
 20
351.362206
 10
407.27363
 20
351.314141
 10
407.27227
 20
351.268394
 10
407.271446
 20
351.22516
 10
407.271023
 20
351.184635
 10
407.270866
 20
351.147011
 10
407.270844
 20
350.89306
 10
407.270844
 20
350.892272
 10
407.270844
 20
350.886759
 10
407.270844
 20
350.871796
 10
407.270844
 20
350.842658
 10
407.270844
 20
350.794618
 10
407.270844
 20
350.722953
 10
407.270844
 20
350.622937
 10
407.270844
 20
350.489845
 10
407.270844
 20
350.318952
 10
407.270844
 20
350.105531
 10
407.270844
 20
349.844859
 10
407.270844
 20
349.532211
 10
407.270844
 20
349.162861
 10
407.270844
 20
348.732083
 10
407.270844
 20
348.235152
 10
407.270844
 20
347.667345
 10
407.270844
 20
347.023935
 10
407.270844
 20
346.300197
 10
407.270844
 20
345.491406
 10
407.270844
 20
344.592837
 10
407.270844
 20
343.602126
 10
407.270844
 20
342.526364
 10
407.270844
 20
341.374997
 10
407.270844
 20
340.15748
 10
407.270844
 20
338.883259
 10
407.270844
 20
337.561788
 10
407.270844
 20
336.202515
 10
407.270844
 20
334.814891
 10
407.270844
 20
333.408366
 10
407.270844
 20
331.992391
 10
407.270844
 20
330.576416
 10
407.270844
 20
329.169891
 10
407.270844
 20
327.782267
 10
407.270844
 20
326.422994
 10
407.270844
 20
325.101522
 10
407.270844
 20
323.827302
 10
407.270844
 20
322.609784
 10
407.270844
 20
321.458418
 10
407.270844
 20
320.382655
 10
407.270844
 20
319.391945
 10
407.270844
 20
318.493376
 10
407.270844
 20
317.684585
 10
407.270844
 20
316.960847
 10
407.270844
 20
316.317437
 10
407.270844
 20
315.749629
 10
407.270844
 20
315.252699
 10
407.270844
 20
314.821921
 10
407.270844
 20
314.45257
 10
407.270844
 20
314.139922
 10
407.270844
 20
313.87925
 10
407.270844
 20
313.66583
 10
407.270844
 20
313.494937
 10
407.270844
 20
313.361845
 10
407.270844
 20
313.261828
 10
407.270844
 20
313.190163
 10
407.270844
 20
313.142124
 10
407.270844
 20
313.112986
 10
407.270844
 20
313.098023
 10
407.270844
 20
313.09251
 10
407.270844
 20
313.091722
 10
407.270844
 20
312.872298
 10
407.270866
 20
312.837771
 10
407.271023
 20
312.800147
 10
407.271446
 20
312.759622
 10
407.27227
 20
312.716387
 10
407.27363
 20
312.67064
 10
407.275657
 20
312.622574
 10
407.278487
 20
312.572383
 10
407.282253
 20
312.520262
 10
407.287089
 20
312.466406
 10
407.293129
 20
312.41101
 10
407.300504
 20
312.354266
 10
407.309352
 20
312.29637
 10
407.319802
 20
312.237517
 10
407.331992
 20
312.177902
 10
407.346054
 20
312.117717
 10
407.36212
 20
312.057159
 10
407.380327
 20
311.996421
 10
407.400806
 20
311.935699
 10
407.423692
 20
311.875185
 10
407.449118
 20
311.815076
 10
407.477179
 20
311.755551
 10
407.50781
 20
311.696728
 10
407.540907
 20
311.638713
 10
407.576367
 20
311.581611
 10
407.614083
 20
311.525527
 10
407.653954
 20
311.470565
 10
407.695875
 20
311.416829
 10
407.739742
 20
311.364424
 10
407.785451
 20
311.313457
 10
407.832897
 20
311.264029
 10
407.881977
 20
311.216249
 10
407.932587
 20
311.170217
 10
407.984623
 20
311.126042
 10
408.037981
 20
311.083826
 10
408.092556
 20
311.043675
 10
408.148244
 20
311.005692
 10
408.204943
 20
310.969984
 10
408.262547
 20
310.936655
 10
408.320952
 20
310.905809
 10
408.380056
 20
310.877551
 10
408.439738
 20
310.851946
 10
408.49982
 20
310.8289
 10
408.56011
 20
310.808277
 10
408.620413
 20
310.789943
 10
408.680538
 20
310.773763
 10
408.740291
 20
310.759603
 10
408.799479
 20
310.747329
 10
408.85791
 20
310.736804
 10
408.91539
 20
310.727895
 10
408.971725
 20
310.720467
 10
409.026724
 20
310.714385
 10
409.080193
 20
310.709516
 10
409.131938
 20
310.705724
 10
409.181767
 20
310.702873
 10
409.229487
 20
310.700831
 10
409.274904
 20
310.699462
 10
409.317826
 20
310.698632
 10
409.35806
 20
310.698206
 10
409.395412
 20
310.698048
 10
409.647529
 20
310.698026
  0
LWPOLYLINE
  5
2D
330
1F
100
AcDbEntity
  8
0
100
AcDbPolyline
 90
      365
 70
   128
 43
0.0
 10
368.174475
 20
356.424416
 10
368.174475
 20
356.642256
 10
368.174452
 20
356.676533
 10
368.174294
 20
356.713886
 10
368.173865
 20
356.754119
 10
368.17303
 20
356.797041
 10
368.171652
 20
356.842459
 10
368.169598
 20
356.890178
 10
368.166729
 20
356.940006
 10
368.162913
 20
356.99175
 10
368.158013
 20
357.045218
 10
368.151893
 20
357.100215
 10
368.144419
 20
357.156549
 10
368.135454
 20
357.214027
 10
368.124863
 20
357.272455
 10
368.112511
 20
357.33164
 10
368.098263
 20
357.39139
 10
368.081981
 20
357.451512
 10
368.063532
 20
357.511812
 10
368.04278
 20
357.572096
 10
368.01959
 20
357.632172
 10
367.993824
 20
357.691849
 10
367.96539
 20
357.750945
 10
367.934352
 20
357.809343
 10
367.900819
 20
357.86694
 10
367.8649
 20
357.92363
 10
367.826699
 20
357.979311
 10
367.786326
 20
358.033877
 10
367.743886
 20
358.087226
 10
367.699488
 20
358.139252
 10
367.653239
 20
358.189853
 10
367.605246
 20
358.238924
 10
367.555615
 20
358.28636
 10
367.504456
 20
358.33206
 10
367.451875
 20
358.375918
 10
367.397979
 20
358.41783
 10
367.342876
 20
358.457692
 10
367.286673
 20
358.4954
 10
367.229477
 20
358.530852
 10
367.171396
 20
358.563941
 10
367.112536
 20
358.594565
 10
367.053006
 20
358.622619
 10
366.992926
 20
358.64804
 10
366.932474
 20
358.67092
 10
366.871844
 20
358.691394
 10
366.811224
 20
358.709597
 10
366.750809
 20
358.72566
 10
366.69079
 20
358.739718
 10
366.631357
 20
358.751905
 10
366.572706
 20
358.762354
 10
366.515024
 20
358.771198
 10
366.458505
 20
358.778573
 10
366.403342
 20
358.78461
 10
366.349726
 20
358.789445
 10
366.297848
 20
358.79321
 10
366.2479
 20
358.796039
 10
366.200074
 20
358.798067
 10
366.154563
 20
358.799426
 10
366.111557
 20
358.80025
 10
366.07125
 20
358.800674
 10
366.033831
 20
358.800829
 10
365.781279
 20
358.800852
 10
365.780348
 20
358.800852
 10
365.773836
 20
358.800852
 10
365.75616
 20
358.800852
 10
365.721738
 20
358.800852
 10
365.664987
 20
358.800852
 10
365.580327
 20
358.800852
 10
365.462174
 20
358.800852
 10
365.304948
 20
358.800852
 10
365.103066
 20
358.800852
 10
364.850946
 20
358.800852
 10
364.543005
 20
358.800852
 10
364.173663
 20
358.800852
 10
363.737337
 20
358.800852
 10
363.228446
 20
358.800852
 10
362.641405
 20
358.800852
 10
361.970636
 20
358.800852
 10
361.210553
 20
358.800852
 10
360.355577
 20
358.800852
 10
359.400126
 20
358.800852
 10
358.338616
 20
358.800852
 10
357.168257
 20
358.800852
 10
355.897423
 20
358.800852
 10
354.537275
 20
358.800852
 10
353.098981
 20
358.800852
 10
351.593703
 20
358.800852
 10
350.032604
 20
358.800852
 10
348.42685
 20
358.800852
 10
346.787603
 20
358.800852
 10
345.126028
 20
358.800852
 10
343.453289
 20
358.800852
 10
341.780551
 20
358.800852
 10
340.118977
 20
358.800852
 10
338.47973
 20
358.800852
 10
336.873976
 20
358.800852
 10
335.312877
 20
358.800852
 10
333.807598
 20
358.800852
 10
332.369304
 20
358.800852
 10
331.009157
 20
358.800852
 10
329.738322
 20
358.800852
 10
328.567964
 20
358.800852
 10
327.506454
 20
358.800852
 10
326.551002
 20
358.800852
 10
325.696027
 20
358.800852
 10
324.935944
 20
358.800852
 10
324.265174
 20
358.800852
 10
323.678134
 20
358.800852
 10
323.169242
 20
358.800852
 10
322.732916
 20
358.800852
 10
322.363574
 20
358.800852
 10
322.055633
 20
358.800852
 10
321.803514
 20
358.800852
 10
321.601631
 20
358.800852
 10
321.444405
 20
358.800852
 10
321.326253
 20
358.800852
 10
321.241593
 20
358.800852
 10
321.184842
 20
358.800852
 10
321.15042
 20
358.800852
 10
321.132744
 20
358.800852
 10
321.126231
 20
358.800852
 10
321.1253
 20
358.800852
 10
320.907085
 20
358.800852
 10
320.872748
 20
358.800829
 10
320.83533
 20
358.800674
 10
320.795022
 20
358.80025
 10
320.752017
 20
358.799426
 10
320.706506
 20
358.798067
 10
320.65868
 20
358.796039
 10
320.608732
 20
358.79321
 10
320.556854
 20
358.789445
 10
320.503238
 20
358.78461
 10
320.448073
 20
358.778573
 10
320.391556
 20
358.771198
 10
320.333874
 20
358.762354
 10
320.275221
 20
358.751905
 10
320.21579
 20
358.739718
 10
320.15577
 20
358.72566
 10
320.095356
 20
358.709597
 10
320.034736
 20
358.691394
 10
319.974105
 20
358.67092
 10
319.913654
 20
358.64804
 10
319.853574
 20
358.622619
 10
319.794044
 20
358.594565
 10
319.735184
 20
358.563941
 10
319.677103
 20
358.530852
 10
319.619907
 20
358.4954
 10
319.563704
 20
358.457692
 10
319.5086
 20
358.41783
 10
319.454705
 20
358.375918
 10
319.402123
 20
358.33206
 10
319.350964
 20
358.28636
 10
319.301334
 20
358.238924
 10
319.253341
 20
358.189853
 10
319.207092
 20
358.139252
 10
319.162693
 20
358.087226
 10
319.120254
 20
358.033877
 10
319.079881
 20
357.979311
 10
319.04168
 20
357.92363
 10
319.005759
 20
357.86694
 10
318.972227
 20
357.809343
 10
318.94119
 20
357.750945
 10
318.912756
 20
357.691849
 10
318.88699
 20
357.632172
 10
318.8638
 20
357.572096
 10
318.843047
 20
357.511812
 10
318.824598
 20
357.451512
 10
318.808317
 20
357.39139
 10
318.794068
 20
357.33164
 10
318.781717
 20
357.272455
 10
318.771126
 20
357.214027
 10
318.76216
 20
357.156549
 10
318.754687
 20
357.100215
 10
318.748567
 20
357.045218
 10
318.743667
 20
356.99175
 10
318.739851
 20
356.940006
 10
318.736982
 20
356.890178
 10
318.734928
 20
356.842459
 10
318.73355
 20
356.797041
 10
318.732715
 20
356.754119
 10
318.732285
 20
356.713886
 10
318.732128
 20
356.676533
 10
318.732105
 20
356.424416
 10
318.732105
 20
356.206576
 10
318.732127
 20
356.172299
 10
318.732284
 20
356.134946
 10
318.732711
 20
356.094713
 10
318.733541
 20
356.051791
 10
318.73491
 20
356.006374
 10
318.736951
 20
355.958655
 10
318.7398
 20
355.908826
 10
318.743591
 20
355.857082
 10
318.748461
 20
355.803614
 10
318.754541
 20
355.748617
 10
318.761967
 20
355.692283
 10
318.770873
 20
355.634805
 10
318.781396
 20
355.576377
 10
318.793667
 20
355.517192
 10
318.807825
 20
355.457442
 10
318.824
 20
355.39732
 10
318.84233
 20
355.337021
 10
318.862949
 20
355.276736
 10
318.88599
 20
355.21666
 10
318.911588
 20
355.156983
 10
318.93984
 20
355.097888
 10
318.970678
 20
355.039489
 10
319.004
 20
354.981892
 10
319.0397
 20
354.925202
 10
319.077673
 20
354.869521
 10
319.117815
 20
354.814955
 10
319.160021
 20
354.761607
 10
319.204187
 20
354.70958
 10
319.250207
 20
354.65898
 10
319.297978
 20
354.609908
 10
319.347394
 20
354.562472
 10
319.39835
 20
354.516772
 10
319.450743
 20
354.472914
 10
319.504467
 20
354.431003
 10
319.559417
 20
354.391141
 10
319.61549
 20
354.353432
 10
319.67258
 20
354.31798
 10
319.730581
 20
354.284891
 10
319.789391
 20
354.254267
 10
319.848904
 20
354.226213
 10
319.909002
 20
354.200793
 10
319.969502
 20
354.177912
 10
320.030212
 20
354.157438
 10
320.090938
 20
354.139235
 10
320.151484
 20
354.123172
 10
320.211657
 20
354.109114
 10
320.271261
 20
354.096927
 10
320.330101
 20
354.086478
 10
320.387985
 20
354.077634
 10
320.444718
 20
354.070259
 10
320.500104
 20
354.064222
 10
320.55395
 20
354.059387
 10
320.60606
 20
354.055622
 10
320.656241
 20
354.052793
 10
320.704299
 20
354.050766
 10
320.750037
 20
354.049406
 10
320.793262
 20
354.048582
 10
320.833781
 20
354.048158
 10
320.871398
 20
354.048003
 10
321.1253
 20
354.04798
 10
321.126231
 20
354.04798
 10
321.132744
 20
354.04798
 10
321.15042
 20
354.04798
 10
321.184842
 20
354.04798
 10
321.241593
 20
354.04798
 10
321.326253
 20
354.04798
 10
321.444405
 20
354.04798
 10
321.601631
 20
354.04798
 10
321.803514
 20
354.04798
 10
322.055633
 20
354.04798
 10
322.363574
 20
354.04798
 10
322.732916
 20
354.04798
 10
323.169242
 20
354.04798
 10
323.678134
 20
354.04798
 10
324.265174
 20
354.04798
 10
324.935944
 20
354.04798
 10
325.696027
 20
354.04798
 10
326.551002
 20
354.04798
 10
327.506454
 20
354.04798
 10
328.567964
 20
354.04798
 10
329.738322
 20
354.04798
 10
331.009157
 20
354.04798
 10
332.369304
 20
354.04798
 10
333.807598
 20
354.04798
 10
335.312877
 20
354.04798
 10
336.873976
 20
354.04798
 10
338.47973
 20
354.04798
 10
340.118977
 20
354.04798
 10
341.780551
 20
354.04798
 10
343.453289
 20
354.04798
 10
345.126028
 20
354.04798
 10
346.787603
 20
354.04798
 10
348.42685
 20
354.04798
 10
350.032604
 20
354.04798
 10
351.593703
 20
354.04798
 10
353.098981
 20
354.04798
 10
354.537275
 20
354.04798
 10
355.897423
 20
354.04798
 10
357.168257
 20
354.04798
 10
358.338616
 20
354.04798
 10
359.400126
 20
354.04798
 10
360.355577
 20
354.04798
 10
361.210553
 20
354.04798
 10
361.970636
 20
354.04798
 10
362.641405
 20
354.04798
 10
363.228446
 20
354.04798
 10
363.737337
 20
354.04798
 10
364.173663
 20
354.04798
 10
364.543005
 20
354.04798
 10
364.850946
 20
354.04798
 10
365.103066
 20
354.04798
 10
365.304948
 20
354.04798
 10
365.462174
 20
354.04798
 10
365.580327
 20
354.04798
 10
365.664987
 20
354.04798
 10
365.721738
 20
354.04798
 10
365.75616
 20
354.04798
 10
365.773836
 20
354.04798
 10
365.780348
 20
354.04798
 10
365.781279
 20
354.04798
 10
366.000661
 20
354.04798
 10
366.035182
 20
354.048003
 10
366.072799
 20
354.048158
 10
366.113316
 20
354.048582
 10
366.156543
 20
354.049406
 10
366.202281
 20
354.050766
 10
366.250339
 20
354.052793
 10
366.30052
 20
354.055622
 10
366.35263
 20
354.059387
 10
366.406476
 20
354.064222
 10
366.461862
 20
354.070259
 10
366.518594
 20
354.077634
 10
366.576479
 20
354.086478
 10
366.635319
 20
354.096927
 10
366.694923
 20
354.109114
 10
366.755096
 20
354.123172
 10
366.815642
 20
354.139235
 10
366.876367
 20
354.157438
 10
366.937078
 20
354.177912
 10
366.997578
 20
354.200793
 10
367.057675
 20
354.226213
 10
367.117189
 20
354.254267
 10
367.175998
 20
354.284891
 10
367.234
 20
354.31798
 10
367.29109
 20
354.353432
 10
367.347163
 20
354.391141
 10
367.402113
 20
354.431003
 10
367.455837
 20
354.472914
 10
367.508229
 20
354.516772
 10
367.559186
 20
354.562472
 10
367.608601
 20
354.609908
 10
367.656372
 20
354.65898
 10
367.702393
 20
354.70958
 10
367.746558
 20
354.761607
 10
367.788764
 20
354.814955
 10
367.828907
 20
354.869521
 10
367.86688
 20
354.925202
 10
367.902579
 20
354.981892
 10
367.935901
 20
355.039489
 10
367.96674
 20
355.097888
 10
367.994991
 20
355.156983
 10
368.02059
 20
355.21666
 10
368.043631
 20
355.276736
 10
368.06425
 20
355.337021
 10
368.082579
 20
355.39732
 10
368.098755
 20
355.457442
 10
368.112911
 20
355.517192
 10
368.125184
 20
355.576377
 10
368.135706
 20
355.634805
 10
368.144613
 20
355.692283
 10
368.152039
 20
355.748617
 10
368.158119
 20
355.803614
 10
368.162987
 20
355.857082
 10
368.16678
 20
355.908826
 10
368.169629
 20
355.958655
 10
368.17167
 20
356.006374
 10
368.173039
 20
356.051791
 10
368.173869
 20
356.094713
 10
368.174295
 20
356.134946
 10
368.174452
 20
356.172299
 10
368.174475
 20
356.424416
  0
LWPOLYLINE
  5
2E
330
1F
100
AcDbEntity
  8
0
100
AcDbPolyline
 90
      365
 70
   128
 43
0.0
 10
368.174475
 20
304.142832
 10
368.174475
 20
304.360671
 10
368.174452
 20
304.394949
 10
368.174294
 20
304.432301
 10
368.173865
 20
304.472535
 10
368.17303
 20
304.515456
 10
368.171652
 20
304.560873
 10
368.169598
 20
304.608593
 10
368.166729
 20
304.658421
 10
368.162913
 20
304.710166
 10
368.158013
 20
304.763633
 10
368.151893
 20
304.818631
 10
368.144419
 20
304.874964
 10
368.135454
 20
304.932442
 10
368.124863
 20
304.990869
 10
368.112511
 20
305.050055
 10
368.098263
 20
305.109805
 10
368.081981
 20
305.169926
 10
368.063532
 20
305.230226
 10
368.04278
 20
305.290511
 10
368.01959
 20
305.350588
 10
367.993824
 20
305.410263
 10
367.96539
 20
305.46936
 10
367.934352
 20
305.527759
 10
367.900819
 20
305.585355
 10
367.8649
 20
305.642045
 10
367.826699
 20
305.697725
 10
367.786326
 20
305.752293
 10
367.743886
 20
305.80564
 10
367.699488
 20
305.857667
 10
367.653239
 20
305.908268
 10
367.605246
 20
305.957339
 10
367.555615
 20
306.004776
 10
367.504456
 20
306.050476
 10
367.451875
 20
306.094333
 10
367.397979
 20
306.136245
 10
367.342876
 20
306.176107
 10
367.286673
 20
306.213816
 10
367.229477
 20
306.249266
 10
367.171396
 20
306.282356
 10
367.112536
 20
306.31298
 10
367.053006
 20
306.341034
 10
366.992926
 20
306.366455
 10
366.932474
 20
306.389336
 10
366.871844
 20
306.40981
 10
366.811224
 20
306.428012
 10
366.750809
 20
306.444075
 10
366.69079
 20
306.458133
 10
366.631357
 20
306.47032
 10
366.572706
 20
306.480768
 10
366.515024
 20
306.489614
 10
366.458505
 20
306.496987
 10
366.403342
 20
306.503026
 10
366.349726
 20
306.50786
 10
366.297848
 20
306.511625
 10
366.2479
 20
306.514455
 10
366.200074
 20
306.516482
 10
366.154563
 20
306.517841
 10
366.111557
 20
306.518666
 10
366.07125
 20
306.519088
 10
366.033831
 20
306.519245
 10
365.781279
 20
306.519267
 10
365.780348
 20
306.519267
 10
365.773836
 20
306.519267
 10
365.75616
 20
306.519267
 10
365.721738
 20
306.519267
 10
365.664987
 20
306.519267
 10
365.580327
 20
306.519267
 10
365.462174
 20
306.519267
 10
365.304948
 20
306.519267
 10
365.103066
 20
306.519267
 10
364.850946
 20
306.519267
 10
364.543005
 20
306.519267
 10
364.173663
 20
306.519267
 10
363.737337
 20
306.519267
 10
363.228446
 20
306.519267
 10
362.641405
 20
306.519267
 10
361.970636
 20
306.519267
 10
361.210553
 20
306.519267
 10
360.355577
 20
306.519267
 10
359.400126
 20
306.519267
 10
358.338616
 20
306.519267
 10
357.168257
 20
306.519267
 10
355.897423
 20
306.519267
 10
354.537275
 20
306.519267
 10
353.098981
 20
306.519267
 10
351.593703
 20
306.519267
 10
350.032604
 20
306.519267
 10
348.42685
 20
306.519267
 10
346.787603
 20
306.519267
 10
345.126028
 20
306.519267
 10
343.453289
 20
306.519267
 10
341.780551
 20
306.519267
 10
340.118977
 20
306.519267
 10
338.47973
 20
306.519267
 10
336.873976
 20
306.519267
 10
335.312877
 20
306.519267
 10
333.807598
 20
306.519267
 10
332.369304
 20
306.519267
 10
331.009157
 20
306.519267
 10
329.738322
 20
306.519267
 10
328.567964
 20
306.519267
 10
327.506454
 20
306.519267
 10
326.551002
 20
306.519267
 10
325.696027
 20
306.519267
 10
324.935944
 20
306.519267
 10
324.265174
 20
306.519267
 10
323.678134
 20
306.519267
 10
323.169242
 20
306.519267
 10
322.732916
 20
306.519267
 10
322.363574
 20
306.519267
 10
322.055633
 20
306.519267
 10
321.803514
 20
306.519267
 10
321.601631
 20
306.519267
 10
321.444405
 20
306.519267
 10
321.326253
 20
306.519267
 10
321.241593
 20
306.519267
 10
321.184842
 20
306.519267
 10
321.15042
 20
306.519267
 10
321.132744
 20
306.519267
 10
321.126231
 20
306.519267
 10
321.1253
 20
306.519267
 10
320.907085
 20
306.519267
 10
320.872748
 20
306.519245
 10
320.83533
 20
306.519088
 10
320.795022
 20
306.518666
 10
320.752017
 20
306.517841
 10
320.706506
 20
306.516482
 10
320.65868
 20
306.514455
 10
320.608732
 20
306.511625
 10
320.556854
 20
306.50786
 10
320.503238
 20
306.503026
 10
320.448073
 20
306.496987
 10
320.391556
 20
306.489614
 10
320.333874
 20
306.480768
 10
320.275221
 20
306.47032
 10
320.21579
 20
306.458133
 10
320.15577
 20
306.444075
 10
320.095356
 20
306.428012
 10
320.034736
 20
306.40981
 10
319.974105
 20
306.389336
 10
319.913654
 20
306.366455
 10
319.853574
 20
306.341034
 10
319.794044
 20
306.31298
 10
319.735184
 20
306.282356
 10
319.677103
 20
306.249266
 10
319.619907
 20
306.213816
 10
319.563704
 20
306.176107
 10
319.5086
 20
306.136245
 10
319.454705
 20
306.094333
 10
319.402123
 20
306.050476
 10
319.350964
 20
306.004776
 10
319.301334
 20
305.957339
 10
319.253341
 20
305.908268
 10
319.207092
 20
305.857667
 10
319.162693
 20
305.80564
 10
319.120254
 20
305.752293
 10
319.079881
 20
305.697725
 10
319.04168
 20
305.642045
 10
319.005759
 20
305.585355
 10
318.972227
 20
305.527759
 10
318.94119
 20
305.46936
 10
318.912756
 20
305.410263
 10
318.88699
 20
305.350588
 10
318.8638
 20
305.290511
 10
318.843047
 20
305.230226
 10
318.824598
 20
305.169926
 10
318.808317
 20
305.109805
 10
318.794068
 20
305.050055
 10
318.781717
 20
304.990869
 10
318.771126
 20
304.932442
 10
318.76216
 20
304.874964
 10
318.754687
 20
304.818631
 10
318.748567
 20
304.763633
 10
318.743667
 20
304.710166
 10
318.739851
 20
304.658421
 10
318.736982
 20
304.608593
 10
318.734928
 20
304.560873
 10
318.73355
 20
304.515456
 10
318.732715
 20
304.472535
 10
318.732285
 20
304.432301
 10
318.732128
 20
304.394949
 10
318.732105
 20
304.142832
 10
318.732105
 20
303.924991
 10
318.732127
 20
303.890713
 10
318.732284
 20
303.853362
 10
318.732711
 20
303.813128
 10
318.733541
 20
303.770206
 10
318.73491
 20
303.724789
 10
318.736951
 20
303.677069
 10
318.7398
 20
303.627241
 10
318.743591
 20
303.575496
 10
318.748461
 20
303.52203
 10
318.754541
 20
303.467032
 10
318.761967
 20
303.410699
 10
318.770873
 20
303.353221
 10
318.781396
 20
303.294793
 10
318.793667
 20
303.235608
 10
318.807825
 20
303.175857
 10
318.824
 20
303.115736
 10
318.84233
 20
303.055436
 10
318.862949
 20
302.995151
 10
318.88599
 20
302.935074
 10
318.911588
 20
302.875399
 10
318.93984
 20
302.816302
 10
318.970678
 20
302.757904
 10
319.004
 20
302.700308
 10
319.0397
 20
302.643618
 10
319.077673
 20
302.587937
 10
319.117815
 20
302.533371
 10
319.160021
 20
302.480022
 10
319.204187
 20
302.427996
 10
319.250207
 20
302.377394
 10
319.297978
 20
302.328324
 10
319.347394
 20
302.280886
 10
319.39835
 20
302.235187
 10
319.450743
 20
302.19133
 10
319.504467
 20
302.149417
 10
319.559417
 20
302.109555
 10
319.61549
 20
302.071846
 10
319.67258
 20
302.036396
 10
319.730581
 20
302.003307
 10
319.789391
 20
301.972682
 10
319.848904
 20
301.944628
 10
319.909002
 20
301.919208
 10
319.969502
 20
301.896328
 10
320.030212
 20
301.875852
 10
320.090938
 20
301.857651
 10
320.151484
 20
301.841587
 10
320.211657
 20
301.827529
 10
320.271261
 20
301.815343
 10
320.330101
 20
301.804894
 10
320.387985
 20
301.796049
 10
320.444718
 20
301.788675
 10
320.500104
 20
301.782637
 10
320.55395
 20
301.777803
 10
320.60606
 20
301.774038
 10
320.656241
 20
301.771207
 10
320.704299
 20
301.76918
 10
320.750037
 20
301.767822
 10
320.793262
 20
301.766997
 10
320.833781
 20
301.766574
 10
320.871398
 20
301.766418
 10
321.1253
 20
301.766396
 10
321.126231
 20
301.766396
 10
321.132744
 20
301.766396
 10
321.15042
 20
301.766396
 10
321.184842
 20
301.766396
 10
321.241593
 20
301.766396
 10
321.326253
 20
301.766396
 10
321.444405
 20
301.766396
 10
321.601631
 20
301.766396
 10
321.803514
 20
301.766396
 10
322.055633
 20
301.766396
 10
322.363574
 20
301.766396
 10
322.732916
 20
301.766396
 10
323.169242
 20
301.766396
 10
323.678134
 20
301.766396
 10
324.265174
 20
301.766396
 10
324.935944
 20
301.766396
 10
325.696027
 20
301.766396
 10
326.551002
 20
301.766396
 10
327.506454
 20
301.766396
 10
328.567964
 20
301.766396
 10
329.738322
 20
301.766396
 10
331.009157
 20
301.766396
 10
332.369304
 20
301.766396
 10
333.807598
 20
301.766396
 10
335.312877
 20
301.766396
 10
336.873976
 20
301.766396
 10
338.47973
 20
301.766396
 10
340.118977
 20
301.766396
 10
341.780551
 20
301.766396
 10
343.453289
 20
301.766396
 10
345.126028
 20
301.766396
 10
346.787603
 20
301.766396
 10
348.42685
 20
301.766396
 10
350.032604
 20
301.766396
 10
351.593703
 20
301.766396
 10
353.098981
 20
301.766396
 10
354.537275
 20
301.766396
 10
355.897423
 20
301.766396
 10
357.168257
 20
301.766396
 10
358.338616
 20
301.766396
 10
359.400126
 20
301.766396
 10
360.355577
 20
301.766396
 10
361.210553
 20
301.766396
 10
361.970636
 20
301.766396
 10
362.641405
 20
301.766396
 10
363.228446
 20
301.766396
 10
363.737337
 20
301.766396
 10
364.173663
 20
301.766396
 10
364.543005
 20
301.766396
 10
364.850946
 20
301.766396
 10
365.103066
 20
301.766396
 10
365.304948
 20
301.766396
 10
365.462174
 20
301.766396
 10
365.580327
 20
301.766396
 10
365.664987
 20
301.766396
 10
365.721738
 20
301.766396
 10
365.75616
 20
301.766396
 10
365.773836
 20
301.766396
 10
365.780348
 20
301.766396
 10
365.781279
 20
301.766396
 10
366.000661
 20
301.766396
 10
366.035182
 20
301.766418
 10
366.072799
 20
301.766574
 10
366.113316
 20
301.766997
 10
366.156543
 20
301.767822
 10
366.202281
 20
301.76918
 10
366.250339
 20
301.771207
 10
366.30052
 20
301.774038
 10
366.35263
 20
301.777803
 10
366.406476
 20
301.782637
 10
366.461862
 20
301.788675
 10
366.518594
 20
301.796049
 10
366.576479
 20
301.804894
 10
366.635319
 20
301.815343
 10
366.694923
 20
301.827529
 10
366.755096
 20
301.841587
 10
366.815642
 20
301.857651
 10
366.876367
 20
301.875852
 10
366.937078
 20
301.896328
 10
366.997578
 20
301.919208
 10
367.057675
 20
301.944628
 10
367.117189
 20
301.972682
 10
367.175998
 20
302.003307
 10
367.234
 20
302.036396
 10
367.29109
 20
302.071846
 10
367.347163
 20
302.109555
 10
367.402113
 20
302.149417
 10
367.455837
 20
302.19133
 10
367.508229
 20
302.235187
 10
367.559186
 20
302.280886
 10
367.608601
 20
302.328324
 10
367.656372
 20
302.377394
 10
367.702393
 20
302.427996
 10
367.746558
 20
302.480022
 10
367.788764
 20
302.533371
 10
367.828907
 20
302.587937
 10
367.86688
 20
302.643618
 10
367.902579
 20
302.700308
 10
367.935901
 20
302.757904
 10
367.96674
 20
302.816302
 10
367.994991
 20
302.875399
 10
368.02059
 20
302.935074
 10
368.043631
 20
302.995151
 10
368.06425
 20
303.055436
 10
368.082579
 20
303.115736
 10
368.098755
 20
303.175857
 10
368.112911
 20
303.235608
 10
368.125184
 20
303.294793
 10
368.135706
 20
303.353221
 10
368.144613
 20
303.410699
 10
368.152039
 20
303.467032
 10
368.158119
 20
303.52203
 10
368.162987
 20
303.575496
 10
368.16678
 20
303.627241
 10
368.169629
 20
303.677069
 10
368.17167
 20
303.724789
 10
368.173039
 20
303.770206
 10
368.173869
 20
303.813128
 10
368.174295
 20
303.853362
 10
368.174452
 20
303.890713
 10
368.174475
 20
304.142832
  0
LWPOLYLINE
  5
2F
330
1F
100
AcDbEntity
  8
0
100
AcDbPolyline
 90
      365
 70
   128
 43
0.0
 10
198.330367
 20
304.142832
 10
198.330367
 20
304.360671
 10
198.330344
 20
304.394949
 10
198.330185
 20
304.432301
 10
198.329757
 20
304.472535
 10
198.328921
 20
304.515456
 10
198.327543
 20
304.560873
 10
198.325488
 20
304.608593
 10
198.322619
 20
304.658421
 10
198.318803
 20
304.710166
 10
198.313901
 20
304.763633
 10
198.30778
 20
304.818631
 10
198.300304
 20
304.874964
 10
198.291337
 20
304.932442
 10
198.280744
 20
304.990869
 10
198.268389
 20
305.050055
 10
198.254137
 20
305.109805
 10
198.237852
 20
305.169926
 10
198.219399
 20
305.230226
 10
198.198642
 20
305.290511
 10
198.175445
 20
305.350588
 10
198.149674
 20
305.410263
 10
198.121233
 20
305.46936
 10
198.090189
 20
305.527759
 10
198.056649
 20
305.585355
 10
198.020721
 20
305.642045
 10
197.982512
 20
305.697725
 10
197.942131
 20
305.752293
 10
197.899683
 20
305.80564
 10
197.855276
 20
305.857667
 10
197.809019
 20
305.908268
 10
197.761018
 20
305.957339
 10
197.711379
 20
306.004776
 10
197.660213
 20
306.050476
 10
197.607626
 20
306.094333
 10
197.553724
 20
306.136245
 10
197.498615
 20
306.176107
 10
197.442407
 20
306.213816
 10
197.385207
 20
306.249266
 10
197.327123
 20
306.282356
 10
197.268262
 20
306.31298
 10
197.20873
 20
306.341034
 10
197.148651
 20
306.366455
 10
197.088202
 20
306.389336
 10
197.027573
 20
306.40981
 10
196.966959
 20
306.428012
 10
196.906548
 20
306.444075
 10
196.846534
 20
306.458133
 10
196.787108
 20
306.47032
 10
196.728462
 20
306.480768
 10
196.670788
 20
306.489614
 10
196.614277
 20
306.496987
 10
196.559122
 20
306.503026
 10
196.505514
 20
306.50786
 10
196.453644
 20
306.511625
 10
196.403704
 20
306.514455
 10
196.355888
 20
306.516482
 10
196.310384
 20
306.517841
 10
196.267386
 20
306.518666
 10
196.227086
 20
306.519088
 10
196.189675
 20
306.519245
 10
195.93717
 20
306.519267
 10
195.93624
 20
306.519267
 10
195.929728
 20
306.519267
 10
195.912052
 20
306.519267
 10
195.87763
 20
306.519267
 10
195.820879
 20
306.519267
 10
195.736219
 20
306.519267
 10
195.618066
 20
306.519267
 10
195.46084
 20
306.519267
 10
195.258958
 20
306.519267
 10
195.006838
 20
306.519267
 10
194.698898
 20
306.519267
 10
194.329555
 20
306.519267
 10
193.893229
 20
306.519267
 10
193.384338
 20
306.519267
 10
192.797297
 20
306.519267
 10
192.126527
 20
306.519267
 10
191.366445
 20
306.519267
 10
190.511469
 20
306.519267
 10
189.556018
 20
306.519267
 10
188.494508
 20
306.519267
 10
187.32415
 20
306.519267
 10
186.053315
 20
306.519267
 10
184.693167
 20
306.519267
 10
183.254873
 20
306.519267
 10
181.749595
 20
306.519267
 10
180.188496
 20
306.519267
 10
178.582742
 20
306.519267
 10
176.943495
 20
306.519267
 10
175.28192
 20
306.519267
 10
173.609181
 20
306.519267
 10
171.936443
 20
306.519267
 10
170.274868
 20
306.519267
 10
168.635622
 20
306.519267
 10
167.029868
 20
306.519267
 10
165.468769
 20
306.519267
 10
163.96349
 20
306.519267
 10
162.525195
 20
306.519267
 10
161.165049
 20
306.519267
 10
159.894214
 20
306.519267
 10
158.723856
 20
306.519267
 10
157.662346
 20
306.519267
 10
156.706894
 20
306.519267
 10
155.851919
 20
306.519267
 10
155.091836
 20
306.519267
 10
154.421066
 20
306.519267
 10
153.834026
 20
306.519267
 10
153.325134
 20
306.519267
 10
152.888808
 20
306.519267
 10
152.519465
 20
306.519267
 10
152.211525
 20
306.519267
 10
151.959406
 20
306.519267
 10
151.757523
 20
306.519267
 10
151.600297
 20
306.519267
 10
151.482145
 20
306.519267
 10
151.397485
 20
306.519267
 10
151.340734
 20
306.519267
 10
151.306312
 20
306.519267
 10
151.288636
 20
306.519267
 10
151.282123
 20
306.519267
 10
151.281193
 20
306.519267
 10
151.062978
 20
306.519267
 10
151.02864
 20
306.519245
 10
150.991222
 20
306.519088
 10
150.950914
 20
306.518666
 10
150.907909
 20
306.517841
 10
150.862398
 20
306.516482
 10
150.814572
 20
306.514455
 10
150.764624
 20
306.511625
 10
150.712746
 20
306.50786
 10
150.65913
 20
306.503026
 10
150.603966
 20
306.496987
 10
150.547448
 20
306.489614
 10
150.489766
 20
306.480768
 10
150.431113
 20
306.47032
 10
150.371682
 20
306.458133
 10
150.311662
 20
306.444075
 10
150.251248
 20
306.428012
 10
150.190628
 20
306.40981
 10
150.129997
 20
306.389336
 10
150.069546
 20
306.366455
 10
150.009466
 20
306.341034
 10
149.949936
 20
306.31298
 10
149.891076
 20
306.282356
 10
149.832995
 20
306.249266
 10
149.775799
 20
306.213816
 10
149.719596
 20
306.176107
 10
149.664492
 20
306.136245
 10
149.610597
 20
306.094333
 10
149.558015
 20
306.050476
 10
149.506856
 20
306.004776
 10
149.457226
 20
305.957339
 10
149.409233
 20
305.908268
 10
149.362984
 20
305.857667
 10
149.318585
 20
305.80564
 10
149.276146
 20
305.752293
 10
149.235772
 20
305.697725
 10
149.197572
 20
305.642045
 10
149.161651
 20
305.585355
 10
149.128119
 20
305.527759
 10
149.097082
 20
305.46936
 10
149.068647
 20
305.410263
 10
149.042882
 20
305.350588
 10
149.019691
 20
305.290511
 10
148.998939
 20
305.230226
 10
148.98049
 20
305.169926
 10
148.964209
 20
305.109805
 10
148.94996
 20
305.050055
 10
148.937608
 20
304.990869
 10
148.927018
 20
304.932442
 10
148.918052
 20
304.874964
 10
148.910578
 20
304.818631
 10
148.904459
 20
304.763633
 10
148.899558
 20
304.710166
 10
148.895743
 20
304.658421
 10
148.892874
 20
304.608593
 10
148.89082
 20
304.560873
 10
148.889442
 20
304.515456
 10
148.888607
 20
304.472535
 10
148.888177
 20
304.432301
 10
148.88802
 20
304.394949
 10
148.887997
 20
304.142832
 10
148.887997
 20
303.924991
 10
148.888019
 20
303.890713
 10
148.888176
 20
303.853362
 10
148.888603
 20
303.813128
 10
148.889433
 20
303.770206
 10
148.890802
 20
303.724789
 10
148.892843
 20
303.677069
 10
148.895692
 20
303.627241
 10
148.899483
 20
303.575496
 10
148.904352
 20
303.52203
 10
148.910433
 20
303.467032
 10
148.917859
 20
303.410699
 10
148.926766
 20
303.353221
 10
148.937288
 20
303.294793
 10
148.949559
 20
303.235608
 10
148.963717
 20
303.175857
 10
148.979892
 20
303.115736
 10
148.998222
 20
303.055436
 10
149.018841
 20
302.995151
 10
149.041882
 20
302.935074
 10
149.06748
 20
302.875399
 10
149.095732
 20
302.816302
 10
149.12657
 20
302.757904
 10
149.159892
 20
302.700308
 10
149.195592
 20
302.643618
 10
149.233565
 20
302.587937
 10
149.273707
 20
302.533371
 10
149.315913
 20
302.480022
 10
149.360079
 20
302.427996
 10
149.406099
 20
302.377394
 10
149.45387
 20
302.328324
 10
149.503286
 20
302.280886
 10
149.554242
 20
302.235187
 10
149.606635
 20
302.19133
 10
149.660359
 20
302.149417
 10
149.715309
 20
302.109555
 10
149.771381
 20
302.071846
 10
149.828471
 20
302.036396
 10
149.886473
 20
302.003307
 10
149.945283
 20
301.972682
 10
150.004796
 20
301.944628
 10
150.064894
 20
301.919208
 10
150.125394
 20
301.896328
 10
150.186105
 20
301.875852
 10
150.24683
 20
301.857651
 10
150.307376
 20
301.841587
 10
150.367548
 20
301.827529
 10
150.427152
 20
301.815343
 10
150.485993
 20
301.804894
 10
150.543877
 20
301.796049
 10
150.60061
 20
301.788675
 10
150.655996
 20
301.782637
 10
150.709842
 20
301.777803
 10
150.761952
 20
301.774038
 10
150.812133
 20
301.771207
 10
150.860191
 20
301.76918
 10
150.905929
 20
301.767822
 10
150.949154
 20
301.766997
 10
150.989673
 20
301.766574
 10
151.02729
 20
301.766418
 10
151.281193
 20
301.766396
 10
151.282123
 20
301.766396
 10
151.288636
 20
301.766396
 10
151.306312
 20
301.766396
 10
151.340734
 20
301.766396
 10
151.397485
 20
301.766396
 10
151.482145
 20
301.766396
 10
151.600297
 20
301.766396
 10
151.757523
 20
301.766396
 10
151.959406
 20
301.766396
 10
152.211525
 20
301.766396
 10
152.519465
 20
301.766396
 10
152.888808
 20
301.766396
 10
153.325134
 20
301.766396
 10
153.834026
 20
301.766396
 10
154.421066
 20
301.766396
 10
155.091836
 20
301.766396
 10
155.851919
 20
301.766396
 10
156.706894
 20
301.766396
 10
157.662346
 20
301.766396
 10
158.723856
 20
301.766396
 10
159.894214
 20
301.766396
 10
161.165049
 20
301.766396
 10
162.525195
 20
301.766396
 10
163.96349
 20
301.766396
 10
165.468769
 20
301.766396
 10
167.029868
 20
301.766396
 10
168.635622
 20
301.766396
 10
170.274868
 20
301.766396
 10
171.936443
 20
301.766396
 10
173.609181
 20
301.766396
 10
175.28192
 20
301.766396
 10
176.943495
 20
301.766396
 10
178.582742
 20
301.766396
 10
180.188496
 20
301.766396
 10
181.749595
 20
301.766396
 10
183.254873
 20
301.766396
 10
184.693167
 20
301.766396
 10
186.053315
 20
301.766396
 10
187.32415
 20
301.766396
 10
188.494508
 20
301.766396
 10
189.556018
 20
301.766396
 10
190.511469
 20
301.766396
 10
191.366445
 20
301.766396
 10
192.126527
 20
301.766396
 10
192.797297
 20
301.766396
 10
193.384338
 20
301.766396
 10
193.893229
 20
301.766396
 10
194.329555
 20
301.766396
 10
194.698898
 20
301.766396
 10
195.006838
 20
301.766396
 10
195.258958
 20
301.766396
 10
195.46084
 20
301.766396
 10
195.618066
 20
301.766396
 10
195.736219
 20
301.766396
 10
195.820879
 20
301.766396
 10
195.87763
 20
301.766396
 10
195.912052
 20
301.766396
 10
195.929728
 20
301.766396
 10
195.93624
 20
301.766396
 10
195.93717
 20
301.766396
 10
196.156553
 20
301.766396
 10
196.191074
 20
301.766418
 10
196.228691
 20
301.766574
 10
196.269208
 20
301.766997
 10
196.312434
 20
301.767822
 10
196.358173
 20
301.76918
 10
196.40623
 20
301.771207
 10
196.456412
 20
301.774038
 10
196.508522
 20
301.777803
 10
196.562368
 20
301.782637
 10
196.617754
 20
301.788675
 10
196.674486
 20
301.796049
 10
196.732371
 20
301.804894
 10
196.791211
 20
301.815343
 10
196.850815
 20
301.827529
 10
196.910988
 20
301.841587
 10
196.971534
 20
301.857651
 10
197.032259
 20
301.875852
 10
197.09297
 20
301.896328
 10
197.15347
 20
301.919208
 10
197.213567
 20
301.944628
 10
197.273081
 20
301.972682
 10
197.33189
 20
302.003307
 10
197.389892
 20
302.036396
 10
197.446982
 20
302.071846
 10
197.503055
 20
302.109555
 10
197.558005
 20
302.149417
 10
197.611729
 20
302.19133
 10
197.664121
 20
302.235187
 10
197.715078
 20
302.280886
 10
197.764493
 20
302.328324
 10
197.812264
 20
302.377394
 10
197.858285
 20
302.427996
 10
197.902451
 20
302.480022
 10
197.944656
 20
302.533371
 10
197.984799
 20
302.587937
 10
198.022772
 20
302.643618
 10
198.058472
 20
302.700308
 10
198.091793
 20
302.757904
 10
198.122632
 20
302.816302
 10
198.150883
 20
302.875399
 10
198.176482
 20
302.935074
 10
198.199523
 20
302.995151
 10
198.220142
 20
303.055436
 10
198.238471
 20
303.115736
 10
198.254647
 20
303.175857
 10
198.268803
 20
303.235608
 10
198.281076
 20
303.294793
 10
198.291598
 20
303.353221
 10
198.300505
 20
303.410699
 10
198.307931
 20
303.467032
 10
198.314011
 20
303.52203
 10
198.318879
 20
303.575496
 10
198.322672
 20
303.627241
 10
198.325521
 20
303.677069
 10
198.327562
 20
303.724789
 10
198.328931
 20
303.770206
 10
198.329761
 20
303.813128
 10
198.330188
 20
303.853362
 10
198.330344
 20
303.890713
 10
198.330367
 20
304.142832
  0
LWPOLYLINE
  5
30
330
1F
100
AcDbEntity
  8
0
100
AcDbPolyline
 90
     1518
 70
   128
 43
0.0
 10
-862.338543
 20
993.469896
 10
-862.338221
 20
993.469879
 10
-862.335968
 20
993.469757
 10
-862.329851
 20
993.469427
 10
-862.317939
 20
993.468784
 10
-862.298301
 20
993.467724
 10
-862.269004
 20
993.466142
 10
-862.228118
 20
993.463934
 10
-862.17371
 20
993.460997
 10
-862.103849
 20
993.457225
 10
-862.016604
 20
993.452515
 10
-861.910042
 20
993.446761
 10
-861.782232
 20
993.439861
 10
-861.631242
 20
993.431709
 10
-861.455141
 20
993.422201
 10
-861.251997
 20
993.411233
 10
-861.019878
 20
993.398701
 10
-860.756854
 20
993.3845
 10
-860.460991
 20
993.368526
 10
-860.130359
 20
993.350675
 10
-859.763026
 20
993.330843
 10
-859.358026
 20
993.308977
 10
-858.918256
 20
993.285233
 10
-858.44758
 20
993.259821
 10
-857.949862
 20
993.232949
 10
-857.428963
 20
993.204826
 10
-856.888748
 20
993.175659
 10
-856.33308
 20
993.145659
 10
-855.765823
 20
993.115032
 10
-855.190838
 20
993.083988
 10
-854.611991
 20
993.052736
 10
-854.033143
 20
993.021484
 10
-853.458159
 20
992.99044
 10
-852.890901
 20
992.959814
 10
-852.335233
 20
992.929813
 10
-851.795019
 20
992.900647
 10
-851.27412
 20
992.872523
 10
-850.776401
 20
992.845651
 10
-850.305726
 20
992.820239
 10
-849.865956
 20
992.796496
 10
-849.460956
 20
992.774629
 10
-849.093623
 20
992.754797
 10
-848.762991
 20
992.736946
 10
-848.467128
 20
992.720972
 10
-848.204103
 20
992.706771
 10
-847.971985
 20
992.694239
 10
-847.768841
 20
992.683271
 10
-847.59274
 20
992.673764
 10
-847.44175
 20
992.665612
 10
-847.31394
 20
992.658711
 10
-847.207378
 20
992.652958
 10
-847.120132
 20
992.648247
 10
-847.050271
 20
992.644476
 10
-846.995864
 20
992.641538
 10
-846.954977
 20
992.639331
 10
-846.925681
 20
992.637749
 10
-846.906042
 20
992.636689
 10
-846.894131
 20
992.636045
 10
-846.888014
 20
992.635715
 10
-846.88576
 20
992.635594
 10
-846.885438
 20
992.635576
 10
-846.88544
 20
992.634977
 10
-846.885453
 20
992.630784
 10
-846.885487
 20
992.619403
 10
-846.885553
 20
992.59724
 10
-846.885662
 20
992.560701
 10
-846.885825
 20
992.506192
 10
-846.886052
 20
992.430118
 10
-846.886354
 20
992.328887
 10
-846.886742
 20
992.198904
 10
-846.887227
 20
992.036574
 10
-846.887819
 20
991.838305
 10
-846.888529
 20
991.600501
 10
-846.889367
 20
991.319569
 10
-846.890346
 20
990.991915
 10
-846.891474
 20
990.613944
 10
-846.892764
 20
990.182064
 10
-846.894225
 20
989.692679
 10
-846.895868
 20
989.142197
 10
-846.897705
 20
988.527022
 10
-846.899746
 20
987.84356
 10
-846.901995
 20
987.090016
 10
-846.904438
 20
986.271779
 10
-846.907053
 20
985.396038
 10
-846.909818
 20
984.469981
 10
-846.912712
 20
983.500796
 10
-846.915713
 20
982.495671
 10
-846.9188
 20
981.461793
 10
-846.921951
 20
980.406352
 10
-846.925145
 20
979.336534
 10
-846.92836
 20
978.259529
 10
-846.931576
 20
977.182523
 10
-846.93477
 20
976.112706
 10
-846.937921
 20
975.057264
 10
-846.941008
 20
974.023387
 10
-846.944009
 20
973.018261
 10
-846.946903
 20
972.049076
 10
-846.949668
 20
971.123019
 10
-846.952282
 20
970.247278
 10
-846.954725
 20
969.429042
 10
-846.956975
 20
968.675497
 10
-846.959016
 20
967.992036
 10
-846.960852
 20
967.376861
 10
-846.962496
 20
966.826378
 10
-846.963957
 20
966.336993
 10
-846.965247
 20
965.905113
 10
-846.966375
 20
965.527143
 10
-846.967353
 20
965.199489
 10
-846.968192
 20
964.918557
 10
-846.968902
 20
964.680753
 10
-846.969494
 20
964.482483
 10
-846.969979
 20
964.320154
 10
-846.970367
 20
964.19017
 10
-846.970669
 20
964.088939
 10
-846.970896
 20
964.012866
 10
-846.971059
 20
963.958357
 10
-846.971168
 20
963.921817
 10
-846.971234
 20
963.899654
 10
-846.971268
 20
963.888273
 10
-846.971281
 20
963.88408
 10
-846.971283
 20
963.883481
 10
-846.971766
 20
963.665887
 10
-846.97182
 20
963.631648
 10
-846.971748
 20
963.594338
 10
-846.971418
 20
963.554149
 10
-846.970697
 20
963.511273
 10
-846.969453
 20
963.465904
 10
-846.967551
 20
963.418234
 10
-846.96486
 20
963.368456
 10
-846.961247
 20
963.316761
 10
-846.956578
 20
963.263343
 10
-846.950722
 20
963.208394
 10
-846.943545
 20
963.152107
 10
-846.934915
 20
963.094675
 10
-846.924698
 20
963.036289
 10
-846.912763
 20
962.977142
 10
-846.898976
 20
962.917428
 10
-846.883204
 20
962.857338
 10
-846.865315
 20
962.797066
 10
-846.845175
 20
962.736803
 10
-846.822653
 20
962.676742
 10
-846.797615
 20
962.617076
 10
-846.769968
 20
962.557983
 10
-846.739775
 20
962.499581
 10
-846.707138
 20
962.441975
 10
-846.67216
 20
962.385268
 10
-846.634944
 20
962.329564
 10
-846.595591
 20
962.274968
 10
-846.554206
 20
962.221583
 10
-846.510889
 20
962.169513
 10
-846.465743
 20
962.118863
 10
-846.418872
 20
962.069736
 10
-846.370377
 20
962.022236
 10
-846.32036
 20
961.976468
 10
-846.268926
 20
961.932535
 10
-846.216175
 20
961.890541
 10
-846.162211
 20
961.85059
 10
-846.107135
 20
961.812787
 10
-846.051051
 20
961.777235
 10
-845.994061
 20
961.744038
 10
-845.936268
 20
961.7133
 10
-845.877773
 20
961.685125
 10
-845.818695
 20
961.659578
 10
-845.759209
 20
961.636566
 10
-845.69951
 20
961.615955
 10
-845.639787
 20
961.597612
 10
-845.580233
 20
961.581405
 10
-845.521041
 20
961.5672
 10
-845.462401
 20
961.554866
 10
-845.404506
 20
961.544268
 10
-845.347548
 20
961.535275
 10
-845.291719
 20
961.527752
 10
-845.237211
 20
961.521568
 10
-845.184214
 20
961.516589
 10
-845.132923
 20
961.512683
 10
-845.083528
 20
961.509716
 10
-845.036221
 20
961.507556
 10
-844.991194
 20
961.50607
 10
-844.94864
 20
961.505124
 10
-844.908749
 20
961.504587
 10
-844.871715
 20
961.504324
 10
-844.621738
 20
961.503583
 10
-844.405659
 20
961.502934
 10
-844.371659
 20
961.502855
 10
-844.334608
 20
961.502899
 10
-844.294699
 20
961.503202
 10
-844.252123
 20
961.503898
 10
-844.20707
 20
961.50512
 10
-844.159733
 20
961.507003
 10
-844.110302
 20
961.50968
 10
-844.058969
 20
961.513287
 10
-844.005924
 20
961.517956
 10
-843.95136
 20
961.523822
 10
-843.895468
 20
961.53102
 10
-843.838438
 20
961.539682
 10
-843.780462
 20
961.549944
 10
-843.721732
 20
961.561939
 10
-843.662438
 20
961.575801
 10
-843.602772
 20
961.591665
 10
-843.542925
 20
961.609665
 10
-843.483089
 20
961.629934
 10
-843.423454
 20
961.652606
 10
-843.364212
 20
961.677817
 10
-843.30554
 20
961.70566
 10
-843.247555
 20
961.736071
 10
-843.19036
 20
961.768946
 10
-843.134059
 20
961.804183
 10
-843.078755
 20
961.841677
 10
-843.02455
 20
961.881325
 10
-842.971548
 20
961.923023
 10
-842.919853
 20
961.966668
 10
-842.869566
 20
962.012156
 10
-842.820792
 20
962.059383
 10
-842.773633
 20
962.108246
 10
-842.728193
 20
962.158641
 10
-842.684575
 20
962.210464
 10
-842.642881
 20
962.263613
 10
-842.603215
 20
962.317983
 10
-842.56568
 20
962.37347
 10
-842.530379
 20
962.429972
 10
-842.497415
 20
962.487384
 10
-842.466892
 20
962.545603
 10
-842.438912
 20
962.604526
 10
-842.41354
 20
962.664033
 10
-842.390682
 20
962.723947
 10
-842.370208
 20
962.784074
 10
-842.351984
 20
962.844222
 10
-842.33588
 20
962.904197
 10
-842.321764
 20
962.963807
 10
-842.309503
 20
963.022858
 10
-842.298966
 20
963.081156
 10
-842.290021
 20
963.13851
 10
-842.282537
 20
963.194726
 10
-842.276381
 20
963.249611
 10
-842.271421
 20
963.302972
 10
-842.267527
 20
963.354616
 10
-842.264566
 20
963.404349
 10
-842.262405
 20
963.451979
 10
-842.260915
 20
963.497312
 10
-842.259962
 20
963.540156
 10
-842.259414
 20
963.580318
 10
-842.259141
 20
963.617603
 10
-842.258318
 20
963.869275
 10
-842.258316
 20
963.869869
 10
-842.258304
 20
963.874027
 10
-842.25827
 20
963.885313
 10
-842.258205
 20
963.90729
 10
-842.258098
 20
963.943524
 10
-842.257937
 20
963.997577
 10
-842.257714
 20
964.073013
 10
-842.257416
 20
964.173397
 10
-842.257034
 20
964.302293
 10
-842.256557
 20
964.463264
 10
-842.255974
 20
964.659875
 10
-842.255275
 20
964.895688
 10
-842.25445
 20
965.174269
 10
-842.253487
 20
965.499182
 10
-842.252376
 20
965.873989
 10
-842.251106
 20
966.302255
 10
-842.249668
 20
966.787544
 10
-842.24805
 20
967.333421
 10
-842.246242
 20
967.943448
 10
-842.244233
 20
968.62119
 10
-842.242018
 20
969.368428
 10
-842.239613
 20
970.179817
 10
-842.237039
 20
971.04823
 10
-842.234317
 20
971.966537
 10
-842.231468
 20
972.927612
 10
-842.228514
 20
973.924326
 10
-842.225475
 20
974.949552
 10
-842.222373
 20
975.996161
 10
-842.219228
 20
977.057026
 10
-842.216063
 20
978.125019
 10
-842.212897
 20
979.193011
 10
-842.209753
 20
980.253876
 10
-842.20665
 20
981.300486
 10
-842.203612
 20
982.325711
 10
-842.200657
 20
983.322425
 10
-842.197809
 20
984.2835
 10
-842.195087
 20
985.201807
 10
-842.192513
 20
986.07022
 10
-842.190108
 20
986.881609
 10
-842.187893
 20
987.628848
 10
-842.185884
 20
988.30659
 10
-842.184076
 20
988.916617
 10
-842.182458
 20
989.462493
 10
-842.181019
 20
989.947782
 10
-842.17975
 20
990.376048
 10
-842.178639
 20
990.750856
 10
-842.177676
 20
991.075768
 10
-842.17685
 20
991.354349
 10
-842.176151
 20
991.590163
 10
-842.175568
 20
991.786773
 10
-842.175091
 20
991.947744
 10
-842.174709
 20
992.07664
 10
-842.174412
 20
992.177024
 10
-842.174188
 20
992.252461
 10
-842.174028
 20
992.306514
 10
-842.17392
 20
992.342747
 10
-842.173855
 20
992.364725
 10
-842.173822
 20
992.37601
 10
-842.173809
 20
992.380168
 10
-842.173808
 20
992.380762
 10
-842.173688
 20
992.380756
 10
-842.172847
 20
992.380711
 10
-842.170564
 20
992.380587
 10
-842.166119
 20
992.380348
 10
-842.158792
 20
992.379953
 10
-842.14786
 20
992.379363
 10
-842.132603
 20
992.378541
 10
-842.112301
 20
992.377446
 10
-842.086233
 20
992.37604
 10
-842.053678
 20
992.374285
 10
-842.013916
 20
992.372141
 10
-841.966224
 20
992.369569
 10
-841.909884
 20
992.366531
 10
-841.844173
 20
992.362988
 10
-841.768371
 20
992.3589
 10
-841.681758
 20
992.35423
 10
-841.583612
 20
992.348938
 10
-841.473213
 20
992.342985
 10
-841.349841
 20
992.336332
 10
-841.212773
 20
992.328941
 10
-841.06165
 20
992.320792
 10
-840.897554
 20
992.311944
 10
-840.721925
 20
992.302473
 10
-840.536205
 20
992.292459
 10
-840.341835
 20
992.281978
 10
-840.140258
 20
992.271109
 10
-839.932915
 20
992.259928
 10
-839.721247
 20
992.248515
 10
-839.506696
 20
992.236946
 10
-839.290704
 20
992.225299
 10
-839.074711
 20
992.213652
 10
-838.86016
 20
992.202083
 10
-838.648492
 20
992.190669
 10
-838.441149
 20
992.179489
 10
-838.239572
 20
992.168619
 10
-838.045203
 20
992.158138
 10
-837.859483
 20
992.148124
 10
-837.683854
 20
992.138654
 10
-837.519757
 20
992.129805
 10
-837.368634
 20
992.121656
 10
-837.231567
 20
992.114265
 10
-837.108194
 20
992.107613
 10
-836.997795
 20
992.10166
 10
-836.89965
 20
992.096368
 10
-836.813036
 20
992.091697
 10
-836.737235
 20
992.08761
 10
-836.671524
 20
992.084067
 10
-836.615183
 20
992.081029
 10
-836.567492
 20
992.078457
 10
-836.527729
 20
992.076313
 10
-836.495174
 20
992.074557
 10
-836.469106
 20
992.073152
 10
-836.448804
 20
992.072057
 10
-836.433548
 20
992.071234
 10
-836.422616
 20
992.070645
 10
-836.415288
 20
992.07025
 10
-836.410843
 20
992.07001
 10
-836.408561
 20
992.069887
 10
-836.40772
 20
992.069842
 10
-836.4076
 20
992.069835
 10
-836.407341
 20
992.069686
 10
-836.40553
 20
992.068638
 10
-836.400615
 20
992.065795
 10
-836.391044
 20
992.060259
 10
-836.375264
 20
992.051131
 10
-836.351723
 20
992.037515
 10
-836.31887
 20
992.018512
 10
-836.275152
 20
991.993224
 10
-836.219017
 20
991.960754
 10
-836.148913
 20
991.920204
 10
-836.063287
 20
991.870676
 10
-835.960588
 20
991.811273
 10
-835.839264
 20
991.741096
 10
-835.697762
 20
991.659247
 10
-835.53453
 20
991.56483
 10
-835.348017
 20
991.456946
 10
-835.136669
 20
991.334698
 10
-834.898936
 20
991.197187
 10
-834.633264
 20
991.043516
 10
-834.338102
 20
990.872786
 10
-834.012673
 20
990.684551
 10
-833.659306
 20
990.480155
 10
-833.281106
 20
990.261394
 10
-832.881175
 20
990.030064
 10
-832.462619
 20
989.787961
 10
-832.028542
 20
989.53688
 10
-831.582048
 20
989.278617
 10
-831.126241
 20
989.014967
 10
-830.664225
 20
988.747726
 10
-830.199106
 20
988.478689
 10
-829.733986
 20
988.209652
 10
-829.27197
 20
987.942411
 10
-828.816163
 20
987.678761
 10
-828.369669
 20
987.420498
 10
-827.935592
 20
987.169417
 10
-827.517036
 20
986.927314
 10
-827.117106
 20
986.695984
 10
-826.738905
 20
986.477224
 10
-826.385538
 20
986.272828
 10
-826.060109
 20
986.084592
 10
-825.764947
 20
985.913863
 10
-825.499275
 20
985.760192
 10
-825.261542
 20
985.622681
 10
-825.050194
 20
985.500432
 10
-824.863681
 20
985.392548
 10
-824.700449
 20
985.298131
 10
-824.558947
 20
985.216283
 10
-824.437623
 20
985.146106
 10
-824.334924
 20
985.086702
 10
-824.249299
 20
985.037174
 10
-824.179194
 20
984.996624
 10
-824.123059
 20
984.964154
 10
-824.079341
 20
984.938867
 10
-824.046488
 20
984.919863
 10
-824.022947
 20
984.906247
 10
-824.007167
 20
984.89712
 10
-823.997596
 20
984.891583
 10
-823.992681
 20
984.88874
 10
-823.99087
 20
984.887693
 10
-823.990611
 20
984.887543
 10
-822.291058
 20
982.90141
 10
-822.023486
 20
982.588938
 10
-821.731065
 20
982.248737
 10
-821.41444
 20
981.882873
 10
-821.074254
 20
981.493408
 10
-820.711153
 20
981.082405
 10
-820.325781
 20
980.65193
 10
-819.918783
 20
980.204046
 10
-819.490802
 20
979.740817
 10
-819.042483
 20
979.264305
 10
-818.574471
 20
978.776576
 10
-818.08741
 20
978.279693
 10
-817.581945
 20
977.77572
 10
-817.05872
 20
977.266721
 10
-816.518379
 20
976.754758
 10
-815.961567
 20
976.241897
 10
-815.388929
 20
975.730202
 10
-814.801108
 20
975.221734
 10
-814.19875
 20
974.71856
 10
-813.582498
 20
974.222742
 10
-812.952997
 20
973.736344
 10
-812.310818
 20
973.261056
 10
-811.656233
 20
972.797071
 10
-810.989441
 20
972.344207
 10
-810.310643
 20
971.902284
 10
-809.620035
 20
971.47112
 10
-808.917819
 20
971.050534
 10
-808.204191
 20
970.640345
 10
-807.479353
 20
970.240372
 10
-806.743501
 20
969.850433
 10
-805.996837
 20
969.470348
 10
-805.239557
 20
969.099934
 10
-804.471863
 20
968.739012
 10
-803.693951
 20
968.387399
 10
-802.906022
 20
968.044914
 10
-802.108275
 20
967.711377
 10
-801.300908
 20
967.386606
 10
-800.48412
 20
967.07042
 10
-799.658111
 20
966.762638
 10
-798.823079
 20
966.463078
 10
-797.979224
 20
966.17156
 10
-797.127172
 20
965.887953
 10
-796.269263
 20
965.612336
 10
-795.408264
 20
965.344838
 10
-794.546942
 20
965.085588
 10
-793.688065
 20
964.834716
 10
-792.8344
 20
964.59235
 10
-791.988715
 20
964.358622
 10
-791.153776
 20
964.133659
 10
-790.332352
 20
963.917591
 10
-789.527209
 20
963.710548
 10
-788.741116
 20
963.512659
 10
-787.976838
 20
963.324054
 10
-787.237144
 20
963.144861
 10
-786.524801
 20
962.97521
 10
-785.842576
 20
962.815231
 10
-785.193236
 20
962.665052
 10
-784.57955
 20
962.524804
 10
-784.004284
 20
962.394616
 10
-783.470205
 20
962.274617
 10
-779.865259
 20
961.468413
 10
-750.218614
 20
959.391489
 10
-745.552819
 20
959.065102
 10
-740.463634
 20
958.711939
 10
-734.972371
 20
958.336375
 10
-729.100338
 20
957.942786
 10
-722.868847
 20
957.53555
 10
-716.299208
 20
957.119042
 10
-709.41273
 20
956.69764
 10
-702.230725
 20
956.27572
 10
-694.774502
 20
955.857658
 10
-687.065372
 20
955.447831
 10
-679.124644
 20
955.050615
 10
-670.97363
 20
954.670388
 10
-662.633639
 20
954.311524
 10
-654.125981
 20
953.978402
 10
-645.471968
 20
953.675398
 10
-636.692909
 20
953.406888
 10
-627.810114
 20
953.177248
 10
-618.844894
 20
952.990855
 10
-609.818559
 20
952.852087
 10
-600.752419
 20
952.765318
 10
-591.664587
 20
952.733472
 10
-582.560383
 20
952.753655
 10
-573.441931
 20
952.821519
 10
-564.311354
 20
952.932716
 10
-555.170775
 20
953.082898
 10
-546.022316
 20
953.267717
 10
-536.868102
 20
953.482825
 10
-527.710256
 20
953.723874
 10
-518.550899
 20
953.986517
 10
-509.392156
 20
954.266406
 10
-500.23615
 20
954.559191
 10
-491.085003
 20
954.860527
 10
-481.94084
 20
955.166064
 10
-472.805782
 20
955.471455
 10
-463.681953
 20
955.772351
 10
-454.571477
 20
956.064406
 10
-445.476476
 20
956.34327
 10
-436.399073
 20
956.604597
 10
-427.341392
 20
956.844037
 10
-418.305555
 20
957.057244
 10
-409.296793
 20
957.240893
 10
-400.332762
 20
957.395757
 10
-391.434224
 20
957.523634
 10
-382.621943
 20
957.62632
 10
-373.916681
 20
957.705613
 10
-365.339202
 20
957.763308
 10
-356.910268
 20
957.801205
 10
-348.650643
 20
957.821098
 10
-340.581088
 20
957.824787
 10
-332.722368
 20
957.814066
 10
-325.095245
 20
957.790735
 10
-317.720482
 20
957.756588
 10
-310.618842
 20
957.713425
 10
-303.811088
 20
957.663041
 10
-297.317982
 20
957.607234
 10
-291.160289
 20
957.5478
 10
-285.35877
 20
957.486537
 10
-279.934189
 20
957.425242
 10
-274.907308
 20
957.365712
 10
-241.017128
 20
956.952487
 10
-240.219601
 20
956.992173
 10
-240.094102
 20
956.998441
 10
-239.957311
 20
957.005408
 10
-239.809899
 20
957.013177
 10
-239.652537
 20
957.021853
 10
-239.485895
 20
957.031538
 10
-239.310646
 20
957.042337
 10
-239.127458
 20
957.054353
 10
-238.937005
 20
957.06769
 10
-238.739955
 20
957.082451
 10
-238.536981
 20
957.09874
 10
-238.328753
 20
957.116661
 10
-238.115942
 20
957.136317
 10
-237.899219
 20
957.157812
 10
-237.679255
 20
957.181249
 10
-237.456721
 20
957.206733
 10
-237.232287
 20
957.234366
 10
-237.006625
 20
957.264253
 10
-236.780406
 20
957.296497
 10
-236.5543
 20
957.331202
 10
-236.328979
 20
957.368471
 10
-236.104998
 20
957.408385
 10
-235.882453
 20
957.450933
 10
-235.661327
 20
957.49608
 10
-235.441601
 20
957.543793
 10
-235.223255
 20
957.594037
 10
-235.006273
 20
957.646779
 10
-234.790634
 20
957.701983
 10
-234.576322
 20
957.759616
 10
-234.363316
 20
957.819643
 10
-234.151599
 20
957.882031
 10
-233.941152
 20
957.946745
 10
-233.731957
 20
958.013751
 10
-233.523994
 20
958.083015
 10
-233.317246
 20
958.154502
 10
-233.111695
 20
958.228179
 10
-232.90732
 20
958.304012
 10
-232.704105
 20
958.381965
 10
-232.50203
 20
958.462006
 10
-232.301077
 20
958.544099
 10
-232.101228
 20
958.628211
 10
-231.902535
 20
958.714252
 10
-231.705345
 20
958.801917
 10
-231.510074
 20
958.890842
 10
-231.317138
 20
958.980667
 10
-231.126954
 20
959.071031
 10
-230.93994
 20
959.16157
 10
-230.756512
 20
959.251924
 10
-230.577087
 20
959.341732
 10
-230.402082
 20
959.430631
 10
-230.231914
 20
959.51826
 10
-230.067
 20
959.604258
 10
-229.907757
 20
959.688262
 10
-229.754601
 20
959.769911
 10
-229.60795
 20
959.848844
 10
-229.46822
 20
959.924699
 10
-229.335829
 20
959.997114
 10
-229.211193
 20
960.065728
 10
-229.094728
 20
960.130179
 10
-228.986853
 20
960.190106
 10
-228.2598
 20
960.594992
 10
-226.742955
 20
961.43985
 10
-226.504374
 20
961.57287
 10
-226.24497
 20
961.718292
 10
-225.966673
 20
961.875846
 10
-225.671414
 20
962.045261
 10
-225.361123
 20
962.226266
 10
-225.037729
 20
962.41859
 10
-224.703162
 20
962.621964
 10
-224.359354
 20
962.836116
 10
-224.008233
 20
963.060775
 10
-223.651731
 20
963.295672
 10
-223.291776
 20
963.540534
 10
-222.930299
 20
963.795093
 10
-222.56923
 20
964.059076
 10
-222.210499
 20
964.332214
 10
-221.856036
 20
964.614235
 10
-221.507772
 20
964.90487
 10
-221.167636
 20
965.203847
 10
-220.837558
 20
965.510896
 10
-220.519468
 20
965.825745
 10
-220.215297
 20
966.148126
 10
-219.926335
 20
966.477596
 10
-219.651316
 20
966.813035
 10
-219.388333
 20
967.153155
 10
-219.135479
 20
967.496664
 10
-218.89085
 20
967.842273
 10
-218.652538
 20
968.188691
 10
-218.418638
 20
968.534629
 10
-218.187244
 20
968.878796
 10
-217.956449
 20
969.219902
 10
-217.724346
 20
969.556658
 10
-217.489031
 20
969.887774
 10
-217.248597
 20
970.211958
 10
-217.001138
 20
970.527922
 10
-216.744747
 20
970.834375
 10
-216.477518
 20
971.130027
 10
-216.197546
 20
971.413588
 10
-215.902923
 20
971.683768
 10
-215.591745
 20
971.939277
 10
-215.262105
 20
972.178825
 10
-214.912096
 20
972.401122
 10
-214.540559
 20
972.605236
 10
-214.149321
 20
972.791666
 10
-213.740953
 20
972.961269
 10
-213.318028
 20
973.114905
 10
-212.88312
 20
973.253428
 10
-212.438801
 20
973.377699
 10
-211.987643
 20
973.488573
 10
-211.532219
 20
973.586908
 10
-211.075102
 20
973.673561
 10
-210.618864
 20
973.749391
 10
-210.166079
 20
973.815255
 10
-209.719318
 20
973.87201
 10
-209.281155
 20
973.920514
 10
-208.854161
 20
973.961623
 10
-208.440911
 20
973.996196
 10
-208.043975
 20
974.025091
 10
-207.665928
 20
974.049164
 10
-207.309342
 20
974.069273
 10
-206.976788
 20
974.086275
 10
-204.725597
 20
974.193795
 10
-204.542882
 20
974.17083
 10
-204.514127
 20
974.167216
 10
-204.48277
 20
974.163277
 10
-204.448947
 20
974.159031
 10
-204.412798
 20
974.154499
 10
-204.374461
 20
974.149699
 10
-204.334072
 20
974.144649
 10
-204.29177
 20
974.13937
 10
-204.247694
 20
974.133881
 10
-204.201981
 20
974.1282
 10
-204.154768
 20
974.122346
 10
-204.106195
 20
974.116339
 10
-204.056398
 20
974.110199
 10
-204.005517
 20
974.103943
 10
-203.953688
 20
974.097591
 10
-203.901051
 20
974.091163
 10
-203.847742
 20
974.084677
 10
-203.7939
 20
974.078152
 10
-203.739663
 20
974.071609
 10
-203.685169
 20
974.065065
 10
-203.630556
 20
974.058539
 10
-203.575938
 20
974.052049
 10
-203.521338
 20
974.045596
 10
-203.466757
 20
974.039179
 10
-203.412193
 20
974.032798
 10
-203.357645
 20
974.026452
 10
-203.303115
 20
974.02014
 10
-203.2486
 20
974.013862
 10
-203.194101
 20
974.007616
 10
-203.139618
 20
974.001403
 10
-203.085149
 20
973.995221
 10
-203.030694
 20
973.989069
 10
-202.976254
 20
973.982947
 10
-202.921827
 20
973.976853
 10
-202.867413
 20
973.970788
 10
-202.813011
 20
973.964751
 10
-202.758622
 20
973.95874
 10
-202.704244
 20
973.952755
 10
-202.649877
 20
973.946796
 10
-202.595522
 20
973.94086
 10
-202.541177
 20
973.934949
 10
-202.486864
 20
973.929063
 10
-202.432696
 20
973.923212
 10
-202.378809
 20
973.917411
 10
-202.325336
 20
973.911672
 10
-202.272415
 20
973.906007
 10
-202.220178
 20
973.900431
 10
-202.168762
 20
973.894956
 10
-202.118302
 20
973.889595
 10
-202.068933
 20
973.884362
 10
-202.020789
 20
973.879268
 10
-201.974007
 20
973.874328
 10
-201.92872
 20
973.869554
 10
-201.885065
 20
973.864959
 10
-201.843176
 20
973.860557
 10
-201.803188
 20
973.856359
 10
-201.765237
 20
973.852381
 10
-201.729458
 20
973.848633
 10
-201.695985
 20
973.845131
 10
-201.664954
 20
973.841885
 10
-201.455698
 20
973.820008
 10
-201.455698
 20
973.819826
 10
-201.455702
 20
973.818551
 10
-201.455712
 20
973.815091
 10
-201.455733
 20
973.808351
 10
-201.455766
 20
973.79724
 10
-201.455815
 20
973.780665
 10
-201.455885
 20
973.757533
 10
-201.455977
 20
973.72675
 10
-201.456095
 20
973.687225
 10
-201.456243
 20
973.637864
 10
-201.456423
 20
973.577574
 10
-201.45664
 20
973.505263
 10
-201.456895
 20
973.419837
 10
-201.457193
 20
973.320204
 10
-201.457537
 20
973.20527
 10
-201.45793
 20
973.073944
 10
-201.458376
 20
972.925132
 10
-201.458877
 20
972.757741
 10
-201.459436
 20
972.570679
 10
-201.460058
 20
972.362852
 10
-201.460744
 20
972.133714
 10
-201.461489
 20
971.884904
 10
-201.462286
 20
971.618609
 10
-201.463128
 20
971.337013
 10
-201.46401
 20
971.042303
 10
-201.464925
 20
970.736665
 10
-201.465866
 20
970.422283
 10
-201.466826
 20
970.101344
 10
-201.4678
 20
969.776034
 10
-201.46878
 20
969.448538
 10
-201.46976
 20
969.121042
 10
-201.470733
 20
968.795732
 10
-201.471694
 20
968.474793
 10
-201.472635
 20
968.160411
 10
-201.473549
 20
967.854773
 10
-201.474431
 20
967.560063
 10
-201.475274
 20
967.278467
 10
-201.476071
 20
967.012172
 10
-201.476815
 20
966.763362
 10
-201.477501
 20
966.534224
 10
-201.478123
 20
966.326397
 10
-201.478683
 20
966.139335
 10
-201.479184
 20
965.971944
 10
-201.479629
 20
965.823132
 10
-201.480022
 20
965.691805
 10
-201.480366
 20
965.576872
 10
-201.480664
 20
965.477239
 10
-201.48092
 20
965.391813
 10
-201.481136
 20
965.319502
 10
-201.481317
 20
965.259212
 10
-201.481464
 20
965.209851
 10
-201.481583
 20
965.170325
 10
-201.481675
 20
965.139543
 10
-201.481744
 20
965.116411
 10
-201.481794
 20
965.099835
 10
-201.481827
 20
965.088725
 10
-201.481847
 20
965.081985
 10
-201.481857
 20
965.078525
 10
-201.481861
 20
965.07725
 10
-201.481862
 20
965.077067
 10
-201.482405
 20
964.85953
 10
-201.482469
 20
964.8253
 10
-201.482408
 20
964.787999
 10
-201.482089
 20
964.74782
 10
-201.481379
 20
964.704955
 10
-201.480146
 20
964.659598
 10
-201.478257
 20
964.611939
 10
-201.475578
 20
964.562172
 10
-201.471978
 20
964.51049
 10
-201.467322
 20
964.457084
 10
-201.461478
 20
964.402147
 10
-201.454314
 20
964.345871
 10
-201.445696
 20
964.28845
 10
-201.435491
 20
964.230075
 10
-201.423566
 20
964.170939
 10
-201.409789
 20
964.111234
 10
-201.394027
 20
964.051153
 10
-201.376146
 20
963.990888
 10
-201.356014
 20
963.930632
 10
-201.333499
 20
963.870578
 10
-201.308466
 20
963.810917
 10
-201.280822
 20
963.751827
 10
-201.250632
 20
963.693428
 10
-201.217996
 20
963.635823
 10
-201.183019
 20
963.579116
 10
-201.145802
 20
963.523411
 10
-201.106449
 20
963.468812
 10
-201.065061
 20
963.415423
 10
-201.021741
 20
963.363349
 10
-200.976593
 20
963.312693
 10
-200.929718
 20
963.263559
 10
-200.881219
 20
963.216051
 10
-200.831199
 20
963.170273
 10
-200.779761
 20
963.12633
 10
-200.727006
 20
963.084325
 10
-200.673039
 20
963.044362
 10
-200.61796
 20
963.006545
 10
-200.561873
 20
962.970979
 10
-200.504881
 20
962.937766
 10
-200.447085
 20
962.907012
 10
-200.38859
 20
962.878821
 10
-200.329511
 20
962.853256
 10
-200.270027
 20
962.830225
 10
-200.210328
 20
962.809594
 10
-200.150608
 20
962.791231
 10
-200.091057
 20
962.775004
 10
-200.031867
 20
962.760779
 10
-199.973231
 20
962.748423
 10
-199.915341
 20
962.737804
 10
-199.858387
 20
962.728789
 10
-199.802562
 20
962.721246
 10
-199.748059
 20
962.715041
 10
-199.695068
 20
962.710041
 10
-199.643781
 20
962.706115
 10
-199.594391
 20
962.703129
 10
-199.54709
 20
962.70095
 10
-199.502068
 20
962.699445
 10
-199.459518
 20
962.698482
 10
-199.419633
 20
962.697929
 10
-199.382603
 20
962.697651
 10
-199.132657
 20
962.696807
 10
-198.916638
 20
962.696215
 10
-198.882647
 20
962.696144
 10
-198.845607
 20
962.696199
 10
-198.805709
 20
962.696512
 10
-198.763143
 20
962.697219
 10
-198.718102
 20
962.698453
 10
-198.670775
 20
962.700348
 10
-198.621355
 20
962.703038
 10
-198.570032
 20
962.706658
 10
-198.516997
 20
962.71134
 10
-198.462442
 20
962.717221
 10
-198.406557
 20
962.724432
 10
-198.349533
 20
962.733109
 10
-198.291562
 20
962.743385
 10
-198.232835
 20
962.755395
 10
-198.173542
 20
962.769272
 10
-198.113875
 20
962.78515
 10
-198.054025
 20
962.803164
 10
-197.994183
 20
962.823447
 10
-197.93454
 20
962.846134
 10
-197.875287
 20
962.871358
 10
-197.8166
 20
962.899214
 10
-197.758598
 20
962.929638
 10
-197.701384
 20
962.962527
 10
-197.645061
 20
962.997776
 10
-197.589733
 20
963.035282
 10
-197.535503
 20
963.074942
 10
-197.482475
 20
963.116652
 10
-197.430752
 20
963.160308
 10
-197.380437
 20
963.205807
 10
-197.331633
 20
963.253045
 10
-197.284445
 20
963.301918
 10
-197.238976
 20
963.352324
 10
-197.195328
 20
963.404158
 10
-197.153606
 20
963.457316
 10
-197.113913
 20
963.511696
 10
-197.076352
 20
963.567194
 10
-197.041026
 20
963.623705
 10
-197.008039
 20
963.681127
 10
-196.977495
 20
963.739355
 10
-196.949497
 20
963.798287
 10
-196.924109
 20
963.857804
 10
-196.901238
 20
963.917727
 10
-196.880752
 20
963.977863
 10
-196.862519
 20
964.03802
 10
-196.846408
 20
964.098004
 10
-196.832287
 20
964.157622
 10
-196.820022
 20
964.216681
 10
-196.809484
 20
964.274988
 10
-196.800538
 20
964.33235
 10
-196.793055
 20
964.388574
 10
-196.786901
 20
964.443466
 10
-196.781944
 20
964.496834
 10
-196.778053
 20
964.548485
 10
-196.775096
 20
964.598225
 10
-196.772941
 20
964.645861
 10
-196.771455
 20
964.691201
 10
-196.770507
 20
964.73405
 10
-196.769965
 20
964.774217
 10
-196.769697
 20
964.811507
 10
-196.768908
 20
965.063212
 10
-196.768908
 20
965.063385
 10
-196.768904
 20
965.064601
 10
-196.768894
 20
965.067899
 10
-196.768875
 20
965.074323
 10
-196.768844
 20
965.084913
 10
-196.768798
 20
965.100712
 10
-196.768733
 20
965.122762
 10
-196.768646
 20
965.152103
 10
-196.768535
 20
965.189777
 10
-196.768397
 20
965.236827
 10
-196.768227
 20
965.294293
 10
-196.768024
 20
965.363219
 10
-196.767784
 20
965.444644
 10
-196.767504
 20
965.539611
 10
-196.767182
 20
965.649163
 10
-196.766813
 20
965.774339
 10
-196.766395
 20
965.916183
 10
-196.765924
 20
966.075735
 10
-196.765399
 20
966.254038
 10
-196.764815
 20
966.452133
 10
-196.764172
 20
966.67054
 10
-196.763473
 20
966.907699
 10
-196.762725
 20
967.161524
 10
-196.761934
 20
967.429933
 10
-196.761106
 20
967.710842
 10
-196.760248
 20
968.002168
 10
-196.759365
 20
968.301828
 10
-196.758463
 20
968.607738
 10
-196.757549
 20
968.917815
 10
-196.75663
 20
969.229975
 10
-196.75571
 20
969.542135
 10
-196.754796
 20
969.852211
 10
-196.753894
 20
970.158121
 10
-196.753011
 20
970.457781
 10
-196.752153
 20
970.749107
 10
-196.751325
 20
971.030016
 10
-196.750534
 20
971.298425
 10
-196.749786
 20
971.55225
 10
-196.749087
 20
971.789409
 10
-196.748444
 20
972.007817
 10
-196.74786
 20
972.205911
 10
-196.747335
 20
972.384214
 10
-196.746864
 20
972.543766
 10
-196.746446
 20
972.68561
 10
-196.746078
 20
972.810786
 10
-196.745755
 20
972.920338
 10
-196.745475
 20
973.015305
 10
-196.745235
 20
973.096731
 10
-196.745032
 20
973.165656
 10
-196.744862
 20
973.223122
 10
-196.744724
 20
973.270172
 10
-196.744613
 20
973.307847
 10
-196.744526
 20
973.337188
 10
-196.744461
 20
973.359237
 10
-196.744415
 20
973.375036
 10
-196.744384
 20
973.385626
 10
-196.744365
 20
973.39205
 10
-196.744355
 20
973.395349
 10
-196.744351
 20
973.396564
 10
-196.744351
 20
973.396737
 10
-187.656586
 20
972.728281
 10
-186.226709
 20
972.623737
 10
-184.669194
 20
972.513594
 10
-182.992716
 20
972.402279
 10
-181.205954
 20
972.294219
 10
-179.317586
 20
972.193841
 10
-177.336288
 20
972.105574
 10
-175.270738
 20
972.033845
 10
-173.129614
 20
971.983081
 10
-170.921592
 20
971.957709
 10
-168.655351
 20
971.962157
 10
-166.339568
 20
972.000852
 10
-163.982919
 20
972.078222
 10
-161.594083
 20
972.198695
 10
-159.181737
 20
972.366696
 10
-156.754558
 20
972.586655
 10
-154.321224
 20
972.862998
 10
-151.890413
 20
973.200153
 10
-149.470801
 20
973.602546
 10
-147.071065
 20
974.074607
 10
-144.699885
 20
974.620761
 10
-142.364438
 20
975.244592
 10
-140.065917
 20
975.946297
 10
-137.804014
 20
976.72523
 10
-135.578422
 20
977.580744
 10
-133.388835
 20
978.512193
 10
-131.234946
 20
979.518931
 10
-129.116447
 20
980.600309
 10
-127.033033
 20
981.755683
 10
-124.984395
 20
982.984404
 10
-122.970228
 20
984.285827
 10
-120.990225
 20
985.659305
 10
-119.044078
 20
987.104191
 10
-117.131482
 20
988.619838
 10
-115.252128
 20
990.2056
 10
-113.405711
 20
991.86083
 10
-111.591923
 20
993.584881
 10
-109.810457
 20
995.377107
 10
-108.061008
 20
997.236861
 10
-106.343267
 20
999.163497
 10
-104.656929
 20
1001.156367
 10
-103.002044
 20
1003.213269
 10
-101.380099
 20
1005.325776
 10
-99.792939
 20
1007.483904
 10
-98.242409
 20
1009.677669
 10
-96.730352
 20
1011.897088
 10
-95.258615
 20
1014.132178
 10
-93.829041
 20
1016.372954
 10
-92.443475
 20
1018.609434
 10
-91.103762
 20
1020.831633
 10
-89.811746
 20
1023.029569
 10
-88.569273
 20
1025.193257
 10
-87.378187
 20
1027.312715
 10
-86.240333
 20
1029.377958
 10
-85.157555
 20
1031.379003
 10
-84.131698
 20
1033.305867
 10
-83.164607
 20
1035.148566
 10
-82.258127
 20
1036.897117
 10
-81.414102
 20
1038.541535
 10
-80.634376
 20
1040.071838
 10
-75.388173
 20
1050.416884
 10
-75.387693
 20
1050.416894
 10
-75.384336
 20
1050.416961
 10
-75.375221
 20
1050.417144
 10
-75.357473
 20
1050.417499
 10
-75.328211
 20
1050.418085
 10
-75.284559
 20
1050.418959
 10
-75.223638
 20
1050.420178
 10
-75.14257
 20
1050.421801
 10
-75.038477
 20
1050.423885
 10
-74.90848
 20
1050.426487
 10
-74.749701
 20
1050.429666
 10
-74.559263
 20
1050.433478
 10
-74.334287
 20
1050.437981
 10
-74.071895
 20
1050.443234
 10
-73.769209
 20
1050.449293
 10
-73.42335
 20
1050.456217
 10
-73.03144
 20
1050.464062
 10
-72.590602
 20
1050.472887
 10
-72.097958
 20
1050.482749
 10
-71.550628
 20
1050.493706
 10
-70.947174
 20
1050.505786
 10
-70.291913
 20
1050.518903
 10
-69.590601
 20
1050.532942
 10
-68.848996
 20
1050.547788
 10
-68.072852
 20
1050.563325
 10
-67.267927
 20
1050.579439
 10
-66.439976
 20
1050.596013
 10
-65.594757
 20
1050.612933
 10
-64.738025
 20
1050.630083
 10
-63.875537
 20
1050.647349
 10
-63.013048
 20
1050.664614
 10
-62.156316
 20
1050.681765
 10
-61.311097
 20
1050.698685
 10
-60.483147
 20
1050.715259
 10
-59.678221
 20
1050.731372
 10
-58.902078
 20
1050.746909
 10
-58.160472
 20
1050.761755
 10
-57.459161
 20
1050.775794
 10
-56.8039
 20
1050.788911
 10
-56.200446
 20
1050.800992
 10
-55.653116
 20
1050.811948
 10
-55.160471
 20
1050.82181
 10
-54.719633
 20
1050.830635
 10
-54.327724
 20
1050.83848
 10
-53.981865
 20
1050.845404
 10
-53.679179
 20
1050.851463
 10
-53.416786
 20
1050.856716
 10
-53.19181
 20
1050.86122
 10
-53.001372
 20
1050.865032
 10
-52.842594
 20
1050.86821
 10
-52.712597
 20
1050.870813
 10
-52.608503
 20
1050.872896
 10
-52.527435
 20
1050.874519
 10
-52.466514
 20
1050.875739
 10
-52.422862
 20
1050.876613
 10
-52.393601
 20
1050.877198
 10
-52.375852
 20
1050.877554
 10
-52.366738
 20
1050.877736
 10
-52.36338
 20
1050.877803
 10
-52.3629
 20
1050.877813
 10
-51.805914
 20
1050.698683
 10
-51.718308
 20
1050.670443
 10
-51.623063
 20
1050.639355
 10
-51.520894
 20
1050.605256
 10
-51.412516
 20
1050.567985
 10
-51.298646
 20
1050.52738
 10
-51.179998
 20
1050.483279
 10
-51.057288
 20
1050.435521
 10
-50.931232
 20
1050.383943
 10
-50.802545
 20
1050.328385
 10
-50.671942
 20
1050.268684
 10
-50.54014
 20
1050.204679
 10
-50.407853
 20
1050.136207
 10
-50.275797
 20
1050.063108
 10
-50.144687
 20
1049.985219
 10
-50.015239
 20
1049.902379
 10
-49.888169
 20
1049.814425
 10
-49.764191
 20
1049.721197
 10
-49.644022
 20
1049.622532
 10
-49.528377
 20
1049.518269
 10
-49.417971
 20
1049.408246
 10
-49.313401
 20
1049.292327
 10
-49.214785
 20
1049.170488
 10
-49.122124
 20
1049.042726
 10
-49.035418
 20
1048.909043
 10
-48.954667
 20
1048.769438
 10
-48.87987
 20
1048.623912
 10
-48.811028
 20
1048.472465
 10
-48.74814
 20
1048.315096
 10
-48.691206
 20
1048.151807
 10
-48.640227
 20
1047.982596
 10
-48.595203
 20
1047.807464
 10
-48.556133
 20
1047.626412
 10
-48.523017
 20
1047.439438
 10
-48.495855
 20
1047.246545
 10
-48.474648
 20
1047.04773
 10
-48.459395
 20
1046.842995
 10
-48.450096
 20
1046.632339
 10
-48.446751
 20
1046.415764
 10
-48.44936
 20
1046.193268
 10
-48.457924
 20
1045.964852
 10
-48.472362
 20
1045.730686
 10
-48.492278
 20
1045.491622
 10
-48.517198
 20
1045.248684
 10
-48.546645
 20
1045.002892
 10
-48.580145
 20
1044.755271
 10
-48.617222
 20
1044.506841
 10
-48.657401
 20
1044.258627
 10
-48.700206
 20
1044.011649
 10
-48.745161
 20
1043.766931
 10
-48.791792
 20
1043.525494
 10
-48.839623
 20
1043.288362
 10
-48.888178
 20
1043.056557
 10
-48.936983
 20
1042.831101
 10
-48.985561
 20
1042.613017
 10
-49.033438
 20
1042.403327
 10
-49.080138
 20
1042.203054
 10
-49.125186
 20
1042.01322
 10
-49.168105
 20
1041.834847
 10
-49.208422
 20
1041.668958
 10
-49.482593
 20
1040.547987
 10
-52.725596
 20
1033.144146
 10
-53.236015
 20
1031.979299
 10
-53.792954
 20
1030.710938
 10
-54.394287
 20
1029.346609
 10
-55.037889
 20
1027.893856
 10
-55.721635
 20
1026.360223
 10
-56.443401
 20
1024.753255
 10
-57.201059
 20
1023.080497
 10
-57.992486
 20
1021.349493
 10
-58.815556
 20
1019.567787
 10
-59.668144
 20
1017.742924
 10
-60.548124
 20
1015.882449
 10
-61.453371
 20
1013.993906
 10
-62.38176
 20
1012.08484
 10
-63.331166
 20
1010.162795
 10
-64.299464
 20
1008.235315
 10
-65.284527
 20
1006.309946
 10
-66.284232
 20
1004.394231
 10
-67.296452
 20
1002.495715
 10
-68.319063
 20
1000.621944
 10
-69.349938
 20
998.78046
 10
-70.387289
 20
996.977476
 10
-71.430663
 20
995.213867
 10
-72.479943
 20
993.489178
 10
-73.535014
 20
991.80295
 10
-74.595758
 20
990.154728
 10
-75.662059
 20
988.544054
 10
-76.733801
 20
986.970471
 10
-77.810866
 20
985.433522
 10
-78.893139
 20
983.932751
 10
-79.980503
 20
982.467701
 10
-81.07284
 20
981.037914
 10
-82.170035
 20
979.642934
 10
-83.271971
 20
978.282304
 10
-84.378531
 20
976.955566
 10
-85.489599
 20
975.662265
 10
-86.605058
 20
974.401943
 10
-87.724792
 20
973.174143
 10
-88.848684
 20
971.978408
 10
-89.976617
 20
970.814281
 10
-91.108475
 20
969.681307
 10
-92.243641
 20
968.579184
 10
-93.379495
 20
967.508248
 10
-94.512917
 20
966.46899
 10
-95.640787
 20
965.461902
 10
-96.759985
 20
964.487476
 10
-97.867391
 20
963.546203
 10
-98.959885
 20
962.638576
 10
-100.034346
 20
961.765085
 10
-101.087655
 20
960.926224
 10
-102.116692
 20
960.122483
 10
-103.118336
 20
959.354354
 10
-104.089468
 20
958.62233
 10
-105.026967
 20
957.926902
 10
-105.927714
 20
957.268561
 10
-106.788588
 20
956.6478
 10
-107.606468
 20
956.065111
 10
-108.378236
 20
955.520984
 10
-109.100771
 20
955.015913
 10
-109.770953
 20
954.550388
 10
-114.291876
 20
951.422881
 10
-118.560132
 20
948.470271
 10
-119.231906
 20
948.006016
 10
-119.96485
 20
947.502158
 10
-120.756108
 20
946.963385
 10
-121.602827
 20
946.394382
 10
-122.502151
 20
945.799836
 10
-123.451226
 20
945.184433
 10
-124.447197
 20
944.552861
 10
-125.487211
 20
943.909806
 10
-126.568411
 20
943.259954
 10
-127.687944
 20
942.607992
 10
-128.842955
 20
941.958606
 10
-130.030589
 20
941.316484
 10
-131.247993
 20
940.686311
 10
-132.49231
 20
940.072774
 10
-133.760688
 20
939.480561
 10
-135.05027
 20
938.914356
 10
-136.358203
 20
938.378847
 10
-137.681632
 20
937.878721
 10
-139.017703
 20
937.418664
 10
-140.36356
 20
937.003362
 10
-141.716802
 20
936.636221
 10
-143.076835
 20
936.315516
 10
-144.443517
 20
936.038244
 10
-145.816706
 20
935.8014
 10
-147.196262
 20
935.601978
 10
-148.582043
 20
935.436973
 10
-149.973908
 20
935.303382
 10
-151.371714
 20
935.198198
 10
-152.775321
 20
935.118416
 10
-154.184588
 20
935.061033
 10
-155.599371
 20
935.023043
 10
-157.019531
 20
935.001441
 10
-158.444926
 20
934.993222
 10
-159.875413
 20
934.995381
 10
-161.310853
 20
935.004914
 10
-162.751103
 20
935.018815
 10
-164.196021
 20
935.03408
 10
-165.645467
 20
935.047703
 10
-167.099299
 20
935.05668
 10
-168.557375
 20
935.058006
 10
-170.018918
 20
935.049311
 10
-171.480606
 20
935.030768
 10
-172.938481
 20
935.003185
 10
-174.388584
 20
934.967369
 10
-175.826958
 20
934.92413
 10
-177.249644
 20
934.874274
 10
-178.652685
 20
934.81861
 10
-180.032122
 20
934.757945
 10
-181.383997
 20
934.693088
 10
-182.704352
 20
934.624846
 10
-183.989229
 20
934.554028
 10
-185.23467
 20
934.481442
 10
-186.436716
 20
934.407895
 10
-187.591411
 20
934.334195
 10
-188.694795
 20
934.261151
 10
-189.74291
 20
934.18957
 10
-190.731799
 20
934.12026
 10
-191.657503
 20
934.054029
 10
-192.516064
 20
933.991686
 10
-198.30746
 20
933.567163
 10
-234.27999
 20
930.929769
 10
-239.941165
 20
930.515067
 10
-246.114943
 20
930.064931
 10
-252.774337
 20
929.583488
 10
-259.892362
 20
929.074864
 10
-267.442031
 20
928.543186
 10
-275.396359
 20
927.992582
 10
-283.72836
 20
927.427177
 10
-292.411048
 20
926.8511
 10
-301.417437
 20
926.268475
 10
-310.720541
 20
925.683431
 10
-320.293375
 20
925.100094
 10
-330.108953
 20
924.522591
 10
-340.140289
 20
923.955048
 10
-350.360397
 20
923.401593
 10
-360.742291
 20
922.866352
 10
-371.258986
 20
922.353453
 10
-381.883495
 20
921.867021
 10
-392.588832
 20
921.411184
 10
-403.348013
 20
920.990068
 10
-414.134051
 20
920.6078
 10
-424.924457
 20
920.267906
 10
-435.714733
 20
919.971505
 10
-446.504878
 20
919.719114
 10
-457.294889
 20
919.511251
 10
-468.084767
 20
919.348433
 10
-478.874508
 20
919.231178
 10
-489.664112
 20
919.160004
 10
-500.453577
 20
919.135428
 10
-511.242903
 20
919.157969
 10
-522.032087
 20
919.228142
 10
-532.821128
 20
919.346467
 10
-543.610025
 20
919.513461
 10
-554.398776
 20
919.72964
 10
-565.18738
 20
919.995524
 10
-575.975835
 20
920.311629
 10
-586.764141
 20
920.678474
 10
-597.552296
 20
921.096575
 10
-608.340297
 20
921.566451
 10
-619.128145
 20
922.088618
 10
-629.915837
 20
922.663595
 10
-640.698879
 20
923.290896
 10
-651.454808
 20
923.96602
 10
-662.156664
 20
924.683465
 10
-672.777493
 20
925.437727
 10
-683.290335
 20
926.223302
 10
-693.668234
 20
927.034687
 10
-703.884232
 20
927.866379
 10
-713.911373
 20
928.712874
 10
-723.722698
 20
929.568669
 10
-733.291251
 20
930.42826
 10
-742.590075
 20
931.286144
 10
-751.592212
 20
932.136818
 10
-760.270704
 20
932.974778
 10
-768.598596
 20
933.79452
 10
-776.548928
 20
934.590542
 10
-784.094745
 20
935.357339
 10
-791.209089
 20
936.089409
 10
-797.865002
 20
936.781248
 10
-804.035528
 20
937.427352
 10
-845.64719
 20
941.804972
 10
-847.012286
 20
941.835233
 10
-847.227072
 20
941.840099
 10
-847.461036
 20
941.846019
 10
-847.712878
 20
941.853593
 10
-847.981299
 20
941.863422
 10
-848.265001
 20
941.876106
 10
-848.562684
 20
941.892245
 10
-848.87305
 20
941.912439
 10
-849.194799
 20
941.937288
 10
-849.526633
 20
941.967393
 10
-849.867252
 20
942.003354
 10
-850.215357
 20
942.045771
 10
-850.56965
 20
942.095244
 10
-850.928831
 20
942.152373
 10
-851.291601
 20
942.21776
 10
-851.656662
 20
942.292003
 10
-852.022715
 20
942.375703
 10
-852.38846
 20
942.469461
 10
-852.752598
 20
942.573876
 10
-853.113831
 20
942.689549
 10
-853.470858
 20
942.817079
 10
-853.822593
 20
942.956982
 10
-854.168787
 20
943.109428
 10
-854.509402
 20
943.274499
 10
-854.844402
 20
943.452281
 10
-855.173748
 20
943.642856
 10
-855.497404
 20
943.846311
 10
-855.815332
 20
944.062727
 10
-856.127495
 20
944.29219
 10
-856.433856
 20
944.534783
 10
-856.734376
 20
944.790591
 10
-857.02902
 20
945.059697
 10
-857.317748
 20
945.342186
 10
-857.600525
 20
945.638141
 10
-857.877312
 20
945.947646
 10
-858.148072
 20
946.270786
 10
-858.412768
 20
946.607645
 10
-858.671363
 20
946.958306
 10
-858.923819
 20
947.322854
 10
-859.170098
 20
947.701372
 10
-859.410164
 20
948.093945
 10
-859.643964
 20
948.5003
 10
-859.87139
 20
948.918733
 10
-860.092318
 20
949.347187
 10
-860.306625
 20
949.7836
 10
-860.514186
 20
950.225915
 10
-860.714878
 20
950.672071
 10
-860.908578
 20
951.120008
 10
-861.095163
 20
951.567668
 10
-861.274508
 20
952.012991
 10
-861.44649
 20
952.453917
 10
-861.610985
 20
952.888388
 10
-861.767871
 20
953.314342
 10
-861.917024
 20
953.729722
 10
-862.058319
 20
954.132468
 10
-862.191633
 20
954.520519
 10
-862.316844
 20
954.891817
 10
-862.433827
 20
955.244302
 10
-862.542459
 20
955.575915
 10
-862.642615
 20
955.884596
 10
-863.315629
 20
957.971669
 10
-863.729632
 20
959.255765
 10
-863.794803
 20
959.45801
 10
-863.865979
 20
959.67952
 10
-863.942955
 20
959.920298
 10
-864.025524
 20
960.180346
 10
-864.113482
 20
960.459667
 10
-864.206623
 20
960.758265
 10
-864.304742
 20
961.076143
 10
-864.407633
 20
961.413302
 10
-864.515092
 20
961.769748
 10
-864.626913
 20
962.145482
 10
-864.74289
 20
962.540507
 10
-864.862818
 20
962.954828
 10
-864.986492
 20
963.388445
 10
-865.113706
 20
963.841363
 10
-865.244256
 20
964.313585
 10
-865.377935
 20
964.805114
 10
-865.514539
 20
965.315952
 10
-865.653862
 20
965.846102
 10
-865.795698
 20
966.395569
 10
-865.939843
 20
966.964354
 10
-866.086004
 20
967.552148
 10
-866.233547
 20
968.157389
 10
-866.381751
 20
968.778203
 10
-866.529893
 20
969.412715
 10
-866.677252
 20
970.059052
 10
-866.823108
 20
970.715338
 10
-866.966738
 20
971.3797
 10
-867.107422
 20
972.050262
 10
-867.244437
 20
972.725151
 10
-867.377064
 20
973.402493
 10
-867.504579
 20
974.080412
 10
-867.626262
 20
974.757035
 10
-867.741391
 20
975.430487
 10
-867.849246
 20
976.098893
 10
-867.949104
 20
976.76038
 10
-868.040244
 20
977.413072
 10
-868.121946
 20
978.055096
 10
-868.193487
 20
978.684578
 10
-868.254146
 20
979.299642
 10
-868.303201
 20
979.898414
 10
-868.340189
 20
980.479314
 10
-868.365669
 20
981.041935
 10
-868.380457
 20
981.586166
 10
-868.385372
 20
982.111892
 10
-868.381229
 20
982.619003
 10
-868.368846
 20
983.107384
 10
-868.349039
 20
983.576924
 10
-868.322625
 20
984.027511
 10
-868.290421
 20
984.459031
 10
-868.253243
 20
984.871371
 10
-868.211909
 20
985.264421
 10
-868.167236
 20
985.638066
 10
-868.120039
 20
985.992195
 10
-868.071136
 20
986.326694
 10
-868.021345
 20
986.641452
 10
-867.97148
 20
986.936355
 10
-867.92236
 20
987.211291
 10
-867.874802
 20
987.466148
 10
-867.829621
 20
987.700813
 10
-867.520194
 20
989.276312
 10
-867.426794
 20
989.751508
 10
-867.412071
 20
989.826262
 10
-867.395871
 20
989.907605
 10
-867.378118
 20
989.995001
 10
-867.358737
 20
990.08791
 10
-867.337652
 20
990.185796
 10
-867.314786
 20
990.288119
 10
-867.290065
 20
990.394342
 10
-867.263411
 20
990.503926
 10
-867.23475
 20
990.616335
 10
-867.204006
 20
990.731029
 10
-867.171102
 20
990.847472
 10
-867.135963
 20
990.965124
 10
-867.098514
 20
991.083447
 10
-867.058677
 20
991.201905
 10
-867.016378
 20
991.319958
 10
-866.97154
 20
991.437068
 10
-866.924088
 20
991.552699
 10
-866.873946
 20
991.666311
 10
-866.821038
 20
991.777367
 10
-866.765288
 20
991.885328
 10
-866.706633
 20
991.989747
 10
-866.645061
 20
992.090533
 10
-866.580571
 20
992.187686
 10
-866.513164
 20
992.281207
 10
-866.44284
 20
992.371095
 10
-866.369599
 20
992.457349
 10
-866.29344
 20
992.539971
 10
-866.214364
 20
992.618959
 10
-866.132372
 20
992.694314
 10
-866.047462
 20
992.766035
 10
-865.959636
 20
992.834122
 10
-865.868893
 20
992.898576
 10
-865.775234
 20
992.959395
 10
-865.678658
 20
993.016581
 10
-865.579166
 20
993.070132
 10
-865.476757
 20
993.120048
 10
-865.371432
 20
993.166331
 10
-865.263191
 20
993.208978
 10
-865.152033
 20
993.247991
 10
-865.03796
 20
993.283368
 10
-864.921055
 20
993.315143
 10
-864.801742
 20
993.34347
 10
-864.680528
 20
993.368541
 10
-864.557921
 20
993.390542
 10
-864.434428
 20
993.409663
 10
-864.310556
 20
993.426093
 10
-864.186814
 20
993.44002
 10
-864.063709
 20
993.451633
 10
-863.941747
 20
993.461121
 10
-863.821438
 20
993.468672
 10
-863.703288
 20
993.474475
 10
-863.587804
 20
993.47872
 10
-863.475495
 20
993.481594
 10
-863.366868
 20
993.483287
 10
-863.26243
 20
993.483987
 10
-863.162689
 20
993.483882
 10
-863.068153
 20
993.483162
 10
-862.979328
 20
993.482016
 10
-862.896723
 20
993.480632
 10
-862.338543
 20
993.469896
  0
LWPOLYLINE
  5
31
330
1F
100
AcDbEntity
  8
0
100
AcDbPolyline
 90
      365
 70
   128
 43
0.0
 10
198.330367
 20
356.424416
 10
198.330367
 20
356.642256
 10
198.330344
 20
356.676533
 10
198.330185
 20
356.713885
 10
198.329757
 20
356.754119
 10
198.328921
 20
356.79704
 10
198.327543
 20
356.842458
 10
198.325488
 20
356.890178
 10
198.322619
 20
356.940005
 10
198.318803
 20
356.99175
 10
198.313901
 20
357.045217
 10
198.30778
 20
357.100215
 10
198.300304
 20
357.156548
 10
198.291337
 20
357.214026
 10
198.280744
 20
357.272454
 10
198.268389
 20
357.331639
 10
198.254137
 20
357.391389
 10
198.237852
 20
357.451511
 10
198.219399
 20
357.511811
 10
198.198642
 20
357.572095
 10
198.175445
 20
357.632172
 10
198.149674
 20
357.691848
 10
198.121233
 20
357.750945
 10
198.090189
 20
357.809343
 10
198.056649
 20
357.866939
 10
198.020721
 20
357.923629
 10
197.982512
 20
357.97931
 10
197.942131
 20
358.033877
 10
197.899683
 20
358.087225
 10
197.855276
 20
358.139251
 10
197.809019
 20
358.189853
 10
197.761018
 20
358.238923
 10
197.711379
 20
358.28636
 10
197.660213
 20
358.33206
 10
197.607626
 20
358.375917
 10
197.553724
 20
358.41783
 10
197.498615
 20
358.457692
 10
197.442407
 20
358.4954
 10
197.385207
 20
358.530851
 10
197.327123
 20
358.56394
 10
197.268262
 20
358.594565
 10
197.20873
 20
358.622618
 10
197.148651
 20
358.64804
 10
197.088202
 20
358.67092
 10
197.027573
 20
358.691394
 10
196.966959
 20
358.709596
 10
196.906548
 20
358.72566
 10
196.846534
 20
358.739717
 10
196.787108
 20
358.751904
 10
196.728462
 20
358.762353
 10
196.670788
 20
358.771198
 10
196.614277
 20
358.778572
 10
196.559122
 20
358.78461
 10
196.505514
 20
358.789444
 10
196.453644
 20
358.793209
 10
196.403704
 20
358.796039
 10
196.355888
 20
358.798067
 10
196.310384
 20
358.799425
 10
196.267386
 20
358.80025
 10
196.227086
 20
358.800673
 10
196.189675
 20
358.800829
 10
195.93717
 20
358.800851
 10
195.93624
 20
358.800851
 10
195.929728
 20
358.800851
 10
195.912052
 20
358.800851
 10
195.87763
 20
358.800851
 10
195.820879
 20
358.800851
 10
195.736219
 20
358.800851
 10
195.618066
 20
358.800851
 10
195.46084
 20
358.800851
 10
195.258958
 20
358.800851
 10
195.006838
 20
358.800851
 10
194.698898
 20
358.800851
 10
194.329555
 20
358.800851
 10
193.893229
 20
358.800851
 10
193.384338
 20
358.800851
 10
192.797297
 20
358.800851
 10
192.126527
 20
358.800851
 10
191.366445
 20
358.800851
 10
190.511469
 20
358.800851
 10
189.556018
 20
358.800851
 10
188.494508
 20
358.800851
 10
187.32415
 20
358.800851
 10
186.053315
 20
358.800851
 10
184.693167
 20
358.800851
 10
183.254873
 20
358.800851
 10
181.749595
 20
358.800851
 10
180.188496
 20
358.800851
 10
178.582742
 20
358.800851
 10
176.943495
 20
358.800851
 10
175.28192
 20
358.800851
 10
173.609181
 20
358.800851
 10
171.936443
 20
358.800851
 10
170.274868
 20
358.800851
 10
168.635622
 20
358.800851
 10
167.029868
 20
358.800851
 10
165.468769
 20
358.800851
 10
163.96349
 20
358.800851
 10
162.525195
 20
358.800851
 10
161.165049
 20
358.800851
 10
159.894214
 20
358.800851
 10
158.723856
 20
358.800851
 10
157.662346
 20
358.800851
 10
156.706894
 20
358.800851
 10
155.851919
 20
358.800851
 10
155.091836
 20
358.800851
 10
154.421066
 20
358.800851
 10
153.834026
 20
358.800851
 10
153.325134
 20
358.800851
 10
152.888808
 20
358.800851
 10
152.519465
 20
358.800851
 10
152.211525
 20
358.800851
 10
151.959406
 20
358.800851
 10
151.757523
 20
358.800851
 10
151.600297
 20
358.800851
 10
151.482145
 20
358.800851
 10
151.397485
 20
358.800851
 10
151.340734
 20
358.800851
 10
151.306312
 20
358.800851
 10
151.288636
 20
358.800851
 10
151.282123
 20
358.800851
 10
151.281193
 20
358.800851
 10
151.062978
 20
358.800851
 10
151.02864
 20
358.800829
 10
150.991222
 20
358.800673
 10
150.950914
 20
358.80025
 10
150.907909
 20
358.799425
 10
150.862398
 20
358.798067
 10
150.814572
 20
358.796039
 10
150.764624
 20
358.793209
 10
150.712746
 20
358.789444
 10
150.65913
 20
358.78461
 10
150.603966
 20
358.778572
 10
150.547448
 20
358.771198
 10
150.489766
 20
358.762353
 10
150.431113
 20
358.751904
 10
150.371682
 20
358.739717
 10
150.311662
 20
358.72566
 10
150.251248
 20
358.709596
 10
150.190628
 20
358.691394
 10
150.129997
 20
358.67092
 10
150.069546
 20
358.64804
 10
150.009466
 20
358.622618
 10
149.949936
 20
358.594565
 10
149.891076
 20
358.56394
 10
149.832995
 20
358.530851
 10
149.775799
 20
358.4954
 10
149.719596
 20
358.457692
 10
149.664492
 20
358.41783
 10
149.610597
 20
358.375917
 10
149.558015
 20
358.33206
 10
149.506856
 20
358.28636
 10
149.457226
 20
358.238923
 10
149.409233
 20
358.189853
 10
149.362984
 20
358.139251
 10
149.318585
 20
358.087225
 10
149.276146
 20
358.033877
 10
149.235772
 20
357.97931
 10
149.197572
 20
357.923629
 10
149.161651
 20
357.866939
 10
149.128119
 20
357.809343
 10
149.097082
 20
357.750945
 10
149.068647
 20
357.691848
 10
149.042882
 20
357.632172
 10
149.019691
 20
357.572095
 10
148.998939
 20
357.511811
 10
148.98049
 20
357.451511
 10
148.964209
 20
357.391389
 10
148.94996
 20
357.331639
 10
148.937608
 20
357.272454
 10
148.927018
 20
357.214026
 10
148.918052
 20
357.156548
 10
148.910578
 20
357.100215
 10
148.904459
 20
357.045217
 10
148.899558
 20
356.99175
 10
148.895743
 20
356.940005
 10
148.892874
 20
356.890178
 10
148.89082
 20
356.842458
 10
148.889442
 20
356.79704
 10
148.888607
 20
356.754119
 10
148.888177
 20
356.713885
 10
148.88802
 20
356.676533
 10
148.887997
 20
356.424416
 10
148.887997
 20
356.206575
 10
148.888019
 20
356.172298
 10
148.888176
 20
356.134946
 10
148.888603
 20
356.094713
 10
148.889433
 20
356.051791
 10
148.890802
 20
356.006374
 10
148.892843
 20
355.958654
 10
148.895692
 20
355.908826
 10
148.899483
 20
355.857081
 10
148.904352
 20
355.803614
 10
148.910433
 20
355.748616
 10
148.917859
 20
355.692283
 10
148.926766
 20
355.634805
 10
148.937288
 20
355.576377
 10
148.949559
 20
355.517192
 10
148.963717
 20
355.457442
 10
148.979892
 20
355.39732
 10
148.998222
 20
355.337021
 10
149.018841
 20
355.276736
 10
149.041882
 20
355.216659
 10
149.06748
 20
355.156983
 10
149.095732
 20
355.097887
 10
149.12657
 20
355.039488
 10
149.159892
 20
354.981892
 10
149.195592
 20
354.925202
 10
149.233565
 20
354.869521
 10
149.273707
 20
354.814955
 10
149.315913
 20
354.761607
 10
149.360079
 20
354.70958
 10
149.406099
 20
354.658979
 10
149.45387
 20
354.609908
 10
149.503286
 20
354.562471
 10
149.554242
 20
354.516771
 10
149.606635
 20
354.472914
 10
149.660359
 20
354.431002
 10
149.715309
 20
354.39114
 10
149.771381
 20
354.353431
 10
149.828471
 20
354.31798
 10
149.886473
 20
354.284891
 10
149.945283
 20
354.254266
 10
150.004796
 20
354.226213
 10
150.064894
 20
354.200793
 10
150.125394
 20
354.177912
 10
150.186105
 20
354.157437
 10
150.24683
 20
354.139235
 10
150.307376
 20
354.123171
 10
150.367548
 20
354.109114
 10
150.427152
 20
354.096927
 10
150.485993
 20
354.086478
 10
150.543877
 20
354.077633
 10
150.60061
 20
354.070259
 10
150.655996
 20
354.064221
 10
150.709842
 20
354.059387
 10
150.761952
 20
354.055622
 10
150.812133
 20
354.052792
 10
150.860191
 20
354.050765
 10
150.905929
 20
354.049406
 10
150.949154
 20
354.048581
 10
150.989673
 20
354.048158
 10
151.02729
 20
354.048002
 10
151.281193
 20
354.04798
 10
151.282123
 20
354.04798
 10
151.288636
 20
354.04798
 10
151.306312
 20
354.04798
 10
151.340734
 20
354.04798
 10
151.397485
 20
354.04798
 10
151.482145
 20
354.04798
 10
151.600297
 20
354.04798
 10
151.757523
 20
354.04798
 10
151.959406
 20
354.04798
 10
152.211525
 20
354.04798
 10
152.519465
 20
354.04798
 10
152.888808
 20
354.04798
 10
153.325134
 20
354.04798
 10
153.834026
 20
354.04798
 10
154.421066
 20
354.04798
 10
155.091836
 20
354.04798
 10
155.851919
 20
354.04798
 10
156.706894
 20
354.04798
 10
157.662346
 20
354.04798
 10
158.723856
 20
354.04798
 10
159.894214
 20
354.04798
 10
161.165049
 20
354.04798
 10
162.525195
 20
354.04798
 10
163.96349
 20
354.04798
 10
165.468769
 20
354.04798
 10
167.029868
 20
354.04798
 10
168.635622
 20
354.04798
 10
170.274868
 20
354.04798
 10
171.936443
 20
354.04798
 10
173.609181
 20
354.04798
 10
175.28192
 20
354.04798
 10
176.943495
 20
354.04798
 10
178.582742
 20
354.04798
 10
180.188496
 20
354.04798
 10
181.749595
 20
354.04798
 10
183.254873
 20
354.04798
 10
184.693167
 20
354.04798
 10
186.053315
 20
354.04798
 10
187.32415
 20
354.04798
 10
188.494508
 20
354.04798
 10
189.556018
 20
354.04798
 10
190.511469
 20
354.04798
 10
191.366445
 20
354.04798
 10
192.126527
 20
354.04798
 10
192.797297
 20
354.04798
 10
193.384338
 20
354.04798
 10
193.893229
 20
354.04798
 10
194.329555
 20
354.04798
 10
194.698898
 20
354.04798
 10
195.006838
 20
354.04798
 10
195.258958
 20
354.04798
 10
195.46084
 20
354.04798
 10
195.618066
 20
354.04798
 10
195.736219
 20
354.04798
 10
195.820879
 20
354.04798
 10
195.87763
 20
354.04798
 10
195.912052
 20
354.04798
 10
195.929728
 20
354.04798
 10
195.93624
 20
354.04798
 10
195.93717
 20
354.04798
 10
196.156553
 20
354.04798
 10
196.191074
 20
354.048002
 10
196.228691
 20
354.048158
 10
196.269208
 20
354.048581
 10
196.312434
 20
354.049406
 10
196.358173
 20
354.050765
 10
196.40623
 20
354.052792
 10
196.456412
 20
354.055622
 10
196.508522
 20
354.059387
 10
196.562368
 20
354.064221
 10
196.617754
 20
354.070259
 10
196.674486
 20
354.077633
 10
196.732371
 20
354.086478
 10
196.791211
 20
354.096927
 10
196.850815
 20
354.109114
 10
196.910988
 20
354.123171
 10
196.971534
 20
354.139235
 10
197.032259
 20
354.157437
 10
197.09297
 20
354.177912
 10
197.15347
 20
354.200793
 10
197.213567
 20
354.226213
 10
197.273081
 20
354.254266
 10
197.33189
 20
354.284891
 10
197.389892
 20
354.31798
 10
197.446982
 20
354.353431
 10
197.503055
 20
354.39114
 10
197.558005
 20
354.431002
 10
197.611729
 20
354.472914
 10
197.664121
 20
354.516771
 10
197.715078
 20
354.562471
 10
197.764493
 20
354.609908
 10
197.812264
 20
354.658979
 10
197.858285
 20
354.70958
 10
197.902451
 20
354.761607
 10
197.944656
 20
354.814955
 10
197.984799
 20
354.869521
 10
198.022772
 20
354.925202
 10
198.058472
 20
354.981892
 10
198.091793
 20
355.039488
 10
198.122632
 20
355.097887
 10
198.150883
 20
355.156983
 10
198.176482
 20
355.216659
 10
198.199523
 20
355.276736
 10
198.220142
 20
355.337021
 10
198.238471
 20
355.39732
 10
198.254647
 20
355.457442
 10
198.268803
 20
355.517192
 10
198.281076
 20
355.576377
 10
198.291598
 20
355.634805
 10
198.300505
 20
355.692283
 10
198.307931
 20
355.748616
 10
198.314011
 20
355.803614
 10
198.318879
 20
355.857081
 10
198.322672
 20
355.908826
 10
198.325521
 20
355.958654
 10
198.327562
 20
356.006374
 10
198.328931
 20
356.051791
 10
198.329761
 20
356.094713
 10
198.330188
 20
356.134946
 10
198.330344
 20
356.172298
 10
198.330367
 20
356.424416
  0
LWPOLYLINE
  5
32
330
1F
100
AcDbEntity
  8
0
100
AcDbPolyline
 90
      968
 70
   128
 43
0.0
 10
262.045358
 20
305.529419
 10
262.263199
 20
305.529419
 10
262.297477
 20
305.529441
 10
262.334828
 20
305.529599
 10
262.375062
 20
305.530028
 10
262.417984
 20
305.530864
 10
262.463401
 20
305.532242
 10
262.511121
 20
305.534296
 10
262.560949
 20
305.537164
 10
262.612694
 20
305.54098
 10
262.66616
 20
305.545881
 10
262.721157
 20
305.552
 10
262.777491
 20
305.559475
 10
262.834969
 20
305.56844
 10
262.893397
 20
305.57903
 10
262.952583
 20
305.591382
 10
263.012333
 20
305.605631
 10
263.072454
 20
305.621912
 10
263.132754
 20
305.640362
 10
263.193039
 20
305.661113
 10
263.253116
 20
305.684304
 10
263.312791
 20
305.710069
 10
263.371888
 20
305.738504
 10
263.430287
 20
305.769541
 10
263.487882
 20
305.803073
 10
263.544573
 20
305.838994
 10
263.600253
 20
305.877194
 10
263.654819
 20
305.917568
 10
263.708168
 20
305.960007
 10
263.760194
 20
306.004406
 10
263.810796
 20
306.050655
 10
263.859866
 20
306.098648
 10
263.907304
 20
306.148278
 10
263.953003
 20
306.199438
 10
263.99686
 20
306.252019
 10
264.038773
 20
306.305914
 10
264.078635
 20
306.361018
 10
264.116344
 20
306.417221
 10
264.151794
 20
306.474417
 10
264.184884
 20
306.532498
 10
264.215507
 20
306.591358
 10
264.243562
 20
306.650888
 10
264.268982
 20
306.710967
 10
264.291862
 20
306.771419
 10
264.312338
 20
306.83205
 10
264.330539
 20
306.892669
 10
264.346603
 20
306.953085
 10
264.360661
 20
307.013104
 10
264.372847
 20
307.072536
 10
264.383296
 20
307.131188
 10
264.392141
 20
307.18887
 10
264.399515
 20
307.245388
 10
264.405553
 20
307.300551
 10
264.410387
 20
307.354168
 10
264.414153
 20
307.406046
 10
264.416983
 20
307.455994
 10
264.41901
 20
307.50382
 10
264.420368
 20
307.549331
 10
264.421193
 20
307.592337
 10
264.421616
 20
307.632644
 10
264.421772
 20
307.670063
 10
264.421795
 20
307.922615
 10
264.421795
 20
307.92303
 10
264.421795
 20
307.92594
 10
264.421795
 20
307.933837
 10
264.421795
 20
307.949217
 10
264.421795
 20
307.974572
 10
264.421795
 20
308.012396
 10
264.421795
 20
308.065185
 10
264.421795
 20
308.135432
 10
264.421795
 20
308.225629
 10
264.421795
 20
308.338272
 10
264.421795
 20
308.475855
 10
264.421795
 20
308.640871
 10
264.421795
 20
308.835814
 10
264.421795
 20
309.063178
 10
264.421795
 20
309.325458
 10
264.421795
 20
309.625147
 10
264.421795
 20
309.964739
 10
264.421795
 20
310.346728
 10
264.421795
 20
310.773609
 10
264.421795
 20
311.247874
 10
264.421795
 20
311.77077
 10
264.421795
 20
312.338558
 10
264.421795
 20
312.94625
 10
264.421795
 20
313.588855
 10
264.421795
 20
314.261389
 10
264.421795
 20
314.958863
 10
264.421795
 20
315.676287
 10
264.421795
 20
316.408676
 10
264.421795
 20
317.15104
 10
264.421795
 20
317.898391
 10
264.421795
 20
318.645743
 10
264.421795
 20
319.388107
 10
264.421795
 20
320.120496
 10
264.421795
 20
320.83792
 10
264.421795
 20
321.535394
 10
264.421795
 20
322.207927
 10
264.421795
 20
322.850533
 10
264.421795
 20
323.458224
 10
264.421795
 20
324.026012
 10
264.421795
 20
324.548909
 10
264.421795
 20
325.023174
 10
264.421795
 20
325.450055
 10
264.421795
 20
325.832044
 10
264.421795
 20
326.171636
 10
264.421795
 20
326.471325
 10
264.421795
 20
326.733605
 10
264.421795
 20
326.960968
 10
264.421795
 20
327.155912
 10
264.421795
 20
327.320928
 10
264.421795
 20
327.458511
 10
264.421795
 20
327.571154
 10
264.421795
 20
327.661351
 10
264.421795
 20
327.731598
 10
264.421795
 20
327.784386
 10
264.421795
 20
327.82221
 10
264.421795
 20
327.847566
 10
264.421795
 20
327.862945
 10
264.421795
 20
327.870843
 10
264.421795
 20
327.873753
 10
264.421795
 20
327.874168
 10
264.42221
 20
327.874168
 10
264.42512
 20
327.874168
 10
264.433017
 20
327.874168
 10
264.448397
 20
327.874168
 10
264.473751
 20
327.874168
 10
264.511576
 20
327.874168
 10
264.564365
 20
327.874168
 10
264.634611
 20
327.874168
 10
264.724809
 20
327.874168
 10
264.837452
 20
327.874168
 10
264.975034
 20
327.874168
 10
265.14005
 20
327.874168
 10
265.334993
 20
327.874168
 10
265.562358
 20
327.874168
 10
265.824638
 20
327.874168
 10
266.124327
 20
327.874168
 10
266.463919
 20
327.874168
 10
266.845908
 20
327.874168
 10
267.272788
 20
327.874168
 10
267.747054
 20
327.874168
 10
268.26995
 20
327.874168
 10
268.837738
 20
327.874168
 10
269.44543
 20
327.874168
 10
270.088035
 20
327.874168
 10
270.760569
 20
327.874168
 10
271.458042
 20
327.874168
 10
272.175467
 20
327.874168
 10
272.907856
 20
327.874168
 10
273.650219
 20
327.874168
 10
274.397571
 20
327.874168
 10
275.144923
 20
327.874168
 10
275.887287
 20
327.874168
 10
276.619675
 20
327.874168
 10
277.3371
 20
327.874168
 10
278.034573
 20
327.874168
 10
278.707107
 20
327.874168
 10
279.349713
 20
327.874168
 10
279.957404
 20
327.874168
 10
280.525192
 20
327.874168
 10
281.048089
 20
327.874168
 10
281.522354
 20
327.874168
 10
281.949234
 20
327.874168
 10
282.331224
 20
327.874168
 10
282.670815
 20
327.874168
 10
282.970504
 20
327.874168
 10
283.232785
 20
327.874168
 10
283.460148
 20
327.874168
 10
283.655092
 20
327.874168
 10
283.820108
 20
327.874168
 10
283.95769
 20
327.874168
 10
284.070334
 20
327.874168
 10
284.160531
 20
327.874168
 10
284.230778
 20
327.874168
 10
286.904847
 20
327.875866
 10
286.942672
 20
327.875866
 10
286.968028
 20
327.875866
 10
286.983406
 20
327.875866
 10
286.991305
 20
327.875866
 10
286.994213
 20
327.875866
 10
286.99463
 20
327.875866
 10
287.214012
 20
327.875866
 10
287.248532
 20
327.875888
 10
287.286149
 20
327.876043
 10
287.326668
 20
327.876467
 10
287.369894
 20
327.877291
 10
287.415633
 20
327.878651
 10
287.46369
 20
327.880678
 10
287.513872
 20
327.883507
 10
287.565983
 20
327.887273
 10
287.61983
 20
327.892107
 10
287.675217
 20
327.898144
 10
287.731952
 20
327.905519
 10
287.789838
 20
327.914363
 10
287.848682
 20
327.924812
 10
287.908289
 20
327.936999
 10
287.968464
 20
327.951057
 10
288.029014
 20
327.967121
 10
288.089743
 20
327.985323
 10
288.150459
 20
328.005797
 10
288.210964
 20
328.028678
 10
288.271067
 20
328.054098
 10
288.330587
 20
328.082152
 10
288.389404
 20
328.112776
 10
288.447414
 20
328.145865
 10
288.504512
 20
328.181317
 10
288.560593
 20
328.219025
 10
288.615551
 20
328.258888
 10
288.669284
 20
328.300799
 10
288.721686
 20
328.344657
 10
288.772652
 20
328.390357
 10
288.822077
 20
328.437793
 10
288.869857
 20
328.486865
 10
288.915887
 20
328.537465
 10
288.960061
 20
328.589491
 10
289.002276
 20
328.64284
 10
289.042428
 20
328.697406
 10
289.08041
 20
328.753087
 10
289.116118
 20
328.809777
 10
289.149447
 20
328.867374
 10
289.180292
 20
328.925773
 10
289.20855
 20
328.984869
 10
289.234155
 20
329.044545
 10
289.257202
 20
329.104622
 10
289.277825
 20
329.164906
 10
289.296159
 20
329.225205
 10
289.312339
 20
329.285327
 10
289.326498
 20
329.345077
 10
289.338773
 20
329.404262
 10
289.349298
 20
329.462691
 10
289.358207
 20
329.520168
 10
289.365635
 20
329.576502
 10
289.371717
 20
329.631499
 10
289.376586
 20
329.684967
 10
289.380378
 20
329.736711
 10
289.383229
 20
329.78654
 10
289.38527
 20
329.834258
 10
289.38664
 20
329.879676
 10
289.38747
 20
329.922598
 10
289.387896
 20
329.962832
 10
289.388053
 20
330.000184
 10
289.388076
 20
330.252301
 10
289.388076
 20
330.470141
 10
289.388053
 20
330.504418
 10
289.387894
 20
330.541771
 10
289.387465
 20
330.582004
 10
289.386628
 20
330.624926
 10
289.38525
 20
330.670344
 10
289.383192
 20
330.718062
 10
289.380321
 20
330.767891
 10
289.3765
 20
330.819635
 10
289.371595
 20
330.873103
 10
289.365468
 20
330.9281
 10
289.357985
 20
330.984434
 10
289.349009
 20
331.041912
 10
289.338407
 20
331.10034
 10
289.326041
 20
331.159525
 10
289.311776
 20
331.219275
 10
289.295475
 20
331.279397
 10
289.277005
 20
331.339697
 10
289.256229
 20
331.399981
 10
289.233011
 20
331.460057
 10
289.207216
 20
331.519734
 10
289.178748
 20
331.57883
 10
289.147676
 20
331.637228
 10
289.114107
 20
331.694825
 10
289.078147
 20
331.751515
 10
289.039905
 20
331.807196
 10
288.99949
 20
331.861762
 10
288.957008
 20
331.915111
 10
288.912567
 20
331.967137
 10
288.866276
 20
332.017737
 10
288.818241
 20
332.066809
 10
288.768572
 20
332.114246
 10
288.717374
 20
332.159945
 10
288.664757
 20
332.203803
 10
288.610827
 20
332.245714
 10
288.555693
 20
332.285578
 10
288.499463
 20
332.323285
 10
288.442244
 20
332.358737
 10
288.384144
 20
332.391826
 10
288.32527
 20
332.42245
 10
288.265731
 20
332.450504
 10
288.205648
 20
332.475924
 10
288.145198
 20
332.498805
 10
288.084573
 20
332.519279
 10
288.023966
 20
332.537482
 10
287.963565
 20
332.553545
 10
287.903565
 20
332.567603
 10
287.844154
 20
332.57979
 10
287.785526
 20
332.590239
 10
287.727871
 20
332.599083
 10
287.671382
 20
332.606458
 10
287.616249
 20
332.612495
 10
287.562664
 20
332.61733
 10
287.510818
 20
332.621095
 10
287.460903
 20
332.623924
 10
287.41311
 20
332.625951
 10
287.36763
 20
332.627311
 10
287.324657
 20
332.628135
 10
287.284378
 20
332.628559
 10
287.246988
 20
332.628715
 10
286.99463
 20
332.628737
 10
284.370023
 20
332.62704
 10
284.362125
 20
332.62704
 10
284.346746
 20
332.62704
 10
284.32139
 20
332.62704
 10
284.283566
 20
332.62704
 10
284.230778
 20
332.62704
 10
284.160531
 20
332.62704
 10
284.070334
 20
332.62704
 10
283.95769
 20
332.62704
 10
283.820108
 20
332.62704
 10
283.655092
 20
332.62704
 10
283.460148
 20
332.62704
 10
283.232785
 20
332.62704
 10
282.970504
 20
332.62704
 10
282.670815
 20
332.62704
 10
282.331224
 20
332.62704
 10
281.949234
 20
332.62704
 10
281.522354
 20
332.62704
 10
281.048089
 20
332.62704
 10
280.525192
 20
332.62704
 10
279.957404
 20
332.62704
 10
279.349713
 20
332.62704
 10
278.707107
 20
332.62704
 10
278.034573
 20
332.62704
 10
277.3371
 20
332.62704
 10
276.619675
 20
332.62704
 10
275.887287
 20
332.62704
 10
275.144923
 20
332.62704
 10
274.397571
 20
332.62704
 10
273.650219
 20
332.62704
 10
272.907856
 20
332.62704
 10
272.175467
 20
332.62704
 10
271.458042
 20
332.62704
 10
270.760569
 20
332.62704
 10
270.088035
 20
332.62704
 10
269.44543
 20
332.62704
 10
268.837738
 20
332.62704
 10
268.26995
 20
332.62704
 10
267.747054
 20
332.62704
 10
267.272788
 20
332.62704
 10
266.845908
 20
332.62704
 10
266.463919
 20
332.62704
 10
266.124327
 20
332.62704
 10
265.824638
 20
332.62704
 10
265.562358
 20
332.62704
 10
265.334993
 20
332.62704
 10
265.14005
 20
332.62704
 10
264.975034
 20
332.62704
 10
264.837452
 20
332.62704
 10
264.724809
 20
332.62704
 10
264.634611
 20
332.62704
 10
264.564365
 20
332.62704
 10
264.511576
 20
332.62704
 10
264.473751
 20
332.62704
 10
264.448397
 20
332.62704
 10
264.433017
 20
332.62704
 10
264.42512
 20
332.62704
 10
264.42221
 20
332.62704
 10
264.421795
 20
332.62704
 10
264.421795
 20
332.627455
 10
264.421795
 20
332.630365
 10
264.421795
 20
332.638262
 10
264.421795
 20
332.653641
 10
264.421795
 20
332.678997
 10
264.421795
 20
332.716821
 10
264.421795
 20
332.76961
 10
264.421795
 20
332.839856
 10
264.421795
 20
332.930054
 10
264.421795
 20
333.042697
 10
264.421795
 20
333.180279
 10
264.421795
 20
333.345296
 10
264.421795
 20
333.540239
 10
264.421795
 20
333.767603
 10
264.421795
 20
334.029883
 10
264.421795
 20
334.329572
 10
264.421795
 20
334.669164
 10
264.421795
 20
335.051153
 10
264.421795
 20
335.478033
 10
264.421795
 20
335.952298
 10
264.421795
 20
336.475195
 10
264.421795
 20
337.042983
 10
264.421795
 20
337.650674
 10
264.421795
 20
338.29328
 10
264.421795
 20
338.965815
 10
264.421795
 20
339.663288
 10
264.421795
 20
340.380712
 10
264.421795
 20
341.1131
 10
264.421795
 20
341.855464
 10
264.421795
 20
342.602816
 10
264.421795
 20
343.350169
 10
264.421795
 20
344.092532
 10
264.421795
 20
344.824921
 10
264.421795
 20
345.542344
 10
264.421795
 20
346.239818
 10
264.421795
 20
346.912352
 10
264.421795
 20
347.554958
 10
264.421795
 20
348.162649
 10
264.421795
 20
348.730437
 10
264.421795
 20
349.253334
 10
264.421795
 20
349.727599
 10
264.421795
 20
350.154479
 10
264.421795
 20
350.536468
 10
264.421795
 20
350.87606
 10
264.421795
 20
351.175749
 10
264.421795
 20
351.438029
 10
264.421795
 20
351.665393
 10
264.421795
 20
351.860337
 10
264.421795
 20
352.025353
 10
264.421795
 20
352.162935
 10
264.421795
 20
352.275578
 10
264.421795
 20
352.365776
 10
264.421795
 20
352.436022
 10
264.421795
 20
352.488811
 10
264.421795
 20
352.526636
 10
264.421795
 20
352.55199
 10
264.421795
 20
352.56737
 10
264.421795
 20
352.575267
 10
264.421795
 20
352.578177
 10
264.421795
 20
352.578592
 10
264.421795
 20
352.796766
 10
264.421772
 20
352.831096
 10
264.421616
 20
352.868507
 10
264.421193
 20
352.908808
 10
264.420368
 20
352.951806
 10
264.41901
 20
352.997309
 10
264.416983
 20
353.045125
 10
264.414153
 20
353.095064
 10
264.410387
 20
353.146933
 10
264.405553
 20
353.20054
 10
264.399515
 20
353.255694
 10
264.392141
 20
353.312203
 10
264.383296
 20
353.369876
 10
264.372847
 20
353.428519
 10
264.360661
 20
353.487942
 10
264.346603
 20
353.547952
 10
264.330539
 20
353.608359
 10
264.312338
 20
353.66897
 10
264.291862
 20
353.729594
 10
264.268982
 20
353.790038
 10
264.243562
 20
353.850111
 10
264.215507
 20
353.909635
 10
264.184884
 20
353.96849
 10
264.151794
 20
354.026566
 10
264.116344
 20
354.083757
 10
264.078635
 20
354.139957
 10
264.038773
 20
354.195057
 10
263.99686
 20
354.24895
 10
263.953003
 20
354.301528
 10
263.907304
 20
354.352687
 10
263.859866
 20
354.402315
 10
263.810796
 20
354.450306
 10
263.760194
 20
354.496554
 10
263.708168
 20
354.540952
 10
263.654819
 20
354.583391
 10
263.600253
 20
354.623764
 10
263.544573
 20
354.661964
 10
263.487882
 20
354.697884
 10
263.430287
 20
354.731416
 10
263.371888
 20
354.762453
 10
263.312791
 20
354.790888
 10
263.253116
 20
354.816653
 10
263.193039
 20
354.839844
 10
263.132754
 20
354.860596
 10
263.072454
 20
354.879045
 10
263.012333
 20
354.895326
 10
262.952583
 20
354.909575
 10
262.893397
 20
354.921927
 10
262.834969
 20
354.932518
 10
262.777491
 20
354.941482
 10
262.721157
 20
354.948957
 10
262.66616
 20
354.955077
 10
262.612694
 20
354.959977
 10
262.560949
 20
354.963793
 10
262.511121
 20
354.966661
 10
262.463401
 20
354.968716
 10
262.417984
 20
354.970093
 10
262.375062
 20
354.970929
 10
262.334828
 20
354.971358
 10
262.297477
 20
354.971516
 10
262.045358
 20
354.971538
 10
261.827519
 20
354.971538
 10
261.793241
 20
354.971516
 10
261.755889
 20
354.971359
 10
261.715655
 20
354.970932
 10
261.672734
 20
354.970102
 10
261.627317
 20
354.968732
 10
261.579597
 20
354.966689
 10
261.529769
 20
354.963838
 10
261.478024
 20
354.960043
 10
261.424557
 20
354.955172
 10
261.36956
 20
354.949087
 10
261.313226
 20
354.941656
 10
261.255749
 20
354.932743
 10
261.197321
 20
354.922214
 10
261.138134
 20
354.909933
 10
261.078385
 20
354.895766
 10
261.018264
 20
354.879579
 10
260.957964
 20
354.861236
 10
260.897679
 20
354.840603
 10
260.837602
 20
354.817546
 10
260.777927
 20
354.791929
 10
260.71883
 20
354.763659
 10
260.660431
 20
354.7328
 10
260.602835
 20
354.699455
 10
260.546145
 20
354.663732
 10
260.490465
 20
354.625735
 10
260.435898
 20
354.585568
 10
260.38255
 20
354.543337
 10
260.330523
 20
354.499147
 10
260.279922
 20
354.453104
 10
260.230852
 20
354.405311
 10
260.183414
 20
354.355874
 10
260.137714
 20
354.304898
 10
260.093857
 20
354.252487
 10
260.051945
 20
354.198748
 10
260.012083
 20
354.143785
 10
259.974374
 20
354.087702
 10
259.938924
 20
354.030605
 10
259.905834
 20
353.972599
 10
259.87521
 20
353.91379
 10
259.847156
 20
353.854281
 10
259.821735
 20
353.794191
 10
259.798854
 20
353.733703
 10
259.77838
 20
353.673009
 10
259.760178
 20
353.612303
 10
259.744115
 20
353.55178
 10
259.730057
 20
353.491632
 10
259.717871
 20
353.432056
 10
259.707422
 20
353.373244
 10
259.698576
 20
353.315391
 10
259.691202
 20
353.258691
 10
259.685164
 20
353.203338
 10
259.68033
 20
353.149526
 10
259.676565
 20
353.097449
 10
259.673735
 20
353.047303
 10
259.671708
 20
352.99928
 10
259.670349
 20
352.953574
 10
259.669524
 20
352.910379
 10
259.669102
 20
352.869891
 10
259.668945
 20
352.832302
 10
259.668923
 20
352.578592
 10
259.668923
 20
352.578177
 10
259.668923
 20
352.575267
 10
259.668923
 20
352.56737
 10
259.668923
 20
352.55199
 10
259.668923
 20
352.526636
 10
259.668923
 20
352.488811
 10
259.668923
 20
352.436022
 10
259.668923
 20
352.365776
 10
259.668923
 20
352.275578
 10
259.668923
 20
352.162935
 10
259.668923
 20
352.025353
 10
259.668923
 20
351.860337
 10
259.668923
 20
351.665393
 10
259.668923
 20
351.438029
 10
259.668923
 20
351.175749
 10
259.668923
 20
350.87606
 10
259.668923
 20
350.536468
 10
259.668923
 20
350.154479
 10
259.668923
 20
349.727599
 10
259.668923
 20
349.253334
 10
259.668923
 20
348.730437
 10
259.668923
 20
348.162649
 10
259.668923
 20
347.554958
 10
259.668923
 20
346.912352
 10
259.668923
 20
346.239818
 10
259.668923
 20
345.542344
 10
259.668923
 20
344.824921
 10
259.668923
 20
344.092532
 10
259.668923
 20
343.350169
 10
259.668923
 20
342.602816
 10
259.668923
 20
341.855464
 10
259.668923
 20
341.1131
 10
259.668923
 20
340.380712
 10
259.668923
 20
339.663288
 10
259.668923
 20
338.965815
 10
259.668923
 20
338.29328
 10
259.668923
 20
337.650674
 10
259.668923
 20
337.042983
 10
259.668923
 20
336.475195
 10
259.668923
 20
335.952298
 10
259.668923
 20
335.478033
 10
259.668923
 20
335.051153
 10
259.668923
 20
334.669164
 10
259.668923
 20
334.329572
 10
259.668923
 20
334.029883
 10
259.668923
 20
333.767603
 10
259.668923
 20
333.540239
 10
259.668923
 20
333.345296
 10
259.668923
 20
333.180279
 10
259.668923
 20
333.042697
 10
259.668923
 20
332.930054
 10
259.668923
 20
332.839856
 10
259.668923
 20
332.76961
 10
259.668923
 20
332.716821
 10
259.668923
 20
332.678997
 10
259.668923
 20
332.653641
 10
259.668923
 20
332.638262
 10
259.668923
 20
332.630365
 10
259.668923
 20
332.627455
 10
259.668923
 20
332.62704
 10
259.668508
 20
332.62704
 10
259.665598
 20
332.62704
 10
259.6577
 20
332.62704
 10
259.642321
 20
332.62704
 10
259.616965
 20
332.62704
 10
259.57914
 20
332.62704
 10
259.526351
 20
332.62704
 10
259.456104
 20
332.62704
 10
259.365905
 20
332.62704
 10
259.253261
 20
332.62704
 10
259.115677
 20
332.62704
 10
258.950658
 20
332.62704
 10
258.755712
 20
332.62704
 10
258.528345
 20
332.62704
 10
258.266062
 20
332.62704
 10
257.96637
 20
332.62704
 10
257.626773
 20
332.62704
 10
257.244779
 20
332.62704
 10
256.817894
 20
332.62704
 10
256.343623
 20
332.62704
 10
255.820719
 20
332.62704
 10
255.252924
 20
332.62704
 10
254.645225
 20
332.62704
 10
254.002611
 20
332.62704
 10
253.330069
 20
332.62704
 10
252.632587
 20
332.62704
 10
251.915154
 20
332.62704
 10
251.182756
 20
332.62704
 10
250.440382
 20
332.62704
 10
249.693022
 20
332.62704
 10
248.94566
 20
332.62704
 10
248.203286
 20
332.62704
 10
247.470889
 20
332.62704
 10
246.753456
 20
332.62704
 10
246.055974
 20
332.62704
 10
245.383432
 20
332.62704
 10
244.740817
 20
332.62704
 10
244.133118
 20
332.62704
 10
243.565323
 20
332.62704
 10
243.04242
 20
332.62704
 10
242.568149
 20
332.62704
 10
242.141263
 20
332.62704
 10
241.75927
 20
332.62704
 10
241.419674
 20
332.62704
 10
241.119981
 20
332.62704
 10
240.857697
 20
332.62704
 10
240.63033
 20
332.62704
 10
240.435384
 20
332.62704
 10
240.270367
 20
332.62704
 10
240.132783
 20
332.62704
 10
240.020138
 20
332.62704
 10
239.929938
 20
332.62704
 10
239.859692
 20
332.62704
 10
239.806903
 20
332.62704
 10
239.769077
 20
332.62704
 10
239.743722
 20
332.62704
 10
239.728343
 20
332.62704
 10
239.720445
 20
332.62704
 10
239.717535
 20
332.62704
 10
239.717119
 20
332.62704
 10
239.499113
 20
332.62704
 10
239.464808
 20
332.627018
 10
239.427425
 20
332.626861
 10
239.387156
 20
332.626438
 10
239.344189
 20
332.625614
 10
239.298719
 20
332.624254
 10
239.250935
 20
332.622227
 10
239.20103
 20
332.619398
 10
239.149194
 20
332.615633
 10
239.095619
 20
332.610798
 10
239.040497
 20
332.60476
 10
238.984019
 20
332.597386
 10
238.926376
 20
332.588541
 10
238.867759
 20
332.578092
 10
238.808361
 20
332.565906
 10
238.748372
 20
332.551847
 10
238.687984
 20
332.535785
 10
238.627389
 20
332.517582
 10
238.566776
 20
332.497108
 10
238.506339
 20
332.474227
 10
238.446268
 20
332.448807
 10
238.386742
 20
332.420752
 10
238.327881
 20
332.390129
 10
238.269792
 20
332.357039
 10
238.212586
 20
332.321588
 10
238.156368
 20
332.28388
 10
238.101246
 20
332.244017
 10
238.047328
 20
332.202106
 10
237.994722
 20
332.158248
 10
237.943537
 20
332.112549
 10
237.893877
 20
332.065111
 10
237.845854
 20
332.01604
 10
237.799573
 20
331.96544
 10
237.755142
 20
331.913413
 10
237.71267
 20
331.860064
 10
237.672263
 20
331.805498
 10
237.634031
 20
331.749818
 10
237.598079
 20
331.693128
 10
237.564518
 20
331.635531
 10
237.533453
 20
331.577133
 10
237.504992
 20
331.518036
 10
237.479202
 20
331.45836
 10
237.45599
 20
331.398284
 10
237.435218
 20
331.337999
 10
237.416752
 20
331.277699
 10
237.400457
 20
331.217578
 10
237.386194
 20
331.157828
 10
237.373831
 20
331.098642
 10
237.363231
 20
331.040214
 10
237.354258
 20
330.982737
 10
237.346776
 20
330.926402
 10
237.340651
 20
330.871406
 10
237.335746
 20
330.817938
 10
237.331927
 20
330.766194
 10
237.329056
 20
330.716365
 10
237.326999
 20
330.668646
 10
237.32562
 20
330.623229
 10
237.324784
 20
330.580307
 10
237.324354
 20
330.540074
 10
237.324197
 20
330.502721
 10
237.324174
 20
330.250604
 10
237.324174
 20
330.032764
 10
237.324196
 20
329.998486
 10
237.324353
 20
329.961135
 10
237.32478
 20
329.9209
 10
237.32561
 20
329.877978
 10
237.326979
 20
329.832561
 10
237.329021
 20
329.784842
 10
237.331871
 20
329.735013
 10
237.335663
 20
329.683269
 10
237.340533
 20
329.629801
 10
237.346615
 20
329.574805
 10
237.354043
 20
329.518471
 10
237.362952
 20
329.460994
 10
237.373476
 20
329.402565
 10
237.385751
 20
329.343379
 10
237.399911
 20
329.283629
 10
237.416091
 20
329.223508
 10
237.434424
 20
329.163209
 10
237.455048
 20
329.102924
 10
237.478094
 20
329.042847
 10
237.503699
 20
328.983172
 10
237.531957
 20
328.924075
 10
237.562802
 20
328.865676
 10
237.596132
 20
328.80808
 10
237.63184
 20
328.751389
 10
237.669821
 20
328.695709
 10
237.70997
 20
328.641143
 10
237.752184
 20
328.587794
 10
237.796357
 20
328.535767
 10
237.842384
 20
328.485167
 10
237.890162
 20
328.436096
 10
237.939584
 20
328.388659
 10
237.990545
 20
328.34296
 10
238.042942
 20
328.299102
 10
238.096669
 20
328.25719
 10
238.151621
 20
328.217328
 10
238.207695
 20
328.179619
 10
238.264784
 20
328.144168
 10
238.322784
 20
328.111078
 10
238.381591
 20
328.080455
 10
238.441098
 20
328.0524
 10
238.501189
 20
328.02698
 10
238.56168
 20
328.0041
 10
238.62238
 20
327.983625
 10
238.683094
 20
327.965424
 10
238.743627
 20
327.94936
 10
238.803784
 20
327.935301
 10
238.863373
 20
327.923115
 10
238.922198
 20
327.912666
 10
238.980067
 20
327.903822
 10
239.036782
 20
327.896447
 10
239.092151
 20
327.89041
 10
239.145979
 20
327.885575
 10
239.198072
 20
327.881809
 10
239.248235
 20
327.87898
 10
239.296276
 20
327.876953
 10
239.341998
 20
327.875594
 10
239.385207
 20
327.87477
 10
239.425711
 20
327.874346
 10
239.463314
 20
327.874191
 10
239.717119
 20
327.874168
 10
239.717535
 20
327.874168
 10
239.720445
 20
327.874168
 10
239.728343
 20
327.874168
 10
239.743722
 20
327.874168
 10
239.769077
 20
327.874168
 10
239.806903
 20
327.874168
 10
239.859692
 20
327.874168
 10
239.929938
 20
327.874168
 10
240.020138
 20
327.874168
 10
240.132783
 20
327.874168
 10
240.270367
 20
327.874168
 10
240.435384
 20
327.874168
 10
240.63033
 20
327.874168
 10
240.857697
 20
327.874168
 10
241.119981
 20
327.874168
 10
241.419674
 20
327.874168
 10
241.75927
 20
327.874168
 10
242.141263
 20
327.874168
 10
242.568149
 20
327.874168
 10
243.04242
 20
327.874168
 10
243.565323
 20
327.874168
 10
244.133118
 20
327.874168
 10
244.740817
 20
327.874168
 10
245.383432
 20
327.874168
 10
246.055974
 20
327.874168
 10
246.753456
 20
327.874168
 10
247.470889
 20
327.874168
 10
248.203286
 20
327.874168
 10
248.94566
 20
327.874168
 10
249.693022
 20
327.874168
 10
250.440382
 20
327.874168
 10
251.182756
 20
327.874168
 10
251.915154
 20
327.874168
 10
252.632587
 20
327.874168
 10
253.330069
 20
327.874168
 10
254.002611
 20
327.874168
 10
254.645225
 20
327.874168
 10
255.252924
 20
327.874168
 10
255.820719
 20
327.874168
 10
256.343623
 20
327.874168
 10
256.817894
 20
327.874168
 10
257.244779
 20
327.874168
 10
257.626773
 20
327.874168
 10
257.96637
 20
327.874168
 10
258.266062
 20
327.874168
 10
258.528345
 20
327.874168
 10
258.755712
 20
327.874168
 10
258.950658
 20
327.874168
 10
259.115677
 20
327.874168
 10
259.253261
 20
327.874168
 10
259.365905
 20
327.874168
 10
259.456104
 20
327.874168
 10
259.526351
 20
327.874168
 10
259.57914
 20
327.874168
 10
259.616965
 20
327.874168
 10
259.642321
 20
327.874168
 10
259.6577
 20
327.874168
 10
259.665598
 20
327.874168
 10
259.668508
 20
327.874168
 10
259.668923
 20
327.874168
 10
259.668923
 20
327.873753
 10
259.668923
 20
327.870843
 10
259.668923
 20
327.862945
 10
259.668923
 20
327.847566
 10
259.668923
 20
327.82221
 10
259.668923
 20
327.784386
 10
259.668923
 20
327.731598
 10
259.668923
 20
327.661351
 10
259.668923
 20
327.571154
 10
259.668923
 20
327.458511
 10
259.668923
 20
327.320928
 10
259.668923
 20
327.155912
 10
259.668923
 20
326.960968
 10
259.668923
 20
326.733605
 10
259.668923
 20
326.471325
 10
259.668923
 20
326.171636
 10
259.668923
 20
325.832044
 10
259.668923
 20
325.450055
 10
259.668923
 20
325.023174
 10
259.668923
 20
324.548909
 10
259.668923
 20
324.026012
 10
259.668923
 20
323.458224
 10
259.668923
 20
322.850533
 10
259.668923
 20
322.207927
 10
259.668923
 20
321.535394
 10
259.668923
 20
320.83792
 10
259.668923
 20
320.120496
 10
259.668923
 20
319.388107
 10
259.668923
 20
318.645743
 10
259.668923
 20
317.898391
 10
259.668923
 20
317.15104
 10
259.668923
 20
316.408676
 10
259.668923
 20
315.676287
 10
259.668923
 20
314.958863
 10
259.668923
 20
314.261389
 10
259.668923
 20
313.588855
 10
259.668923
 20
312.94625
 10
259.668923
 20
312.338558
 10
259.668923
 20
311.77077
 10
259.668923
 20
311.247874
 10
259.668923
 20
310.773609
 10
259.668923
 20
310.346728
 10
259.668923
 20
309.964739
 10
259.668923
 20
309.625147
 10
259.668923
 20
309.325458
 10
259.668923
 20
309.063178
 10
259.668923
 20
308.835814
 10
259.668923
 20
308.640871
 10
259.668923
 20
308.475855
 10
259.668923
 20
308.338272
 10
259.668923
 20
308.225629
 10
259.668923
 20
308.135432
 10
259.668923
 20
308.065185
 10
259.668923
 20
308.012396
 10
259.668923
 20
307.974572
 10
259.668923
 20
307.949217
 10
259.668923
 20
307.933837
 10
259.668923
 20
307.92594
 10
259.668923
 20
307.92303
 10
259.668923
 20
307.922615
 10
259.668923
 20
307.703399
 10
259.668945
 20
307.668905
 10
259.669102
 20
307.631316
 10
259.669524
 20
307.590828
 10
259.670349
 20
307.547633
 10
259.671708
 20
307.501928
 10
259.673735
 20
307.453903
 10
259.676565
 20
307.403756
 10
259.68033
 20
307.351679
 10
259.685164
 20
307.297866
 10
259.691202
 20
307.242511
 10
259.698576
 20
307.185809
 10
259.707422
 20
307.127954
 10
259.717871
 20
307.06914
 10
259.730057
 20
307.009561
 10
259.744115
 20
306.94941
 10
259.760178
 20
306.888883
 10
259.77838
 20
306.828172
 10
259.798854
 20
306.767474
 10
259.821735
 20
306.70698
 10
259.847156
 20
306.646885
 10
259.87521
 20
306.58737
 10
259.905834
 20
306.528553
 10
259.938924
 20
306.470539
 10
259.974374
 20
306.413435
 10
260.012083
 20
306.357344
 10
260.051945
 20
306.302371
 10
260.093857
 20
306.248623
 10
260.137714
 20
306.196203
 10
260.183414
 20
306.145217
 10
260.230852
 20
306.095772
 10
260.279922
 20
306.047969
 10
260.330523
 20
306.001916
 10
260.38255
 20
305.957717
 10
260.435898
 20
305.915477
 10
260.490465
 20
305.875303
 10
260.546145
 20
305.837297
 10
260.602835
 20
305.801566
 10
260.660431
 20
305.768214
 10
260.71883
 20
305.737346
 10
260.777927
 20
305.709069
 10
260.837602
 20
305.683446
 10
260.897679
 20
305.660384
 10
260.957964
 20
305.639746
 10
261.018264
 20
305.6214
 10
261.078385
 20
305.605209
 10
261.138134
 20
305.591039
 10
261.197321
 20
305.578756
 10
261.255749
 20
305.568223
 10
261.313226
 20
305.559308
 10
261.36956
 20
305.551875
 10
261.424557
 20
305.545789
 10
261.478024
 20
305.540917
 10
261.529769
 20
305.537121
 10
261.579597
 20
305.534269
 10
261.627317
 20
305.532226
 10
261.672734
 20
305.530856
 10
261.715655
 20
305.530025
 10
261.755889
 20
305.529598
 10
261.793241
 20
305.529441
 10
262.045358
 20
305.529419
  0
LWPOLYLINE
  5
33
330
1F
100
AcDbEntity
  8
0
100
AcDbPolyline
 90
        5
 70
   128
 43
0.0
 10
729.264376
 20
500.946028
 10
780.65137
 20
501.675099
 10
780.583985
 20
506.42462
 10
729.19699
 20
505.69555
 10
729.264376
 20
500.946028
  0
LWPOLYLINE
  5
34
330
1F
100
AcDbEntity
  8
0
100
AcDbPolyline
 90
        5
 70
   128
 43
0.0
 10
730.00705
 20
448.600237
 10
729.939664
 20
453.349759
 10
781.326659
 20
454.07883
 10
781.394044
 20
449.329308
 10
730.00705
 20
448.600237
  0
LWPOLYLINE
  5
35
330
1F
100
AcDbEntity
  8
0
100
AcDbPolyline
 90
       13
 70
   128
 43
0.0
 10
648.160009
 20
473.617168
 10
672.412885
 20
473.961264
 10
672.731174
 20
451.527354
 10
677.480695
 20
451.594739
 10
677.162406
 20
474.02865
 10
704.446892
 20
474.415758
 10
704.379506
 20
479.165279
 10
677.095021
 20
478.778171
 10
676.776732
 20
501.212081
 10
672.027211
 20
501.144696
 10
672.345499
 20
478.710786
 10
648.092623
 20
478.36669
 10
648.160009
 20
473.617168
  0
LWPOLYLINE
  5
36
330
1F
100
AcDbEntity
  8
0
100
AcDbPolyline
 90
        5
 70
   128
 43
0.0
 10
559.580825
 20
498.538585
 10
610.095661
 20
499.255281
 10
610.028275
 20
504.004803
 10
559.51344
 20
503.288106
 10
559.580825
 20
498.538585
  0
LWPOLYLINE
  5
37
330
1F
100
AcDbEntity
  8
0
100
AcDbPolyline
 90
        5
 70
   128
 43
0.0
 10
560.323499
 20
446.192794
 10
610.838334
 20
446.90949
 10
610.770949
 20
451.659012
 10
560.256113
 20
450.942315
 10
560.323499
 20
446.192794
  0
LWPOLYLINE
  5
38
330
1F
100
AcDbEntity
  8
0
100
AcDbPolyline
 90
       17
 70
   128
 43
0.0
 10
373.599489
 20
564.406317
 10
397.099489
 20
564.406317
 10
397.099489
 20
569.206317
 10
406.599489
 20
569.206317
 10
406.599489
 20
679.706317
 10
397.099489
 20
679.706317
 10
397.099489
 20
684.506317
 10
373.599489
 20
684.506317
 10
373.599489
 20
679.706317
 10
370.599489
 20
679.706317
 10
370.599489
 20
626.856317
 10
382.099489
 20
626.856317
 10
382.099489
 20
622.056317
 10
370.599489
 20
622.056317
 10
370.599489
 20
569.206317
 10
373.599489
 20
569.206317
 10
373.599489
 20
564.406317
  0
LWPOLYLINE
  5
39
330
1F
100
AcDbEntity
  8
0
100
AcDbPolyline
 90
     1148
 70
   128
 43
0.0
 10
480.760795
 20
310.184967
 10
480.367257
 20
310.184967
 10
479.99956
 20
310.184967
 10
479.660934
 20
310.184967
 10
479.353802
 20
310.184967
 10
479.077357
 20
310.184967
 10
478.829982
 20
310.184967
 10
478.610064
 20
310.184967
 10
478.415987
 20
310.184967
 10
478.246135
 20
310.184967
 10
478.098895
 20
310.184967
 10
477.972651
 20
310.184967
 10
477.865787
 20
310.184967
 10
477.776689
 20
310.184967
 10
477.703742
 20
310.184967
 10
477.620391
 20
310.184967
 10
477.097646
 20
310.184967
 10
476.595453
 20
269.856108
 10
114.078382
 20
269.856106
 10
114.078382
 20
275.106106
 10
90.060604
 20
275.106106
 10
90.060604
 20
265.056106
 10
89.773209
 20
265.058673
 10
89.579442
 20
265.060403
 10
89.353448
 20
265.062421
 10
89.09275
 20
265.064749
 10
88.794869
 20
265.067409
 10
88.457325
 20
265.070424
 10
88.07764
 20
265.073814
 10
87.653335
 20
265.077603
 10
87.18193
 20
265.081813
 10
86.662187
 20
265.086454
 10
86.097824
 20
265.091493
 10
85.493798
 20
265.096887
 10
84.855067
 20
265.102591
 10
84.18659
 20
265.10856
 10
83.493324
 20
265.114751
 10
82.780226
 20
265.121119
 10
82.052255
 20
265.12762
 10
81.314369
 20
265.134209
 10
80.571524
 20
265.140842
 10
79.82868
 20
265.147476
 10
79.090793
 20
265.154065
 10
78.362822
 20
265.160565
 10
77.649725
 20
265.166933
 10
76.956459
 20
265.173124
 10
76.287981
 20
265.179093
 10
75.649251
 20
265.184797
 10
75.045225
 20
265.190191
 10
74.480862
 20
265.195231
 10
73.961119
 20
265.199872
 10
73.489714
 20
265.204081
 10
73.065409
 20
265.20787
 10
72.685723
 20
265.211261
 10
72.34818
 20
265.214275
 10
72.050298
 20
265.216935
 10
71.7896
 20
265.219263
 10
71.563607
 20
265.221281
 10
71.369839
 20
265.223011
 10
71.205819
 20
265.224476
 10
71.069066
 20
265.225697
 10
70.957102
 20
265.226697
 10
70.867449
 20
265.227498
 10
70.797626
 20
265.228121
 10
70.745156
 20
265.22859
 10
70.707559
 20
265.228925
 10
70.682357
 20
265.22915
 10
70.667071
 20
265.229287
 10
70.659221
 20
265.229357
 10
70.656329
 20
265.229383
 10
70.655916
 20
265.229387
 10
70.405033
 20
265.231661
 10
70.367861
 20
265.231846
 10
70.327818
 20
265.231793
 10
70.285093
 20
265.231367
 10
70.239876
 20
265.230433
 10
70.192358
 20
265.228857
 10
70.142727
 20
265.226506
 10
70.091175
 20
265.223244
 10
70.03789
 20
265.218937
 10
69.983064
 20
265.213451
 10
69.926886
 20
265.206652
 10
69.869545
 20
265.198405
 10
69.811233
 20
265.188577
 10
69.752138
 20
265.177032
 10
69.692451
 20
265.163637
 10
69.632362
 20
265.148257
 10
69.57206
 20
265.130758
 10
69.511736
 20
265.111005
 10
69.45158
 20
265.088865
 10
69.391781
 20
265.064203
 10
69.332516
 20
265.036924
 10
69.273905
 20
265.00709
 10
69.216054
 20
264.974805
 10
69.15907
 20
264.94017
 10
69.103058
 20
264.903287
 10
69.048127
 20
264.864258
 10
68.994381
 20
264.823186
 10
68.941928
 20
264.780173
 10
68.890873
 20
264.735321
 10
68.841324
 20
264.688731
 10
68.793386
 20
264.640507
 10
68.747166
 20
264.590751
 10
68.70277
 20
264.539564
 10
68.660305
 20
264.487048
 10
68.619878
 20
264.433307
 10
68.581593
 20
264.378441
 10
68.545559
 20
264.322554
 10
68.511881
 20
264.265746
 10
68.480666
 20
264.208122
 10
68.45202
 20
264.149782
 10
68.42601
 20
264.090843
 10
68.402543
 20
264.031484
 10
68.381486
 20
263.971898
 10
68.362709
 20
263.912276
 10
68.346077
 20
263.852811
 10
68.331459
 20
263.793696
 10
68.318723
 20
263.735124
 10
68.307736
 20
263.677287
 10
68.298365
 20
263.620379
 10
68.290479
 20
263.564591
 10
68.283945
 20
263.510116
 10
68.278631
 20
263.457147
 10
68.274404
 20
263.405877
 10
68.271132
 20
263.356498
 10
68.268682
 20
263.309203
 10
68.266923
 20
263.264184
 10
68.265722
 20
263.221635
 10
68.264946
 20
263.181747
 10
68.264464
 20
263.144714
 10
68.264142
 20
263.110728
 10
68.262241
 20
262.894741
 10
68.259966
 20
262.644768
 10
68.259782
 20
262.607732
 10
68.259838
 20
262.567837
 10
68.260271
 20
262.525273
 10
68.261215
 20
262.48023
 10
68.262806
 20
262.432899
 10
68.265178
 20
262.383469
 10
68.268468
 20
262.332131
 10
68.272811
 20
262.279076
 10
68.278341
 20
262.224494
 10
68.285195
 20
262.168574
 10
68.293507
 20
262.111507
 10
68.303413
 20
262.053484
 10
68.315049
 20
261.994694
 10
68.328548
 20
261.935329
 10
68.344047
 20
261.875577
 10
68.361682
 20
261.81563
 10
68.381586
 20
261.755677
 10
68.403896
 20
261.69591
 10
68.428747
 20
261.636518
 10
68.456234
 20
261.577677
 10
68.486295
 20
261.519505
 10
68.518826
 20
261.462107
 10
68.553724
 20
261.405586
 10
68.590886
 20
261.350047
 10
68.630209
 20
261.295593
 10
68.671591
 20
261.242328
 10
68.714928
 20
261.190357
 10
68.760117
 20
261.139783
 10
68.807055
 20
261.090711
 10
68.85564
 20
261.043244
 10
68.905768
 20
260.997486
 10
68.957336
 20
260.953542
 10
69.010241
 20
260.911514
 10
69.064381
 20
260.871509
 10
69.119652
 20
260.833628
 10
69.175951
 20
260.797976
 10
69.233176
 20
260.764658
 10
69.291223
 20
260.733777
 10
69.349989
 20
260.705437
 10
69.409357
 20
260.679704
 10
69.469146
 20
260.656484
 10
69.529165
 20
260.635648
 10
69.589217
 20
260.617065
 10
69.649111
 20
260.600604
 10
69.70865
 20
260.586134
 10
69.767643
 20
260.573525
 10
69.825894
 20
260.562645
 10
69.88321
 20
260.553363
 10
69.939396
 20
260.54555
 10
69.99426
 20
260.539074
 10
70.047606
 20
260.533804
 10
70.099241
 20
260.52961
 10
70.148971
 20
260.52636
 10
70.196602
 20
260.523925
 10
70.24194
 20
260.522173
 10
70.284791
 20
260.520972
 10
70.324961
 20
260.520194
 10
70.362257
 20
260.519706
 10
70.396483
 20
260.519378
 10
70.614
 20
260.517436
 10
70.614419
 20
260.517432
 10
70.617354
 20
260.517406
 10
70.625319
 20
260.517334
 10
70.640831
 20
260.517196
 10
70.666404
 20
260.516967
 10
70.704555
 20
260.516625
 10
70.757798
 20
260.516149
 10
70.828649
 20
260.515515
 10
70.919624
 20
260.514701
 10
71.033237
 20
260.513684
 10
71.172004
 20
260.512443
 10
71.338442
 20
260.510953
 10
71.535064
 20
260.509194
 10
71.764387
 20
260.507142
 10
72.028925
 20
260.504775
 10
72.331196
 20
260.50207
 10
72.673712
 20
260.499005
 10
73.058991
 20
260.495558
 10
73.489548
 20
260.491705
 10
73.967898
 20
260.487425
 10
74.495298
 20
260.482706
 10
75.067976
 20
260.477581
 10
75.680901
 20
260.472097
 10
76.329042
 20
260.466297
 10
77.007368
 20
260.460227
 10
77.710848
 20
260.453933
 10
78.434452
 20
260.447458
 10
79.173148
 20
260.440848
 10
79.921906
 20
260.434148
 10
80.675694
 20
260.427403
 10
81.429483
 20
260.420658
 10
82.178241
 20
260.413958
 10
82.916937
 20
260.407348
 10
83.64054
 20
260.400873
 10
84.34402
 20
260.394579
 10
85.022346
 20
260.388509
 10
85.670487
 20
260.382709
 10
86.283412
 20
260.377225
 10
86.85609
 20
260.372101
 10
87.383491
 20
260.367381
 10
87.86184
 20
260.363101
 10
88.292397
 20
260.359248
 10
88.677676
 20
260.355801
 10
89.020193
 20
260.352736
 10
89.322463
 20
260.350031
 10
89.587002
 20
260.347664
 10
89.816324
 20
260.345612
 10
90.012947
 20
260.343853
 10
90.179384
 20
260.342364
 10
90.318151
 20
260.341122
 10
90.431765
 20
260.340105
 10
90.522739
 20
260.339291
 10
90.59359
 20
260.338657
 10
90.646833
 20
260.338181
 10
90.684984
 20
260.337839
 10
90.710557
 20
260.337611
 10
90.726069
 20
260.337472
 10
90.734035
 20
260.337401
 10
90.736969
 20
260.337374
 10
90.737389
 20
260.337371
 10
90.737389
 20
260.337356
 10
90.737395
 20
260.337251
 10
90.73741
 20
260.336968
 10
90.737439
 20
260.336416
 10
90.737488
 20
260.335507
 10
90.737559
 20
260.334151
 10
90.73766
 20
260.332257
 10
90.737793
 20
260.329738
 10
90.737965
 20
260.326503
 10
90.738179
 20
260.322463
 10
90.738441
 20
260.317529
 10
90.738755
 20
260.311611
 10
90.739126
 20
260.304619
 10
90.739558
 20
260.296465
 10
90.740057
 20
260.287059
 10
90.740627
 20
260.27631
 10
90.741273
 20
260.264131
 10
90.741999
 20
260.250431
 10
90.742811
 20
260.235122
 10
90.743713
 20
260.218113
 10
90.744708
 20
260.199359
 10
90.745788
 20
260.178996
 10
90.746944
 20
260.157202
 10
90.748166
 20
260.134155
 10
90.749445
 20
260.110035
 10
90.750772
 20
260.085021
 10
90.752136
 20
260.059291
 10
90.753529
 20
260.033024
 10
90.754941
 20
260.0064
 10
90.756362
 20
259.979597
 10
90.757784
 20
259.952793
 10
90.759196
 20
259.926169
 10
90.760589
 20
259.899902
 10
90.761953
 20
259.874173
 10
90.76328
 20
259.849158
 10
90.764559
 20
259.825038
 10
90.765781
 20
259.801992
 10
90.766937
 20
259.780197
 10
90.768017
 20
259.759834
 10
90.769012
 20
259.741081
 10
90.769914
 20
259.724071
 10
90.770726
 20
259.708762
 10
90.771452
 20
259.695062
 10
90.772098
 20
259.682883
 10
90.772668
 20
259.672135
 10
90.773167
 20
259.662728
 10
90.773599
 20
259.654574
 10
90.77397
 20
259.647582
 10
90.774284
 20
259.641664
 10
90.774546
 20
259.63673
 10
90.77476
 20
259.63269
 10
90.774932
 20
259.629455
 10
90.775065
 20
259.626936
 10
90.775166
 20
259.625043
 10
90.775237
 20
259.623686
 10
90.775286
 20
259.622777
 10
90.775315
 20
259.622225
 10
90.77533
 20
259.621942
 10
90.775335
 20
259.621838
 10
90.775336
 20
259.621823
 10
91.756587
 20
256.145043
 10
91.896176
 20
255.632737
 10
92.036852
 20
255.085582
 10
92.172796
 20
254.508683
 10
92.298188
 20
253.907151
 10
92.407208
 20
253.286091
 10
92.494035
 20
252.650614
 10
92.552849
 20
252.005826
 10
92.57783
 20
251.356836
 10
92.563157
 20
250.708751
 10
92.503011
 20
250.06668
 10
92.391571
 20
249.43573
 10
92.223017
 20
248.821011
 10
91.991529
 20
248.227629
 10
91.691287
 20
247.660692
 10
91.316469
 20
247.12531
 10
90.861257
 20
246.626589
 10
90.31983
 20
246.169637
 10
89.686368
 20
245.759564
 10
88.95505
 20
245.401476
 10
88.122373
 20
245.099165
 10
87.194096
 20
244.851153
 10
86.178294
 20
244.654646
 10
85.083045
 20
244.506848
 10
83.916424
 20
244.404966
 10
82.686506
 20
244.346203
 10
81.401368
 20
244.327767
 10
80.069086
 20
244.346862
 10
78.697735
 20
244.400693
 10
77.295392
 20
244.486466
 10
75.870132
 20
244.601386
 10
74.430031
 20
244.742658
 10
72.983164
 20
244.907489
 10
71.537609
 20
245.093082
 10
70.101441
 20
245.296644
 10
68.682735
 20
245.515379
 10
67.289568
 20
245.746494
 10
65.930016
 20
245.987193
 10
64.612154
 20
246.234682
 10
63.344058
 20
246.486166
 10
62.132252
 20
246.739196
 10
60.977052
 20
246.992705
 10
59.87722
 20
247.245971
 10
58.83152
 20
247.498274
 10
57.838714
 20
247.748892
 10
56.897566
 20
247.997103
 10
56.00684
 20
248.242186
 10
55.165297
 20
248.483419
 10
54.371702
 20
248.720082
 10
53.624817
 20
248.951453
 10
52.923406
 20
249.176809
 10
52.266231
 20
249.395431
 10
51.652056
 20
249.606597
 10
51.079644
 20
249.809584
 10
50.547759
 20
250.003672
 10
50.055162
 20
250.18814
 10
49.600618
 20
250.362265
 10
49.18289
 20
250.525327
 10
48.80074
 20
250.676604
 10
48.452932
 20
250.815375
 10
46.245936
 20
251.697223
 10
45.640021
 20
251.939389
 10
45.550585
 20
251.975204
 10
45.454806
 20
252.013678
 10
45.35344
 20
252.05457
 10
45.247242
 20
252.097641
 10
45.136966
 20
252.142649
 10
45.02337
 20
252.189356
 10
44.907208
 20
252.237521
 10
44.789235
 20
252.286903
 10
44.670206
 20
252.337263
 10
44.550878
 20
252.388361
 10
44.432006
 20
252.439956
 10
44.314345
 20
252.491808
 10
44.19865
 20
252.543678
 10
44.085676
 20
252.595324
 10
43.97618
 20
252.646508
 10
43.870916
 20
252.696989
 10
43.770641
 20
252.746526
 10
43.676108
 20
252.79488
 10
43.588075
 20
252.84181
 10
43.507107
 20
252.88719
 10
43.433024
 20
252.931342
 10
43.365455
 20
252.974704
 10
43.304029
 20
253.017712
 10
43.248378
 20
253.060803
 10
43.19813
 20
253.104413
 10
43.152916
 20
253.14898
 10
43.112366
 20
253.194938
 10
43.07611
 20
253.242726
 10
43.043777
 20
253.292779
 10
43.014997
 20
253.345534
 10
42.989401
 20
253.401429
 10
42.966619
 20
253.460898
 10
42.94628
 20
253.52438
 10
42.928014
 20
253.59231
 10
42.911452
 20
253.665125
 10
42.896223
 20
253.743262
 10
42.881957
 20
253.827158
 10
42.868284
 20
253.917248
 10
42.854834
 20
254.013969
 10
42.841307
 20
254.117556
 10
42.827677
 20
254.22743
 10
42.81399
 20
254.342812
 10
42.800289
 20
254.462919
 10
42.786621
 20
254.586973
 10
42.773029
 20
254.714191
 10
42.759558
 20
254.843795
 10
42.746252
 20
254.975002
 10
42.733157
 20
255.107033
 10
42.720318
 20
255.239107
 10
42.707778
 20
255.370444
 10
42.695582
 20
255.500262
 10
42.683776
 20
255.627782
 10
42.672404
 20
255.752222
 10
42.66151
 20
255.872803
 10
42.651139
 20
255.988743
 10
42.641336
 20
256.099263
 10
42.632146
 20
256.20358
 10
42.623612
 20
256.300916
 10
42.615781
 20
256.390489
 10
42.578382
 20
256.818466
 10
42.578382
 20
275.106106
 10
27.056076
 20
275.106106
 10
27.056075
 20
385.606106
 10
42.578381
 20
385.606106
 10
42.577211
 20
400.692663
 10
42.574888
 20
400.774436
 10
42.573348
 20
400.85796
 10
42.572699
 20
400.942966
 10
42.573049
 20
401.029185
 10
42.574506
 20
401.116346
 10
42.577178
 20
401.204182
 10
42.581172
 20
401.292422
 10
42.586596
 20
401.380797
 10
42.593559
 20
401.469038
 10
42.602168
 20
401.556875
 10
42.612514
 20
401.644085
 10
42.624613
 20
401.730622
 10
42.638466
 20
401.816486
 10
42.654073
 20
401.901676
 10
42.671434
 20
401.986193
 10
42.690547
 20
402.070037
 10
42.711414
 20
402.153207
 10
42.734034
 20
402.235703
 10
42.758407
 20
402.317525
 10
42.784533
 20
402.398672
 10
42.812411
 20
402.479146
 10
42.842042
 20
402.558945
 10
42.873425
 20
402.638069
 10
42.90656
 20
402.716519
 10
42.941447
 20
402.794294
 10
42.978086
 20
402.871394
 10
43.016477
 20
402.947818
 10
43.056619
 20
403.023567
 10
43.098512
 20
403.09864
 10
43.142157
 20
403.173038
 10
43.187512
 20
403.246738
 10
43.234376
 20
403.319627
 10
43.282506
 20
403.391571
 10
43.331658
 20
403.462436
 10
43.381591
 20
403.532088
 10
43.432063
 20
403.600391
 10
43.482829
 20
403.667212
 10
43.533648
 20
403.732415
 10
43.584277
 20
403.795867
 10
43.634473
 20
403.857433
 10
43.683995
 20
403.916979
 10
43.732598
 20
403.974369
 10
43.780041
 20
404.029471
 10
43.82608
 20
404.082148
 10
43.870474
 20
404.132267
 10
43.91298
 20
404.179693
 10
43.953354
 20
404.224293
 10
43.991355
 20
404.26593
 10
44.02674
 20
404.304471
 10
44.059265
 20
404.339782
 10
44.266034
 20
404.564119
 10
45.728194
 20
405.466775
 10
45.950525
 20
405.601659
 10
46.199552
 20
405.748877
 10
46.479153
 20
405.908747
 10
46.793205
 20
406.081587
 10
47.145589
 20
406.267715
 10
47.54018
 20
406.46745
 10
47.980858
 20
406.681111
 10
48.4715
 20
406.909014
 10
49.015985
 20
407.15148
 10
49.61819
 20
407.408826
 10
50.281994
 20
407.68137
 10
51.011275
 20
407.969432
 10
51.809911
 20
408.273328
 10
52.68178
 20
408.593378
 10
53.63076
 20
408.9299
 10
54.66073
 20
409.283212
 10
55.775566
 20
409.653632
 10
56.979148
 20
410.04148
 10
58.275354
 20
410.447072
 10
59.665483
 20
410.869844
 10
61.140524
 20
411.305691
 10
62.688887
 20
411.749624
 10
64.298981
 20
412.196655
 10
65.959217
 20
412.641796
 10
67.658004
 20
413.080058
 10
69.383753
 20
413.506453
 10
71.124874
 20
413.915991
 10
72.869777
 20
414.303686
 10
74.606871
 20
414.664547
 10
76.324568
 20
414.993587
 10
78.011276
 20
415.285817
 10
79.655405
 20
415.536248
 10
81.245367
 20
415.739893
 10
82.769571
 20
415.891762
 10
84.216426
 20
415.986867
 10
85.574343
 20
416.02022
 10
86.831732
 20
415.986832
 10
87.977003
 20
415.881715
 10
88.998566
 20
415.69988
 10
89.888055
 20
415.438283
 10
90.650004
 20
415.101663
 10
91.292171
 20
414.696702
 10
91.822312
 20
414.230082
 10
92.248187
 20
413.708486
 10
92.577552
 20
413.138597
 10
92.818166
 20
412.527097
 10
92.977785
 20
411.880669
 10
93.064169
 20
411.205996
 10
93.085074
 20
410.50976
 10
93.048258
 20
409.798644
 10
92.96148
 20
409.07933
 10
92.832496
 20
408.358502
 10
92.669065
 20
407.642841
 10
92.478944
 20
406.93903
 10
92.269892
 20
406.253752
 10
92.049665
 20
405.59369
 10
91.826021
 20
404.965526
 10
91.606719
 20
404.375943
 10
91.399516
 20
403.831623
 10
90.075732
 20
400.368553
 10
90.075333
 20
400.368557
 10
90.072539
 20
400.368582
 10
90.064957
 20
400.36865
 10
90.05019
 20
400.368782
 10
90.025846
 20
400.369
 10
89.989528
 20
400.369325
 10
89.938844
 20
400.369778
 10
89.871398
 20
400.370381
 10
89.784795
 20
400.371156
 10
89.676641
 20
400.372124
 10
89.544543
 20
400.373306
 10
89.386104
 20
400.374723
 10
89.19893
 20
400.376398
 10
88.980628
 20
400.378351
 10
88.728801
 20
400.380604
 10
88.441057
 20
400.383178
 10
88.115
 20
400.386095
 10
87.748236
 20
400.389377
 10
87.33837
 20
400.393043
 10
86.883008
 20
400.397117
 10
86.380952
 20
400.401609
 10
85.835794
 20
400.406486
 10
85.252324
 20
400.411706
 10
84.63533
 20
400.417226
 10
83.989601
 20
400.423004
 10
83.319928
 20
400.428995
 10
82.631097
 20
400.435158
 10
81.9279
 20
400.441449
 10
81.215124
 20
400.447826
 10
80.497559
 20
400.454245
 10
79.779995
 20
400.460665
 10
79.067219
 20
400.467042
 10
78.364021
 20
400.473333
 10
77.675191
 20
400.479496
 10
77.005517
 20
400.485487
 10
76.359789
 20
400.491264
 10
75.742795
 20
400.496784
 10
75.159325
 20
400.502005
 10
74.614167
 20
400.506882
 10
74.112111
 20
400.511374
 10
73.656749
 20
400.515448
 10
73.246883
 20
400.519114
 10
72.880119
 20
400.522396
 10
72.554062
 20
400.525313
 10
72.266317
 20
400.527887
 10
72.014491
 20
400.53014
 10
71.796189
 20
400.532093
 10
71.609015
 20
400.533768
 10
71.450576
 20
400.535185
 10
71.318477
 20
400.536367
 10
71.210324
 20
400.537335
 10
71.123721
 20
400.53811
 10
71.056275
 20
400.538713
 10
71.00559
 20
400.539166
 10
70.969273
 20
400.539491
 10
70.944929
 20
400.539709
 10
70.930162
 20
400.539841
 10
70.922579
 20
400.539909
 10
70.919786
 20
400.539934
 10
70.919387
 20
400.539938
 10
70.6686
 20
400.542164
 10
70.631442
 20
400.542343
 10
70.591414
 20
400.542282
 10
70.548705
 20
400.541848
 10
70.503504
 20
400.540906
 10
70.456003
 20
400.539322
 10
70.406389
 20
400.536962
 10
70.354854
 20
400.533692
 10
70.301587
 20
400.529377
 10
70.246778
 20
400.523883
 10
70.190616
 20
400.517077
 10
70.133292
 20
400.508823
 10
70.074996
 20
400.498988
 10
70.015916
 20
400.487437
 10
69.956243
 20
400.474036
 10
69.896167
 20
400.458652
 10
69.835877
 20
400.441149
 10
69.775563
 20
400.421393
 10
69.715416
 20
400.399251
 10
69.655624
 20
400.374589
 10
69.596364
 20
400.34731
 10
69.537757
 20
400.317478
 10
69.479907
 20
400.285196
 10
69.422923
 20
400.250564
 10
69.366911
 20
400.213686
 10
69.311976
 20
400.174663
 10
69.258226
 20
400.133597
 10
69.205766
 20
400.09059
 10
69.154704
 20
400.045745
 10
69.105146
 20
399.999164
 10
69.057198
 20
399.950948
 10
69.010967
 20
399.901199
 10
68.96656
 20
399.85002
 10
68.924081
 20
399.797513
 10
68.883639
 20
399.74378
 10
68.84534
 20
399.688922
 10
68.80929
 20
399.633042
 10
68.775595
 20
399.576243
 10
68.744362
 20
399.518625
 10
68.715698
 20
399.460291
 10
68.689669
 20
399.401359
 10
68.666182
 20
399.342005
 10
68.645106
 20
399.282423
 10
68.626308
 20
399.222805
 10
68.609656
 20
399.163344
 10
68.595018
 20
399.104233
 10
68.582261
 20
399.045664
 10
68.571253
 20
398.98783
 10
68.561862
 20
398.930923
 10
68.553955
 20
398.875137
 10
68.547401
 20
398.820663
 10
68.542067
 20
398.767695
 10
68.537821
 20
398.716426
 10
68.534531
 20
398.667048
 10
68.532063
 20
398.619753
 10
68.530287
 20
398.574735
 10
68.52907
 20
398.532186
 10
68.528279
 20
398.492298
 10
68.527782
 20
398.455265
 10
68.527448
 20
398.421279
 10
68.525464
 20
398.205292
 10
68.523333
 20
397.955319
 10
68.52317
 20
397.918283
 10
68.523249
 20
397.878388
 10
68.523705
 20
397.835823
 10
68.524674
 20
397.79078
 10
68.52629
 20
397.743448
 10
68.528689
 20
397.694018
 10
68.532005
 20
397.64268
 10
68.536374
 20
397.589624
 10
68.541931
 20
397.53504
 10
68.548811
 20
397.479118
 10
68.557149
 20
397.422049
 10
68.56708
 20
397.364024
 10
68.578739
 20
397.305231
 10
68.592261
 20
397.245862
 10
68.607782
 20
397.186107
 10
68.625436
 20
397.126156
 10
68.645358
 20
397.066198
 10
68.667684
 20
397.006426
 10
68.692549
 20
396.947027
 10
68.720047
 20
396.88818
 10
68.750117
 20
396.830001
 10
68.782654
 20
396.772595
 10
68.817557
 20
396.716067
 10
68.854721
 20
396.660519
 10
68.894045
 20
396.606056
 10
68.935426
 20
396.552783
 10
68.97876
 20
396.500803
 10
69.023945
 20
396.45022
 10
69.070878
 20
396.401138
 10
69.119456
 20
396.353662
 10
69.169575
 20
396.307895
 10
69.221135
 20
396.263941
 10
69.27403
 20
396.221905
 10
69.32816
 20
396.18189
 10
69.383419
 20
396.144001
 10
69.439707
 20
396.108342
 10
69.49692
 20
396.075016
 10
69.554954
 20
396.044128
 10
69.613708
 20
396.015782
 10
69.673063
 20
395.990042
 10
69.732841
 20
395.966817
 10
69.792847
 20
395.945977
 10
69.852887
 20
395.92739
 10
69.912768
 20
395.910925
 10
69.972296
 20
395.896451
 10
70.031277
 20
395.883839
 10
70.089517
 20
395.872957
 10
70.146821
 20
395.863673
 10
70.202997
 20
395.855858
 10
70.257849
 20
395.849381
 10
70.311185
 20
395.84411
 10
70.36281
 20
395.839915
 10
70.412531
 20
395.836665
 10
70.460152
 20
395.834229
 10
70.505482
 20
395.832476
 10
70.548325
 20
395.831276
 10
70.588487
 20
395.830497
 10
70.625775
 20
395.830009
 10
70.659995
 20
395.829681
 10
70.877471
 20
395.827739
 10
70.87787
 20
395.827735
 10
70.880668
 20
395.82771
 10
70.888261
 20
395.827642
 10
70.903048
 20
395.82751
 10
70.927427
 20
395.827292
 10
70.963795
 20
395.826966
 10
71.01455
 20
395.826512
 10
71.082091
 20
395.825908
 10
71.168815
 20
395.825132
 10
71.277119
 20
395.824163
 10
71.409403
 20
395.822979
 10
71.568064
 20
395.82156
 10
71.755499
 20
395.819883
 10
71.974106
 20
395.817927
 10
72.226285
 20
395.815671
 10
72.514431
 20
395.813093
 10
72.840944
 20
395.810171
 10
73.208221
 20
395.806885
 10
73.61866
 20
395.803213
 10
74.074659
 20
395.799133
 10
74.577417
 20
395.794635
 10
75.123337
 20
395.789751
 10
75.707624
 20
395.784523
 10
76.32548
 20
395.778995
 10
76.972112
 20
395.77321
 10
77.642722
 20
395.76721
 10
78.332515
 20
395.761038
 10
79.036696
 20
395.754738
 10
79.750469
 20
395.748352
 10
80.469037
 20
395.741922
 10
81.187605
 20
395.735493
 10
81.901377
 20
395.729107
 10
82.605558
 20
395.722807
 10
83.295351
 20
395.716635
 10
83.965962
 20
395.710635
 10
84.612593
 20
395.70485
 10
85.23045
 20
395.699322
 10
85.814736
 20
395.694094
 10
86.360656
 20
395.68921
 10
86.863414
 20
395.684712
 10
87.319413
 20
395.680632
 10
87.729852
 20
395.67696
 10
88.097129
 20
395.673674
 10
88.423642
 20
395.670752
 10
88.711789
 20
395.668174
 10
88.963967
 20
395.665918
 10
89.182575
 20
395.663962
 10
89.37001
 20
395.662285
 10
89.52867
 20
395.660866
 10
89.660954
 20
395.659682
 10
89.769259
 20
395.658713
 10
89.957708
 20
395.657027
 10
89.923523
 20
395.657333
 10
89.974278
 20
395.656879
 10
90.010647
 20
395.656553
 10
90.035025
 20
395.656335
 10
90.049812
 20
395.656203
 10
90.057405
 20
395.656135
 10
90.060203
 20
395.65611
 10
90.060603
 20
395.656106
 10
90.060602
 20
395.65605
 10
90.060603
 20
385.606106
 10
114.078381
 20
385.606106
 10
114.078381
 20
390.856106
 10
476.595452
 20
390.856108
 10
477.095453
 20
348.389767
 10
477.713304
 20
348.389767
 10
477.802848
 20
348.389767
 10
477.910247
 20
348.389767
 10
478.037124
 20
348.389767
 10
478.185102
 20
348.389767
 10
478.355804
 20
348.389767
 10
478.550854
 20
348.389767
 10
478.771874
 20
348.389767
 10
479.020488
 20
348.389767
 10
477.946885
 20
348.389767
 10
479.606989
 20
348.389767
 10
479.947311
 20
348.389767
 10
480.316851
 20
348.389767
 10
480.71236
 20
348.389767
 10
481.130594
 20
348.389767
 10
481.568306
 20
348.389767
 10
482.02225
 20
348.389767
 10
482.489178
 20
348.389767
 10
482.965846
 20
348.389767
 10
483.449006
 20
348.389767
 10
483.935413
 20
348.389767
 10
484.42182
 20
348.389767
 10
484.90498
 20
348.389767
 10
485.381648
 20
348.389767
 10
485.848576
 20
348.389767
 10
486.30252
 20
348.389767
 10
486.740232
 20
348.389767
 10
487.158466
 20
348.389767
 10
487.553976
 20
348.389767
 10
487.923515
 20
348.389767
 10
488.263837
 20
348.389767
 10
488.572508
 20
348.389767
 10
488.850338
 20
348.389767
 10
489.098952
 20
348.389767
 10
489.319972
 20
348.389767
 10
489.515022
 20
348.389767
 10
489.685724
 20
348.389767
 10
489.833702
 20
348.389767
 10
489.960579
 20
348.389767
 10
490.067978
 20
348.389767
 10
490.157523
 20
348.389767
 10
490.230835
 20
348.389767
 10
490.289539
 20
348.389767
 10
490.335258
 20
348.389767
 10
490.369615
 20
348.389767
 10
490.394233
 20
348.389767
 10
490.410735
 20
348.389767
 10
490.420745
 20
348.389767
 10
490.425885
 20
348.389767
 10
490.427778
 20
348.389767
 10
490.428049
 20
348.389767
 10
490.428092
 20
348.389767
 10
490.428396
 20
348.389767
 10
490.429221
 20
348.389767
 10
490.430827
 20
348.389767
 10
490.433474
 20
348.389767
 10
490.437423
 20
348.389767
 10
490.442935
 20
348.389767
 10
490.450269
 20
348.389767
 10
490.459687
 20
348.389767
 10
490.471448
 20
348.389767
 10
490.485813
 20
348.389767
 10
490.503042
 20
348.389767
 10
490.523396
 20
348.389767
 10
490.547136
 20
348.389767
 10
490.57452
 20
348.389767
 10
490.605811
 20
348.389767
 10
490.641268
 20
348.389767
 10
490.681152
 20
348.389767
 10
490.725722
 20
348.389767
 10
490.775241
 20
348.389767
 10
490.829872
 20
348.389732
 10
490.889403
 20
348.389483
 10
490.953527
 20
348.388808
 10
491.021936
 20
348.387495
 10
491.094321
 20
348.385329
 10
491.170375
 20
348.382098
 10
491.249791
 20
348.377589
 10
491.33226
 20
348.371589
 10
491.417475
 20
348.363885
 10
491.505127
 20
348.354263
 10
491.59491
 20
348.342512
 10
491.686516
 20
348.328417
 10
491.779636
 20
348.311766
 10
491.873963
 20
348.292345
 10
491.969189
 20
348.269943
 10
492.065007
 20
348.244345
 10
492.161108
 20
348.215338
 10
492.257185
 20
348.18271
 10
492.35293
 20
348.146248
 10
492.448035
 20
348.105739
 10
492.542217
 20
348.061032
 10
492.635285
 20
348.01223
 10
492.727075
 20
347.9595
 10
492.817421
 20
347.903005
 10
492.906156
 20
347.842913
 10
492.993116
 20
347.779389
 10
493.078134
 20
347.712598
 10
493.161045
 20
347.642707
 10
493.241684
 20
347.56988
 10
493.319885
 20
347.494283
 10
493.395481
 20
347.416083
 10
493.468308
 20
347.335444
 10
493.5382
 20
347.252533
 10
493.60499
 20
347.167514
 10
493.668515
 20
347.080555
 10
493.728607
 20
346.991819
 10
493.785101
 20
346.901474
 10
493.837832
 20
346.809684
 10
493.886633
 20
346.716616
 10
493.93134
 20
346.622434
 10
493.97185
 20
346.527329
 10
494.008312
 20
346.431584
 10
494.040939
 20
346.335507
 10
494.069946
 20
346.239405
 10
494.095544
 20
346.143588
 10
494.117947
 20
346.048362
 10
494.137367
 20
345.954035
 10
494.154018
 20
345.860914
 10
494.168113
 20
345.769309
 10
494.179865
 20
345.679526
 10
494.189486
 20
345.591873
 10
494.19719
 20
345.506659
 10
494.203191
 20
345.424189
 10
494.2077
 20
345.344774
 10
494.21093
 20
345.26872
 10
494.213096
 20
345.196334
 10
494.21441
 20
345.127926
 10
494.215084
 20
345.063802
 10
494.215333
 20
345.004271
 10
494.215368
 20
344.949639
 10
494.215368
 20
344.900121
 10
494.215368
 20
344.85555
 10
494.215368
 20
344.815667
 10
494.215368
 20
344.78021
 10
494.215368
 20
344.748919
 10
494.215368
 20
344.721534
 10
494.215368
 20
344.697795
 10
494.215368
 20
344.677441
 10
494.215368
 20
344.660212
 10
494.215368
 20
344.645847
 10
494.215368
 20
344.634086
 10
494.215368
 20
344.624668
 10
494.215368
 20
344.617334
 10
494.215368
 20
344.611822
 10
494.215368
 20
344.607873
 10
494.215368
 20
344.605225
 10
494.215368
 20
344.60362
 10
494.215368
 20
344.602795
 10
494.215368
 20
344.602491
 10
494.215368
 20
344.602448
 10
494.215368
 20
344.60181
 10
494.215368
 20
344.597343
 10
494.215368
 20
344.585218
 10
494.215368
 20
344.561607
 10
494.215368
 20
344.522681
 10
494.215368
 20
344.464611
 10
494.215368
 20
344.383568
 10
494.215368
 20
344.275723
 10
494.215368
 20
344.137248
 10
494.215368
 20
343.964314
 10
494.215368
 20
343.753092
 10
494.215368
 20
343.499753
 10
494.215368
 20
343.200468
 10
494.215368
 20
342.851409
 10
494.215368
 20
342.448747
 10
494.215368
 20
341.988653
 10
494.215368
 20
341.467298
 10
494.215368
 20
340.880853
 10
494.215368
 20
340.22549
 10
494.215368
 20
339.497379
 10
494.215368
 20
338.694607
 10
494.215368
 20
337.822917
 10
494.215368
 20
336.889966
 10
494.215368
 20
335.903411
 10
494.215368
 20
334.870911
 10
494.215368
 20
333.800123
 10
494.215368
 20
332.698705
 10
494.215368
 20
331.574313
 10
494.215368
 20
330.434607
 10
494.215368
 20
329.287243
 10
494.215368
 20
328.139879
 10
494.215368
 20
327.000172
 10
494.215368
 20
325.875781
 10
494.215368
 20
324.774363
 10
494.215368
 20
323.703574
 10
494.215368
 20
322.671074
 10
494.215368
 20
321.68452
 10
494.215368
 20
320.751569
 10
494.215368
 20
319.879878
 10
494.215368
 20
319.077106
 10
494.215368
 20
318.348996
 10
494.215368
 20
317.693633
 10
494.215368
 20
317.107188
 10
494.215368
 20
316.585833
 10
494.215368
 20
316.125739
 10
494.215368
 20
315.723076
 10
494.215368
 20
315.374017
 10
494.215368
 20
315.074733
 10
494.215368
 20
314.821394
 10
494.215368
 20
314.610172
 10
494.215368
 20
314.437237
 10
494.215368
 20
314.298762
 10
494.215368
 20
314.190918
 10
494.215368
 20
314.109875
 10
494.215368
 20
314.051805
 10
494.215368
 20
314.012879
 10
494.215368
 20
313.989268
 10
494.215368
 20
313.977143
 10
494.215368
 20
313.972676
 10
494.215368
 20
313.972038
 10
494.215368
 20
313.971995
 10
494.215368
 20
313.971691
 10
494.215368
 20
313.970866
 10
494.215368
 20
313.969261
 10
494.215368
 20
313.966614
 10
494.215368
 20
313.962665
 10
494.215368
 20
313.957154
 10
494.215368
 20
313.94982
 10
494.215368
 20
313.940404
 10
494.215368
 20
313.928644
 10
494.215368
 20
313.914281
 10
494.215368
 20
313.897054
 10
494.215368
 20
313.876702
 10
494.215368
 20
313.852965
 10
494.215368
 20
313.825584
 10
494.215368
 20
313.794297
 10
494.215368
 20
313.758844
 10
494.215368
 20
313.718965
 10
494.215368
 20
313.6744
 10
494.215368
 20
313.624888
 10
494.215333
 20
313.570263
 10
494.215084
 20
313.510738
 10
494.21441
 20
313.446622
 10
494.213096
 20
313.378222
 10
494.21093
 20
313.305845
 10
494.2077
 20
313.229799
 10
494.203191
 20
313.150393
 10
494.19719
 20
313.067933
 10
494.189486
 20
312.982727
 10
494.179865
 20
312.895084
 10
494.168113
 20
312.80531
 10
494.154018
 20
312.713714
 10
494.137367
 20
312.620603
 10
494.117947
 20
312.526285
 10
494.095544
 20
312.431067
 10
494.069946
 20
312.335258
 10
494.040939
 20
312.239165
 10
494.008312
 20
312.143095
 10
493.97185
 20
312.047357
 10
493.93134
 20
311.952258
 10
493.886633
 20
311.858083
 10
493.837832
 20
311.765019
 10
493.785101
 20
311.673234
 10
493.728607
 20
311.582893
 10
493.668515
 20
311.494162
 10
493.60499
 20
311.407205
 10
493.5382
 20
311.32219
 10
493.468308
 20
311.239281
 10
493.395481
 20
311.158644
 10
493.319885
 20
311.080445
 10
493.241684
 20
311.00485
 10
493.161045
 20
310.932025
 10
493.078134
 20
310.862134
 10
492.993116
 20
310.795344
 10
492.906156
 20
310.73182
 10
492.817421
 20
310.671728
 10
492.727075
 20
310.615234
 10
492.635285
 20
310.562503
 10
492.542217
 20
310.513702
 10
492.448035
 20
310.468995
 10
492.35293
 20
310.428485
 10
492.257185
 20
310.392023
 10
492.161108
 20
310.359396
 10
492.065007
 20
310.330389
 10
491.969189
 20
310.304791
 10
491.873963
 20
310.282388
 10
491.779636
 20
310.262968
 10
491.686516
 20
310.246317
 10
491.59491
 20
310.232222
 10
491.505127
 20
310.22047
 10
491.417475
 20
310.210849
 10
491.33226
 20
310.203145
 10
491.249791
 20
310.197144
 10
491.170375
 20
310.192636
 10
491.094321
 20
310.189405
 10
491.021936
 20
310.187239
 10
490.953527
 20
310.185925
 10
490.889403
 20
310.185251
 10
490.829872
 20
310.185002
 10
490.775241
 20
310.184967
 10
490.725722
 20
310.184967
 10
490.681152
 20
310.184967
 10
490.641268
 20
310.184967
 10
490.605811
 20
310.184967
 10
490.57452
 20
310.184967
 10
490.547136
 20
310.184967
 10
490.523396
 20
310.184967
 10
490.503042
 20
310.184967
 10
490.485813
 20
310.184967
 10
490.471448
 20
310.184967
 10
490.459687
 20
310.184967
 10
490.450269
 20
310.184967
 10
490.442935
 20
310.184967
 10
490.437423
 20
310.184967
 10
490.433474
 20
310.184967
 10
490.430827
 20
310.184967
 10
490.429221
 20
310.184967
 10
490.428396
 20
310.184967
 10
490.428092
 20
310.184967
 10
490.428049
 20
310.184967
 10
490.42778
 20
310.184967
 10
490.425896
 20
310.184967
 10
490.420781
 20
310.184967
 10
490.410822
 20
310.184967
 10
490.394402
 20
310.184967
 10
490.369907
 20
310.184967
 10
490.335721
 20
310.184967
 10
490.29023
 20
310.184967
 10
490.231818
 20
310.184967
 10
490.158871
 20
310.184967
 10
490.069773
 20
310.184967
 10
489.96291
 20
310.184967
 10
489.836665
 20
310.184967
 10
489.689425
 20
310.184967
 10
489.519574
 20
310.184967
 10
489.325496
 20
310.184967
 10
489.105578
 20
310.184967
 10
488.858204
 20
310.184967
 10
488.581758
 20
310.184967
 10
488.274626
 20
310.184967
 10
487.936
 20
310.184967
 10
487.568303
 20
310.184967
 10
487.174765
 20
310.184967
 10
486.758616
 20
310.184967
 10
486.323087
 20
310.184967
 10
485.871406
 20
310.184967
 10
485.406805
 20
310.184967
 10
484.932514
 20
310.184967
 10
484.451762
 20
310.184967
 10
483.96778
 20
310.184967
 10
483.483798
 20
310.184967
 10
483.003047
 20
310.184967
 10
482.528755
 20
310.184967
 10
482.064154
 20
310.184967
 10
481.612474
 20
310.184967
 10
481.176944
 20
310.184967
 10
476.595453
 20
310.184967
  0
ENDSEC
  0
SECTION
  2
OBJECTS
  0
DICTIONARY
  5
C
330
0
100
AcDbDictionary
281
     1
  3
ACAD_GROUP
350
D
  3
ACAD_LAYOUT
350
1A
  3
ACAD_MLINESTYLE
350
17
  3
ACAD_PLOTSETTINGS
350
19
  3
ACAD_PLOTSTYLENAME
350
E
  0
DICTIONARY
  5
D
102
{ACAD_REACTORS
330
C
102
}
330
C
100
AcDbDictionary
281
     1
  0
DICTIONARY
  5
1A
102
{ACAD_REACTORS
330
C
102
}
330
C
100
AcDbDictionary
281
     1
  3
Layout1
350
1E
  3
Layout2
350
26
  3
Model
350
22
  0
DICTIONARY
  5
17
102
{ACAD_REACTORS
330
C
102
}
330
C
100
AcDbDictionary
281
     1
  3
Standard
350
18
  0
DICTIONARY
  5
19
102
{ACAD_REACTORS
330
C
102
}
330
C
100
AcDbDictionary
281
     1
  0
ACDBDICTIONARYWDFLT
  5
E
102
{ACAD_REACTORS
330
C
102
}
330
C
100
AcDbDictionary
281
     1
  3
Normal
350
F
100
AcDbDictionaryWithDefault
340
F
  0
LAYOUT
  5
1E
102
{ACAD_REACTORS
330
1A
102
}
330
1A
100
AcDbPlotSettings
  1

  2

  4

  6

 40
0.0
 41
0.0
 42
0.0
 43
0.0
 44
0.0
 45
0.0
 46
0.0
 47
0.0
 48
0.0
 49
0.0
140
0.0
141
0.0
142
1.0
143
1.0
 70
   688
 72
     0
 73
     0
 74
     5
  7

 75
    16
147
1.0
148
0.0
149
0.0
100
AcDbLayout
  1
Layout1
 70
     1
 71
     1
 10
0.0
 20
0.0
 11
420.0
 21
297.0
 12
0.0
 22
0.0
 32
0.0
 14
1.000000E+20
 24
1.000000E+20
 34
1.000000E+20
 15
-1.000000E+20
 25
-1.000000E+20
 35
-1.000000E+20
146
0.0
 13
0.0
 23
0.0
 33
0.0
 16
1.0
 26
0.0
 36
0.0
 17
0.0
 27
1.0
 37
0.0
 76
     0
330
1B
  0
LAYOUT
  5
26
102
{ACAD_REACTORS
330
1A
102
}
330
1A
100
AcDbPlotSettings
  1

  2

  4

  6

 40
0.0
 41
0.0
 42
0.0
 43
0.0
 44
0.0
 45
0.0
 46
0.0
 47
0.0
 48
0.0
 49
0.0
140
0.0
141
0.0
142
1.0
143
1.0
 70
   688
 72
     0
 73
     0
 74
     5
  7

 75
    16
147
1.0
148
0.0
149
0.0
100
AcDbLayout
  1
Layout2
 70
     1
 71
     2
 10
0.0
 20
0.0
 11
0.0
 21
0.0
 12
0.0
 22
0.0
 32
0.0
 14
0.0
 24
0.0
 34
0.0
 15
0.0
 25
0.0
 35
0.0
146
0.0
 13
0.0
 23
0.0
 33
0.0
 16
1.0
 26
0.0
 36
0.0
 17
0.0
 27
1.0
 37
0.0
 76
     0
330
23
  0
LAYOUT
  5
22
102
{ACAD_REACTORS
330
1A
102
}
330
1A
100
AcDbPlotSettings
  1

  2

  4

  6

 40
0.0
 41
0.0
 42
0.0
 43
0.0
 44
0.0
 45
0.0
 46
0.0
 47
0.0
 48
0.0
 49
0.0
140
0.0
141
0.0
142
1.0
143
1.0
 70
  1712
 72
     0
 73
     0
 74
     0
  7

 75
     0
147
1.0
148
0.0
149
0.0
100
AcDbLayout
  1
Model
 70
     1
 71
     0
 10
0.0
 20
0.0
 11
0.0
 21
0.0
 12
0.0
 22
0.0
 32
0.0
 14
0.0
 24
0.0
 34
0.0
 15
0.0
 25
0.0
 35
0.0
146
0.0
 13
0.0
 23
0.0
 33
0.0
 16
1.0
 26
0.0
 36
0.0
 17
0.0
 27
1.0
 37
0.0
 76
     0
330
1F
  0
MLINESTYLE
  5
18
102
{ACAD_REACTORS
330
17
102
}
330
17
100
AcDbMlineStyle
  2
Standard
 70
     0
  3

 62
   256
 51
90.0
 52
90.0
 71
     2
 49
1.0
 62
   256
  6
BYLAYER
 49
-1.0
 62
   256
  6
BYLAYER
  0
ACDBPLACEHOLDER
  5
F
102
{ACAD_REACTORS
330
E
102
}
330
E
  0
ENDSEC
  0
EOF
