999
"DXF R12 Output" (www.mydxf.blogspot.com)
 0 
SECTION
 2 
HEADER
 9 
$ACADVER
 1 
AC1009
 9 
$EXTMIN
 10 
 0 
 20 
 0 
 9 
$EXTMAX
 10 
 8.5 
 20 
 11 
 0 
ENDSEC
 0 
SECTION
 2 
ENTITIES
0
LINE
8
Layer 1
10
20.621358
20
73.068496
11
20.738759
21
72.828105
0
LINE
8
Layer 1
10
20.738759
20
72.828105
11
21.024475
21
72.271067
0
LINE
8
Layer 1
10
21.024475
20
72.271067
11
21.151202
21
71.686359
0
LINE
8
Layer 1
10
21.151202
20
71.686359
11
21.117396
21
71.093545
0
LINE
8
Layer 1
10
21.117396
20
71.093545
11
20.921513
21
70.512186
0
LINE
8
Layer 1
10
20.921513
20
70.512186
11
20.475545
21
69.879524
0
LINE
8
Layer 1
10
20.475545
20
69.879524
11
19.870640
21
69.439465
0
LINE
8
Layer 1
10
19.870640
20
69.439465
11
19.151027
21
69.214225
0
LINE
8
Layer 1
10
19.151027
20
69.214225
11
18.360938
21
69.226018
0
LINE
8
Layer 1
10
18.360938
20
69.226018
11
17.448355
21
69.646976
0
LINE
8
Layer 1
10
17.448355
20
69.646976
11
16.788298
21
70.417628
0
LINE
8
Layer 1
10
16.788298
20
70.417628
11
16.528332
21
71.128717
0
LINE
8
Layer 1
10
16.528332
20
71.128717
11
16.512156
21
71.786933
0
LINE
8
Layer 1
10
16.512156
20
71.786933
11
16.741530
21
72.536148
0
LINE
8
Layer 1
10
16.741530
20
72.536148
11
17.194959
21
73.161457
0
LINE
8
Layer 1
10
17.194959
20
73.161457
11
17.814784
21
73.605416
0
LINE
8
Layer 1
10
17.814784
20
73.605416
11
18.543342
21
73.810580
0
LINE
8
Layer 1
10
18.543342
20
73.810580
11
18.914078
21
73.842914
0
LINE
8
Layer 1
10
18.914078
20
73.842914
11
19.012173
21
74.060555
0
LINE
8
Layer 1
10
19.012173
20
74.060555
11
19.230016
21
74.792735
0
LINE
8
Layer 1
10
19.230016
20
74.792735
11
19.087576
21
75.128800
0
LINE
8
Layer 1
10
19.087576
20
75.128800
11
18.921076
21
75.222746
0
LINE
8
Layer 1
10
18.921076
20
75.222746
11
19.424366
21
75.283938
0
LINE
8
Layer 1
10
19.424366
20
75.283938
11
20.134769
21
75.236078
0
LINE
8
Layer 1
10
20.134769
20
75.236078
11
19.968534
21
75.125509
0
LINE
8
Layer 1
10
19.968534
20
75.125509
11
19.698782
21
74.910168
0
LINE
8
Layer 1
10
19.698782
20
74.910168
11
19.356045
21
74.035508
0
LINE
8
Layer 1
10
19.356045
20
74.035508
11
19.814060
21
73.797372
0
LINE
8
Layer 1
10
19.814060
20
73.797372
11
20.312672
21
73.595614
0
LINE
8
Layer 1
10
20.312672
20
73.595614
11
20.562251
21
73.949221
0
LINE
8
Layer 1
10
20.562251
20
73.949221
11
20.707810
21
74.878257
0
LINE
8
Layer 1
10
20.707810
20
74.878257
11
20.610481
21
75.045316
0
LINE
8
Layer 1
10
20.610481
20
75.045316
11
20.316338
21
75.167854
0
LINE
8
Layer 1
10
20.316338
20
75.167854
11
20.241626
21
75.208025
0
LINE
8
Layer 1
10
20.241626
20
75.208025
11
20.323301
21
75.229555
0
LINE
8
Layer 1
10
20.323301
20
75.229555
11
20.966467
21
75.217483
0
LINE
8
Layer 1
10
20.966467
20
75.217483
11
21.583999
21
75.162790
0
LINE
8
Layer 1
10
21.583999
20
75.162790
11
21.563626
21
75.088852
0
LINE
8
Layer 1
10
21.563626
20
75.088852
11
21.322277
21
74.789623
0
LINE
8
Layer 1
10
21.322277
20
74.789623
11
21.030012
21
74.266685
0
LINE
8
Layer 1
10
21.030012
20
74.266685
11
20.616738
21
73.294082
0
LINE
8
Layer 1
10
20.616738
20
73.294082
11
20.621358
21
73.068496
0
LINE
8
Layer 1
10
20.621358
20
73.068496
11
20.621358
21
73.068496
0
LINE
8
Layer 1
10
31.119250
20
83.353566
11
24.332193
21
83.349812
0
LINE
8
Layer 1
10
28.446600
20
82.594758
11
22.786233
21
82.612114
0
LINE
8
Layer 1
10
31.621160
20
83.173494
11
30.870680
21
82.987244
0
LINE
8
Layer 1
10
30.870680
20
82.987244
11
30.522999
21
82.648679
0
LINE
8
Layer 1
10
30.522999
20
82.648679
11
30.490552
21
82.455710
0
LINE
8
Layer 1
10
30.490552
20
82.455710
11
29.639847
21
82.469115
0
LINE
8
Layer 1
10
29.639847
20
82.469115
11
28.789139
21
82.482464
0
LINE
8
Layer 1
10
28.789139
20
82.482464
11
28.638971
21
82.310359
0
LINE
8
Layer 1
10
28.638971
20
82.310359
11
28.329757
21
82.081531
0
LINE
8
Layer 1
10
28.329757
20
82.081531
11
27.935580
21
82.002060
0
LINE
8
Layer 1
10
27.935580
20
82.002060
11
27.509409
21
82.019027
0
LINE
8
Layer 1
10
27.509409
20
82.019027
11
17.410228
21
82.150148
0
LINE
8
Layer 1
10
17.410228
20
82.150148
11
17.341511
21
82.644321
0
LINE
8
Layer 1
10
17.341511
20
82.644321
11
17.417959
21
82.714205
0
LINE
8
Layer 1
10
17.417959
20
82.714205
11
17.857613
21
83.188830
0
LINE
8
Layer 1
10
17.857613
20
83.188830
11
18.078601
21
84.247626
0
LINE
8
Layer 1
10
18.078601
20
84.247626
11
18.140728
21
84.539853
0
LINE
8
Layer 1
10
18.140728
20
84.539853
11
18.669445
21
84.673607
0
LINE
8
Layer 1
10
18.669445
20
84.673607
11
20.875280
21
84.734609
0
LINE
8
Layer 1
10
20.875280
20
84.734609
11
24.187038
21
84.717767
0
LINE
8
Layer 1
10
24.187038
20
84.717767
11
25.385541
21
84.820661
0
LINE
8
Layer 1
10
25.385541
20
84.820661
11
26.207990
21
85.036426
0
LINE
8
Layer 1
10
26.207990
20
85.036426
11
26.763422
21
85.174655
0
LINE
8
Layer 1
10
26.763422
20
85.174655
11
26.949872
21
85.196084
0
LINE
8
Layer 1
10
26.949872
20
85.196084
11
26.927556
21
85.160262
0
LINE
8
Layer 1
10
26.927556
20
85.160262
11
26.795633
21
84.997117
0
LINE
8
Layer 1
10
26.795633
20
84.997117
11
26.825946
21
84.798902
0
LINE
8
Layer 1
10
26.825946
20
84.798902
11
30.978684
21
84.751105
0
LINE
8
Layer 1
10
30.978684
20
84.751105
11
34.924450
21
84.734595
0
LINE
8
Layer 1
10
34.924450
20
84.734595
11
34.678617
21
84.464502
0
LINE
8
Layer 1
10
34.678617
20
84.464502
11
34.577992
21
84.220854
0
LINE
8
Layer 1
10
34.577992
20
84.220854
11
34.399466
21
84.064229
0
LINE
8
Layer 1
10
34.399466
20
84.064229
11
33.760164
21
84.003698
0
LINE
8
Layer 1
10
33.760164
20
84.003698
11
32.948948
21
83.978129
0
LINE
8
Layer 1
10
32.948948
20
83.978129
11
32.466426
21
83.808927
0
LINE
8
Layer 1
10
32.466426
20
83.808927
11
32.249928
21
83.615967
0
LINE
8
Layer 1
10
32.249928
20
83.615967
11
32.117752
21
83.177064
0
LINE
8
Layer 1
10
32.117752
20
83.177064
11
31.621160
21
83.173310
0
LINE
8
Layer 1
10
31.621160
20
83.173310
11
31.621160
21
83.173310
0
LINE
8
Layer 1
10
31.621160
20
83.173310
11
31.621160
21
83.173310
0
LINE
8
Layer 1
10
31.621160
20
83.173310
11
31.621160
21
83.173494
0
LINE
8
Layer 1
10
25.171161
20
84.009713
11
32.075447
21
83.965488
0
LINE
8
Layer 1
10
8.685772
20
77.646030
11
9.389487
21
77.215537
0
LINE
8
Layer 1
10
9.389487
20
77.215537
11
9.471562
21
78.049735
0
LINE
8
Layer 1
10
9.471562
20
78.049735
11
9.647332
21
80.474970
0
LINE
8
Layer 1
10
9.647332
20
80.474970
11
9.634121
21
80.731058
0
LINE
8
Layer 1
10
9.634121
20
80.731058
11
9.365822
21
80.603415
0
LINE
8
Layer 1
10
9.365822
20
80.603415
11
8.285533
21
79.867534
0
LINE
8
Layer 1
10
8.285533
20
79.867534
11
7.925818
21
79.237145
0
LINE
8
Layer 1
10
7.925818
20
79.237145
11
7.938549
21
78.592409
0
LINE
8
Layer 1
10
7.938549
20
78.592409
11
8.685771
21
77.646030
0
LINE
8
Layer 1
10
8.685771
20
77.646030
11
8.685772
21
77.646030
0
LINE
8
Layer 1
10
18.290442
20
70.301426
11
17.843792
21
70.617029
0
LINE
8
Layer 1
10
17.843792
20
70.617029
11
17.565186
21
71.048914
0
LINE
8
Layer 1
10
17.565186
20
71.048914
11
17.472826
21
71.506653
0
LINE
8
Layer 1
10
17.472826
20
71.506653
11
17.566795
21
71.977433
0
LINE
8
Layer 1
10
17.566795
20
71.977433
11
17.807757
21
72.394998
0
LINE
8
Layer 1
10
17.807757
20
72.394998
11
18.204806
21
72.682673
0
LINE
8
Layer 1
10
18.204806
20
72.682673
11
18.856239
21
72.819855
0
LINE
8
Layer 1
10
18.856239
20
72.819855
11
19.464726
21
72.683189
0
LINE
8
Layer 1
10
19.464726
20
72.683189
11
19.809102
21
72.409520
0
LINE
8
Layer 1
10
19.809102
20
72.409520
11
20.038882
21
72.028521
0
LINE
8
Layer 1
10
20.038882
20
72.028521
11
20.148203
21
71.543795
0
LINE
8
Layer 1
10
20.148203
20
71.543795
11
20.070003
21
71.075779
0
LINE
8
Layer 1
10
20.070003
20
71.075779
11
19.816386
21
70.656838
0
LINE
8
Layer 1
10
19.816386
20
70.656838
11
19.399455
21
70.319333
0
LINE
8
Layer 1
10
19.399455
20
70.319333
11
18.862779
21
70.159926
0
LINE
8
Layer 1
10
18.862779
20
70.159926
11
18.290432
21
70.301440
0
LINE
8
Layer 1
10
18.290432
20
70.301440
11
18.290430
21
70.301440
0
LINE
8
Layer 1
10
18.290430
20
70.301440
11
18.290442
21
70.301426
0
LINE
8
Layer 1
10
18.714956
20
70.443121
11
18.736913
21
71.059912
0
LINE
8
Layer 1
10
18.736913
20
71.059912
11
18.948203
21
71.096188
0
LINE
8
Layer 1
10
18.948203
20
71.096188
11
19.214342
21
70.964930
0
LINE
8
Layer 1
10
19.214342
20
70.964930
11
19.466664
21
70.823940
0
LINE
8
Layer 1
10
19.466664
20
70.823940
11
19.584079
21
70.751988
0
LINE
8
Layer 1
10
19.584079
20
70.751988
11
19.567360
21
70.619115
0
LINE
8
Layer 1
10
19.567360
20
70.619115
11
19.261733
21
70.445847
0
LINE
8
Layer 1
10
19.261733
20
70.445847
11
18.902145
21
70.354449
0
LINE
8
Layer 1
10
18.902145
20
70.354449
11
18.714955
21
70.443025
0
LINE
8
Layer 1
10
18.714955
20
70.443025
11
18.714956
21
70.443121
0
LINE
8
Layer 1
10
18.454932
20
71.558362
11
18.569939
21
71.818033
0
LINE
8
Layer 1
10
18.569939
20
71.818033
11
18.805249
21
71.890961
0
LINE
8
Layer 1
10
18.805249
20
71.890961
11
19.030424
21
71.788654
0
LINE
8
Layer 1
10
19.030424
20
71.788654
11
19.120171
21
71.551735
0
LINE
8
Layer 1
10
19.120171
20
71.551735
11
19.032240
21
71.340907
0
LINE
8
Layer 1
10
19.032240
20
71.340907
11
18.804379
21
71.230465
0
LINE
8
Layer 1
10
18.804379
20
71.230465
11
18.564866
21
71.304974
0
LINE
8
Layer 1
10
18.564866
20
71.304974
11
18.454932
21
71.558362
0
LINE
8
Layer 1
10
18.454932
20
71.558362
11
18.454932
21
71.558362
0
LINE
8
Layer 1
10
9.672020
20
80.870216
11
8.884063
21
80.450673
0
LINE
8
Layer 1
10
8.884063
20
80.450673
11
8.900531
21
80.759210
0
LINE
8
Layer 1
10
8.900531
20
80.759210
11
8.821305
21
81.633260
0
LINE
8
Layer 1
10
8.821305
20
81.633260
11
8.816310
21
82.737692
0
LINE
8
Layer 1
10
8.816310
20
82.737692
11
9.103707
21
84.899554
0
LINE
8
Layer 1
10
9.103707
20
84.899554
11
9.783950
21
86.551502
0
LINE
8
Layer 1
10
9.783950
20
86.551502
11
9.907237
21
86.558598
0
LINE
8
Layer 1
10
9.907237
20
86.558598
11
10.045356
21
86.074481
0
LINE
8
Layer 1
10
10.045356
20
86.074481
11
10.150401
21
84.711565
0
LINE
8
Layer 1
10
10.150401
20
84.711565
11
9.876767
21
81.680256
0
LINE
8
Layer 1
10
9.876767
20
81.680256
11
9.768121
21
81.087623
0
LINE
8
Layer 1
10
9.768121
20
81.087623
11
9.672021
21
80.870216
0
LINE
8
Layer 1
10
9.672021
20
80.870216
11
9.672020
21
80.870216
0
LINE
8
Layer 1
10
8.543706
20
77.629817
11
8.265377
21
76.886559
0
LINE
8
Layer 1
10
8.265377
20
76.886559
11
8.017893
21
75.035368
0
LINE
8
Layer 1
10
8.017893
20
75.035368
11
8.140255
21
73.173745
0
LINE
8
Layer 1
10
8.140255
20
73.173745
11
8.647042
21
71.306552
0
LINE
8
Layer 1
10
8.647042
20
71.306552
11
8.828393
21
71.578572
0
LINE
8
Layer 1
10
8.828393
20
71.578572
11
9.247800
21
73.032801
0
LINE
8
Layer 1
10
9.247800
20
73.032801
11
9.369125
21
75.288659
0
LINE
8
Layer 1
10
9.369125
20
75.288659
11
9.335113
21
77.117925
0
LINE
8
Layer 1
10
9.335113
20
77.117925
11
8.543706
21
77.629817
0
LINE
8
Layer 1
10
8.543706
20
77.629817
11
8.543706
21
77.629817
0
LINE
8
Layer 1
10
24.393695
20
75.350553
11
24.601201
21
75.543835
0
LINE
8
Layer 1
10
24.601201
20
75.543835
11
25.239830
21
75.583895
0
LINE
8
Layer 1
10
25.239830
20
75.583895
11
26.256442
21
75.454699
0
LINE
8
Layer 1
10
26.256442
20
75.454699
11
27.231972
21
75.301336
0
LINE
8
Layer 1
10
27.231972
20
75.301336
11
28.172534
21
75.375462
0
LINE
8
Layer 1
10
28.172534
20
75.375462
11
28.745157
21
75.522517
0
LINE
8
Layer 1
10
28.745157
20
75.522517
11
28.915594
21
75.570642
0
LINE
8
Layer 1
10
28.915594
20
75.570642
11
29.237773
21
75.772646
0
LINE
8
Layer 1
10
29.237773
20
75.772646
11
29.538978
21
76.178314
0
LINE
8
Layer 1
10
29.538978
20
76.178314
11
29.661753
21
76.910057
0
LINE
8
Layer 1
10
29.661753
20
76.910057
11
29.491237
21
77.741247
0
LINE
8
Layer 1
10
29.491237
20
77.741247
11
29.115264
21
78.323446
0
LINE
8
Layer 1
10
29.115264
20
78.323446
11
27.050428
21
79.905414
0
LINE
8
Layer 1
10
27.050428
20
79.905414
11
26.385844
21
80.409810
0
LINE
8
Layer 1
10
26.385844
20
80.409810
11
26.114535
21
80.790697
0
LINE
8
Layer 1
10
26.114535
20
80.790697
11
26.109135
21
81.049769
0
LINE
8
Layer 1
10
26.109135
20
81.049769
11
26.298849
21
81.253993
0
LINE
8
Layer 1
10
26.298849
20
81.253993
11
26.632203
21
81.341903
0
LINE
8
Layer 1
10
26.632203
20
81.341903
11
27.102634
21
81.282980
0
LINE
8
Layer 1
10
27.102634
20
81.282980
11
28.112825
21
80.808415
0
LINE
8
Layer 1
10
28.112825
20
80.808415
11
29.417696
21
80.176353
0
LINE
8
Layer 1
10
29.417696
20
80.176353
11
29.678561
21
80.324610
0
LINE
8
Layer 1
10
29.678561
20
80.324610
11
29.778700
21
81.254275
0
LINE
8
Layer 1
10
29.778700
20
81.254275
11
29.848364
21
82.270868
0
LINE
8
Layer 1
10
29.848364
20
82.270868
11
29.357289
21
82.282524
0
LINE
8
Layer 1
10
29.357289
20
82.282524
11
28.935861
21
82.302675
0
LINE
8
Layer 1
10
28.935861
20
82.302675
11
28.748764
21
82.133626
0
LINE
8
Layer 1
10
28.748764
20
82.133626
11
28.431239
21
81.936051
0
LINE
8
Layer 1
10
28.431239
20
81.936051
11
28.175621
21
81.868188
0
LINE
8
Layer 1
10
28.175621
20
81.868188
11
26.131249
21
81.879561
0
LINE
8
Layer 1
10
26.131249
20
81.879561
11
24.071079
21
81.930598
0
LINE
8
Layer 1
10
24.071079
20
81.930598
11
23.435379
21
81.793997
0
LINE
8
Layer 1
10
23.435379
20
81.793997
11
23.179186
21
81.358881
0
LINE
8
Layer 1
10
23.179186
20
81.358881
11
23.313584
21
80.515096
0
LINE
8
Layer 1
10
23.313584
20
80.515096
11
23.537217
21
80.199840
0
LINE
8
Layer 1
10
23.537217
20
80.199840
11
24.076155
21
79.588642
0
LINE
8
Layer 1
10
24.076155
20
79.588642
11
25.750879
21
78.344395
0
LINE
8
Layer 1
10
25.750879
20
78.344395
11
26.985826
21
77.477964
0
LINE
8
Layer 1
10
26.985826
20
77.477964
11
27.122468
21
77.261022
0
LINE
8
Layer 1
10
27.122468
20
77.261022
11
27.085772
21
77.044973
0
LINE
8
Layer 1
10
27.085772
20
77.044973
11
26.910026
21
76.805008
0
LINE
8
Layer 1
10
26.910026
20
76.805008
11
26.446003
21
76.749610
0
LINE
8
Layer 1
10
26.446003
20
76.749610
11
25.794033
21
76.869253
0
LINE
8
Layer 1
10
25.794033
20
76.869253
11
24.140409
21
77.599774
0
LINE
8
Layer 1
10
24.140409
20
77.599774
11
23.539622
21
77.719758
0
LINE
8
Layer 1
10
23.539622
20
77.719758
11
23.123121
21
77.728260
0
LINE
8
Layer 1
10
23.123121
20
77.728260
11
23.042699
21
77.633424
0
LINE
8
Layer 1
10
23.042699
20
77.633424
11
22.992610
21
76.604566
0
LINE
8
Layer 1
10
22.992610
20
76.604566
11
22.936766
21
75.490781
0
LINE
8
Layer 1
10
22.936766
20
75.490781
11
22.907918
21
75.293440
0
LINE
8
Layer 1
10
22.907918
20
75.293440
11
23.207516
21
75.276620
0
LINE
8
Layer 1
10
23.207516
20
75.276620
11
23.936742
21
75.250712
0
LINE
8
Layer 1
10
23.936742
20
75.250712
11
24.393695
21
75.350534
0
LINE
8
Layer 1
10
24.393695
20
75.350534
11
24.393695
21
75.350553
0
LINE
8
Layer 1
10
22.654986
20
75.417900
11
22.706642
21
76.228600
0
LINE
8
Layer 1
10
22.706642
20
76.228600
11
22.761265
21
77.323679
0
LINE
8
Layer 1
10
22.761265
20
77.323679
11
22.789016
21
77.737253
0
LINE
8
Layer 1
10
22.789016
20
77.737253
11
22.490107
21
77.723142
0
LINE
8
Layer 1
10
22.490107
20
77.723142
11
22.175070
21
77.594793
0
LINE
8
Layer 1
10
22.175070
20
77.594793
11
21.985527
21
77.180737
0
LINE
8
Layer 1
10
21.985527
20
77.180737
11
21.632053
21
76.821315
0
LINE
8
Layer 1
10
21.632053
20
76.821315
11
21.337010
21
76.675119
0
LINE
8
Layer 1
10
21.337010
20
76.675119
11
20.777407
21
76.629943
0
LINE
8
Layer 1
10
20.777407
20
76.629943
11
19.760671
21
76.578669
0
LINE
8
Layer 1
10
19.760671
20
76.578669
11
19.255452
21
76.650012
0
LINE
8
Layer 1
10
19.255452
20
76.650012
11
19.162500
21
76.972892
0
LINE
8
Layer 1
10
19.162500
20
76.972892
11
19.203871
21
77.677083
0
LINE
8
Layer 1
10
19.203871
20
77.677083
11
19.338931
21
78.126365
0
LINE
8
Layer 1
10
19.338931
20
78.126365
11
19.656177
21
78.249461
0
LINE
8
Layer 1
10
19.656177
20
78.249461
11
19.979091
21
78.179195
0
LINE
8
Layer 1
10
19.979091
20
78.179195
11
20.265395
21
77.931950
0
LINE
8
Layer 1
10
20.265395
20
77.931950
11
20.732972
21
77.624518
0
LINE
8
Layer 1
10
20.732972
20
77.624518
11
20.916622
21
77.653963
0
LINE
8
Layer 1
10
20.916622
20
77.653963
11
21.018884
21
77.813095
0
LINE
8
Layer 1
10
21.018884
20
77.813095
11
21.070748
21
78.014477
0
LINE
8
Layer 1
10
21.070748
20
78.014477
11
21.143394
21
80.669810
0
LINE
8
Layer 1
10
21.143394
20
80.669810
11
21.109539
21
80.904794
0
LINE
8
Layer 1
10
21.109539
20
80.904794
11
20.884421
21
80.919216
0
LINE
8
Layer 1
10
20.884421
20
80.919216
11
20.647351
21
80.889446
0
LINE
8
Layer 1
10
20.647351
20
80.889446
11
20.340556
21
80.601984
0
LINE
8
Layer 1
10
20.340556
20
80.601984
11
20.036480
21
80.317512
0
LINE
8
Layer 1
10
20.036480
20
80.317512
11
19.806179
21
80.270327
0
LINE
8
Layer 1
10
19.806179
20
80.270327
11
19.485895
21
80.338368
0
LINE
8
Layer 1
10
19.485895
20
80.338368
11
19.441871
21
80.833445
0
LINE
8
Layer 1
10
19.441871
20
80.833445
11
19.472688
21
81.493611
0
LINE
8
Layer 1
10
19.472688
20
81.493611
11
19.503506
21
81.647668
0
LINE
8
Layer 1
10
19.503506
20
81.647668
11
20.588868
21
81.616180
0
LINE
8
Layer 1
10
20.588868
20
81.616180
11
21.815222
21
81.547705
0
LINE
8
Layer 1
10
21.815222
20
81.547705
11
22.379186
21
80.850506
0
LINE
8
Layer 1
10
22.379186
20
80.850506
11
22.637670
21
80.610631
0
LINE
8
Layer 1
10
22.637670
20
80.610631
11
22.856490
21
80.699105
0
LINE
8
Layer 1
10
22.856490
20
80.699105
11
22.911524
21
81.296741
0
LINE
8
Layer 1
10
22.911524
20
81.296741
11
22.926894
21
81.903801
0
LINE
8
Layer 1
10
22.926894
20
81.903801
11
22.606043
21
81.932376
0
LINE
8
Layer 1
10
22.606043
20
81.932376
11
19.853094
21
81.991640
0
LINE
8
Layer 1
10
19.853094
20
81.991640
11
17.420997
21
82.022329
0
LINE
8
Layer 1
10
17.420997
20
82.022329
11
17.420997
21
81.827807
0
LINE
8
Layer 1
10
17.420997
20
81.827807
11
17.354632
21
81.633241
0
LINE
8
Layer 1
10
17.354632
20
81.633241
11
17.205432
21
81.057527
0
LINE
8
Layer 1
10
17.205432
20
81.057527
11
17.195817
21
80.865684
0
LINE
8
Layer 1
10
17.195817
20
80.865684
11
17.290884
21
80.834289
0
LINE
8
Layer 1
10
17.290884
20
80.834289
11
17.490486
21
80.741424
0
LINE
8
Layer 1
10
17.490486
20
80.741424
11
17.546152
21
80.048219
0
LINE
8
Layer 1
10
17.546152
20
80.048219
11
17.271077
21
77.369247
0
LINE
8
Layer 1
10
17.271077
20
77.369247
11
17.144495
21
77.320651
0
LINE
8
Layer 1
10
17.144495
20
77.320651
11
16.933374
21
76.252078
0
LINE
8
Layer 1
10
16.933374
20
76.252078
11
16.849032
21
75.504401
0
LINE
8
Layer 1
10
16.849032
20
75.504401
11
18.078955
21
75.420700
0
LINE
8
Layer 1
10
18.078955
20
75.420700
11
20.710790
21
75.364492
0
LINE
8
Layer 1
10
20.710790
20
75.364492
11
22.456935
21
75.298943
0
LINE
8
Layer 1
10
22.456935
20
75.298943
11
22.633267
21
75.332161
0
LINE
8
Layer 1
10
22.633267
20
75.332161
11
22.654986
21
75.417880
0
LINE
8
Layer 1
10
22.654986
20
75.417880
11
22.654986
21
75.417900
0
LINE
8
Layer 1
10
16.570451
20
75.535392
11
16.692547
21
76.261358
0
LINE
8
Layer 1
10
16.692547
20
76.261358
11
16.747048
21
77.243783
0
LINE
8
Layer 1
10
16.747048
20
77.243783
11
16.637712
21
77.685508
0
LINE
8
Layer 1
10
16.637712
20
77.685508
11
15.748270
21
77.759670
0
LINE
8
Layer 1
10
15.748270
20
77.759670
11
14.876185
21
77.816349
0
LINE
8
Layer 1
10
14.876185
20
77.816349
11
14.771158
21
77.636584
0
LINE
8
Layer 1
10
14.771158
20
77.636584
11
14.525194
21
77.404472
0
LINE
8
Layer 1
10
14.525194
20
77.404472
11
13.935211
21
77.397556
0
LINE
8
Layer 1
10
13.935211
20
77.397556
11
13.034695
21
77.707844
0
LINE
8
Layer 1
10
13.034695
20
77.707844
11
12.385818
21
78.404093
0
LINE
8
Layer 1
10
12.385818
20
78.404093
11
12.211311
21
78.757029
0
LINE
8
Layer 1
10
12.211311
20
78.757029
11
12.183104
21
79.189413
0
LINE
8
Layer 1
10
12.183104
20
79.189413
11
12.289085
21
79.855644
0
LINE
8
Layer 1
10
12.289085
20
79.855644
11
12.665977
21
80.404932
0
LINE
8
Layer 1
10
12.665977
20
80.404932
11
13.175249
21
80.832531
0
LINE
8
Layer 1
10
13.175249
20
80.832531
11
13.772464
21
81.110124
0
LINE
8
Layer 1
10
13.772464
20
81.110124
11
14.413186
21
81.209394
0
LINE
8
Layer 1
10
14.413186
20
81.209394
11
14.927493
21
81.159589
0
LINE
8
Layer 1
10
14.927493
20
81.159589
11
15.258925
21
80.975491
0
LINE
8
Layer 1
10
15.258925
20
80.975491
11
15.866810
21
80.834639
0
LINE
8
Layer 1
10
15.866810
20
80.834639
11
16.627626
21
80.864340
0
LINE
8
Layer 1
10
16.627626
20
80.864340
11
16.938685
21
80.893762
0
LINE
8
Layer 1
10
16.938685
20
80.893762
11
16.968606
21
81.204740
0
LINE
8
Layer 1
10
16.968606
20
81.204740
11
17.119344
21
81.727254
0
LINE
8
Layer 1
10
17.119344
20
81.727254
11
17.246744
21
81.862600
0
LINE
8
Layer 1
10
17.246744
20
81.862600
11
17.267270
21
82.234210
0
LINE
8
Layer 1
10
17.267270
20
82.234210
11
17.129373
21
82.654887
0
LINE
8
Layer 1
10
17.129373
20
82.654887
11
16.647278
21
82.810960
0
LINE
8
Layer 1
10
16.647278
20
82.810960
11
15.363363
21
82.715099
0
LINE
8
Layer 1
10
15.363363
20
82.715099
11
13.583513
21
82.256336
0
LINE
8
Layer 1
10
13.583513
20
82.256336
11
9.808479
21
80.774060
0
LINE
8
Layer 1
10
9.808479
20
80.774060
11
9.564323
21
77.451181
0
LINE
8
Layer 1
10
9.564323
20
77.451181
11
9.533981
21
77.157967
0
LINE
8
Layer 1
10
9.533981
20
77.157967
11
10.058454
21
76.908976
0
LINE
8
Layer 1
10
10.058454
20
76.908976
11
12.486307
21
76.059129
0
LINE
8
Layer 1
10
12.486307
20
76.059129
11
14.484228
21
75.637389
0
LINE
8
Layer 1
10
14.484228
20
75.637389
11
16.211986
21
75.435384
0
LINE
8
Layer 1
10
16.211986
20
75.435384
11
16.570451
21
75.535392
0
LINE
8
Layer 1
10
16.570451
20
75.535392
11
16.570451
21
75.535392
0
LINE
8
Layer 1
10
18.803737
20
82.214520
11
19.159888
21
82.338215
0
LINE
8
Layer 1
10
19.159888
20
82.338215
11
19.217367
21
82.629750
0
LINE
8
Layer 1
10
19.217367
20
82.629750
11
19.026622
21
82.846771
0
LINE
8
Layer 1
10
19.026622
20
82.846771
11
18.975671
21
82.882903
0
LINE
8
Layer 1
10
18.975671
20
82.882903
11
19.072296
21
82.901252
0
LINE
8
Layer 1
10
19.072296
20
82.901252
11
19.361844
21
82.928452
0
LINE
8
Layer 1
10
19.361844
20
82.928452
11
19.552824
21
83.100807
0
LINE
8
Layer 1
10
19.552824
20
83.100807
11
19.508691
21
83.314297
0
LINE
8
Layer 1
10
19.508691
20
83.314297
11
19.253553
21
83.574613
0
LINE
8
Layer 1
10
19.253553
20
83.574613
11
19.335773
21
83.604769
0
LINE
8
Layer 1
10
19.335773
20
83.604769
11
19.579549
21
83.654132
0
LINE
8
Layer 1
10
19.579549
20
83.654132
11
19.651548
21
83.898735
0
LINE
8
Layer 1
10
19.651548
20
83.898735
11
19.408608
21
84.198076
0
LINE
8
Layer 1
10
19.408608
20
84.198076
11
19.364252
21
84.226841
0
LINE
8
Layer 1
10
19.364252
20
84.226841
11
19.675455
21
84.225162
0
LINE
8
Layer 1
10
19.675455
20
84.225162
11
22.216682
21
84.218086
0
LINE
8
Layer 1
10
22.216682
20
84.218086
11
25.014554
21
84.303749
0
LINE
8
Layer 1
10
25.014554
20
84.303749
11
25.461188
21
84.436495
0
LINE
8
Layer 1
10
25.461188
20
84.436495
11
25.864780
21
84.678469
0
LINE
8
Layer 1
10
25.864780
20
84.678469
11
26.299442
21
84.825758
0
LINE
8
Layer 1
10
26.299442
20
84.825758
11
26.401361
21
84.822625
0
LINE
8
Layer 1
10
26.401361
20
84.822625
11
26.148811
21
84.728050
0
LINE
8
Layer 1
10
26.148811
20
84.728050
11
25.700896
21
84.441792
0
LINE
8
Layer 1
10
25.700896
20
84.441792
11
25.410208
21
84.244124
0
LINE
8
Layer 1
10
25.410208
20
84.244124
11
24.980931
21
84.056418
0
LINE
8
Layer 1
10
24.980931
20
84.056418
11
24.676532
21
83.830519
0
LINE
8
Layer 1
10
24.676532
20
83.830519
11
24.381943
21
83.655484
0
LINE
8
Layer 1
10
24.381943
20
83.655484
11
24.259707
21
83.408992
0
LINE
8
Layer 1
10
24.259707
20
83.408992
11
23.901835
21
83.336517
0
LINE
8
Layer 1
10
23.901835
20
83.336517
11
23.437955
21
83.327909
0
LINE
8
Layer 1
10
23.437955
20
83.327909
11
22.987947
21
83.034037
0
LINE
8
Layer 1
10
22.987947
20
83.034037
11
22.803433
21
82.833842
0
LINE
8
Layer 1
10
22.803433
20
82.833842
11
22.533765
21
82.675309
0
LINE
8
Layer 1
10
22.533765
20
82.675309
11
22.209954
21
82.547595
0
LINE
8
Layer 1
10
22.209954
20
82.547595
11
21.989654
21
82.386043
0
LINE
8
Layer 1
10
21.989654
20
82.386043
11
21.795036
21
82.190630
0
LINE
8
Layer 1
10
21.795036
20
82.190630
11
18.803737
21
82.214506
0
LINE
8
Layer 1
10
18.803737
20
82.214506
11
18.803737
21
82.214520
0
LINE
8
Layer 1
10
20.556372
20
82.273312
11
20.595536
21
82.370645
0
LINE
8
Layer 1
10
20.595536
20
82.370645
11
20.663793
21
82.529542
0
LINE
8
Layer 1
10
20.663793
20
82.529542
11
21.345250
21
82.620197
0
LINE
8
Layer 1
10
21.345250
20
82.620197
11
22.026708
21
82.594289
0
LINE
8
Layer 1
10
22.026708
20
82.594289
11
21.857093
21
82.497521
0
LINE
8
Layer 1
10
21.857093
20
82.497521
11
21.663624
21
82.335429
0
LINE
8
Layer 1
10
21.663624
20
82.335429
11
21.112617
21
82.258120
0
LINE
8
Layer 1
10
21.112617
20
82.258120
11
20.556372
21
82.273304
0
LINE
8
Layer 1
10
20.556372
20
82.273304
11
20.556372
21
82.273312
0
LINE
8
Layer 1
10
20.624961
20
82.291205
11
20.624961
21
82.291205
0
LINE
8
Layer 1
10
20.624961
20
82.291205
11
20.624961
21
82.291205
0
LINE
8
Layer 1
10
19.788898
20
82.358975
11
19.797609
21
82.545647
0
LINE
8
Layer 1
10
19.797609
20
82.545647
11
20.065038
21
82.610785
0
LINE
8
Layer 1
10
20.065038
20
82.610785
11
20.323629
21
82.580861
0
LINE
8
Layer 1
10
20.323629
20
82.580861
11
20.210459
21
82.406442
0
LINE
8
Layer 1
10
20.210459
20
82.406442
11
19.963423
21
82.294359
0
LINE
8
Layer 1
10
19.963423
20
82.294359
11
19.788898
21
82.358975
0
LINE
8
Layer 1
10
19.788898
20
82.358975
11
19.788898
21
82.358975
0
LINE
8
Layer 1
10
21.274755
20
82.887690
11
21.365468
21
82.983189
0
LINE
8
Layer 1
10
21.365468
20
82.983189
11
21.471211
21
83.170753
0
LINE
8
Layer 1
10
21.471211
20
83.170753
11
21.486242
21
83.301642
0
LINE
8
Layer 1
10
21.486242
20
83.301642
11
22.343939
21
83.314484
0
LINE
8
Layer 1
10
22.343939
20
83.314484
11
23.201635
21
83.302771
0
LINE
8
Layer 1
10
23.201635
20
83.302771
11
22.773482
21
83.086256
0
LINE
8
Layer 1
10
22.773482
20
83.086256
11
22.618779
21
82.870870
0
LINE
8
Layer 1
10
22.618779
20
82.870870
11
22.044428
21
82.863786
0
LINE
8
Layer 1
10
22.044428
20
82.863786
11
21.274756
21
82.887718
0
LINE
8
Layer 1
10
21.274756
20
82.887718
11
21.274755
21
82.887690
0
LINE
8
Layer 1
10
20.052832
20
82.948551
11
20.088079
21
83.068019
0
LINE
8
Layer 1
10
20.088079
20
83.068019
11
20.193823
21
83.210327
0
LINE
8
Layer 1
10
20.193823
20
83.210327
11
20.616796
21
83.278142
0
LINE
8
Layer 1
10
20.616796
20
83.278142
11
21.039770
21
83.252206
0
LINE
8
Layer 1
10
21.039770
20
83.252206
11
20.898779
21
83.177103
0
LINE
8
Layer 1
10
20.898779
20
83.177103
11
20.757787
21
83.083157
0
LINE
8
Layer 1
10
20.757787
20
83.083157
11
20.462669
21
82.931756
0
LINE
8
Layer 1
10
20.462669
20
82.931756
11
20.052832
21
82.948557
0
LINE
8
Layer 1
10
20.052832
20
82.948557
11
20.052832
21
82.948551
0
LINE
8
Layer 1
10
18.125953
20
83.022996
11
18.195206
21
83.119104
0
LINE
8
Layer 1
10
18.195206
20
83.119104
11
18.313526
21
83.654872
0
LINE
8
Layer 1
10
18.313526
20
83.654872
11
18.311154
21
83.803087
0
LINE
8
Layer 1
10
18.311154
20
83.803087
11
18.582482
21
83.842106
0
LINE
8
Layer 1
10
18.582482
20
83.842106
11
18.795746
21
83.829889
0
LINE
8
Layer 1
10
18.795746
20
83.829889
11
18.773780
21
83.759861
0
LINE
8
Layer 1
10
18.773780
20
83.759861
11
18.669805
21
83.422752
0
LINE
8
Layer 1
10
18.669805
20
83.422752
11
18.577545
21
83.068341
0
LINE
8
Layer 1
10
18.577545
20
83.068341
11
18.335786
21
82.996159
0
LINE
8
Layer 1
10
18.335786
20
82.996159
11
18.125953
21
83.022999
0
LINE
8
Layer 1
10
18.125953
20
83.022999
11
18.125953
21
83.022996
0
LINE
8
Layer 1
10
22.232789
20
83.581979
11
22.308690
21
83.782984
0
LINE
8
Layer 1
10
22.308690
20
83.782984
11
22.381850
21
83.972617
0
LINE
8
Layer 1
10
22.381850
20
83.972617
11
23.079427
21
84.077093
0
LINE
8
Layer 1
10
23.079427
20
84.077093
11
24.823092
21
84.061825
0
LINE
8
Layer 1
10
24.823092
20
84.061825
11
24.559800
21
83.959559
0
LINE
8
Layer 1
10
24.559800
20
83.959559
11
24.168994
21
83.653559
0
LINE
8
Layer 1
10
24.168994
20
83.653559
11
24.047310
21
83.466136
0
LINE
8
Layer 1
10
24.047310
20
83.466136
11
23.102099
21
83.466136
0
LINE
8
Layer 1
10
23.102099
20
83.466136
11
22.156888
21
83.466136
0
LINE
8
Layer 1
10
22.156888
20
83.466136
11
22.232789
21
83.581985
0
LINE
8
Layer 1
10
22.232789
20
83.581985
11
22.232789
21
83.581979
0
LINE
8
Layer 1
10
20.146826
20
83.645660
11
20.264318
21
83.786322
0
LINE
8
Layer 1
10
20.264318
20
83.786322
11
20.381811
21
83.959271
0
LINE
8
Layer 1
10
20.381811
20
83.959271
11
20.925051
21
84.030095
0
LINE
8
Layer 1
10
20.925051
20
84.030095
11
21.438771
21
83.982346
0
LINE
8
Layer 1
10
21.438771
20
83.982346
11
21.302128
21
83.924823
0
LINE
8
Layer 1
10
21.302128
20
83.924823
11
21.087511
21
83.749899
0
LINE
8
Layer 1
10
21.087511
20
83.749899
11
21.028366
21
83.607123
0
LINE
8
Layer 1
10
21.028366
20
83.607123
11
20.587596
21
83.607123
0
LINE
8
Layer 1
10
20.587596
20
83.607123
11
20.146826
21
83.645660
0
LINE
8
Layer 1
10
20.146826
20
83.645660
11
20.146826
21
83.645660
0
LINE
8
Layer 1
10
46.911644
20
73.859229
11
45.636766
21
74.173733
0
LINE
8
Layer 1
10
45.636766
20
74.173733
11
44.420801
21
74.743431
0
LINE
8
Layer 1
10
44.420801
20
74.743431
11
42.799404
21
75.760871
0
LINE
8
Layer 1
10
42.799404
20
75.760871
11
42.329433
21
76.113536
0
LINE
8
Layer 1
10
42.329433
20
76.113536
11
40.524086
21
77.708289
0
LINE
8
Layer 1
10
40.524086
20
77.708289
11
39.086635
21
79.160167
0
LINE
8
Layer 1
10
39.086635
20
79.160167
11
38.875149
21
79.436369
0
LINE
8
Layer 1
10
38.875149
20
79.436369
11
38.862421
21
78.460476
0
LINE
8
Layer 1
10
38.862421
20
78.460476
11
38.849692
21
77.484534
0
LINE
8
Layer 1
10
38.849692
20
77.484534
11
39.101291
21
77.220786
0
LINE
8
Layer 1
10
39.101291
20
77.220786
11
39.352889
21
76.956993
0
LINE
8
Layer 1
10
39.352889
20
76.956993
11
39.383603
21
76.489419
0
LINE
8
Layer 1
10
39.383603
20
76.489419
11
39.356228
21
75.984952
0
LINE
8
Layer 1
10
39.356228
20
75.984952
11
38.181946
21
75.947310
0
LINE
8
Layer 1
10
38.181946
20
75.947310
11
37.065766
21
75.946745
0
LINE
8
Layer 1
10
37.065766
20
75.946745
11
37.065766
21
76.559210
0
LINE
8
Layer 1
10
37.065766
20
76.559210
11
37.111121
21
77.246790
0
LINE
8
Layer 1
10
37.111121
20
77.246790
11
37.267828
21
77.528101
0
LINE
8
Layer 1
10
37.267828
20
77.528101
11
37.404688
21
77.888834
0
LINE
8
Layer 1
10
37.404688
20
77.888834
11
37.441480
21
78.967245
0
LINE
8
Layer 1
10
37.441480
20
78.967245
11
37.328399
21
80.169899
0
LINE
8
Layer 1
10
37.328399
20
80.169899
11
37.134560
21
80.429935
0
LINE
8
Layer 1
10
37.134560
20
80.429935
11
37.029540
21
81.240305
0
LINE
8
Layer 1
10
37.029540
20
81.240305
11
37.005014
21
81.970169
0
LINE
8
Layer 1
10
37.005014
20
81.970169
11
37.211632
21
81.944458
0
LINE
8
Layer 1
10
37.211632
20
81.944458
11
38.640173
21
81.824381
0
LINE
8
Layer 1
10
38.640173
20
81.824381
11
39.345128
21
81.784009
0
LINE
8
Layer 1
10
39.345128
20
81.784009
11
40.896029
21
80.254399
0
LINE
8
Layer 1
10
40.896029
20
80.254399
11
42.446933
21
78.724831
0
LINE
8
Layer 1
10
42.446933
20
78.724831
11
42.471515
21
79.321412
0
LINE
8
Layer 1
10
42.471515
20
79.321412
11
42.496097
21
79.917993
0
LINE
8
Layer 1
10
42.496097
20
79.917993
11
42.295287
21
80.184653
0
LINE
8
Layer 1
10
42.295287
20
80.184653
11
42.094477
21
80.451317
0
LINE
8
Layer 1
10
42.094477
20
80.451317
11
42.094477
21
81.018851
0
LINE
8
Layer 1
10
42.094477
20
81.018851
11
42.094477
21
81.586389
0
LINE
8
Layer 1
10
42.094477
20
81.586389
11
43.051024
21
81.586389
0
LINE
8
Layer 1
10
43.051024
20
81.586389
11
44.296446
21
81.556217
0
LINE
8
Layer 1
10
44.296446
20
81.556217
11
44.585320
21
81.525996
0
LINE
8
Layer 1
10
44.585320
20
81.525996
11
44.585320
21
80.928758
0
LINE
8
Layer 1
10
44.585320
20
80.928758
11
44.541951
21
80.242120
0
LINE
8
Layer 1
10
44.541951
20
80.242120
11
44.349952
21
79.964991
0
LINE
8
Layer 1
10
44.349952
20
79.964991
11
44.209614
21
79.870997
0
LINE
8
Layer 1
10
44.209614
20
79.870997
11
44.209473
21
78.434060
0
LINE
8
Layer 1
10
44.209473
20
78.434060
11
44.323601
21
76.661191
0
LINE
8
Layer 1
10
44.323601
20
76.661191
11
44.656188
21
76.067771
0
LINE
8
Layer 1
10
44.656188
20
76.067771
11
45.471596
21
75.587214
0
LINE
8
Layer 1
10
45.471596
20
75.587214
11
46.687359
21
75.099051
0
LINE
8
Layer 1
10
46.687359
20
75.099051
11
47.693930
21
74.959805
0
LINE
8
Layer 1
10
47.693930
20
74.959805
11
48.471384
21
75.079225
0
LINE
8
Layer 1
10
48.471384
20
75.079225
11
48.820675
21
75.277909
0
LINE
8
Layer 1
10
48.820675
20
75.277909
11
49.002185
21
75.556291
0
LINE
8
Layer 1
10
49.002185
20
75.556291
11
49.193038
21
75.790683
0
LINE
8
Layer 1
10
49.193038
20
75.790683
11
49.549654
21
75.852748
0
LINE
8
Layer 1
10
49.549654
20
75.852748
11
49.852037
21
75.797285
0
LINE
8
Layer 1
10
49.852037
20
75.797285
11
50.013551
21
75.586838
0
LINE
8
Layer 1
10
50.013551
20
75.586838
11
50.066326
21
75.038189
0
LINE
8
Layer 1
10
50.066326
20
75.038189
11
49.812228
21
74.565922
0
LINE
8
Layer 1
10
49.812228
20
74.565922
11
48.626070
21
73.977520
0
LINE
8
Layer 1
10
48.626070
20
73.977520
11
46.911669
21
73.859367
0
LINE
8
Layer 1
10
46.911669
20
73.859367
11
46.911675
21
73.859367
0
LINE
8
Layer 1
10
46.911675
20
73.859367
11
46.911644
21
73.859229
0
LINE
8
Layer 1
10
30.027200
20
76.710306
11
30.039702
21
77.990974
0
LINE
8
Layer 1
10
30.039702
20
77.990974
11
30.447903
21
77.984031
0
LINE
8
Layer 1
10
30.447903
20
77.984031
11
31.062406
21
77.904172
0
LINE
8
Layer 1
10
31.062406
20
77.904172
11
31.631176
21
77.654065
0
LINE
8
Layer 1
10
31.631176
20
77.654065
11
32.796932
21
77.210742
0
LINE
8
Layer 1
10
32.796932
20
77.210742
11
34.019067
21
77.239221
0
LINE
8
Layer 1
10
34.019067
20
77.239221
11
34.103900
21
77.571163
0
LINE
8
Layer 1
10
34.103900
20
77.571163
11
33.713546
21
77.938273
0
LINE
8
Layer 1
10
33.713546
20
77.938273
11
32.300393
21
78.693639
0
LINE
8
Layer 1
10
32.300393
20
78.693639
11
30.992617
21
79.402542
0
LINE
8
Layer 1
10
30.992617
20
79.402542
11
30.816654
21
79.518391
0
LINE
8
Layer 1
10
30.816654
20
79.518391
11
30.173631
21
80.210093
0
LINE
8
Layer 1
10
30.173631
20
80.210093
11
30.109293
21
80.787616
0
LINE
8
Layer 1
10
30.109293
20
80.787616
11
30.209693
21
81.414908
0
LINE
8
Layer 1
10
30.209693
20
81.414908
11
30.567376
21
81.944601
0
LINE
8
Layer 1
10
30.567376
20
81.944601
11
31.061375
21
82.261044
0
LINE
8
Layer 1
10
31.061375
20
82.261044
11
32.105861
21
82.429493
0
LINE
8
Layer 1
10
32.105861
20
82.429493
11
33.548430
21
82.148251
0
LINE
8
Layer 1
10
33.548430
20
82.148251
11
34.827932
21
81.890307
0
LINE
8
Layer 1
10
34.827932
20
81.890307
11
35.366940
21
82.043072
0
LINE
8
Layer 1
10
35.366940
20
82.043072
11
35.930905
21
82.129593
0
LINE
8
Layer 1
10
35.930905
20
82.129593
11
36.592414
21
82.041009
0
LINE
8
Layer 1
10
36.592414
20
82.041009
11
36.808946
21
81.899591
0
LINE
8
Layer 1
10
36.808946
20
81.899591
11
36.820602
21
80.886334
0
LINE
8
Layer 1
10
36.820602
20
80.886334
11
36.807281
21
79.974920
0
LINE
8
Layer 1
10
36.807281
20
79.974920
11
36.679169
21
79.879328
0
LINE
8
Layer 1
10
36.679169
20
79.879328
11
36.296409
21
79.789610
0
LINE
8
Layer 1
10
36.296409
20
79.789610
11
35.788989
21
79.912930
0
LINE
8
Layer 1
10
35.788989
20
79.912930
11
35.236063
21
80.353433
0
LINE
8
Layer 1
10
35.236063
20
80.353433
11
34.363096
21
81.021984
0
LINE
8
Layer 1
10
34.363096
20
81.021984
11
33.527608
21
81.229883
0
LINE
8
Layer 1
10
33.527608
20
81.229883
11
33.205225
21
81.079868
0
LINE
8
Layer 1
10
33.205225
20
81.079868
11
33.084612
21
80.746236
0
LINE
8
Layer 1
10
33.084612
20
80.746236
11
33.135687
21
80.545094
0
LINE
8
Layer 1
10
33.135687
20
80.545094
11
33.360181
21
80.330175
0
LINE
8
Layer 1
10
33.360181
20
80.330175
11
35.080081
21
79.323963
0
LINE
8
Layer 1
10
35.080081
20
79.323963
11
36.314583
21
78.470122
0
LINE
8
Layer 1
10
36.314583
20
78.470122
11
36.616456
21
77.982978
0
LINE
8
Layer 1
10
36.616456
20
77.982978
11
36.790057
21
77.414521
0
LINE
8
Layer 1
10
36.790057
20
77.414521
11
36.779733
21
76.944449
0
LINE
8
Layer 1
10
36.779733
20
76.944449
11
36.608633
21
76.463834
0
LINE
8
Layer 1
10
36.608633
20
76.463834
11
36.311873
21
76.040524
0
LINE
8
Layer 1
10
36.311873
20
76.040524
11
35.924572
21
75.742365
0
LINE
8
Layer 1
10
35.924572
20
75.742365
11
34.684739
21
75.523923
0
LINE
8
Layer 1
10
34.684739
20
75.523923
11
32.432859
21
75.762903
0
LINE
8
Layer 1
10
32.432859
20
75.762903
11
31.919212
21
75.841051
0
LINE
8
Layer 1
10
31.919212
20
75.841051
11
31.621521
21
75.739817
0
LINE
8
Layer 1
10
31.621521
20
75.739817
11
31.094404
21
75.496976
0
LINE
8
Layer 1
10
31.094404
20
75.496976
11
30.473675
21
75.429635
0
LINE
8
Layer 1
10
30.473675
20
75.429635
11
30.014697
21
75.429635
0
LINE
8
Layer 1
10
30.014697
20
75.429635
11
30.027200
21
76.710306
0
LINE
8
Layer 1
10
30.027200
20
76.710306
11
30.027200
21
76.710306
0
LINE
8
Layer 1
10
57.333741
20
77.806087
11
56.615951
21
76.992946
0
LINE
8
Layer 1
10
56.615951
20
76.992946
11
56.112181
21
76.711152
0
LINE
8
Layer 1
10
56.112181
20
76.711152
11
55.023489
21
76.561278
0
LINE
8
Layer 1
10
55.023489
20
76.561278
11
52.839462
21
76.334687
0
LINE
8
Layer 1
10
52.839462
20
76.334687
11
51.376363
21
76.408303
0
LINE
8
Layer 1
10
51.376363
20
76.408303
11
50.859396
21
76.487915
0
LINE
8
Layer 1
10
50.859396
20
76.487915
11
50.755590
21
76.698980
0
LINE
8
Layer 1
10
50.755590
20
76.698980
11
50.704307
21
77.300119
0
LINE
8
Layer 1
10
50.704307
20
77.300119
11
50.866020
21
77.356516
0
LINE
8
Layer 1
10
50.866020
20
77.356516
11
50.997999
21
77.413992
0
LINE
8
Layer 1
10
50.997999
20
77.413992
11
51.053704
21
77.722010
0
LINE
8
Layer 1
10
51.053704
20
77.722010
11
51.082916
21
77.962543
0
LINE
8
Layer 1
10
51.082916
20
77.962543
11
47.546105
21
78.074675
0
LINE
8
Layer 1
10
47.546105
20
78.074675
11
47.546105
21
77.900505
0
LINE
8
Layer 1
10
47.546105
20
77.900505
11
47.697839
21
77.365304
0
LINE
8
Layer 1
10
47.697839
20
77.365304
11
47.870283
21
76.538337
0
LINE
8
Layer 1
10
47.870283
20
76.538337
11
47.800346
21
76.220982
0
LINE
8
Layer 1
10
47.800346
20
76.220982
11
47.631446
21
76.068185
0
LINE
8
Layer 1
10
47.631446
20
76.068185
11
46.521206
21
76.050377
0
LINE
8
Layer 1
10
46.521206
20
76.050377
11
45.468647
21
76.127077
0
LINE
8
Layer 1
10
45.468647
20
76.127077
11
44.678077
21
76.211085
0
LINE
8
Layer 1
10
44.678077
20
76.211085
11
44.438816
21
76.601749
0
LINE
8
Layer 1
10
44.438816
20
76.601749
11
44.333511
21
77.290150
0
LINE
8
Layer 1
10
44.333511
20
77.290150
11
44.462966
21
77.479062
0
LINE
8
Layer 1
10
44.462966
20
77.479062
11
44.715819
21
77.571439
0
LINE
8
Layer 1
10
44.715819
20
77.571439
11
45.082769
21
77.684859
0
LINE
8
Layer 1
10
45.082769
20
77.684859
11
45.437820
21
77.993378
0
LINE
8
Layer 1
10
45.437820
20
77.993378
11
46.026564
21
78.879601
0
LINE
8
Layer 1
10
46.026564
20
78.879601
11
46.022839
21
79.824148
0
LINE
8
Layer 1
10
46.022839
20
79.824148
11
45.948196
21
80.002642
0
LINE
8
Layer 1
10
45.948196
20
80.002642
11
45.622760
21
80.176345
0
LINE
8
Layer 1
10
45.622760
20
80.176345
11
45.489568
21
80.235089
0
LINE
8
Layer 1
10
45.489568
20
80.235089
11
45.410727
21
81.280209
0
LINE
8
Layer 1
10
45.410727
20
81.280209
11
45.444373
21
81.459550
0
LINE
8
Layer 1
10
45.444373
20
81.459550
11
46.436489
21
81.428438
0
LINE
8
Layer 1
10
46.436489
20
81.428438
11
47.781080
21
81.352068
0
LINE
8
Layer 1
10
47.781080
20
81.352068
11
48.486037
21
81.279269
0
LINE
8
Layer 1
10
48.486037
20
81.279269
11
50.579579
21
80.784627
0
LINE
8
Layer 1
10
50.579579
20
80.784627
11
51.539445
21
80.492304
0
LINE
8
Layer 1
10
61.814685
20
77.614862
11
60.367975
21
78.088940
0
LINE
8
Layer 1
10
60.367975
20
78.088940
11
58.167428
21
78.602318
0
LINE
8
Layer 1
10
58.167428
20
78.602318
11
57.227487
21
78.790681
0
LINE
8
Layer 1
10
57.227487
20
78.790681
11
53.279734
21
79.373727
0
LINE
8
Layer 1
10
53.279734
20
79.373727
11
50.896822
21
79.453611
0
LINE
8
Layer 1
10
50.896822
20
79.453611
11
48.862014
21
79.329269
0
LINE
8
Layer 1
10
48.862014
20
79.329269
11
47.615596
21
78.882232
0
LINE
8
Layer 1
10
47.615596
20
78.882232
11
47.279755
21
78.229491
0
LINE
8
Layer 1
10
47.279755
20
78.229491
11
47.697362
21
78.154062
0
LINE
8
Layer 1
10
47.697362
20
78.154062
11
49.331984
21
78.108285
0
LINE
8
Layer 1
10
49.331984
20
78.108285
11
52.997752
21
77.991826
0
LINE
8
Layer 1
10
52.997752
20
77.991826
11
56.264048
21
77.872172
0
LINE
8
Layer 1
10
56.264048
20
77.872172
11
58.378914
21
77.753269
0
LINE
8
Layer 1
10
58.378914
20
77.753269
11
60.376288
21
77.619375
0
LINE
8
Layer 1
10
60.376288
20
77.619375
11
61.504218
21
77.552169
0
LINE
8
Layer 1
10
61.504218
20
77.552169
11
61.814685
21
77.614862
0
LINE
8
Layer 1
10
61.814685
20
77.614862
11
61.814685
21
77.614862
0
LINE
8
Layer 1
10
56.355274
20
77.993565
11
56.290755
21
78.049745
0
LINE
8
Layer 1
10
56.290755
20
78.049745
11
56.366704
21
78.017074
0
LINE
8
Layer 1
10
56.366704
20
78.017074
11
56.582142
21
77.971015
0
LINE
8
Layer 1
10
56.582142
20
77.971015
11
56.690551
21
78.082304
0
LINE
8
Layer 1
10
56.690551
20
78.082304
11
56.681258
21
78.248403
0
LINE
8
Layer 1
10
56.681258
20
78.248403
11
56.500350
21
78.363394
0
LINE
8
Layer 1
10
56.500350
20
78.363394
11
56.322094
21
78.515217
0
LINE
8
Layer 1
10
56.322094
20
78.515217
11
56.333593
21
78.717656
0
LINE
8
Layer 1
10
56.333593
20
78.717656
11
56.581625
21
78.808925
0
LINE
8
Layer 1
10
56.581625
20
78.808925
11
56.754536
21
78.627800
0
LINE
8
Layer 1
10
56.754536
20
78.627800
11
56.709053
21
78.660696
0
LINE
8
Layer 1
10
56.709053
20
78.660696
11
56.529648
21
78.770711
0
LINE
8
Layer 1
10
56.529648
20
78.770711
11
56.360142
21
78.679068
0
LINE
8
Layer 1
10
56.360142
20
78.679068
11
56.373888
21
78.503293
0
LINE
8
Layer 1
10
56.373888
20
78.503293
11
56.550207
21
78.389096
0
LINE
8
Layer 1
10
56.550207
20
78.389096
11
56.731027
21
78.241037
0
LINE
8
Layer 1
10
56.731027
20
78.241037
11
56.712860
21
78.018852
0
LINE
8
Layer 1
10
56.712860
20
78.018852
11
56.558918
21
77.923835
0
LINE
8
Layer 1
10
56.558918
20
77.923835
11
56.355274
21
77.993565
0
LINE
8
Layer 1
10
56.355274
20
77.993565
11
56.355274
21
77.993565
0
LINE
8
Layer 1
10
54.698369
20
78.449201
11
54.512266
21
78.930921
0
LINE
8
Layer 1
10
54.512266
20
78.930921
11
54.480999
21
78.554944
0
LINE
8
Layer 1
10
54.480999
20
78.554944
11
54.435101
21
78.084974
0
LINE
8
Layer 1
10
54.435101
20
78.084974
11
54.420274
21
78.267993
0
LINE
8
Layer 1
10
54.420274
20
78.267993
11
54.449156
21
78.813429
0
LINE
8
Layer 1
10
54.449156
20
78.813429
11
54.479647
21
79.118909
0
LINE
8
Layer 1
10
54.479647
20
79.118909
11
54.666899
21
78.636625
0
LINE
8
Layer 1
10
54.666899
20
78.636625
11
54.854148
21
78.154296
0
LINE
8
Layer 1
10
54.854148
20
78.154296
11
54.880281
21
78.613127
0
LINE
8
Layer 1
10
54.880281
20
78.613127
11
54.906415
21
79.071913
0
LINE
8
Layer 1
10
54.906415
20
79.071913
11
54.915503
21
78.519697
0
LINE
8
Layer 1
10
54.915503
20
78.519697
11
54.904524
21
78.041079
0
LINE
8
Layer 1
10
54.904524
20
78.041079
11
54.698338
21
78.449201
0
LINE
8
Layer 1
10
54.698338
20
78.449201
11
54.698369
21
78.449201
0
LINE
8
Layer 1
10
55.132772
20
78.030222
11
55.020049
21
78.131972
0
LINE
8
Layer 1
10
55.020049
20
78.131972
11
55.076192
21
78.114502
0
LINE
8
Layer 1
10
55.076192
20
78.114502
11
55.315084
21
78.029333
0
LINE
8
Layer 1
10
55.315084
20
78.029333
11
55.468805
21
78.177009
0
LINE
8
Layer 1
10
55.468805
20
78.177009
11
55.452596
21
78.350434
0
LINE
8
Layer 1
10
55.452596
20
78.350434
11
55.229215
21
78.484840
0
LINE
8
Layer 1
10
55.229215
20
78.484840
11
54.976766
21
78.749533
0
LINE
8
Layer 1
10
54.976766
20
78.749533
11
55.156916
21
79.000302
0
LINE
8
Layer 1
10
55.156916
20
79.000302
11
55.376853
21
79.010044
0
LINE
8
Layer 1
10
55.376853
20
79.010044
11
55.541065
21
78.847609
0
LINE
8
Layer 1
10
55.541065
20
78.847609
11
55.473888
21
78.872190
0
LINE
8
Layer 1
10
55.473888
20
78.872190
11
55.293100
21
78.994647
0
LINE
8
Layer 1
10
55.293100
20
78.994647
11
55.110741
21
78.915379
0
LINE
8
Layer 1
10
55.110741
20
78.915379
11
55.031024
21
78.706502
0
LINE
8
Layer 1
10
55.031024
20
78.706502
11
55.215028
21
78.535550
0
LINE
8
Layer 1
10
55.215028
20
78.535550
11
55.511655
21
78.323775
0
LINE
8
Layer 1
10
55.511655
20
78.323775
11
55.441599
21
78.061490
0
LINE
8
Layer 1
10
55.441599
20
78.061490
11
55.132772
21
78.030237
0
LINE
8
Layer 1
10
55.132772
20
78.030237
11
55.132772
21
78.030222
0
LINE
8
Layer 1
10
55.599793
20
78.006996
11
55.933244
21
78.944727
0
LINE
8
Layer 1
10
55.933244
20
78.944727
11
56.001776
21
78.782918
0
LINE
8
Layer 1
10
56.001776
20
78.782918
11
56.142791
21
78.283808
0
LINE
8
Layer 1
10
56.142791
20
78.283808
11
56.192468
21
77.969491
0
LINE
8
Layer 1
10
56.192468
20
77.969491
11
56.126253
21
78.178440
0
LINE
8
Layer 1
10
56.126253
20
78.178440
11
56.072641
21
78.319314
0
LINE
8
Layer 1
10
56.072641
20
78.319314
11
55.909441
21
78.343447
0
LINE
8
Layer 1
10
55.909441
20
78.343447
11
55.721462
21
78.284702
0
LINE
8
Layer 1
10
55.721462
20
78.284702
11
55.599793
21
78.006996
0
LINE
8
Layer 1
10
55.599793
20
78.006996
11
55.599793
21
78.006996
0
LINE
8
Layer 1
10
56.051848
20
78.425692
11
55.990098
21
78.665047
0
LINE
8
Layer 1
10
55.990098
20
78.665047
11
55.929059
21
78.869108
0
LINE
8
Layer 1
10
55.929059
20
78.869108
11
55.870263
21
78.688545
0
LINE
8
Layer 1
10
55.870263
20
78.688545
11
55.787107
21
78.449190
0
LINE
8
Layer 1
10
55.787107
20
78.449190
11
55.907655
21
78.390445
0
LINE
8
Layer 1
10
55.907655
20
78.390445
11
56.051848
21
78.425692
0
LINE
8
Layer 1
10
56.051848
20
78.425692
11
56.051848
21
78.425692
0
LINE
8
Layer 1
10
53.702709
20
78.030352
11
54.047652
21
79.174027
0
LINE
8
Layer 1
10
54.047652
20
79.174027
11
54.207712
21
78.627780
0
LINE
8
Layer 1
10
54.207712
20
78.627780
11
54.315377
21
78.052535
0
LINE
8
Layer 1
10
54.315377
20
78.052535
11
54.244946
21
78.285969
0
LINE
8
Layer 1
10
54.244946
20
78.285969
11
54.194811
21
78.437007
0
LINE
8
Layer 1
10
54.194811
20
78.437007
11
54.033812
21
78.445713
0
LINE
8
Layer 1
10
54.033812
20
78.445713
11
53.871547
21
78.400547
0
LINE
8
Layer 1
10
53.871547
20
78.400547
11
53.800468
21
78.221442
0
LINE
8
Layer 1
10
53.800468
20
78.221442
11
53.755646
21
78.084728
0
LINE
8
Layer 1
10
53.755646
20
78.084728
11
53.702709
21
78.030352
0
LINE
8
Layer 1
10
53.702709
20
78.030352
11
53.702709
21
78.030352
0
LINE
8
Layer 1
10
54.171771
20
78.543184
11
54.111570
21
78.830571
0
LINE
8
Layer 1
10
54.111570
20
78.830571
11
54.052272
21
79.059258
0
LINE
8
Layer 1
10
54.052272
20
79.059258
11
53.971486
21
78.802938
0
LINE
8
Layer 1
10
53.971486
20
78.802938
11
53.900719
21
78.520604
0
LINE
8
Layer 1
10
53.900719
20
78.520604
11
54.031687
21
78.484439
0
LINE
8
Layer 1
10
54.031687
20
78.484439
11
54.171771
21
78.543184
0
LINE
8
Layer 1
10
54.171771
20
78.543184
11
54.171771
21
78.543184
0
LINE
8
Layer 1
10
53.369004
20
78.321264
11
53.162242
21
78.581064
0
LINE
8
Layer 1
10
53.162242
20
78.581064
11
53.121272
21
78.108838
0
LINE
8
Layer 1
10
53.121272
20
78.108838
11
53.108410
21
78.210757
0
LINE
8
Layer 1
10
53.108410
20
78.210757
11
53.108459
21
78.695925
0
LINE
8
Layer 1
10
53.108459
20
78.695925
11
53.121147
21
79.116672
0
LINE
8
Layer 1
10
53.121147
20
79.116672
11
53.140198
21
79.159879
0
LINE
8
Layer 1
10
53.140198
20
79.159879
11
53.143782
21
78.698369
0
LINE
8
Layer 1
10
53.143782
20
78.698369
11
53.380919
21
78.955632
0
LINE
8
Layer 1
10
53.380919
20
78.955632
11
53.618054
21
79.212892
0
LINE
8
Layer 1
10
53.618054
20
79.212892
11
53.382822
21
78.929642
0
LINE
8
Layer 1
10
53.382822
20
78.929642
11
53.147587
21
78.646342
0
LINE
8
Layer 1
10
53.147587
20
78.646342
11
53.285271
21
78.483169
0
LINE
8
Layer 1
10
53.285271
20
78.483169
11
53.595445
21
78.061464
0
LINE
8
Layer 1
10
53.595445
20
78.061464
11
53.369010
21
78.321264
0
LINE
8
Layer 1
10
53.369010
20
78.321264
11
53.369010
21
78.321264
0
LINE
8
Layer 1
10
53.369010
20
78.321264
11
53.369004
21
78.321264
0
LINE
8
Layer 1
10
51.153119
20
78.141641
11
51.258862
21
78.316001
0
LINE
8
Layer 1
10
51.258862
20
78.316001
11
51.289102
21
78.896038
0
LINE
8
Layer 1
10
51.289102
20
78.896038
11
51.301061
21
79.270217
0
LINE
8
Layer 1
10
51.301061
20
79.270217
11
51.206860
21
79.343309
0
LINE
8
Layer 1
10
51.206860
20
79.343309
11
51.282360
21
79.370290
0
LINE
8
Layer 1
10
51.282360
20
79.370290
11
51.416354
21
79.341432
0
LINE
8
Layer 1
10
51.416354
20
79.341432
11
51.328343
21
78.735736
0
LINE
8
Layer 1
10
51.328343
20
78.735736
11
51.382337
21
78.141974
0
LINE
8
Layer 1
10
51.382337
20
78.141974
11
51.258862
21
78.120299
0
LINE
8
Layer 1
10
51.258862
20
78.120299
11
51.153119
21
78.141635
0
LINE
8
Layer 1
10
51.153119
20
78.141635
11
51.153119
21
78.141641
0
LINE
8
Layer 1
10
52.010815
20
78.123212
11
52.355417
21
79.314681
0
LINE
8
Layer 1
10
52.355417
20
79.314681
11
52.518970
21
78.734124
0
LINE
8
Layer 1
10
52.518970
20
78.734124
11
52.643501
21
78.114517
0
LINE
8
Layer 1
10
52.643501
20
78.114517
11
52.571317
21
78.314206
0
LINE
8
Layer 1
10
52.571317
20
78.314206
11
52.499859
21
78.501613
0
LINE
8
Layer 1
10
52.499859
20
78.501613
11
52.339793
21
78.531426
0
LINE
8
Layer 1
10
52.339793
20
78.531426
11
52.180108
21
78.502080
0
LINE
8
Layer 1
10
52.180108
20
78.502080
11
52.109711
21
78.319940
0
LINE
8
Layer 1
10
52.109711
20
78.319940
11
52.033636
21
78.108454
0
LINE
8
Layer 1
10
52.033636
20
78.108454
11
52.010804
21
78.123215
0
LINE
8
Layer 1
10
52.010804
20
78.123215
11
52.010815
21
78.123212
0
LINE
8
Layer 1
10
52.479880
20
78.660667
11
52.418448
21
78.976395
0
LINE
8
Layer 1
10
52.418448
20
78.976395
11
52.357923
21
79.209877
0
LINE
8
Layer 1
10
52.357923
20
79.209877
11
52.278365
21
78.926295
0
LINE
8
Layer 1
10
52.278365
20
78.926295
11
52.208942
21
78.616639
0
LINE
8
Layer 1
10
52.208942
20
78.616639
11
52.339793
21
78.578425
0
LINE
8
Layer 1
10
52.339793
20
78.578425
11
52.479880
21
78.660667
0
LINE
8
Layer 1
10
52.479880
20
78.660667
11
52.479880
21
78.660667
0
LINE
8
Layer 1
10
48.538968
20
78.326942
11
48.360852
21
79.126879
0
LINE
8
Layer 1
10
48.360852
20
79.126879
11
48.490550
21
78.697373
0
LINE
8
Layer 1
10
48.490550
20
78.697373
11
48.599175
21
78.246766
0
LINE
8
Layer 1
10
48.599175
20
78.246766
11
48.706552
21
78.607892
0
LINE
8
Layer 1
10
48.706552
20
78.607892
11
48.833233
21
78.988285
0
LINE
8
Layer 1
10
48.833233
20
78.988285
11
48.938617
21
78.642433
0
LINE
8
Layer 1
10
48.938617
20
78.642433
11
49.024698
21
78.277314
0
LINE
8
Layer 1
10
49.024698
20
78.277314
11
49.099978
21
78.733325
0
LINE
8
Layer 1
10
49.099978
20
78.733325
11
49.210443
21
79.224491
0
LINE
8
Layer 1
10
49.210443
20
79.224491
11
49.219107
21
79.142294
0
LINE
8
Layer 1
10
49.219107
20
79.142294
11
49.122491
21
78.607045
0
LINE
8
Layer 1
10
49.122491
20
78.607045
11
49.032442
21
78.169220
0
LINE
8
Layer 1
10
49.032442
20
78.169220
11
48.926595
21
78.513615
0
LINE
8
Layer 1
10
48.926595
20
78.513615
11
48.840700
21
78.877936
0
LINE
8
Layer 1
10
48.840700
20
78.877936
11
48.731836
21
78.530346
0
LINE
8
Layer 1
10
48.731836
20
78.530346
11
48.604593
21
78.164332
0
LINE
8
Layer 1
10
48.604593
20
78.164332
11
48.538974
21
78.326942
0
LINE
8
Layer 1
10
48.538974
20
78.326942
11
48.538968
21
78.326942
0
LINE
8
Layer 1
10
49.336932
20
78.186514
11
49.442393
21
78.592288
0
LINE
8
Layer 1
10
49.442393
20
78.592288
11
49.468035
21
79.146618
0
LINE
8
Layer 1
10
49.468035
20
79.146618
11
49.367231
21
79.240611
0
LINE
8
Layer 1
10
49.367231
20
79.240611
11
49.418570
21
79.290099
0
LINE
8
Layer 1
10
49.418570
20
79.290099
11
49.630056
21
79.313044
0
LINE
8
Layer 1
10
49.630056
20
79.313044
11
49.590466
21
79.286628
0
LINE
8
Layer 1
10
49.590466
20
79.286628
11
49.483385
21
78.746161
0
LINE
8
Layer 1
10
49.483385
20
78.746161
11
49.553882
21
78.188120
0
LINE
8
Layer 1
10
49.553882
20
78.188120
11
49.449476
21
78.166361
0
LINE
8
Layer 1
10
49.449476
20
78.166361
11
49.336932
21
78.186511
0
LINE
8
Layer 1
10
49.336932
20
78.186511
11
49.336932
21
78.186514
0
LINE
8
Layer 1
10
49.832737
20
78.241409
11
49.754957
21
78.736992
0
LINE
8
Layer 1
10
49.754957
20
78.736992
11
49.870315
21
79.261995
0
LINE
8
Layer 1
10
49.870315
20
79.261995
11
50.058303
21
79.340575
0
LINE
8
Layer 1
10
50.058303
20
79.340575
11
50.215237
21
79.289765
0
LINE
8
Layer 1
10
50.215237
20
79.289765
11
50.292319
21
79.130638
0
LINE
8
Layer 1
10
50.292319
20
79.130638
11
50.262022
21
79.176603
0
LINE
8
Layer 1
10
50.262022
20
79.176603
11
50.110395
21
79.298320
0
LINE
8
Layer 1
10
50.110395
20
79.298320
11
49.945276
21
79.284649
0
LINE
8
Layer 1
10
49.945276
20
79.284649
11
49.825066
21
79.111124
0
LINE
8
Layer 1
10
49.825066
20
79.111124
11
49.811517
21
78.653713
0
LINE
8
Layer 1
10
49.811517
20
78.653713
11
49.900422
21
78.235723
0
LINE
8
Layer 1
10
49.900422
20
78.235723
11
50.228638
21
78.332581
0
LINE
8
Layer 1
10
50.228638
20
78.332581
11
50.258602
21
78.347539
0
LINE
8
Layer 1
10
50.258602
20
78.347539
11
50.011742
21
78.155461
0
LINE
8
Layer 1
10
50.011742
20
78.155461
11
49.832737
21
78.241421
0
LINE
8
Layer 1
10
49.832737
20
78.241421
11
49.832737
21
78.241409
0
LINE
8
Layer 1
10
50.381117
20
78.413935
11
50.411459
21
79.048396
0
LINE
8
Layer 1
10
50.411459
20
79.048396
11
50.441369
21
79.364072
0
LINE
8
Layer 1
10
50.441369
20
79.364072
11
50.452319
21
79.083642
0
LINE
8
Layer 1
10
50.452319
20
79.083642
11
50.459911
21
78.766413
0
LINE
8
Layer 1
10
50.459911
20
78.766413
11
50.671397
21
78.766413
0
LINE
8
Layer 1
10
50.671397
20
78.766413
11
50.882883
21
78.766413
0
LINE
8
Layer 1
10
50.882883
20
78.766413
11
50.891096
21
79.083642
0
LINE
8
Layer 1
10
50.891096
20
79.083642
11
50.906432
21
79.312782
0
LINE
8
Layer 1
10
50.906432
20
79.312782
11
50.925228
21
79.313270
0
LINE
8
Layer 1
10
50.925228
20
79.313270
11
50.889944
21
78.501443
0
LINE
8
Layer 1
10
50.889944
20
78.501443
11
50.858869
21
78.143378
0
LINE
8
Layer 1
10
50.858869
20
78.143378
11
50.839006
21
78.345366
0
LINE
8
Layer 1
10
50.839006
20
78.345366
11
50.835901
21
78.719415
0
LINE
8
Layer 1
10
50.835901
20
78.719415
11
50.626656
21
78.719415
0
LINE
8
Layer 1
10
50.626656
20
78.719415
11
50.417411
21
78.719415
0
LINE
8
Layer 1
10
50.417411
20
78.719415
11
50.400732
21
78.425683
0
LINE
8
Layer 1
10
50.400732
20
78.425683
11
50.384052
21
78.131952
0
LINE
8
Layer 1
10
50.384052
20
78.131952
11
50.381146
21
78.413935
0
LINE
8
Layer 1
10
50.381146
20
78.413935
11
50.381148
21
78.413935
0
LINE
8
Layer 1
10
50.381148
20
78.413935
11
50.381117
21
78.413935
0
LINE
8
Layer 1
10
51.762632
20
78.727498
11
51.786705
21
79.323091
0
LINE
8
Layer 1
10
51.786705
20
79.323091
11
51.652020
21
79.343213
0
LINE
8
Layer 1
10
51.652020
20
79.343213
11
51.517338
21
79.363279
0
LINE
8
Layer 1
10
51.517338
20
79.363279
11
51.658328
21
79.365537
0
LINE
8
Layer 1
10
51.658328
20
79.365537
11
51.916813
21
79.330242
0
LINE
8
Layer 1
10
51.916813
20
79.330242
11
51.934931
21
79.287946
0
LINE
8
Layer 1
10
51.934931
20
79.287946
11
51.787050
21
78.707530
0
LINE
8
Layer 1
10
51.787050
20
78.707530
11
51.738558
21
78.131817
0
LINE
8
Layer 1
10
51.738558
20
78.131817
11
51.762632
21
78.727365
0
LINE
8
Layer 1
10
51.762632
20
78.727365
11
51.762632
21
78.727365
0
LINE
8
Layer 1
10
51.762632
20
78.727365
11
51.762632
21
78.727498
0
LINE
8
Layer 1
10
57.508665
20
79.036644
11
57.289975
21
80.053502
0
LINE
8
Layer 1
10
57.289975
20
80.053502
11
56.700866
21
81.094786
0
LINE
8
Layer 1
10
56.700866
20
81.094786
11
56.040466
21
81.853748
0
LINE
8
Layer 1
10
56.040466
20
81.853748
11
55.416738
21
82.232350
0
LINE
8
Layer 1
10
55.416738
20
82.232350
11
54.995129
21
82.408683
0
LINE
8
Layer 1
10
54.995129
20
82.408683
11
54.219675
21
82.408683
0
LINE
8
Layer 1
10
54.219675
20
82.408683
11
53.307284
21
82.344414
0
LINE
8
Layer 1
10
53.307284
20
82.344414
11
52.755078
21
82.002534
0
LINE
8
Layer 1
10
52.755078
20
82.002534
11
51.687197
21
80.718575
0
LINE
8
Layer 1
10
51.687197
20
80.718575
11
51.543198
21
80.492050
0
LINE
8
Layer 1
10
51.543198
20
80.492050
11
51.815351
21
80.201609
0
LINE
8
Layer 1
10
51.815351
20
80.201609
11
52.240897
21
79.702829
0
LINE
8
Layer 1
10
52.240897
20
79.702829
11
52.429878
21
79.518928
0
LINE
8
Layer 1
10
52.429878
20
79.518928
11
53.183719
21
79.475598
0
LINE
8
Layer 1
10
53.183719
20
79.475598
11
54.106146
21
79.356365
0
LINE
8
Layer 1
10
54.106146
20
79.356365
11
54.290307
21
79.327135
0
LINE
8
Layer 1
10
54.290307
20
79.327135
11
54.275434
21
80.358861
0
LINE
8
Layer 1
10
54.275434
20
80.358861
11
54.356223
21
81.868216
0
LINE
8
Layer 1
10
54.356223
20
81.868216
11
54.384979
21
81.919087
0
LINE
8
Layer 1
10
54.384979
20
81.919087
11
54.388657
21
81.735749
0
LINE
8
Layer 1
10
54.388657
20
81.735749
11
54.367286
21
80.799034
0
LINE
8
Layer 1
10
54.367286
20
80.799034
11
54.400617
21
79.337896
0
LINE
8
Layer 1
10
54.400617
20
79.337896
11
57.201630
21
78.880239
0
LINE
8
Layer 1
10
57.201630
20
78.880239
11
57.493467
21
78.832583
0
LINE
8
Layer 1
10
57.493467
20
78.832583
11
57.508679
21
79.036644
0
LINE
8
Layer 1
10
57.508679
20
79.036644
11
57.508665
21
79.036644
0
LINE
8
Layer 1
10
54.303126
20
77.132840
11
54.333191
21
77.738962
0
LINE
8
Layer 1
10
54.333191
20
77.738962
11
54.350962
21
77.309503
0
LINE
8
Layer 1
10
54.350962
20
77.309503
11
54.321354
21
76.686370
0
LINE
8
Layer 1
10
54.321354
20
76.686370
11
54.303123
21
77.132840
0
LINE
8
Layer 1
10
54.303123
20
77.132840
11
54.303126
21
77.132840
 0 
ENDSEC
 0 
EOF
