  0
SECTION
  2
HEADER
  9
$ACADVER
  1
AC1009
  9
$DWGCODEPAGE
  3
ansi_1252
  9
$INSBASE
 10
0.0
 20
0.0
 30
0.0
  9
$EXTMIN
 10
-0.0687613185547171
 20
0.4749432837805614
 30
0.0
  9
$EXTMAX
 10
7.929856454481794
 20
3.049334208347133
 30
0.0
  9
$LIMMIN
 10
0.0
 20
0.0
  9
$LIMMAX
 10
12.0
 20
9.0
  9
$ORTHOMODE
 70
     0
  9
$REGENMODE
 70
     1
  9
$FILLMODE
 70
     1
  9
$QTEXTMODE
 70
     0
  9
$MIRRTEXT
 70
     1
  9
$DRAGMODE
 70
     2
  9
$LTSCALE
 40
1.0
  9
$OSMODE
 70
    37
  9
$ATTMODE
 70
     1
  9
$TEXTSIZE
 40
0.2
  9
$TRACEWID
 40
0.05
  9
$TEXTSTYLE
  7
STANDARD
  9
$CLAYER
  8
0
  9
$CELTYPE
  6
BYLAYER
  9
$CECOLOR
 62
   256
  9
$DIMSCALE
 40
1.0
  9
$DIMASZ
 40
0.18
  9
$DIMEXO
 40
0.0625
  9
$DIMDLI
 40
0.38
  9
$DIMRND
 40
0.0
  9
$DIMDLE
 40
0.0
  9
$DIMEXE
 40
0.18
  9
$DIMTP
 40
0.0
  9
$DIMTM
 40
0.0
  9
$DIMTXT
 40
0.18
  9
$DIMCEN
 40
0.09
  9
$DIMTSZ
 40
0.0
  9
$DIMTOL
 70
     0
  9
$DIMLIM
 70
     0
  9
$DIMTIH
 70
     1
  9
$DIMTOH
 70
     1
  9
$DIMSE1
 70
     0
  9
$DIMSE2
 70
     0
  9
$DIMTAD
 70
     0
  9
$DIMZIN
 70
     0
  9
$DIMBLK
  1

  9
$DIMASO
 70
     1
  9
$DIMSHO
 70
     1
  9
$DIMPOST
  1

  9
$DIMAPOST
  1

  9
$DIMALT
 70
     0
  9
$DIMALTD
 70
     2
  9
$DIMALTF
 40
25.4
  9
$DIMLFAC
 40
1.0
  9
$DIMTOFL
 70
     0
  9
$DIMTVP
 40
0.0
  9
$DIMTIX
 70
     0
  9
$DIMSOXD
 70
     0
  9
$DIMSAH
 70
     0
  9
$DIMBLK1
  1

  9
$DIMBLK2
  1

  9
$DIMSTYLE
  2
STANDARD
  9
$DIMCLRD
 70
     0
  9
$DIMCLRE
 70
     0
  9
$DIMCLRT
 70
     0
  9
$DIMTFAC
 40
1.0
  9
$DIMGAP
 40
0.09
  9
$LUNITS
 70
     2
  9
$LUPREC
 70
     0
  9
$SKETCHINC
 40
0.1
  9
$FILLETRAD
 40
0.5
  9
$AUNITS
 70
     0
  9
$AUPREC
 70
     0
  9
$MENU
  1
.
  9
$ELEVATION
 40
0.0
  9
$PELEVATION
 40
0.0
  9
$THICKNESS
 40
0.0
  9
$LIMCHECK
 70
     0
  9
$CHAMFERA
 40
0.5
  9
$CHAMFERB
 40
0.5
  9
$SKPOLY
 70
     0
  9
$TDCREATE
 40
2455348.891508785
  9
$TDUPDATE
 40
2455348.933175463
  9
$TDINDWG
 40
0.0000000116
  9
$TDUSRTIMER
 40
0.0000000116
  9
$USRTIMER
 70
     1
  9
$ANGBASE
 50
0.0
  9
$ANGDIR
 70
     0
  9
$PDMODE
 70
     0
  9
$PDSIZE
 40
0.0
  9
$PLINEWID
 40
0.0
  9
$COORDS
 70
     1
  9
$SPLFRAME
 70
     0
  9
$SPLINETYPE
 70
     6
  9
$SPLINESEGS
 70
     8
  9
$ATTDIA
 70
     0
  9
$ATTREQ
 70
     1
  9
$HANDLING
 70
     1
  9
$HANDSEED
  5
354
  9
$SURFTAB1
 70
     6
  9
$SURFTAB2
 70
     6
  9
$SURFTYPE
 70
     6
  9
$SURFU
 70
     6
  9
$SURFV
 70
     6
  9
$UCSNAME
  2

  9
$UCSORG
 10
0.0
 20
0.0
 30
0.0
  9
$UCSXDIR
 10
1.0
 20
0.0
 30
0.0
  9
$UCSYDIR
 10
0.0
 20
1.0
 30
0.0
  9
$PUCSNAME
  2

  9
$PUCSORG
 10
0.0
 20
0.0
 30
0.0
  9
$PUCSXDIR
 10
1.0
 20
0.0
 30
0.0
  9
$PUCSYDIR
 10
0.0
 20
1.0
 30
0.0
  9
$USERI1
 70
     0
  9
$USERI2
 70
     0
  9
$USERI3
 70
     0
  9
$USERI4
 70
     0
  9
$USERI5
 70
     0
  9
$USERR1
 40
0.0
  9
$USERR2
 40
0.0
  9
$USERR3
 40
0.0
  9
$USERR4
 40
0.0
  9
$USERR5
 40
0.0
  9
$WORLDVIEW
 70
     1
  9
$SHADEDGE
 70
     3
  9
$SHADEDIF
 70
    70
  9
$TILEMODE
 70
     1
  9
$MAXACTVP
 70
    64
  9
$PLIMCHECK
 70
     0
  9
$PEXTMIN
 10
1.000000000000000E+20
 20
1.000000000000000E+20
 30
1.000000000000000E+20
  9
$PEXTMAX
 10
-1.000000000000000E+20
 20
-1.000000000000000E+20
 30
-1.000000000000000E+20
  9
$PLIMMIN
 10
0.0
 20
0.0
  9
$PLIMMAX
 10
12.0
 20
9.0
  9
$UNITMODE
 70
     0
  9
$VISRETAIN
 70
     1
  9
$PLINEGEN
 70
     0
  9
$PSLTSCALE
 70
     1
  0
ENDSEC
  0
SECTION
  2
TABLES
  0
TABLE
  2
VPORT
 70
     2
  0
VPORT
  2
*ACTIVE
 70
     0
 10
0.0
 20
0.0
 11
1.0
 21
1.0
 12
3.930547567963538
 22
1.762138746063847
 13
0.0
 23
0.0
 14
0.5
 24
0.5
 15
0.5
 25
0.5
 16
0.0
 26
0.0
 36
1.0
 17
0.0
 27
0.0
 37
0.0
 40
4.999186099508901
 41
1.6
 42
50.0
 43
0.0
 44
0.0
 50
0.0
 51
0.0
 71
     0
 72
   100
 73
     1
 74
     3
 75
     0
 76
     0
 77
     0
 78
     0
  0
ENDTAB
  0
TABLE
  2
LTYPE
 70
     1
  0
LTYPE
  2
CONTINUOUS
 70
     0
  3
Solid line
 72
    65
 73
     0
 40
0.0
  0
ENDTAB
  0
TABLE
  2
LAYER
 70
     2
  0
LAYER
  2
0
 70
     0
 62
     7
  6
CONTINUOUS
  0
LAYER
  2
LAYER_1
 70
     0
 62
     7
  6
CONTINUOUS
  0
ENDTAB
  0
TABLE
  2
STYLE
 70
     1
  0
STYLE
  2
STANDARD
 70
     0
 40
0.0
 41
1.0
 50
0.0
 71
     0
 42
0.2
  3
txt
  4

  0
ENDTAB
  0
TABLE
  2
VIEW
 70
     0
  0
ENDTAB
  0
TABLE
  2
UCS
 70
     0
  0
ENDTAB
  0
TABLE
  2
APPID
 70
     1
  0
APPID
  2
ACAD
 70
     0
  0
ENDTAB
  0
TABLE
  2
DIMSTYLE
 70
     1
  0
DIMSTYLE
  2
STANDARD
 70
     0
  3

  4

  5

  6

  7

 40
1.0
 41
0.18
 42
0.0625
 43
0.38
 44
0.18
 45
0.0
 46
0.0
 47
0.0
 48
0.0
140
0.18
141
0.09
142
0.0
143
25.4
144
1.0
145
0.0
146
1.0
147
0.09
 71
     0
 72
     0
 73
     1
 74
     1
 75
     0
 76
     0
 77
     0
 78
     0
170
     0
171
     2
172
     0
173
     0
174
     0
175
     0
176
     0
177
     0
178
     0
  0
ENDTAB
  0
ENDSEC
  0
SECTION
  2
BLOCKS
  0
BLOCK
  8
0
  2
$MODEL_SPACE
 70
     0
 10
0.0
 20
0.0
 30
0.0
  3
$MODEL_SPACE
  1

  0
ENDBLK
  5
21
  8
0
  0
BLOCK
 67
     1
  8
0
  2
$PAPER_SPACE
 70
     0
 10
0.0
 20
0.0
 30
0.0
  3
$PAPER_SPACE
  1

  0
ENDBLK
  5
1D
 67
     1
  8
0
  0
BLOCK
  8
0
  2
$PAPER_SPACE0
 70
     0
 10
0.0
 20
0.0
 30
0.0
  3
$PAPER_SPACE0
  1

  0
ENDBLK
  5
25
  8
0
  0
ENDSEC
  0
SECTION
  2
ENTITIES
  0
LINE
  5
2B
  8
LAYER_1
 10
1.815612533326341
 20
1.04702509286183
 30
0.0
 11
1.833038131180759
 21
1.011344332954991
 31
0.0
  0
LINE
  5
2C
  8
LAYER_1
 10
1.833038131180759
 20
1.011344332954991
 30
0.0
 11
1.875446391047142
 21
0.9286642861272014
 31
0.0
  0
LINE
  5
2D
  8
LAYER_1
 10
1.875446391047142
 20
0.9286642861272014
 30
0.0
 11
1.89425622860642
 21
0.8418772360146676
 31
0.0
  0
LINE
  5
2E
  8
LAYER_1
 10
1.89425622860642
 20
0.8418772360146676
 30
0.0
 11
1.889238470997315
 21
0.7538870283804187
 31
0.0
  0
LINE
  5
2F
  8
LAYER_1
 10
1.889238470997315
 20
0.7538870283804187
 30
0.0
 11
1.860163945358547
 21
0.667597063703397
 31
0.0
  0
LINE
  5
30
  8
LAYER_1
 10
1.860163945358547
 20
0.667597063703397
 30
0.0
 11
1.793969798597109
 21
0.573692296369444
 31
0.0
  0
LINE
  5
31
  8
LAYER_1
 10
1.793969798597109
 20
0.573692296369444
 30
0.0
 11
1.704184947785556
 21
0.5083752107720727
 31
0.0
  0
LINE
  5
32
  8
LAYER_1
 10
1.704184947785556
 20
0.5083752107720727
 30
0.0
 11
1.597374215774654
 21
0.4749432837805614
 31
0.0
  0
LINE
  5
33
  8
LAYER_1
 10
1.597374215774654
 20
0.4749432837805614
 30
0.0
 11
1.480102870699231
 21
0.4766936954082155
 31
0.0
  0
LINE
  5
34
  8
LAYER_1
 10
1.480102870699231
 20
0.4766936954082155
 30
0.0
 11
1.344649983868802
 21
0.5391756574153561
 31
0.0
  0
LINE
  5
35
  8
LAYER_1
 10
1.344649983868802
 20
0.5391756574153561
 30
0.0
 11
1.246679030955335
 21
0.6535620070861654
 31
0.0
  0
LINE
  5
36
  8
LAYER_1
 10
1.246679030955335
 20
0.6535620070861654
 30
0.0
 11
1.208092792577281
 21
0.7591075386634145
 31
0.0
  0
LINE
  5
37
  8
LAYER_1
 10
1.208092792577281
 20
0.7591075386634145
 30
0.0
 11
1.205691820942516
 21
0.8568052355939813
 31
0.0
  0
LINE
  5
38
  8
LAYER_1
 10
1.205691820942516
 20
0.8568052355939813
 30
0.0
 11
1.239737349364415
 21
0.9680097338222566
 31
0.0
  0
LINE
  5
39
  8
LAYER_1
 10
1.239737349364415
 20
0.9680097338222566
 30
0.0
 11
1.307038917575344
 21
1.060823109932755
 31
0.0
  0
LINE
  5
3A
  8
LAYER_1
 10
1.307038917575344
 20
1.060823109932755
 30
0.0
 11
1.399038314429843
 21
1.126719064804092
 31
0.0
  0
LINE
  5
3B
  8
LAYER_1
 10
1.399038314429843
 20
1.126719064804092
 30
0.0
 11
1.507176735070381
 21
1.157171150886867
 31
0.0
  0
LINE
  5
3C
  8
LAYER_1
 10
1.507176735070381
 20
1.157171150886867
 30
0.0
 11
1.562204345109102
 21
1.161970422452058
 31
0.0
  0
LINE
  5
3D
  8
LAYER_1
 10
1.562204345109102
 20
1.161970422452058
 30
0.0
 11
1.576764391629396
 21
1.194274444927459
 31
0.0
  0
LINE
  5
3E
  8
LAYER_1
 10
1.576764391629396
 20
1.194274444927459
 30
0.0
 11
1.609098396564619
 21
1.302950471852682
 31
0.0
  0
LINE
  5
3F
  8
LAYER_1
 10
1.609098396564619
 20
1.302950471852682
 30
0.0
 11
1.587956309543355
 21
1.352831934045895
 31
0.0
  0
LINE
  5
40
  8
LAYER_1
 10
1.587956309543355
 20
1.352831934045895
 30
0.0
 11
1.563243044385812
 21
1.366776152715502
 31
0.0
  0
LINE
  5
41
  8
LAYER_1
 10
1.563243044385812
 20
1.366776152715502
 30
0.0
 11
1.637945382050315
 21
1.375858760051969
 31
0.0
  0
LINE
  5
42
  8
LAYER_1
 10
1.637945382050315
 20
1.375858760051969
 30
0.0
 11
1.743389092006558
 21
1.368754995064336
 31
0.0
  0
LINE
  5
43
  8
LAYER_1
 10
1.743389092006558
 20
1.368754995064336
 30
0.0
 11
1.718715160274039
 21
1.352343457435481
 31
0.0
  0
LINE
  5
44
  8
LAYER_1
 10
1.718715160274039
 20
1.352343457435481
 30
0.0
 11
1.678676405302403
 21
1.320380819403709
 31
0.0
  0
LINE
  5
45
  8
LAYER_1
 10
1.678676405302403
 20
1.320380819403709
 30
0.0
 11
1.627804631366661
 21
1.19055676833645
 31
0.0
  0
LINE
  5
46
  8
LAYER_1
 10
1.627804631366661
 20
1.19055676833645
 30
0.0
 11
1.695786890472562
 21
1.155210713612391
 31
0.0
  0
LINE
  5
47
  8
LAYER_1
 10
1.695786890472562
 20
1.155210713612391
 30
0.0
 11
1.76979488186435
 21
1.125264173362211
 31
0.0
  0
LINE
  5
48
  8
LAYER_1
 10
1.76979488186435
 20
1.125264173362211
 30
0.0
 11
1.806839398409421
 21
1.177749359864095
 31
0.0
  0
LINE
  5
49
  8
LAYER_1
 10
1.806839398409421
 20
1.177749359864095
 30
0.0
 11
1.828444432421835
 21
1.315644332890543
 31
0.0
  0
LINE
  5
4A
  8
LAYER_1
 10
1.828444432421835
 20
1.315644332890543
 30
0.0
 11
1.813998081764066
 21
1.340440569310687
 31
0.0
  0
LINE
  5
4B
  8
LAYER_1
 10
1.813998081764066
 20
1.340440569310687
 30
0.0
 11
1.770339018981872
 21
1.35862864189852
 31
0.0
  0
LINE
  5
4C
  8
LAYER_1
 10
1.770339018981872
 20
1.35862864189852
 30
0.0
 11
1.759249664829017
 21
1.36459114384833
 31
0.0
  0
LINE
  5
4D
  8
LAYER_1
 10
1.759249664829017
 20
1.36459114384833
 30
0.0
 11
1.77137252327792
 21
1.367786799096635
 31
0.0
  0
LINE
  5
4E
  8
LAYER_1
 10
1.77137252327792
 20
1.367786799096635
 30
0.0
 11
1.866836378523065
 21
1.365994976051695
 31
0.0
  0
LINE
  5
4F
  8
LAYER_1
 10
1.866836378523065
 20
1.365994976051695
 30
0.0
 11
1.958495429930078
 21
1.35787700241049
 31
0.0
  0
LINE
  5
50
  8
LAYER_1
 10
1.958495429930078
 20
1.35787700241049
 30
0.0
 11
1.95547150589972
 21
1.346902531544316
 31
0.0
  0
LINE
  5
51
  8
LAYER_1
 10
1.95547150589972
 20
1.346902531544316
 30
0.0
 11
1.919648551950724
 21
1.302488563857665
 31
0.0
  0
LINE
  5
52
  8
LAYER_1
 10
1.919648551950724
 20
1.302488563857665
 30
0.0
 11
1.876268236988146
 21
1.224869912476549
 31
0.0
  0
LINE
  5
53
  8
LAYER_1
 10
1.876268236988146
 20
1.224869912476549
 30
0.0
 11
1.814926795878726
 21
1.080508375947886
 31
0.0
  0
LINE
  5
54
  8
LAYER_1
 10
1.814926795878726
 20
1.080508375947886
 30
0.0
 11
1.815612533326341
 21
1.04702509286183
 31
0.0
  0
LINE
  5
55
  8
LAYER_1
 10
3.373793846186709
 20
2.573617657870187
 30
0.0
 11
2.366404421079444
 21
2.573060459087003
 31
0.0
  0
LINE
  5
56
  8
LAYER_1
 10
2.977097701301977
 20
2.460989289655984
 30
0.0
 11
2.136940640881512
 21
2.463565406353126
 31
0.0
  0
LINE
  5
57
  8
LAYER_1
 10
3.448291353185041
 20
2.546889927639271
 30
0.0
 11
3.336899093512772
 21
2.519245209107183
 31
0.0
  0
LINE
  5
58
  8
LAYER_1
 10
3.336899093512772
 20
2.519245209107183
 30
0.0
 11
3.285293491451272
 21
2.468992676866549
 31
0.0
  0
LINE
  5
59
  8
LAYER_1
 10
3.285293491451272
 20
2.468992676866549
 30
0.0
 11
3.280477447519939
 21
2.440350670475056
 31
0.0
  0
LINE
  5
5A
  8
LAYER_1
 10
3.280477447519939
 20
2.440350670475056
 30
0.0
 11
3.15420898964698
 21
2.442340348069266
 31
0.0
  0
LINE
  5
5B
  8
LAYER_1
 10
3.15420898964698
 20
2.442340348069266
 30
0.0
 11
3.027940086489963
 21
2.444321713694421
 31
0.0
  0
LINE
  5
5C
  8
LAYER_1
 10
3.027940086489963
 20
2.444321713694421
 30
0.0
 11
3.005650947738143
 21
2.418776509490584
 31
0.0
  0
LINE
  5
5D
  8
LAYER_1
 10
3.005650947738143
 20
2.418776509490584
 30
0.0
 11
2.959754926282141
 21
2.384812022767036
 31
0.0
  0
LINE
  5
5E
  8
LAYER_1
 10
2.959754926282141
 20
2.384812022767036
 30
0.0
 11
2.90124801505088
 21
2.373016299671932
 31
0.0
  0
LINE
  5
5F
  8
LAYER_1
 10
2.90124801505088
 20
2.373016299671932
 30
0.0
 11
2.837992297780879
 21
2.375534677869695
 31
0.0
  0
LINE
  5
60
  8
LAYER_1
 10
2.837992297780879
 20
2.375534677869695
 30
0.0
 11
1.338990868789754
 21
2.394996708144305
 31
0.0
  0
LINE
  5
61
  8
LAYER_1
 10
1.338990868789754
 20
2.394996708144305
 30
0.0
 11
1.328791340610589
 21
2.468345827559915
 31
0.0
  0
LINE
  5
62
  8
LAYER_1
 10
1.328791340610589
 20
2.468345827559915
 30
0.0
 11
1.340138365804366
 21
2.478718571237209
 31
0.0
  0
LINE
  5
63
  8
LAYER_1
 10
1.340138365804366
 20
2.478718571237209
 30
0.0
 11
1.405395338054063
 21
2.549166219738098
 31
0.0
  0
LINE
  5
64
  8
LAYER_1
 10
1.405395338054063
 20
2.549166219738098
 30
0.0
 11
1.438196149108928
 21
2.706321212505344
 31
0.0
  0
LINE
  5
65
  8
LAYER_1
 10
1.438196149108928
 20
2.706321212505344
 30
0.0
 11
1.447417536643119
 21
2.749695887203203
 31
0.0
  0
LINE
  5
66
  8
LAYER_1
 10
1.447417536643119
 20
2.749695887203203
 30
0.0
 11
1.525893953545825
 21
2.769548728451738
 31
0.0
  0
LINE
  5
67
  8
LAYER_1
 10
1.525893953545825
 20
2.769548728451738
 30
0.0
 11
1.853301672757773
 21
2.778603134464603
 31
0.0
  0
LINE
  5
68
  8
LAYER_1
 10
1.853301672757773
 20
2.778603134464603
 30
0.0
 11
2.344859351986692
 21
2.776103309769198
 31
0.0
  0
LINE
  5
69
  8
LAYER_1
 10
2.344859351986692
 20
2.776103309769198
 30
0.0
 11
2.52275077799937
 21
2.791375662352507
 31
0.0
  0
LINE
  5
6A
  8
LAYER_1
 10
2.52275077799937
 20
2.791375662352507
 30
0.0
 11
2.644825253768477
 21
2.823401233864331
 31
0.0
  0
LINE
  5
6B
  8
LAYER_1
 10
2.644825253768477
 20
2.823401233864331
 30
0.0
 11
2.727266925197814
 21
2.843918290497726
 31
0.0
  0
LINE
  5
6C
  8
LAYER_1
 10
2.727266925197814
 20
2.843918290497726
 30
0.0
 11
2.754941329333693
 21
2.847098954516113
 31
0.0
  0
LINE
  5
6D
  8
LAYER_1
 10
2.754941329333693
 20
2.847098954516113
 30
0.0
 11
2.751629009662487
 21
2.841781966020776
 31
0.0
  0
LINE
  5
6E
  8
LAYER_1
 10
2.751629009662487
 20
2.841781966020776
 30
0.0
 11
2.73204794011667
 21
2.817566676866861
 31
0.0
  0
LINE
  5
6F
  8
LAYER_1
 10
2.73204794011667
 20
2.817566676866861
 30
0.0
 11
2.736547238655533
 21
2.788146017087868
 31
0.0
  0
LINE
  5
70
  8
LAYER_1
 10
2.736547238655533
 20
2.788146017087868
 30
0.0
 11
3.352929913272984
 21
2.781051603065436
 31
0.0
  0
LINE
  5
71
  8
LAYER_1
 10
3.352929913272984
 20
2.781051603065436
 30
0.0
 11
3.938592143949371
 21
2.778601056472326
 31
0.0
  0
LINE
  5
72
  8
LAYER_1
 10
3.938592143949371
 20
2.778601056472326
 30
0.0
 11
3.902103638763339
 21
2.738511687546236
 31
0.0
  0
LINE
  5
73
  8
LAYER_1
 10
3.902103638763339
 20
2.738511687546236
 30
0.0
 11
3.887168069355065
 21
2.702347497581627
 31
0.0
  0
LINE
  5
74
  8
LAYER_1
 10
3.887168069355065
 20
2.702347497581627
 30
0.0
 11
3.860669808841458
 21
2.679099959111369
 31
0.0
  0
LINE
  5
75
  8
LAYER_1
 10
3.860669808841458
 20
2.679099959111369
 30
0.0
 11
3.765779479461592
 21
2.670115462695435
 31
0.0
  0
LINE
  5
76
  8
LAYER_1
 10
3.765779479461592
 20
2.670115462695435
 30
0.0
 11
3.64537229562951
 21
2.666320306678543
 31
0.0
  0
LINE
  5
77
  8
LAYER_1
 10
3.64537229562951
 20
2.666320306678543
 30
0.0
 11
3.573752511062855
 21
2.641205989013756
 31
0.0
  0
LINE
  5
78
  8
LAYER_1
 10
3.573752511062855
 20
2.641205989013756
 30
0.0
 11
3.541618141813139
 21
2.612565318474424
 31
0.0
  0
LINE
  5
79
  8
LAYER_1
 10
3.541618141813139
 20
2.612565318474424
 30
0.0
 11
3.521999519978525
 21
2.54741981566697
 31
0.0
  0
LINE
  5
7A
  8
LAYER_1
 10
3.521999519978525
 20
2.54741981566697
 30
0.0
 11
3.448291353185041
 21
2.546862616883772
 31
0.0
  0
LINE
  5
7B
  8
LAYER_1
 10
3.448291353185041
 20
2.546862616883772
 30
0.0
 11
3.448291353185041
 21
2.546889927639271
 31
0.0
  0
LINE
  5
7C
  8
LAYER_1
 10
2.490930779293821
 20
2.671008257229516
 30
0.0
 11
3.515720272636241
 21
2.664444028090813
 31
0.0
  0
LINE
  5
7D
  8
LAYER_1
 10
0.0440371481692203
 20
1.726459396223206
 30
0.0
 11
0.1484881715346287
 21
1.662562173055235
 31
0.0
  0
LINE
  5
7E
  8
LAYER_1
 10
0.1484881715346287
 20
1.662562173055235
 30
0.0
 11
0.1606704011911173
 21
1.786380529619152
 31
0.0
  0
LINE
  5
7F
  8
LAYER_1
 10
0.1606704011911173
 20
1.786380529619152
 30
0.0
 11
0.1867595940844602
 21
2.146353356191852
 31
0.0
  0
LINE
  5
80
  8
LAYER_1
 10
0.1867595940844602
 20
2.146353356191852
 30
0.0
 11
0.1847987115259233
 21
2.18436399071237
 31
0.0
  0
LINE
  5
81
  8
LAYER_1
 10
0.1847987115259233
 20
2.18436399071237
 30
0.0
 11
0.1449756224658412
 21
2.165418193087717
 31
0.0
  0
LINE
  5
82
  8
LAYER_1
 10
0.1449756224658412
 20
2.165418193087717
 30
0.0
 11
-0.0153695337130024
 21
2.056192834064305
 31
0.0
  0
LINE
  5
83
  8
LAYER_1
 10
-0.0153695337130024
 20
2.056192834064305
 30
0.0
 11
-0.0687613185547171
 21
1.962625443617469
 31
0.0
  0
LINE
  5
84
  8
LAYER_1
 10
-0.0687613185547171
 20
1.962625443617469
 30
0.0
 11
-0.0668716814452832
 21
1.866928556382547
 31
0.0
  0
LINE
  5
85
  8
LAYER_1
 10
-0.0668716814452832
 20
1.866928556382547
 30
0.0
 11
0.044036999741202
 21
1.726459396223206
 31
0.0
  0
LINE
  5
86
  8
LAYER_1
 10
0.044036999741202
 20
1.726459396223206
 30
0.0
 11
0.0440371481692203
 21
1.726459396223206
 31
0.0
  0
LINE
  5
87
  8
LAYER_1
 10
1.469639289074328
 20
0.6363143744264903
 30
0.0
 11
1.403343914403958
 21
0.6831587024956605
 31
0.0
  0
LINE
  5
88
  8
LAYER_1
 10
1.403343914403958
 20
0.6831587024956605
 30
0.0
 11
1.361990977752411
 21
0.747262537466014
 31
0.0
  0
LINE
  5
89
  8
LAYER_1
 10
1.361990977752411
 20
0.747262537466014
 30
0.0
 11
1.348282165920876
 21
0.8152038304386906
 31
0.0
  0
LINE
  5
8A
  8
LAYER_1
 10
1.348282165920876
 20
0.8152038304386906
 30
0.0
 11
1.362229798434925
 21
0.885080773206667
 31
0.0
  0
LINE
  5
8B
  8
LAYER_1
 10
1.362229798434925
 20
0.885080773206667
 30
0.0
 11
1.397995310740582
 21
0.9470591189454609
 31
0.0
  0
LINE
  5
8C
  8
LAYER_1
 10
1.397995310740582
 20
0.9470591189454609
 30
0.0
 11
1.456928507242308
 21
0.9897581493009966
 31
0.0
  0
LINE
  5
8D
  8
LAYER_1
 10
1.456928507242308
 20
0.9897581493009966
 30
0.0
 11
1.553619416920229
 21
1.010119801798538
 31
0.0
  0
LINE
  5
8E
  8
LAYER_1
 10
1.553619416920229
 20
1.010119801798538
 30
0.0
 11
1.643935936895712
 21
0.9898347381587769
 31
0.0
  0
LINE
  5
8F
  8
LAYER_1
 10
1.643935936895712
 20
0.9898347381587769
 30
0.0
 11
1.695050984354536
 21
0.9492145906368563
 31
0.0
  0
LINE
  5
90
  8
LAYER_1
 10
1.695050984354536
 20
0.9492145906368563
 30
0.0
 11
1.729156774552134
 21
0.8926636638394996
 31
0.0
  0
LINE
  5
91
  8
LAYER_1
 10
1.729156774552134
 20
0.8926636638394996
 30
0.0
 11
1.745383074013322
 21
0.8207167439190499
 31
0.0
  0
LINE
  5
92
  8
LAYER_1
 10
1.745383074013322
 20
0.8207167439190499
 30
0.0
 11
1.73377600293032
 21
0.751250056195488
 31
0.0
  0
LINE
  5
93
  8
LAYER_1
 10
1.73377600293032
 20
0.751250056195488
 30
0.0
 11
1.696132134044671
 21
0.6890674735026039
 31
0.0
  0
LINE
  5
94
  8
LAYER_1
 10
1.696132134044671
 20
0.6890674735026039
 30
0.0
 11
1.634247891669899
 21
0.6389722749620859
 31
0.0
  0
LINE
  5
95
  8
LAYER_1
 10
1.634247891669899
 20
0.6389722749620859
 30
0.0
 11
1.554590136164254
 21
0.6153118097430479
 31
0.0
  0
LINE
  5
96
  8
LAYER_1
 10
1.554590136164254
 20
0.6153118097430479
 30
0.0
 11
1.469637804794139
 21
0.6363164524187539
 31
0.0
  0
LINE
  5
97
  8
LAYER_1
 10
1.469637804794139
 20
0.6363164524187539
 30
0.0
 11
1.469637507938101
 21
0.6363164524187539
 31
0.0
  0
LINE
  5
98
  8
LAYER_1
 10
1.469637507938101
 20
0.6363164524187539
 30
0.0
 11
1.469639289074328
 21
0.6363143744264903
 31
0.0
  0
LINE
  5
99
  8
LAYER_1
 10
1.532649061116906
 20
0.6573458825736225
 30
0.0
 11
1.535908095129305
 21
0.7488949488185881
 31
0.0
  0
LINE
  5
9A
  8
LAYER_1
 10
1.535908095129305
 20
0.7488949488185881
 30
0.0
 11
1.567269451256255
 21
0.7542793236345347
 31
0.0
  0
LINE
  5
9B
  8
LAYER_1
 10
1.567269451256255
 20
0.7542793236345347
 30
0.0
 11
1.606771935795374
 21
0.7347969587213328
 31
0.0
  0
LINE
  5
9C
  8
LAYER_1
 10
1.606771935795374
 20
0.7347969587213328
 30
0.0
 11
1.644223590396464
 21
0.7138700923275678
 31
0.0
  0
LINE
  5
9D
  8
LAYER_1
 10
1.644223590396464
 20
0.7138700923275678
 30
0.0
 11
1.661651266243149
 21
0.7031903995070508
 31
0.0
  0
LINE
  5
9E
  8
LAYER_1
 10
1.661651266243149
 20
0.7031903995070508
 30
0.0
 11
1.659169698194086
 21
0.6834683233432202
 31
0.0
  0
LINE
  5
9F
  8
LAYER_1
 10
1.659169698194086
 20
0.6834683233432202
 30
0.0
 11
1.613806088042107
 21
0.6577504973533195
 31
0.0
  0
LINE
  5
A0
  8
LAYER_1
 10
1.613806088042107
 20
0.6577504973533195
 30
0.0
 11
1.560433153558801
 21
0.6441844732760274
 31
0.0
  0
LINE
  5
A1
  8
LAYER_1
 10
1.560433153558801
 20
0.6441844732760274
 30
0.0
 11
1.532648912688888
 21
0.6573316334838069
 31
0.0
  0
LINE
  5
A2
  8
LAYER_1
 10
1.532648912688888
 20
0.6573316334838069
 30
0.0
 11
1.532649061116906
 21
0.6573458825736225
 31
0.0
  0
LINE
  5
A3
  8
LAYER_1
 10
1.494054213913753
 20
0.8228788948713088
 30
0.0
 11
1.511124475090771
 21
0.8614213469837608
 31
0.0
  0
LINE
  5
A4
  8
LAYER_1
 10
1.511124475090771
 20
0.8614213469837608
 30
0.0
 11
1.546051072233244
 21
0.8722459055507841
 31
0.0
  0
LINE
  5
A5
  8
LAYER_1
 10
1.546051072233244
 20
0.8722459055507841
 30
0.0
 11
1.579473351403513
 21
0.8570606802146159
 31
0.0
  0
LINE
  5
A6
  8
LAYER_1
 10
1.579473351403513
 20
0.8570606802146159
 30
0.0
 11
1.592794320821493
 21
0.8218952623896314
 31
0.0
  0
LINE
  5
A7
  8
LAYER_1
 10
1.592794320821493
 20
0.8218952623896314
 30
0.0
 11
1.579742896685952
 21
0.7906024800074363
 31
0.0
  0
LINE
  5
A8
  8
LAYER_1
 10
1.579742896685952
 20
0.7906024800074363
 30
0.0
 11
1.545921939856743
 21
0.7742097927369969
 31
0.0
  0
LINE
  5
A9
  8
LAYER_1
 10
1.545921939856743
 20
0.7742097927369969
 30
0.0
 11
1.510371499750566
 21
0.7852690160020046
 31
0.0
  0
LINE
  5
AA
  8
LAYER_1
 10
1.510371499750566
 20
0.7852690160020046
 30
0.0
 11
1.494054213913753
 21
0.8228788948713088
 31
0.0
  0
LINE
  5
AB
  8
LAYER_1
 10
0.1904239850166487
 20
2.205018936975392
 30
0.0
 11
0.0734690884776548
 21
2.142747000615074
 31
0.0
  0
LINE
  5
AC
  8
LAYER_1
 10
0.0734690884776548
 20
2.142747000615074
 30
0.0
 11
0.0759134010939579
 21
2.188542536302236
 31
0.0
  0
LINE
  5
AD
  8
LAYER_1
 10
0.0759134010939579
 20
2.188542536302236
 30
0.0
 11
0.0641540428634997
 21
2.31827604627793
 31
0.0
  0
LINE
  5
AE
  8
LAYER_1
 10
0.0641540428634997
 20
2.31827604627793
 30
0.0
 11
0.0634126449087731
 21
2.482204700118615
 31
0.0
  0
LINE
  5
AF
  8
LAYER_1
 10
0.0634126449087731
 20
2.482204700118615
 30
0.0
 11
0.1060704122750327
 21
2.803085594052647
 31
0.0
  0
LINE
  5
B0
  8
LAYER_1
 10
0.1060704122750327
 20
2.803085594052647
 30
0.0
 11
0.2070375331793137
 21
3.048280963124569
 31
0.0
  0
LINE
  5
B1
  8
LAYER_1
 10
0.2070375331793137
 20
3.048280963124569
 30
0.0
 11
0.2253367783533555
 21
3.049334208347133
 31
0.0
  0
LINE
  5
B2
  8
LAYER_1
 10
0.2253367783533555
 20
3.049334208347133
 30
0.0
 11
0.2458375079046746
 21
2.977477681090235
 31
0.0
  0
LINE
  5
B3
  8
LAYER_1
 10
0.2458375079046746
 20
2.977477681090235
 30
0.0
 11
0.2614291291567721
 21
2.775182759195587
 31
0.0
  0
LINE
  5
B4
  8
LAYER_1
 10
0.2614291291567721
 20
2.775182759195587
 30
0.0
 11
0.2208141766155158
 21
2.325251569457166
 31
0.0
  0
LINE
  5
B5
  8
LAYER_1
 10
0.2208141766155158
 20
2.325251569457166
 30
0.0
 11
0.2046880660671295
 21
2.237288227294343
 31
0.0
  0
LINE
  5
B6
  8
LAYER_1
 10
0.2046880660671295
 20
2.237288227294343
 30
0.0
 11
0.190424133444667
 21
2.205018936975392
 31
0.0
  0
LINE
  5
B7
  8
LAYER_1
 10
0.190424133444667
 20
2.205018936975392
 30
0.0
 11
0.1904239850166487
 21
2.205018936975392
 31
0.0
  0
LINE
  5
B8
  8
LAYER_1
 10
0.0229505732270496
 20
1.724052932751732
 30
0.0
 11
-0.0183612488632434
 21
1.613732620232426
 31
0.0
  0
LINE
  5
B9
  8
LAYER_1
 10
-0.0183612488632434
 20
1.613732620232426
 30
0.0
 11
-0.055094808708585
 21
1.338964007378024
 31
0.0
  0
LINE
  5
BA
  8
LAYER_1
 10
-0.055094808708585
 20
1.338964007378024
 30
0.0
 11
-0.0369328594520866
 21
1.062646993429794
 31
0.0
  0
LINE
  5
BB
  8
LAYER_1
 10
-0.0369328594520866
 20
1.062646993429794
 30
0.0
 11
0.0382885309947358
 21
0.7855032354159306
 31
0.0
  0
LINE
  5
BC
  8
LAYER_1
 10
0.0382885309947358
 20
0.7855032354159306
 30
0.0
 11
0.0652061006619178
 21
0.8258786251345782
 31
0.0
  0
LINE
  5
BD
  8
LAYER_1
 10
0.0652061006619178
 20
0.8258786251345782
 30
0.0
 11
0.1274578508116449
 21
1.041726954724894
 31
0.0
  0
LINE
  5
BE
  8
LAYER_1
 10
0.1274578508116449
 20
1.041726954724894
 30
0.0
 11
0.1454658802124804
 21
1.376559488729498
 31
0.0
  0
LINE
  5
BF
  8
LAYER_1
 10
0.1454658802124804
 20
1.376559488729498
 30
0.0
 11
0.1404175464314683
 21
1.648073817268099
 31
0.0
  0
LINE
  5
C0
  8
LAYER_1
 10
0.1404175464314683
 20
1.648073817268099
 30
0.0
 11
0.0229505732270496
 21
1.724052932751732
 31
0.0
  0
LINE
  5
C1
  8
LAYER_1
 10
2.375533041101782
 20
1.385746292535259
 30
0.0
 11
2.406332745604971
 21
1.414434756896711
 31
0.0
  0
LINE
  5
C2
  8
LAYER_1
 10
2.406332745604971
 20
1.414434756896711
 30
0.0
 11
2.501123182928074
 21
1.420380783336412
 31
0.0
  0
LINE
  5
C3
  8
LAYER_1
 10
2.501123182928074
 20
1.420380783336412
 30
0.0
 11
2.652016888143331
 21
1.401204476998316
 31
0.0
  0
LINE
  5
C4
  8
LAYER_1
 10
2.652016888143331
 20
1.401204476998316
 30
0.0
 11
2.7968128734835
 21
1.378441110725902
 31
0.0
  0
LINE
  5
C5
  8
LAYER_1
 10
2.7968128734835
 20
1.378441110725902
 30
0.0
 11
2.936418627856529
 21
1.389443486059648
 31
0.0
  0
LINE
  5
C6
  8
LAYER_1
 10
2.936418627856529
 20
1.389443486059648
 30
0.0
 11
3.021411925359878
 21
1.411270568388432
 31
0.0
  0
LINE
  5
C7
  8
LAYER_1
 10
3.021411925359878
 20
1.411270568388432
 30
0.0
 11
3.046709551628084
 21
1.418413666801087
 31
0.0
  0
LINE
  5
C8
  8
LAYER_1
 10
3.046709551628084
 20
1.418413666801087
 30
0.0
 11
3.094529942349958
 21
1.448396720343936
 31
0.0
  0
LINE
  5
C9
  8
LAYER_1
 10
3.094529942349958
 20
1.448396720343936
 30
0.0
 11
3.139237203802079
 21
1.508609217941114
 31
0.0
  0
LINE
  5
CA
  8
LAYER_1
 10
3.139237203802079
 20
1.508609217941114
 30
0.0
 11
3.15746045383041
 21
1.617220381822051
 31
0.0
  0
LINE
  5
CB
  8
LAYER_1
 10
3.15746045383041
 20
1.617220381822051
 30
0.0
 11
3.132151101748708
 21
1.740592266904912
 31
0.0
  0
LINE
  5
CC
  8
LAYER_1
 10
3.132151101748708
 20
1.740592266904912
 30
0.0
 11
3.07634617417467
 21
1.827006911117877
 31
0.0
  0
LINE
  5
CD
  8
LAYER_1
 10
3.07634617417467
 20
1.827006911117877
 30
0.0
 11
2.769866657208659
 21
2.061815287422661
 31
0.0
  0
LINE
  5
CE
  8
LAYER_1
 10
2.769866657208659
 20
2.061815287422661
 30
0.0
 11
2.67122377065334
 21
2.136681786476146
 31
0.0
  0
LINE
  5
CF
  8
LAYER_1
 10
2.67122377065334
 20
2.136681786476146
 30
0.0
 11
2.630953913256175
 21
2.193216089335365
 31
0.0
  0
LINE
  5
D0
  8
LAYER_1
 10
2.630953913256175
 20
2.193216089335365
 30
0.0
 11
2.630152401953769
 21
2.23166963306447
 31
0.0
  0
LINE
  5
D1
  8
LAYER_1
 10
2.630152401953769
 20
2.23166963306447
 30
0.0
 11
2.658311275143548
 21
2.261982196809413
 31
0.0
  0
LINE
  5
D2
  8
LAYER_1
 10
2.658311275143548
 20
2.261982196809413
 30
0.0
 11
2.707790348977348
 21
2.275030503956572
 31
0.0
  0
LINE
  5
D3
  8
LAYER_1
 10
2.707790348977348
 20
2.275030503956572
 30
0.0
 11
2.777615490366706
 21
2.266284679795135
 31
0.0
  0
LINE
  5
D4
  8
LAYER_1
 10
2.777615490366706
 20
2.266284679795135
 30
0.0
 11
2.927556139272195
 21
2.195845936975374
 31
0.0
  0
LINE
  5
D5
  8
LAYER_1
 10
2.927556139272195
 20
2.195845936975374
 30
0.0
 11
3.12123555680606
 21
2.102030226452811
 31
0.0
  0
LINE
  5
D6
  8
LAYER_1
 10
3.12123555680606
 20
2.102030226452811
 30
0.0
 11
3.159955231973161
 21
2.124035719260391
 31
0.0
  0
LINE
  5
D7
  8
LAYER_1
 10
3.159955231973161
 20
2.124035719260391
 30
0.0
 11
3.174818665364219
 21
2.262024053510771
 31
0.0
  0
LINE
  5
D8
  8
LAYER_1
 10
3.174818665364219
 20
2.262024053510771
 30
0.0
 11
3.185158754877342
 21
2.412914938593659
 31
0.0
  0
LINE
  5
D9
  8
LAYER_1
 10
3.185158754877342
 20
2.412914938593659
 30
0.0
 11
3.112269465464486
 21
2.414645015582707
 31
0.0
  0
LINE
  5
DA
  8
LAYER_1
 10
3.112269465464486
 20
2.414645015582707
 30
0.0
 11
3.049717742288433
 21
2.417635988592863
 31
0.0
  0
LINE
  5
DB
  8
LAYER_1
 10
3.049717742288433
 20
2.417635988592863
 30
0.0
 11
3.021947305224284
 21
2.392544380414975
 31
0.0
  0
LINE
  5
DC
  8
LAYER_1
 10
3.021947305224284
 20
2.392544380414975
 30
0.0
 11
2.974817698502669
 21
2.36321871456812
 31
0.0
  0
LINE
  5
DD
  8
LAYER_1
 10
2.974817698502669
 20
2.36321871456812
 30
0.0
 11
2.936876825151071
 21
2.353145943917156
 31
0.0
  0
LINE
  5
DE
  8
LAYER_1
 10
2.936876825151071
 20
2.353145943917156
 30
0.0
 11
2.633434739165143
 21
2.354834015776831
 31
0.0
  0
LINE
  5
DF
  8
LAYER_1
 10
2.633434739165143
 20
2.354834015776831
 30
0.0
 11
2.32764778733562
 21
2.362409336580711
 31
0.0
  0
LINE
  5
E0
  8
LAYER_1
 10
2.32764778733562
 20
2.362409336580711
 30
0.0
 11
2.233292095680064
 21
2.34213392076218
 31
0.0
  0
LINE
  5
E1
  8
LAYER_1
 10
2.233292095680064
 20
2.34213392076218
 30
0.0
 11
2.195265876217562
 21
2.27755051486254
 31
0.0
  0
LINE
  5
E2
  8
LAYER_1
 10
2.195265876217562
 20
2.27755051486254
 30
0.0
 11
2.215214305110315
 21
2.152309178880813
 31
0.0
  0
LINE
  5
E3
  8
LAYER_1
 10
2.215214305110315
 20
2.152309178880813
 30
0.0
 11
2.248407708275341
 21
2.105516355334231
 31
0.0
  0
LINE
  5
E4
  8
LAYER_1
 10
2.248407708275341
 20
2.105516355334231
 30
0.0
 11
2.328401207959882
 21
2.014797446999324
 31
0.0
  0
LINE
  5
E5
  8
LAYER_1
 10
2.328401207959882
 20
2.014797446999324
 30
0.0
 11
2.576977173591722
 21
1.830116329687158
 31
0.0
  0
LINE
  5
E6
  8
LAYER_1
 10
2.576977173591722
 20
1.830116329687158
 30
0.0
 11
2.760277910327533
 21
1.701513692787955
 31
0.0
  0
LINE
  5
E7
  8
LAYER_1
 10
2.760277910327533
 20
1.701513692787955
 30
0.0
 11
2.780559411694842
 21
1.669313421497819
 31
0.0
  0
LINE
  5
E8
  8
LAYER_1
 10
2.780559411694842
 20
1.669313421497819
 30
0.0
 11
2.775112697110931
 21
1.637245696428622
 31
0.0
  0
LINE
  5
E9
  8
LAYER_1
 10
2.775112697110931
 20
1.637245696428622
 30
0.0
 11
2.749027066490044
 21
1.601628166857879
 31
0.0
  0
LINE
  5
EA
  8
LAYER_1
 10
2.749027066490044
 20
1.601628166857879
 30
0.0
 11
2.680153051846208
 21
1.593405551463292
 31
0.0
  0
LINE
  5
EB
  8
LAYER_1
 10
2.680153051846208
 20
1.593405551463292
 30
0.0
 11
2.583382436322104
 21
1.611163924936236
 31
0.0
  0
LINE
  5
EC
  8
LAYER_1
 10
2.583382436322104
 20
1.611163924936236
 30
0.0
 11
2.337938301890409
 21
1.719593709777996
 31
0.0
  0
LINE
  5
ED
  8
LAYER_1
 10
2.337938301890409
 20
1.719593709777996
 30
0.0
 11
2.248764677660951
 21
1.737402697205397
 31
0.0
  0
LINE
  5
EE
  8
LAYER_1
 10
2.248764677660951
 20
1.737402697205397
 30
0.0
 11
2.186944259334332
 21
1.738664632222637
 31
0.0
  0
LINE
  5
EF
  8
LAYER_1
 10
2.186944259334332
 20
1.738664632222637
 30
0.0
 11
2.175007381193192
 21
1.724588312616135
 31
0.0
  0
LINE
  5
F0
  8
LAYER_1
 10
2.175007381193192
 20
1.724588312616135
 30
0.0
 11
2.167572770151292
 21
1.571876957880647
 31
0.0
  0
LINE
  5
F1
  8
LAYER_1
 10
2.167572770151292
 20
1.571876957880647
 30
0.0
 11
2.159283955860254
 21
1.406560056778574
 31
0.0
  0
LINE
  5
F2
  8
LAYER_1
 10
2.159283955860254
 20
1.406560056778574
 30
0.0
 11
2.155002104369174
 21
1.377269123088155
 31
0.0
  0
LINE
  5
F3
  8
LAYER_1
 10
2.155002104369174
 20
1.377269123088155
 30
0.0
 11
2.199470841994817
 21
1.374772563809188
 31
0.0
  0
LINE
  5
F4
  8
LAYER_1
 10
2.199470841994817
 20
1.374772563809188
 30
0.0
 11
2.307708412552023
 21
1.370927090693854
 31
0.0
  0
LINE
  5
F5
  8
LAYER_1
 10
2.307708412552023
 20
1.370927090693854
 30
0.0
 11
2.375533041101782
 21
1.385743472402908
 31
0.0
  0
LINE
  5
F6
  8
LAYER_1
 10
2.375533041101782
 20
1.385743472402908
 30
0.0
 11
2.375533041101782
 21
1.385746292535259
 31
0.0
  0
LINE
  5
F7
  8
LAYER_1
 10
2.117459908676516
 20
1.395742474328443
 30
0.0
 11
2.125127106424131
 21
1.516073069302749
 31
0.0
  0
LINE
  5
F8
  8
LAYER_1
 10
2.125127106424131
 20
1.516073069302749
 30
0.0
 11
2.133234690104015
 21
1.678613475882059
 31
0.0
  0
LINE
  5
F9
  8
LAYER_1
 10
2.133234690104015
 20
1.678613475882059
 30
0.0
 11
2.137353716058291
 21
1.739999445397174
 31
0.0
  0
LINE
  5
FA
  8
LAYER_1
 10
2.137353716058291
 20
1.739999445397174
 30
0.0
 11
2.092987245337714
 21
1.737904977621568
 31
0.0
  0
LINE
  5
FB
  8
LAYER_1
 10
2.092987245337714
 20
1.737904977621568
 30
0.0
 11
2.046226927527282
 21
1.718854389815533
 31
0.0
  0
LINE
  5
FC
  8
LAYER_1
 10
2.046226927527282
 20
1.718854389815533
 30
0.0
 11
2.018093435528746
 21
1.657396877995282
 31
0.0
  0
LINE
  5
FD
  8
LAYER_1
 10
2.018093435528746
 20
1.657396877995282
 30
0.0
 11
1.965627989953386
 21
1.604048582563124
 31
0.0
  0
LINE
  5
FE
  8
LAYER_1
 10
1.965627989953386
 20
1.604048582563124
 30
0.0
 11
1.921835341954125
 21
1.582348999902635
 31
0.0
  0
LINE
  5
FF
  8
LAYER_1
 10
1.921835341954125
 20
1.582348999902635
 30
0.0
 11
1.838774577257688
 21
1.575643615717894
 31
0.0
  0
LINE
  5
100
  8
LAYER_1
 10
1.838774577257688
 20
1.575643615717894
 30
0.0
 11
1.687862466968079
 21
1.568033117473533
 31
0.0
  0
LINE
  5
101
  8
LAYER_1
 10
1.687862466968079
 20
1.568033117473533
 30
0.0
 11
1.612873811654993
 21
1.578622417630498
 31
0.0
  0
LINE
  5
102
  8
LAYER_1
 10
1.612873811654993
 20
1.578622417630498
 30
0.0
 11
1.599077130436232
 21
1.626546856393659
 31
0.0
  0
LINE
  5
103
  8
LAYER_1
 10
1.599077130436232
 20
1.626546856393659
 30
0.0
 11
1.605217746008799
 21
1.731068531496092
 31
0.0
  0
LINE
  5
104
  8
LAYER_1
 10
1.605217746008799
 20
1.731068531496092
 30
0.0
 11
1.625264434250108
 21
1.797754568712378
 31
0.0
  0
LINE
  5
105
  8
LAYER_1
 10
1.625264434250108
 20
1.797754568712378
 30
0.0
 11
1.672352629554432
 21
1.81602546413481
 31
0.0
  0
LINE
  5
106
  8
LAYER_1
 10
1.672352629554432
 20
1.81602546413481
 30
0.0
 11
1.720282114870244
 21
1.805596020954269
 31
0.0
  0
LINE
  5
107
  8
LAYER_1
 10
1.720282114870244
 20
1.805596020954269
 30
0.0
 11
1.762777650411778
 21
1.768897935405448
 31
0.0
  0
LINE
  5
108
  8
LAYER_1
 10
1.762777650411778
 20
1.768897935405448
 30
0.0
 11
1.832179178235013
 21
1.723266412679237
 31
0.0
  0
LINE
  5
109
  8
LAYER_1
 10
1.832179178235013
 20
1.723266412679237
 30
0.0
 11
1.859437983917793
 21
1.727636875697641
 31
0.0
  0
LINE
  5
10A
  8
LAYER_1
 10
1.859437983917793
 20
1.727636875697641
 30
0.0
 11
1.874616529993112
 21
1.751256523211467
 31
0.0
  0
LINE
  5
10B
  8
LAYER_1
 10
1.874616529993112
 20
1.751256523211467
 30
0.0
 11
1.882314600768673
 21
1.781147254526516
 31
0.0
  0
LINE
  5
10C
  8
LAYER_1
 10
1.882314600768673
 20
1.781147254526516
 30
0.0
 11
1.893097302634347
 21
2.175273071406849
 31
0.0
  0
LINE
  5
10D
  8
LAYER_1
 10
1.893097302634347
 20
2.175273071406849
 30
0.0
 11
1.888072272052314
 21
2.210151281015129
 31
0.0
  0
LINE
  5
10E
  8
LAYER_1
 10
1.888072272052314
 20
2.210151281015129
 30
0.0
 11
1.854658453279125
 21
2.212291909904636
 31
0.0
  0
LINE
  5
10F
  8
LAYER_1
 10
1.854658453279125
 20
2.212291909904636
 30
0.0
 11
1.819470622823276
 21
2.207873207780068
 31
0.0
  0
LINE
  5
110
  8
LAYER_1
 10
1.819470622823276
 20
2.207873207780068
 30
0.0
 11
1.773933648745148
 21
2.165205792592573
 31
0.0
  0
LINE
  5
111
  8
LAYER_1
 10
1.773933648745148
 20
2.165205792592573
 30
0.0
 11
1.728800250450583
 21
2.122982177181783
 31
0.0
  0
LINE
  5
112
  8
LAYER_1
 10
1.728800250450583
 20
2.122982177181783
 30
0.0
 11
1.694617129255104
 21
2.11597860110696
 31
0.0
  0
LINE
  5
113
  8
LAYER_1
 10
1.694617129255104
 20
2.11597860110696
 30
0.0
 11
1.647078009629166
 21
2.126077791945306
 31
0.0
  0
LINE
  5
114
  8
LAYER_1
 10
1.647078009629166
 20
2.126077791945306
 30
0.0
 11
1.640543614522285
 21
2.199561090290047
 31
0.0
  0
LINE
  5
115
  8
LAYER_1
 10
1.640543614522285
 20
2.199561090290047
 30
0.0
 11
1.645117720782706
 21
2.297548221857596
 31
0.0
  0
LINE
  5
116
  8
LAYER_1
 10
1.645117720782706
 20
2.297548221857596
 30
0.0
 11
1.649691975471145
 21
2.320414597175159
 31
0.0
  0
LINE
  5
117
  8
LAYER_1
 10
1.649691975471145
 20
2.320414597175159
 30
0.0
 11
1.810790106990194
 21
2.315740895714015
 31
0.0
  0
LINE
  5
118
  8
LAYER_1
 10
1.810790106990194
 20
2.315740895714015
 30
0.0
 11
1.992815401759042
 21
2.30557728711544
 31
0.0
  0
LINE
  5
119
  8
LAYER_1
 10
1.992815401759042
 20
2.30557728711544
 30
0.0
 11
2.076523461046183
 21
2.202093420721596
 31
0.0
  0
LINE
  5
11A
  8
LAYER_1
 10
2.076523461046183
 20
2.202093420721596
 30
0.0
 11
2.114889729100131
 21
2.166489249672566
 31
0.0
  0
LINE
  5
11B
  8
LAYER_1
 10
2.114889729100131
 20
2.166489249672566
 30
0.0
 11
2.147368748209882
 21
2.179621270222398
 31
0.0
  0
LINE
  5
11C
  8
LAYER_1
 10
2.147368748209882
 20
2.179621270222398
 30
0.0
 11
2.15553733580556
 21
2.268327197764108
 31
0.0
  0
LINE
  5
11D
  8
LAYER_1
 10
2.15553733580556
 20
2.268327197764108
 30
0.0
 11
2.15781867445704
 21
2.358431910956526
 31
0.0
  0
LINE
  5
11E
  8
LAYER_1
 10
2.15781867445704
 20
2.358431910956526
 30
0.0
 11
2.110195396144349
 21
2.362673241598429
 31
0.0
  0
LINE
  5
11F
  8
LAYER_1
 10
2.110195396144349
 20
2.362673241598429
 30
0.0
 11
1.701580629764809
 21
2.371469679714323
 31
0.0
  0
LINE
  5
120
  8
LAYER_1
 10
1.701580629764809
 20
2.371469679714323
 30
0.0
 11
1.34058929012598
 21
2.376024787188314
 31
0.0
  0
LINE
  5
121
  8
LAYER_1
 10
1.34058929012598
 20
2.376024787188314
 30
0.0
 11
1.34058929012598
 21
2.347152272083349
 31
0.0
  0
LINE
  5
122
  8
LAYER_1
 10
1.34058929012598
 20
2.347152272083349
 30
0.0
 11
1.330738864647419
 21
2.318273226145564
 31
0.0
  0
LINE
  5
123
  8
LAYER_1
 10
1.330738864647419
 20
2.318273226145564
 30
0.0
 11
1.308593404217955
 21
2.232821137635597
 31
0.0
  0
LINE
  5
124
  8
LAYER_1
 10
1.308593404217955
 20
2.232821137635597
 30
0.0
 11
1.307166268815616
 21
2.204346261193436
 31
0.0
  0
LINE
  5
125
  8
LAYER_1
 10
1.307166268815616
 20
2.204346261193436
 30
0.0
 11
1.321276875294487
 21
2.199686363538064
 31
0.0
  0
LINE
  5
126
  8
LAYER_1
 10
1.321276875294487
 20
2.199686363538064
 30
0.0
 11
1.350903404735785
 21
2.185902595556939
 31
0.0
  0
LINE
  5
127
  8
LAYER_1
 10
1.350903404735785
 20
2.185902595556939
 30
0.0
 11
1.359165798839445
 21
2.083011550670847
 31
0.0
  0
LINE
  5
128
  8
LAYER_1
 10
1.359165798839445
 20
2.083011550670847
 30
0.0
 11
1.318336961522862
 21
1.685377043850224
 31
0.0
  0
LINE
  5
129
  8
LAYER_1
 10
1.318336961522862
 20
1.685377043850224
 30
0.0
 11
1.299548646026333
 21
1.678164035840638
 31
0.0
  0
LINE
  5
12A
  8
LAYER_1
 10
1.299548646026333
 20
1.678164035840638
 30
0.0
 11
1.268212374234587
 21
1.519557862331993
 31
0.0
  0
LINE
  5
12B
  8
LAYER_1
 10
1.268212374234587
 20
1.519557862331993
 30
0.0
 11
1.255693658259107
 21
1.408581646396868
 31
0.0
  0
LINE
  5
12C
  8
LAYER_1
 10
1.255693658259107
 20
1.408581646396868
 30
0.0
 11
1.438248692627642
 21
1.396158072781546
 31
0.0
  0
LINE
  5
12D
  8
LAYER_1
 10
1.438248692627642
 20
1.396158072781546
 30
0.0
 11
1.828886747918348
 21
1.387815230691601
 31
0.0
  0
LINE
  5
12E
  8
LAYER_1
 10
1.828886747918348
 20
1.387815230691601
 30
0.0
 11
2.088063591092633
 21
1.378085922476515
 31
0.0
  0
LINE
  5
12F
  8
LAYER_1
 10
2.088063591092633
 20
1.378085922476515
 30
0.0
 11
2.114236200532631
 21
1.383016404410469
 31
0.0
  0
LINE
  5
130
  8
LAYER_1
 10
2.114236200532631
 20
1.383016404410469
 30
0.0
 11
2.117459908676516
 21
1.395739505768063
 31
0.0
  0
LINE
  5
131
  8
LAYER_1
 10
2.117459908676516
 20
1.395739505768063
 30
0.0
 11
2.117459908676516
 21
1.395742474328443
 31
0.0
  0
LINE
  5
132
  8
LAYER_1
 10
1.214344432308035
 20
1.413181579132598
 30
0.0
 11
1.23246689971149
 21
1.520935274347977
 31
0.0
  0
LINE
  5
133
  8
LAYER_1
 10
1.23246689971149
 20
1.520935274347977
 30
0.0
 11
1.24055637517306
 21
1.666754670878902
 31
0.0
  0
LINE
  5
134
  8
LAYER_1
 10
1.24055637517306
 20
1.666754670878902
 30
0.0
 11
1.224327849291587
 21
1.732319037555868
 31
0.0
  0
LINE
  5
135
  8
LAYER_1
 10
1.224327849291587
 20
1.732319037555868
 30
0.0
 11
1.09230973524801
 21
1.743326756298302
 31
0.0
  0
LINE
  5
136
  8
LAYER_1
 10
1.09230973524801
 20
1.743326756298302
 30
0.0
 11
0.9628678863295956
 21
1.751739507985178
 31
0.0
  0
LINE
  5
137
  8
LAYER_1
 10
0.9628678863295956
 20
1.751739507985178
 30
0.0
 11
0.9472789367818404
 21
1.725057345156074
 31
0.0
  0
LINE
  5
138
  8
LAYER_1
 10
0.9472789367818404
 20
1.725057345156074
 30
0.0
 11
0.9107709875253249
 21
1.690605420818244
 31
0.0
  0
LINE
  5
139
  8
LAYER_1
 10
0.9107709875253249
 20
1.690605420818244
 30
0.0
 11
0.8232009796127553
 21
1.689578892639091
 31
0.0
  0
LINE
  5
13A
  8
LAYER_1
 10
0.8232009796127553
 20
1.689578892639091
 30
0.0
 11
0.6895391736871677
 21
1.735634325787459
 31
0.0
  0
LINE
  5
13B
  8
LAYER_1
 10
0.6895391736871677
 20
1.735634325787459
 30
0.0
 11
0.5932276460257207
 21
1.83897718556328
 31
0.0
  0
LINE
  5
13C
  8
LAYER_1
 10
0.5932276460257207
 20
1.83897718556328
 30
0.0
 11
0.5673259177203303
 21
1.89136277686444
 31
0.0
  0
LINE
  5
13D
  8
LAYER_1
 10
0.5673259177203303
 20
1.89136277686444
 30
0.0
 11
0.5631392085894067
 21
1.955540677416266
 31
0.0
  0
LINE
  5
13E
  8
LAYER_1
 10
0.5631392085894067
 20
1.955540677416266
 30
0.0
 11
0.5788697584672526
 21
2.054428024918821
 31
0.0
  0
LINE
  5
13F
  8
LAYER_1
 10
0.5788697584672526
 20
2.054428024918821
 30
0.0
 11
0.6348110913907181
 21
2.135957754599644
 31
0.0
  0
LINE
  5
140
  8
LAYER_1
 10
0.6348110913907181
 20
2.135957754599644
 30
0.0
 11
0.7104013254646659
 21
2.199425427080726
 31
0.0
  0
LINE
  5
141
  8
LAYER_1
 10
0.7104013254646659
 20
2.199425427080726
 30
0.0
 11
0.7990447648103842
 21
2.240628006149052
 31
0.0
  0
LINE
  5
142
  8
LAYER_1
 10
0.7990447648103842
 20
2.240628006149052
 30
0.0
 11
0.8941458619771794
 21
2.255362455591637
 31
0.0
  0
LINE
  5
143
  8
LAYER_1
 10
0.8941458619771794
 20
2.255362455591637
 30
0.0
 11
0.9704834311266115
 21
2.247969998107124
 31
0.0
  0
LINE
  5
144
  8
LAYER_1
 10
0.9704834311266115
 20
2.247969998107124
 30
0.0
 11
1.019677226307962
 21
2.22064469667184
 31
0.0
  0
LINE
  5
145
  8
LAYER_1
 10
1.019677226307962
 20
2.22064469667184
 30
0.0
 11
1.109904392616029
 21
2.199738313344696
 31
0.0
  0
LINE
  5
146
  8
LAYER_1
 10
1.109904392616029
 20
2.199738313344696
 30
0.0
 11
1.222830804292315
 21
2.204146773935946
 31
0.0
  0
LINE
  5
147
  8
LAYER_1
 10
1.222830804292315
 20
2.204146773935946
 30
0.0
 11
1.269000675443307
 21
2.208513823109911
 31
0.0
  0
LINE
  5
148
  8
LAYER_1
 10
1.269000675443307
 20
2.208513823109911
 30
0.0
 11
1.273441790198735
 21
2.254671671591382
 31
0.0
  0
LINE
  5
149
  8
LAYER_1
 10
1.273441790198735
 20
2.254671671591382
 30
0.0
 11
1.295815532921365
 21
2.332227389492445
 31
0.0
  0
LINE
  5
14A
  8
LAYER_1
 10
1.295815532921365
 20
2.332227389492445
 30
0.0
 11
1.314725262537406
 21
2.352316528147185
 31
0.0
  0
LINE
  5
14B
  8
LAYER_1
 10
1.314725262537406
 20
2.352316528147185
 30
0.0
 11
1.317771896054666
 21
2.407473864274479
 31
0.0
  0
LINE
  5
14C
  8
LAYER_1
 10
1.317771896054666
 20
2.407473864274479
 30
0.0
 11
1.297304117523556
 21
2.46991411800829
 31
0.0
  0
LINE
  5
14D
  8
LAYER_1
 10
1.297304117523556
 20
2.46991411800829
 30
0.0
 11
1.225747711720999
 21
2.493079724212095
 31
0.0
  0
LINE
  5
14E
  8
LAYER_1
 10
1.225747711720999
 20
2.493079724212095
 30
0.0
 11
1.035178751752548
 21
2.478851265886163
 31
0.0
  0
LINE
  5
14F
  8
LAYER_1
 10
1.035178751752548
 20
2.478851265886163
 30
0.0
 11
0.7709991421990754
 21
2.410757982622073
 31
0.0
  0
LINE
  5
150
  8
LAYER_1
 10
0.7709991421990754
 20
2.410757982622073
 30
0.0
 11
0.210678324056488
 21
2.190746692383868
 31
0.0
  0
LINE
  5
151
  8
LAYER_1
 10
0.210678324056488
 20
2.190746692383868
 30
0.0
 11
0.1744387326582579
 21
1.697538345156048
 31
0.0
  0
LINE
  5
152
  8
LAYER_1
 10
0.1744387326582579
 20
1.697538345156048
 30
0.0
 11
0.169935129706845
 21
1.654017172003464
 31
0.0
  0
LINE
  5
153
  8
LAYER_1
 10
0.169935129706845
 20
1.654017172003464
 30
0.0
 11
0.2477816180970685
 21
1.617059931133539
 31
0.0
  0
LINE
  5
154
  8
LAYER_1
 10
0.2477816180970685
 20
1.617059931133539
 30
0.0
 11
0.6081430292234149
 21
1.490918824500852
 31
0.0
  0
LINE
  5
155
  8
LAYER_1
 10
0.6081430292234149
 20
1.490918824500852
 30
0.0
 11
0.9046904853004349
 21
1.42832079178288
 31
0.0
  0
LINE
  5
156
  8
LAYER_1
 10
0.9046904853004349
 20
1.42832079178288
 30
0.0
 11
1.161138182490024
 21
1.398337589812016
 31
0.0
  0
LINE
  5
157
  8
LAYER_1
 10
1.161138182490024
 20
1.398337589812016
 30
0.0
 11
1.214344432308035
 21
1.413181579132598
 31
0.0
  0
LINE
  5
158
  8
LAYER_1
 10
1.54582664906857
 20
2.404551316581063
 30
0.0
 11
1.598689436450696
 21
2.422911120386843
 31
0.0
  0
LINE
  5
159
  8
LAYER_1
 10
1.598689436450696
 20
2.422911120386843
 30
0.0
 11
1.607220930552741
 21
2.466183082895583
 31
0.0
  0
LINE
  5
15A
  8
LAYER_1
 10
1.607220930552741
 20
2.466183082895583
 30
0.0
 11
1.57890902807541
 21
2.498395079999213
 31
0.0
  0
LINE
  5
15B
  8
LAYER_1
 10
1.57890902807541
 20
2.498395079999213
 30
0.0
 11
1.571346472081164
 21
2.503758081180436
 31
0.0
  0
LINE
  5
15C
  8
LAYER_1
 10
1.571346472081164
 20
2.503758081180436
 30
0.0
 11
1.585688329413582
 21
2.506481586900407
 31
0.0
  0
LINE
  5
15D
  8
LAYER_1
 10
1.585688329413582
 20
2.506481586900407
 30
0.0
 11
1.628665365448635
 21
2.510518829016235
 31
0.0
  0
LINE
  5
15E
  8
LAYER_1
 10
1.628665365448635
 20
2.510518829016235
 30
0.0
 11
1.657012148510422
 21
2.536101140224815
 31
0.0
  0
LINE
  5
15F
  8
LAYER_1
 10
1.657012148510422
 20
2.536101140224815
 30
0.0
 11
1.650461574749475
 21
2.567789037993478
 31
0.0
  0
LINE
  5
160
  8
LAYER_1
 10
1.650461574749475
 20
2.567789037993478
 30
0.0
 11
1.61259194684698
 21
2.60642722617817
 31
0.0
  0
LINE
  5
161
  8
LAYER_1
 10
1.61259194684698
 20
2.60642722617817
 30
0.0
 11
1.624795698566219
 21
2.610903221518058
 31
0.0
  0
LINE
  5
162
  8
LAYER_1
 10
1.624795698566219
 20
2.610903221518058
 30
0.0
 11
1.660978887317242
 21
2.618230073818197
 31
0.0
  0
LINE
  5
163
  8
LAYER_1
 10
1.660978887317242
 20
2.618230073818197
 30
0.0
 11
1.671665556254647
 21
2.654536012540902
 31
0.0
  0
LINE
  5
164
  8
LAYER_1
 10
1.671665556254647
 20
2.654536012540902
 30
0.0
 11
1.635606453327478
 21
2.698966604165662
 31
0.0
  0
LINE
  5
165
  8
LAYER_1
 10
1.635606453327478
 20
2.698966604165662
 30
0.0
 11
1.629022780118302
 21
2.703236136131167
 31
0.0
  0
LINE
  5
166
  8
LAYER_1
 10
1.629022780118302
 20
2.703236136131167
 30
0.0
 11
1.675214024904024
 21
2.702986925487338
 31
0.0
  0
LINE
  5
167
  8
LAYER_1
 10
1.675214024904024
 20
2.702986925487338
 30
0.0
 11
2.05240331425242
 21
2.701936648825139
 31
0.0
  0
LINE
  5
168
  8
LAYER_1
 10
2.05240331425242
 20
2.701936648825139
 30
0.0
 11
2.467685912527891
 21
2.714651438213679
 31
0.0
  0
LINE
  5
169
  8
LAYER_1
 10
2.467685912527891
 20
2.714651438213679
 30
0.0
 11
2.533978912349957
 21
2.734354664019094
 31
0.0
  0
LINE
  5
16A
  8
LAYER_1
 10
2.533978912349957
 20
2.734354664019094
 30
0.0
 11
2.593883273379767
 21
2.770270385479947
 31
0.0
  0
LINE
  5
16B
  8
LAYER_1
 10
2.593883273379767
 20
2.770270385479947
 30
0.0
 11
2.658399292958793
 21
2.792132199965167
 31
0.0
  0
LINE
  5
16C
  8
LAYER_1
 10
2.658399292958793
 20
2.792132199965167
 30
0.0
 11
2.673526928223609
 21
2.791667174981754
 31
0.0
  0
LINE
  5
16D
  8
LAYER_1
 10
2.673526928223609
 20
2.791667174981754
 30
0.0
 11
2.636041432034194
 21
2.777629595088214
 31
0.0
  0
LINE
  5
16E
  8
LAYER_1
 10
2.636041432034194
 20
2.777629595088214
 30
0.0
 11
2.569558295919833
 21
2.735140887235559
 31
0.0
  0
LINE
  5
16F
  8
LAYER_1
 10
2.569558295919833
 20
2.735140887235559
 30
0.0
 11
2.526412051943161
 21
2.705801417582933
 31
0.0
  0
LINE
  5
170
  8
LAYER_1
 10
2.526412051943161
 20
2.705801417582933
 30
0.0
 11
2.462695317246256
 21
2.677940587855233
 31
0.0
  0
LINE
  5
171
  8
LAYER_1
 10
2.462695317246256
 20
2.677940587855233
 30
0.0
 11
2.417513976701565
 21
2.644410846799232
 31
0.0
  0
LINE
  5
172
  8
LAYER_1
 10
2.417513976701565
 20
2.644410846799232
 30
0.0
 11
2.373788715022915
 21
2.618430748499833
 31
0.0
  0
LINE
  5
173
  8
LAYER_1
 10
2.373788715022915
 20
2.618430748499833
 30
0.0
 11
2.355645467696803
 21
2.581844429249301
 31
0.0
  0
LINE
  5
174
  8
LAYER_1
 10
2.355645467696803
 20
2.581844429249301
 30
0.0
 11
2.302527235694038
 21
2.571087108574872
 31
0.0
  0
LINE
  5
175
  8
LAYER_1
 10
2.302527235694038
 20
2.571087108574872
 30
0.0
 11
2.233674446256915
 21
2.569809440187626
 31
0.0
  0
LINE
  5
176
  8
LAYER_1
 10
2.233674446256915
 20
2.569809440187626
 30
0.0
 11
2.166880650298863
 21
2.526190601398568
 31
0.0
  0
LINE
  5
177
  8
LAYER_1
 10
2.166880650298863
 20
2.526190601398568
 30
0.0
 11
2.139493602807697
 21
2.496476054142022
 31
0.0
  0
LINE
  5
178
  8
LAYER_1
 10
2.139493602807697
 20
2.496476054142022
 30
0.0
 11
2.099467315789653
 21
2.472945315011572
 31
0.0
  0
LINE
  5
179
  8
LAYER_1
 10
2.099467315789653
 20
2.472945315011572
 30
0.0
 11
2.05140469054083
 21
2.453988978997572
 31
0.0
  0
LINE
  5
17A
  8
LAYER_1
 10
2.05140469054083
 20
2.453988978997572
 30
0.0
 11
2.018705997963011
 21
2.430010135677861
 31
0.0
  0
LINE
  5
17B
  8
LAYER_1
 10
2.018705997963011
 20
2.430010135677861
 30
0.0
 11
1.989819233768232
 21
2.401005371208015
 31
0.0
  0
LINE
  5
17C
  8
LAYER_1
 10
1.989819233768232
 20
2.401005371208015
 30
0.0
 11
1.54582664906857
 21
2.4045492385888
 31
0.0
  0
LINE
  5
17D
  8
LAYER_1
 10
1.54582664906857
 20
2.4045492385888
 30
0.0
 11
1.54582664906857
 21
2.404551316581063
 31
0.0
  0
LINE
  5
17E
  8
LAYER_1
 10
1.805966790085931
 20
2.413277696672012
 30
0.0
 11
1.811779825020645
 21
2.427724641041863
 31
0.0
  0
LINE
  5
17F
  8
LAYER_1
 10
1.811779825020645
 20
2.427724641041863
 30
0.0
 11
1.821911076311086
 21
2.451309407971223
 31
0.0
  0
LINE
  5
180
  8
LAYER_1
 10
1.821911076311086
 20
2.451309407971223
 30
0.0
 11
1.923058388830389
 21
2.464765150030416
 31
0.0
  0
LINE
  5
181
  8
LAYER_1
 10
1.923058388830389
 20
2.464765150030416
 30
0.0
 11
2.024205849777712
 21
2.460919676915097
 31
0.0
  0
LINE
  5
182
  8
LAYER_1
 10
2.024205849777712
 20
2.460919676915097
 30
0.0
 11
1.999030231341095
 21
2.446556594375963
 31
0.0
  0
LINE
  5
183
  8
LAYER_1
 10
1.999030231341095
 20
2.446556594375963
 30
0.0
 11
1.970314010940104
 21
2.422497599926018
 31
0.0
  0
LINE
  5
184
  8
LAYER_1
 10
1.970314010940104
 20
2.422497599926018
 30
0.0
 11
1.888529133494686
 21
2.411022778207908
 31
0.0
  0
LINE
  5
185
  8
LAYER_1
 10
1.888529133494686
 20
2.411022778207908
 30
0.0
 11
1.805966790085931
 21
2.413276509247865
 31
0.0
  0
LINE
  5
186
  8
LAYER_1
 10
1.805966790085931
 20
2.413276509247865
 30
0.0
 11
1.805966790085931
 21
2.413277696672012
 31
0.0
  0
LINE
  5
187
  8
LAYER_1
 10
1.692052144659382
 20
2.425992486060551
 30
0.0
 11
1.69334510113258
 21
2.453699841216633
 31
0.0
  0
LINE
  5
188
  8
LAYER_1
 10
1.69334510113258
 20
2.453699841216633
 30
0.0
 11
1.733039057816164
 21
2.463368145515929
 31
0.0
  0
LINE
  5
189
  8
LAYER_1
 10
1.733039057816164
 20
2.463368145515929
 30
0.0
 11
1.771421207668141
 21
2.458926585476434
 31
0.0
  0
LINE
  5
18A
  8
LAYER_1
 10
1.771421207668141
 20
2.458926585476434
 30
0.0
 11
1.75462360876196
 21
2.433037918836718
 31
0.0
  0
LINE
  5
18B
  8
LAYER_1
 10
1.75462360876196
 20
2.433037918836718
 30
0.0
 11
1.717956544669114
 21
2.416401661187152
 31
0.0
  0
LINE
  5
18C
  8
LAYER_1
 10
1.717956544669114
 20
2.416401661187152
 30
0.0
 11
1.692052144659382
 21
2.425992486060551
 31
0.0
  0
LINE
  5
18D
  8
LAYER_1
 10
1.912594955633507
 20
2.50446860610721
 30
0.0
 11
1.926059306517807
 21
2.518643333490275
 31
0.0
  0
LINE
  5
18E
  8
LAYER_1
 10
1.926059306517807
 20
2.518643333490275
 30
0.0
 11
1.941754530527142
 21
2.546483086439281
 31
0.0
  0
LINE
  5
18F
  8
LAYER_1
 10
1.941754530527142
 20
2.546483086439281
 30
0.0
 11
1.943985552080193
 21
2.565910681413499
 31
0.0
  0
LINE
  5
190
  8
LAYER_1
 10
1.943985552080193
 20
2.565910681413499
 30
0.0
 11
2.07129181866175
 21
2.567816794033035
 31
0.0
  0
LINE
  5
191
  8
LAYER_1
 10
2.07129181866175
 20
2.567816794033035
 30
0.0
 11
2.19859793681529
 21
2.566078256646904
 31
0.0
  0
LINE
  5
192
  8
LAYER_1
 10
2.19859793681529
 20
2.566078256646904
 30
0.0
 11
2.1350480352117
 21
2.533941364120864
 31
0.0
  0
LINE
  5
193
  8
LAYER_1
 10
2.1350480352117
 20
2.533941364120864
 30
0.0
 11
2.112085775393878
 21
2.501972046828229
 31
0.0
  0
LINE
  5
194
  8
LAYER_1
 10
2.112085775393878
 20
2.501972046828229
 30
0.0
 11
2.026835994273757
 21
2.500920582741898
 31
0.0
  0
LINE
  5
195
  8
LAYER_1
 10
2.026835994273757
 20
2.500920582741898
 30
0.0
 11
1.912595104061525
 21
2.504472762091751
 31
0.0
  0
LINE
  5
196
  8
LAYER_1
 10
1.912595104061525
 20
2.504472762091751
 30
0.0
 11
1.912594955633507
 21
2.50446860610721
 31
0.0
  0
LINE
  5
197
  8
LAYER_1
 10
1.731227345416686
 20
2.513502083769396
 30
0.0
 11
1.736458987801118
 21
2.531234482339016
 31
0.0
  0
LINE
  5
198
  8
LAYER_1
 10
1.736458987801118
 20
2.531234482339016
 30
0.0
 11
1.752154360238471
 21
2.552356976861773
 31
0.0
  0
LINE
  5
199
  8
LAYER_1
 10
1.752154360238471
 20
2.552356976861773
 30
0.0
 11
1.814935404703824
 21
2.56242262296783
 31
0.0
  0
LINE
  5
19A
  8
LAYER_1
 10
1.814935404703824
 20
2.56242262296783
 30
0.0
 11
1.8777165975972
 21
2.558572993867983
 31
0.0
  0
LINE
  5
19B
  8
LAYER_1
 10
1.8777165975972
 20
2.558572993867983
 30
0.0
 11
1.856789582775413
 21
2.547425604359702
 31
0.0
  0
LINE
  5
19C
  8
LAYER_1
 10
1.856789582775413
 20
2.547425604359702
 30
0.0
 11
1.83586241952561
 21
2.533481385690095
 31
0.0
  0
LINE
  5
19D
  8
LAYER_1
 10
1.83586241952561
 20
2.533481385690095
 30
0.0
 11
1.792058639424926
 21
2.511009235190898
 31
0.0
  0
LINE
  5
19E
  8
LAYER_1
 10
1.792058639424926
 20
2.511009235190898
 30
0.0
 11
1.731227345416686
 21
2.513502974337513
 31
0.0
  0
LINE
  5
19F
  8
LAYER_1
 10
1.731227345416686
 20
2.513502974337513
 30
0.0
 11
1.731227345416686
 21
2.513502083769396
 31
0.0
  0
LINE
  5
1A0
  8
LAYER_1
 10
1.445224512662922
 20
2.524551807641188
 30
0.0
 11
1.45550359826025
 21
2.538816927687805
 31
0.0
  0
LINE
  5
1A1
  8
LAYER_1
 10
1.45550359826025
 20
2.538816927687805
 30
0.0
 11
1.473065601464098
 21
2.618339910552223
 31
0.0
  0
LINE
  5
1A2
  8
LAYER_1
 10
1.473065601464098
 20
2.618339910552223
 30
0.0
 11
1.472713530203116
 21
2.640339169383012
 31
0.0
  0
LINE
  5
1A3
  8
LAYER_1
 10
1.472713530203116
 20
2.640339169383012
 30
0.0
 11
1.51298620773264
 21
2.646130682254977
 31
0.0
  0
LINE
  5
1A4
  8
LAYER_1
 10
1.51298620773264
 20
2.646130682254977
 30
0.0
 11
1.544640560769025
 21
2.644317337147285
 31
0.0
  0
LINE
  5
1A5
  8
LAYER_1
 10
1.544640560769025
 20
2.644317337147285
 30
0.0
 11
1.541380190904459
 21
2.633923219835253
 31
0.0
  0
LINE
  5
1A6
  8
LAYER_1
 10
1.541380190904459
 20
2.633923219835253
 30
0.0
 11
1.525947387632654
 21
2.583886798790246
 31
0.0
  0
LINE
  5
1A7
  8
LAYER_1
 10
1.525947387632654
 20
2.583886798790246
 30
0.0
 11
1.512253418603013
 21
2.531282276161122
 31
0.0
  0
LINE
  5
1A8
  8
LAYER_1
 10
1.512253418603013
 20
2.531282276161122
 30
0.0
 11
1.476369609166241
 21
2.520568444896242
 31
0.0
  0
LINE
  5
1A9
  8
LAYER_1
 10
1.476369609166241
 20
2.520568444896242
 30
0.0
 11
1.445224512662922
 21
2.524552252925247
 31
0.0
  0
LINE
  5
1AA
  8
LAYER_1
 10
1.445224512662922
 20
2.524552252925247
 30
0.0
 11
1.445224512662922
 21
2.524551807641188
 31
0.0
  0
LINE
  5
1AB
  8
LAYER_1
 10
2.054794044353876
 20
2.607520546965873
 30
0.0
 11
2.066059879421282
 21
2.637355320917777
 31
0.0
  0
LINE
  5
1AC
  8
LAYER_1
 10
2.066059879421282
 20
2.637355320917777
 30
0.0
 11
2.076918873288705
 21
2.665502171438007
 31
0.0
  0
LINE
  5
1AD
  8
LAYER_1
 10
2.076918873288705
 20
2.665502171438007
 30
0.0
 11
2.180458845473709
 21
2.681009337147316
 31
0.0
  0
LINE
  5
1AE
  8
LAYER_1
 10
2.180458845473709
 20
2.681009337147316
 30
0.0
 11
2.439267587160963
 21
2.678743138153777
 31
0.0
  0
LINE
  5
1AF
  8
LAYER_1
 10
2.439267587160963
 20
2.678743138153777
 30
0.0
 11
2.400187677191834
 21
2.663563998366371
 31
0.0
  0
LINE
  5
1B0
  8
LAYER_1
 10
2.400187677191834
 20
2.663563998366371
 30
0.0
 11
2.342181116812501
 21
2.618145024563319
 31
0.0
  0
LINE
  5
1B1
  8
LAYER_1
 10
2.342181116812501
 20
2.618145024563319
 30
0.0
 11
2.324119801752859
 21
2.590326199964991
 31
0.0
  0
LINE
  5
1B2
  8
LAYER_1
 10
2.324119801752859
 20
2.590326199964991
 30
0.0
 11
2.183824005519666
 21
2.590326199964991
 31
0.0
  0
LINE
  5
1B3
  8
LAYER_1
 10
2.183824005519666
 20
2.590326199964991
 30
0.0
 11
2.043528209286475
 21
2.590326199964991
 31
0.0
  0
LINE
  5
1B4
  8
LAYER_1
 10
2.043528209286475
 20
2.590326199964991
 30
0.0
 11
2.054794044353876
 21
2.607521437533976
 31
0.0
  0
LINE
  5
1B5
  8
LAYER_1
 10
2.054794044353876
 20
2.607521437533976
 30
0.0
 11
2.054794044353876
 21
2.607520546965873
 31
0.0
  0
LINE
  5
1B6
  8
LAYER_1
 10
1.74517868863121
 20
2.616972591641527
 30
0.0
 11
1.762617793435354
 21
2.63785077364507
 31
0.0
  0
LINE
  5
1B7
  8
LAYER_1
 10
1.762617793435354
 20
2.63785077364507
 30
0.0
 11
1.780057046667517
 21
2.66352125109691
 31
0.0
  0
LINE
  5
1B8
  8
LAYER_1
 10
1.780057046667517
 20
2.66352125109691
 30
0.0
 11
1.860689083689643
 21
2.674033517112036
 31
0.0
  0
LINE
  5
1B9
  8
LAYER_1
 10
1.860689083689643
 20
2.674033517112036
 30
0.0
 11
1.936939525591942
 21
2.666946227634512
 31
0.0
  0
LINE
  5
1BA
  8
LAYER_1
 10
1.936939525591942
 20
2.666946227634512
 30
0.0
 11
1.916657875796615
 21
2.658408202699633
 31
0.0
  0
LINE
  5
1BB
  8
LAYER_1
 10
1.916657875796615
 20
2.658408202699633
 30
0.0
 11
1.884802699650569
 21
2.632444579910342
 31
0.0
  0
LINE
  5
1BC
  8
LAYER_1
 10
1.884802699650569
 20
2.632444579910342
 30
0.0
 11
1.87602392446893
 21
2.611252621074698
 31
0.0
  0
LINE
  5
1BD
  8
LAYER_1
 10
1.87602392446893
 20
2.611252621074698
 30
0.0
 11
1.810601306550069
 21
2.611252621074698
 31
0.0
  0
LINE
  5
1BE
  8
LAYER_1
 10
1.810601306550069
 20
2.611252621074698
 30
0.0
 11
1.74517868863121
 21
2.616972591641527
 31
0.0
  0
LINE
  5
1BF
  8
LAYER_1
 10
5.717827602309196
 20
1.164392025581464
 30
0.0
 11
5.528599986348127
 21
1.211073231257785
 31
0.0
  0
LINE
  5
1C0
  8
LAYER_1
 10
5.528599986348127
 20
1.211073231257785
 30
0.0
 11
5.348116710268293
 21
1.295632376805671
 31
0.0
  0
LINE
  5
1C1
  8
LAYER_1
 10
5.348116710268293
 20
1.295632376805671
 30
0.0
 11
5.107455965603759
 21
1.446648980420633
 31
0.0
  0
LINE
  5
1C2
  8
LAYER_1
 10
5.107455965603759
 20
1.446648980420633
 30
0.0
 11
5.037699101103124
 21
1.49899434772864
 31
0.0
  0
LINE
  5
1C3
  8
LAYER_1
 10
5.037699101103124
 20
1.49899434772864
 30
0.0
 11
4.769735022350119
 21
1.735700376255892
 31
0.0
  0
LINE
  5
1C4
  8
LAYER_1
 10
4.769735022350119
 20
1.735700376255892
 30
0.0
 11
4.556377018061978
 21
1.95119975157364
 31
0.0
  0
LINE
  5
1C5
  8
LAYER_1
 10
4.556377018061978
 20
1.95119975157364
 30
0.0
 11
4.524986570043311
 21
1.992195867267597
 31
0.0
  0
LINE
  5
1C6
  8
LAYER_1
 10
4.524986570043311
 20
1.992195867267597
 30
0.0
 11
4.523097378217933
 21
1.847346002556535
 31
0.0
  0
LINE
  5
1C7
  8
LAYER_1
 10
4.523097378217933
 20
1.847346002556535
 30
0.0
 11
4.521208037964538
 21
1.702488864872549
 31
0.0
  0
LINE
  5
1C8
  8
LAYER_1
 10
4.521208037964538
 20
1.702488864872549
 30
0.0
 11
4.558552379107919
 21
1.663341271726779
 31
0.0
  0
LINE
  5
1C9
  8
LAYER_1
 10
4.558552379107919
 20
1.663341271726779
 30
0.0
 11
4.595896571823278
 21
1.624186999320145
 31
0.0
  0
LINE
  5
1CA
  8
LAYER_1
 10
4.595896571823278
 20
1.624186999320145
 30
0.0
 11
4.600455389997745
 21
1.554785916780972
 31
0.0
  0
LINE
  5
1CB
  8
LAYER_1
 10
4.600455389997745
 20
1.554785916780972
 30
0.0
 11
4.5963921729786
 21
1.479908879338154
 31
0.0
  0
LINE
  5
1CC
  8
LAYER_1
 10
4.5963921729786
 20
1.479908879338154
 30
0.0
 11
4.422095822013255
 21
1.474321751848294
 31
0.0
  0
LINE
  5
1CD
  8
LAYER_1
 10
4.422095822013255
 20
1.474321751848294
 30
0.0
 11
4.256423435805768
 21
1.474237890017577
 31
0.0
  0
LINE
  5
1CE
  8
LAYER_1
 10
4.256423435805768
 20
1.474237890017577
 30
0.0
 11
4.256423435805768
 21
1.565144856652509
 31
0.0
  0
LINE
  5
1CF
  8
LAYER_1
 10
4.256423435805768
 20
1.565144856652509
 30
0.0
 11
4.263155388605888
 21
1.667200993931928
 31
0.0
  0
LINE
  5
1D0
  8
LAYER_1
 10
4.263155388605888
 20
1.667200993931928
 30
0.0
 11
4.286415098173716
 21
1.708955428374765
 31
0.0
  0
LINE
  5
1D1
  8
LAYER_1
 10
4.286415098173716
 20
1.708955428374765
 30
0.0
 11
4.30672895684916
 21
1.762498312939798
 31
0.0
  0
LINE
  5
1D2
  8
LAYER_1
 10
4.30672895684916
 20
1.762498312939798
 30
0.0
 11
4.31218992052289
 21
1.922564721299025
 31
0.0
  0
LINE
  5
1D3
  8
LAYER_1
 10
4.31218992052289
 20
1.922564721299025
 30
0.0
 11
4.295405531710397
 21
2.101072272018413
 31
0.0
  0
LINE
  5
1D4
  8
LAYER_1
 10
4.295405531710397
 20
2.101072272018413
 30
0.0
 11
4.266634392942391
 21
2.139668900357805
 31
0.0
  0
LINE
  5
1D5
  8
LAYER_1
 10
4.266634392942391
 20
2.139668900357805
 30
0.0
 11
4.25104648239077
 21
2.25995051408583
 31
0.0
  0
LINE
  5
1D6
  8
LAYER_1
 10
4.25104648239077
 20
2.25995051408583
 30
0.0
 11
4.247406136797654
 21
2.368282781719145
 31
0.0
  0
LINE
  5
1D7
  8
LAYER_1
 10
4.247406136797654
 20
2.368282781719145
 30
0.0
 11
4.278074037220002
 21
2.364466548923545
 31
0.0
  0
LINE
  5
1D8
  8
LAYER_1
 10
4.278074037220002
 20
2.364466548923545
 30
0.0
 11
4.490109547859174
 21
2.346643757690387
 31
0.0
  0
LINE
  5
1D9
  8
LAYER_1
 10
4.490109547859174
 20
2.346643757690387
 30
0.0
 11
4.594744621968097
 21
2.340651421708756
 31
0.0
  0
LINE
  5
1DA
  8
LAYER_1
 10
4.594744621968097
 20
2.340651421708756
 30
0.0
 11
4.824941785007731
 21
2.113614439620903
 31
0.0
  0
LINE
  5
1DB
  8
LAYER_1
 10
4.824941785007731
 20
2.113614439620903
 30
0.0
 11
5.05513939333142
 21
1.886583691509827
 31
0.0
  0
LINE
  5
1DC
  8
LAYER_1
 10
5.05513939333142
 20
1.886583691509827
 30
0.0
 11
5.058788050893597
 21
1.975133027491523
 31
0.0
  0
LINE
  5
1DD
  8
LAYER_1
 10
5.058788050893597
 20
1.975133027491523
 30
0.0
 11
5.062436708455778
 21
2.06368236347322
 31
0.0
  0
LINE
  5
1DE
  8
LAYER_1
 10
5.062436708455778
 20
2.06368236347322
 30
0.0
 11
5.032630877967572
 21
2.103262179010216
 31
0.0
  0
LINE
  5
1DF
  8
LAYER_1
 10
5.032630877967572
 20
2.103262179010216
 30
0.0
 11
5.002825047479366
 21
2.142842588259299
 31
0.0
  0
LINE
  5
1E0
  8
LAYER_1
 10
5.002825047479366
 20
2.142842588259299
 30
0.0
 11
5.002825047479366
 21
2.227080535574132
 31
0.0
  0
LINE
  5
1E1
  8
LAYER_1
 10
5.002825047479366
 20
2.227080535574132
 30
0.0
 11
5.002825047479366
 21
2.311319076601052
 31
0.0
  0
LINE
  5
1E2
  8
LAYER_1
 10
5.002825047479366
 20
2.311319076601052
 30
0.0
 11
5.144803423735535
 21
2.311319076601052
 31
0.0
  0
LINE
  5
1E3
  8
LAYER_1
 10
5.144803423735535
 20
2.311319076601052
 30
0.0
 11
5.329658943969999
 21
2.306840706412856
 31
0.0
  0
LINE
  5
1E4
  8
LAYER_1
 10
5.329658943969999
 20
2.306840706412856
 30
0.0
 11
5.372535939520269
 21
2.302355063251753
 31
0.0
  0
LINE
  5
1E5
  8
LAYER_1
 10
5.372535939520269
 20
2.302355063251753
 30
0.0
 11
5.372535939520269
 21
2.213708210061583
 31
0.0
  0
LINE
  5
1E6
  8
LAYER_1
 10
5.372535939520269
 20
2.213708210061583
 30
0.0
 11
5.366098764765809
 21
2.111791891976026
 31
0.0
  0
LINE
  5
1E7
  8
LAYER_1
 10
5.366098764765809
 20
2.111791891976026
 30
0.0
 11
5.337600733552698
 21
2.070658183508499
 31
0.0
  0
LINE
  5
1E8
  8
LAYER_1
 10
5.337600733552698
 20
2.070658183508499
 30
0.0
 11
5.316770642227297
 21
2.05670684029397
 31
0.0
  0
LINE
  5
1E9
  8
LAYER_1
 10
5.316770642227297
 20
2.05670684029397
 30
0.0
 11
5.316749713876622
 21
1.843425128007581
 31
0.0
  0
LINE
  5
1EA
  8
LAYER_1
 10
5.316749713876622
 20
1.843425128007581
 30
0.0
 11
5.333689506824971
 21
1.580281694454499
 31
0.0
  0
LINE
  5
1EB
  8
LAYER_1
 10
5.333689506824971
 20
1.580281694454499
 30
0.0
 11
5.383054736368226
 21
1.492201539440742
 31
0.0
  0
LINE
  5
1EC
  8
LAYER_1
 10
5.383054736368226
 20
1.492201539440742
 30
0.0
 11
5.504084130455805
 21
1.420873415931354
 31
0.0
  0
LINE
  5
1ED
  8
LAYER_1
 10
5.504084130455805
 20
1.420873415931354
 30
0.0
 11
5.684537424075806
 21
1.348416348909723
 31
0.0
  0
LINE
  5
1EE
  8
LAYER_1
 10
5.684537424075806
 20
1.348416348909723
 30
0.0
 11
5.833940763552644
 21
1.327748340981032
 31
0.0
  0
LINE
  5
1EF
  8
LAYER_1
 10
5.833940763552644
 20
1.327748340981032
 30
0.0
 11
5.949336720608454
 21
1.345473615005744
 31
0.0
  0
LINE
  5
1F0
  8
LAYER_1
 10
5.949336720608454
 20
1.345473615005744
 30
0.0
 11
6.001181291780487
 21
1.374963887525624
 31
0.0
  0
LINE
  5
1F1
  8
LAYER_1
 10
6.001181291780487
 20
1.374963887525624
 30
0.0
 11
6.028122461502683
 21
1.416283576300927
 31
0.0
  0
LINE
  5
1F2
  8
LAYER_1
 10
6.028122461502683
 20
1.416283576300927
 30
0.0
 11
6.056450394206063
 21
1.451073916521992
 31
0.0
  0
LINE
  5
1F3
  8
LAYER_1
 10
6.056450394206063
 20
1.451073916521992
 30
0.0
 11
6.109382200617006
 21
1.460286101519003
 31
0.0
  0
LINE
  5
1F4
  8
LAYER_1
 10
6.109382200617006
 20
1.460286101519003
 30
0.0
 11
6.154264310275467
 21
1.452053838303186
 31
0.0
  0
LINE
  5
1F5
  8
LAYER_1
 10
6.154264310275467
 20
1.452053838303186
 30
0.0
 11
6.178237513330455
 21
1.420817606996224
 31
0.0
  0
LINE
  5
1F6
  8
LAYER_1
 10
6.178237513330455
 20
1.420817606996224
 30
0.0
 11
6.18607080203129
 21
1.339382722819522
 31
0.0
  0
LINE
  5
1F7
  8
LAYER_1
 10
6.18607080203129
 20
1.339382722819522
 30
0.0
 11
6.148355539268518
 21
1.269285067587347
 31
0.0
  0
LINE
  5
1F8
  8
LAYER_1
 10
6.148355539268518
 20
1.269285067587347
 30
0.0
 11
5.972296457149955
 21
1.181949724372757
 31
0.0
  0
LINE
  5
1F9
  8
LAYER_1
 10
5.972296457149955
 20
1.181949724372757
 30
0.0
 11
5.717831313009672
 21
1.164412508648084
 31
0.0
  0
LINE
  5
1FA
  8
LAYER_1
 10
5.717831313009672
 20
1.164412508648084
 30
0.0
 11
5.717832203577785
 21
1.164412508648084
 31
0.0
  0
LINE
  5
1FB
  8
LAYER_1
 10
5.717832203577785
 20
1.164412508648084
 30
0.0
 11
5.717827602309196
 21
1.164392025581464
 31
0.0
  0
LINE
  5
1FC
  8
LAYER_1
 10
3.21170302807683
 20
1.587571736605923
 30
0.0
 11
3.213558675169919
 21
1.777658750796803
 31
0.0
  0
LINE
  5
1FD
  8
LAYER_1
 10
3.213558675169919
 20
1.777658750796803
 30
0.0
 11
3.274147140939135
 21
1.776628215061123
 31
0.0
  0
LINE
  5
1FE
  8
LAYER_1
 10
3.274147140939135
 20
1.776628215061123
 30
0.0
 11
3.365356603876705
 21
1.764774901894668
 31
0.0
  0
LINE
  5
1FF
  8
LAYER_1
 10
3.365356603876705
 20
1.764774901894668
 30
0.0
 11
3.449778008222989
 21
1.727652015355574
 31
0.0
  0
LINE
  5
200
  8
LAYER_1
 10
3.449778008222989
 20
1.727652015355574
 30
0.0
 11
3.622808861898644
 21
1.661850460704301
 31
0.0
  0
LINE
  5
201
  8
LAYER_1
 10
3.622808861898644
 20
1.661850460704301
 30
0.0
 11
3.804207938855488
 21
1.666077542256389
 31
0.0
  0
LINE
  5
202
  8
LAYER_1
 10
3.804207938855488
 20
1.666077542256389
 30
0.0
 11
3.816799532988279
 21
1.715347035727405
 31
0.0
  0
LINE
  5
203
  8
LAYER_1
 10
3.816799532988279
 20
1.715347035727405
 30
0.0
 11
3.758860062073518
 21
1.769836445769357
 31
0.0
  0
LINE
  5
204
  8
LAYER_1
 10
3.758860062073518
 20
1.769836445769357
 30
0.0
 11
3.549108561790169
 21
1.881953924742291
 31
0.0
  0
LINE
  5
205
  8
LAYER_1
 10
3.549108561790169
 20
1.881953924742291
 30
0.0
 11
3.354997960861212
 21
1.987174992670092
 31
0.0
  0
LINE
  5
206
  8
LAYER_1
 10
3.354997960861212
 20
1.987174992670092
 30
0.0
 11
3.328880121360211
 21
2.004370230239076
 31
0.0
  0
LINE
  5
207
  8
LAYER_1
 10
3.328880121360211
 20
2.004370230239076
 30
0.0
 11
3.23343749132178
 21
2.107038187812663
 31
0.0
  0
LINE
  5
208
  8
LAYER_1
 10
3.23343749132178
 20
2.107038187812663
 30
0.0
 11
3.223887929437659
 21
2.192758782608934
 31
0.0
  0
LINE
  5
209
  8
LAYER_1
 10
3.223887929437659
 20
2.192758782608934
 30
0.0
 11
3.238790102541667
 21
2.285866491481045
 31
0.0
  0
LINE
  5
20A
  8
LAYER_1
 10
3.238790102541667
 20
2.285866491481045
 30
0.0
 11
3.291880281648847
 21
2.364487774130268
 31
0.0
  0
LINE
  5
20B
  8
LAYER_1
 10
3.291880281648847
 20
2.364487774130268
 30
0.0
 11
3.365203574589156
 21
2.411456781735353
 31
0.0
  0
LINE
  5
20C
  8
LAYER_1
 10
3.365203574589156
 20
2.411456781735353
 30
0.0
 11
3.520234562405019
 21
2.436459333101865
 31
0.0
  0
LINE
  5
20D
  8
LAYER_1
 10
3.520234562405019
 20
2.436459333101865
 30
0.0
 11
3.734352221294222
 21
2.394715140192332
 31
0.0
  0
LINE
  5
20E
  8
LAYER_1
 10
3.734352221294222
 20
2.394715140192332
 30
0.0
 11
3.924266168414983
 21
2.356429023268618
 31
0.0
  0
LINE
  5
20F
  8
LAYER_1
 10
3.924266168414983
 20
2.356429023268618
 30
0.0
 11
4.00427005806085
 21
2.379103629585686
 31
0.0
  0
LINE
  5
210
  8
LAYER_1
 10
4.00427005806085
 20
2.379103629585686
 30
0.0
 11
4.087978265776009
 21
2.391945770214491
 31
0.0
  0
LINE
  5
211
  8
LAYER_1
 10
4.087978265776009
 20
2.391945770214491
 30
0.0
 11
4.186164736173012
 21
2.378797422582565
 31
0.0
  0
LINE
  5
212
  8
LAYER_1
 10
4.186164736173012
 20
2.378797422582565
 30
0.0
 11
4.218304151975374
 21
2.357807028996689
 31
0.0
  0
LINE
  5
213
  8
LAYER_1
 10
4.218304151975374
 20
2.357807028996689
 30
0.0
 11
4.220034228964423
 21
2.207411299785051
 31
0.0
  0
LINE
  5
214
  8
LAYER_1
 10
4.220034228964423
 20
2.207411299785051
 30
0.0
 11
4.218057019323801
 21
2.072131925308796
 31
0.0
  0
LINE
  5
215
  8
LAYER_1
 10
4.218057019323801
 20
2.072131925308796
 30
0.0
 11
4.199041608958254
 21
2.05794339411996
 31
0.0
  0
LINE
  5
216
  8
LAYER_1
 10
4.199041608958254
 20
2.05794339411996
 30
0.0
 11
4.142229300419508
 21
2.044626729114526
 31
0.0
  0
LINE
  5
217
  8
LAYER_1
 10
4.142229300419508
 20
2.044626729114526
 30
0.0
 11
4.066913955036682
 21
2.062930872413205
 31
0.0
  0
LINE
  5
218
  8
LAYER_1
 10
4.066913955036682
 20
2.062930872413205
 30
0.0
 11
3.98484424422287
 21
2.128313860050994
 31
0.0
  0
LINE
  5
219
  8
LAYER_1
 10
3.98484424422287
 20
2.128313860050994
 30
0.0
 11
3.855271481791728
 21
2.227545560557545
 31
0.0
  0
LINE
  5
21A
  8
LAYER_1
 10
3.855271481791728
 20
2.227545560557545
 30
0.0
 11
3.731261653083347
 21
2.258403597272192
 31
0.0
  0
LINE
  5
21B
  8
LAYER_1
 10
3.731261653083347
 20
2.258403597272192
 30
0.0
 11
3.683410983045604
 21
2.236137168007275
 31
0.0
  0
LINE
  5
21C
  8
LAYER_1
 10
3.683410983045604
 20
2.236137168007275
 30
0.0
 11
3.665508634394273
 21
2.186616831184196
 31
0.0
  0
LINE
  5
21D
  8
LAYER_1
 10
3.665508634394273
 20
2.186616831184196
 30
0.0
 11
3.673089595462869
 21
2.1567617225937
 31
0.0
  0
LINE
  5
21E
  8
LAYER_1
 10
3.673089595462869
 20
2.1567617225937
 30
0.0
 11
3.706410795152225
 21
2.124861721185923
 31
0.0
  0
LINE
  5
21F
  8
LAYER_1
 10
3.706410795152225
 20
2.124861721185923
 30
0.0
 11
3.961692144968794
 21
1.975511667367897
 31
0.0
  0
LINE
  5
220
  8
LAYER_1
 10
3.961692144968794
 20
1.975511667367897
 30
0.0
 11
4.144926831236164
 21
1.848777739227472
 31
0.0
  0
LINE
  5
221
  8
LAYER_1
 10
4.144926831236164
 20
1.848777739227472
 30
0.0
 11
4.189733242604952
 21
1.776471920357153
 31
0.0
  0
LINE
  5
222
  8
LAYER_1
 10
4.189733242604952
 20
1.776471920357153
 30
0.0
 11
4.215500495125159
 21
1.69209697398081
 31
0.0
  0
LINE
  5
223
  8
LAYER_1
 10
4.215500495125159
 20
1.69209697398081
 30
0.0
 11
4.213968124257374
 21
1.622325118250259
 31
0.0
  0
LINE
  5
224
  8
LAYER_1
 10
4.213968124257374
 20
1.622325118250259
 30
0.0
 11
4.188572090212595
 21
1.550988385915773
 31
0.0
  0
LINE
  5
225
  8
LAYER_1
 10
4.188572090212595
 20
1.550988385915773
 30
0.0
 11
4.144524591304771
 21
1.488157321208036
 31
0.0
  0
LINE
  5
226
  8
LAYER_1
 10
4.144524591304771
 20
1.488157321208036
 30
0.0
 11
4.08703827113191
 21
1.443902171501676
 31
0.0
  0
LINE
  5
227
  8
LAYER_1
 10
4.08703827113191
 20
1.443902171501676
 30
0.0
 11
3.903012315095438
 21
1.411479258183093
 31
0.0
  0
LINE
  5
228
  8
LAYER_1
 10
3.903012315095438
 20
1.411479258183093
 30
0.0
 11
3.568770227750283
 21
1.446950586155168
 31
0.0
  0
LINE
  5
229
  8
LAYER_1
 10
3.568770227750283
 20
1.446950586155168
 30
0.0
 11
3.492530621093367
 21
1.458549938981179
 31
0.0
  0
LINE
  5
22A
  8
LAYER_1
 10
3.492530621093367
 20
1.458549938981179
 30
0.0
 11
3.44834493569989
 21
1.443523976909347
 31
0.0
  0
LINE
  5
22B
  8
LAYER_1
 10
3.44834493569989
 20
1.443523976909347
 30
0.0
 11
3.370106003627523
 21
1.407479568356067
 31
0.0
  0
LINE
  5
22C
  8
LAYER_1
 10
3.370106003627523
 20
1.407479568356067
 30
0.0
 11
3.277972427843881
 21
1.397484277130999
 31
0.0
  0
LINE
  5
22D
  8
LAYER_1
 10
3.277972427843881
 20
1.397484277130999
 30
0.0
 11
3.20984723255572
 21
1.397484277130999
 31
0.0
  0
LINE
  5
22E
  8
LAYER_1
 10
3.20984723255572
 20
1.397484277130999
 30
0.0
 11
3.21170302807683
 21
1.587571736605923
 31
0.0
  0
LINE
  5
22F
  8
LAYER_1
 10
7.264758813472174
 20
1.750216339654557
 30
0.0
 11
7.158218665739845
 21
1.629523431885971
 31
0.0
  0
LINE
  5
230
  8
LAYER_1
 10
7.158218665739845
 20
1.629523431885971
 30
0.0
 11
7.083445082626234
 21
1.58769730670997
 31
0.0
  0
LINE
  5
231
  8
LAYER_1
 10
7.083445082626234
 20
1.58769730670997
 30
0.0
 11
6.921852685804037
 21
1.565451805795718
 31
0.0
  0
LINE
  5
232
  8
LAYER_1
 10
6.921852685804037
 20
1.565451805795718
 30
0.0
 11
6.597681884829662
 21
1.531819352550599
 31
0.0
  0
LINE
  5
233
  8
LAYER_1
 10
6.597681884829662
 20
1.531819352550599
 30
0.0
 11
6.380516998711125
 21
1.542746029594667
 31
0.0
  0
LINE
  5
234
  8
LAYER_1
 10
6.380516998711125
 20
1.542746029594667
 30
0.0
 11
6.303784611031247
 21
1.554562681040451
 31
0.0
  0
LINE
  5
235
  8
LAYER_1
 10
6.303784611031247
 20
1.554562681040451
 30
0.0
 11
6.288376892094647
 21
1.585890640863141
 31
0.0
  0
LINE
  5
236
  8
LAYER_1
 10
6.288376892094647
 20
1.585890640863141
 30
0.0
 11
6.280765057998105
 21
1.675116511755263
 31
0.0
  0
LINE
  5
237
  8
LAYER_1
 10
6.280765057998105
 20
1.675116511755263
 30
0.0
 11
6.304767798228866
 21
1.683487406740795
 31
0.0
  0
LINE
  5
238
  8
LAYER_1
 10
6.304767798228866
 20
1.683487406740795
 30
0.0
 11
6.324357179743746
 21
1.692018455558781
 31
0.0
  0
LINE
  5
239
  8
LAYER_1
 10
6.324357179743746
 20
1.692018455558781
 30
0.0
 11
6.332625362540149
 21
1.737736957104104
 31
0.0
  0
LINE
  5
23A
  8
LAYER_1
 10
6.332625362540149
 20
1.737736957104104
 30
0.0
 11
6.336961241830132
 21
1.773438793789623
 31
0.0
  0
LINE
  5
23B
  8
LAYER_1
 10
6.336961241830132
 20
1.773438793789623
 30
0.0
 11
5.811999391649255
 21
1.790082324412126
 31
0.0
  0
LINE
  5
23C
  8
LAYER_1
 10
5.811999391649255
 20
1.790082324412126
 30
0.0
 11
5.811999391649255
 21
1.764230616349124
 31
0.0
  0
LINE
  5
23D
  8
LAYER_1
 10
5.811999391649255
 20
1.764230616349124
 30
0.0
 11
5.834520968678774
 21
1.684791792171453
 31
0.0
  0
LINE
  5
23E
  8
LAYER_1
 10
5.834520968678774
 20
1.684791792171453
 30
0.0
 11
5.860116489981042
 21
1.562046718612663
 31
0.0
  0
LINE
  5
23F
  8
LAYER_1
 10
5.860116489981042
 20
1.562046718612663
 30
0.0
 11
5.84973587961874
 21
1.514942344654273
 31
0.0
  0
LINE
  5
240
  8
LAYER_1
 10
5.84973587961874
 20
1.514942344654273
 30
0.0
 11
5.824666387215682
 21
1.49226298864059
 31
0.0
  0
LINE
  5
241
  8
LAYER_1
 10
5.824666387215682
 20
1.49226298864059
 30
0.0
 11
5.659875663440843
 21
1.489619782478883
 31
0.0
  0
LINE
  5
242
  8
LAYER_1
 10
5.659875663440843
 20
1.489619782478883
 30
0.0
 11
5.503646416227879
 21
1.501004211533441
 31
0.0
  0
LINE
  5
243
  8
LAYER_1
 10
5.503646416227879
 20
1.501004211533441
 30
0.0
 11
5.386303677275333
 21
1.513473352550591
 31
0.0
  0
LINE
  5
244
  8
LAYER_1
 10
5.386303677275333
 20
1.513473352550591
 30
0.0
 11
5.350790641029935
 21
1.571458836151223
 31
0.0
  0
LINE
  5
245
  8
LAYER_1
 10
5.350790641029935
 20
1.571458836151223
 30
0.0
 11
5.335160428492907
 21
1.67363683283422
 31
0.0
  0
LINE
  5
246
  8
LAYER_1
 10
5.335160428492907
 20
1.67363683283422
 30
0.0
 11
5.354375177687921
 21
1.701676666752789
 31
0.0
  0
LINE
  5
247
  8
LAYER_1
 10
5.354375177687921
 20
1.701676666752789
 30
0.0
 11
5.391905647567082
 21
1.715388001860646
 31
0.0
  0
LINE
  5
248
  8
LAYER_1
 10
5.391905647567082
 20
1.715388001860646
 30
0.0
 11
5.446371309126002
 21
1.73222270777157
 31
0.0
  0
LINE
  5
249
  8
LAYER_1
 10
5.446371309126002
 20
1.73222270777157
 30
0.0
 11
5.499070825687269
 21
1.778015571754395
 31
0.0
  0
LINE
  5
24A
  8
LAYER_1
 10
5.499070825687269
 20
1.778015571754395
 30
0.0
 11
5.586456931284342
 21
1.909555896004918
 31
0.0
  0
LINE
  5
24B
  8
LAYER_1
 10
5.586456931284342
 20
1.909555896004918
 30
0.0
 11
5.5859040369137
 21
2.049753136033516
 31
0.0
  0
LINE
  5
24C
  8
LAYER_1
 10
5.5859040369137
 20
2.049753136033516
 30
0.0
 11
5.574824924294154
 21
2.076246646850521
 31
0.0
  0
LINE
  5
24D
  8
LAYER_1
 10
5.574824924294154
 20
2.076246646850521
 30
0.0
 11
5.526521103514511
 21
2.102029039028665
 31
0.0
  0
LINE
  5
24E
  8
LAYER_1
 10
5.526521103514511
 20
2.102029039028665
 30
0.0
 11
5.506751678812631
 21
2.110748294574691
 31
0.0
  0
LINE
  5
24F
  8
LAYER_1
 10
5.506751678812631
 20
2.110748294574691
 30
0.0
 11
5.495049465369473
 21
2.265873385754588
 31
0.0
  0
LINE
  5
250
  8
LAYER_1
 10
5.495049465369473
 20
2.265873385754588
 30
0.0
 11
5.500043474495541
 21
2.29249261510364
 31
0.0
  0
LINE
  5
251
  8
LAYER_1
 10
5.500043474495541
 20
2.29249261510364
 30
0.0
 11
5.647301286958252
 21
2.287874722577641
 31
0.0
  0
LINE
  5
252
  8
LAYER_1
 10
5.647301286958252
 20
2.287874722577641
 30
0.0
 11
5.846876265405376
 21
2.276539274769334
 31
0.0
  0
LINE
  5
253
  8
LAYER_1
 10
5.846876265405376
 20
2.276539274769334
 30
0.0
 11
5.951511636370338
 21
2.265733863416756
 31
0.0
  0
LINE
  5
254
  8
LAYER_1
 10
5.951511636370338
 20
2.265733863416756
 30
0.0
 11
6.262251928048736
 21
2.192315131260259
 31
0.0
  0
LINE
  5
255
  8
LAYER_1
 10
6.262251928048736
 20
2.192315131260259
 30
0.0
 11
6.404722936899848
 21
2.148926207472584
 31
0.0
  0
LINE
  5
256
  8
LAYER_1
 10
7.929856454481794
 20
1.721833191728123
 30
0.0
 11
7.715124155166066
 21
1.792199650102646
 31
0.0
  0
LINE
  5
257
  8
LAYER_1
 10
7.715124155166066
 20
1.792199650102646
 30
0.0
 11
7.388501323318401
 21
1.868399329622463
 31
0.0
  0
LINE
  5
258
  8
LAYER_1
 10
7.388501323318401
 20
1.868399329622463
 30
0.0
 11
7.24898774274515
 21
1.896357676558623
 31
0.0
  0
LINE
  5
259
  8
LAYER_1
 10
7.24898774274515
 20
1.896357676558623
 30
0.0
 11
6.663030585595077
 21
1.982898039303635
 31
0.0
  0
LINE
  5
25A
  8
LAYER_1
 10
6.663030585595077
 20
1.982898039303635
 30
0.0
 11
6.309339678069001
 21
1.994755063170572
 31
0.0
  0
LINE
  5
25B
  8
LAYER_1
 10
6.309339678069001
 20
1.994755063170572
 30
0.0
 11
6.007317157656448
 21
1.976299226436524
 31
0.0
  0
LINE
  5
25C
  8
LAYER_1
 10
6.007317157656448
 20
1.976299226436524
 30
0.0
 11
5.822313803115099
 21
1.909946410122814
 31
0.0
  0
LINE
  5
25D
  8
LAYER_1
 10
5.822313803115099
 20
1.909946410122814
 30
0.0
 11
5.772465588798136
 21
1.81306135659608
 31
0.0
  0
LINE
  5
25E
  8
LAYER_1
 10
5.772465588798136
 20
1.81306135659608
 30
0.0
 11
5.834450168513728
 21
1.801865579553635
 31
0.0
  0
LINE
  5
25F
  8
LAYER_1
 10
5.834450168513728
 20
1.801865579553635
 30
0.0
 11
6.077073873729065
 21
1.795070990129517
 31
0.0
  0
LINE
  5
260
  8
LAYER_1
 10
6.077073873729065
 20
1.795070990129517
 30
0.0
 11
6.621176555951507
 21
1.777785211468952
 31
0.0
  0
LINE
  5
261
  8
LAYER_1
 10
6.621176555951507
 20
1.777785211468952
 30
0.0
 11
7.105986400582275
 21
1.760025205287803
 31
0.0
  0
LINE
  5
262
  8
LAYER_1
 10
7.105986400582275
 20
1.760025205287803
 30
0.0
 11
7.419891771337067
 21
1.7423766685489
 31
0.0
  0
LINE
  5
263
  8
LAYER_1
 10
7.419891771337067
 20
1.7423766685489
 30
0.0
 11
7.716358037287712
 21
1.722503047377714
 31
0.0
  0
LINE
  5
264
  8
LAYER_1
 10
7.716358037287712
 20
1.722503047377714
 30
0.0
 11
7.883774452718029
 21
1.712527793935209
 31
0.0
  0
LINE
  5
265
  8
LAYER_1
 10
7.883774452718029
 20
1.712527793935209
 30
0.0
 11
7.929856454481794
 21
1.721833191728123
 31
0.0
  0
LINE
  5
266
  8
LAYER_1
 10
7.119526895040305
 20
1.778043327793938
 30
0.0
 11
7.109950467684755
 21
1.786382013899342
 31
0.0
  0
LINE
  5
267
  8
LAYER_1
 10
7.109950467684755
 20
1.786382013899342
 30
0.0
 11
7.121223427297068
 21
1.781532722091768
 31
0.0
  0
LINE
  5
268
  8
LAYER_1
 10
7.121223427297068
 20
1.781532722091768
 30
0.0
 11
7.15320046284668
 21
1.774696275966292
 31
0.0
  0
LINE
  5
269
  8
LAYER_1
 10
7.15320046284668
 20
1.774696275966292
 30
0.0
 11
7.169291395954573
 21
1.791214681768793
 31
0.0
  0
LINE
  5
26A
  8
LAYER_1
 10
7.169291395954573
 20
1.791214681768793
 30
0.0
 11
7.167912054374341
 21
1.815868427290738
 31
0.0
  0
LINE
  5
26B
  8
LAYER_1
 10
7.167912054374341
 20
1.815868427290738
 30
0.0
 11
7.141060238319561
 21
1.832936313619456
 31
0.0
  0
LINE
  5
26C
  8
LAYER_1
 10
7.141060238319561
 20
1.832936313619456
 30
0.0
 11
7.114602053371073
 21
1.855471100742662
 31
0.0
  0
LINE
  5
26D
  8
LAYER_1
 10
7.114602053371073
 20
1.855471100742662
 30
0.0
 11
7.116308827161141
 21
1.885518720473755
 31
0.0
  0
LINE
  5
26E
  8
LAYER_1
 10
7.116308827161141
 20
1.885518720473755
 30
0.0
 11
7.153123725560874
 21
1.899065597336602
 31
0.0
  0
LINE
  5
26F
  8
LAYER_1
 10
7.153123725560874
 20
1.899065597336602
 30
0.0
 11
7.178788562748
 21
1.872181572401701
 31
0.0
  0
LINE
  5
270
  8
LAYER_1
 10
7.178788562748
 20
1.872181572401701
 30
0.0
 11
7.17203761116145
 21
1.877064260513549
 31
0.0
  0
LINE
  5
271
  8
LAYER_1
 10
7.17203761116145
 20
1.877064260513549
 30
0.0
 11
7.145408882419176
 21
1.893393569019906
 31
0.0
  0
LINE
  5
272
  8
LAYER_1
 10
7.145408882419176
 20
1.893393569019906
 30
0.0
 11
7.120249442636624
 21
1.879791180077973
 31
0.0
  0
LINE
  5
273
  8
LAYER_1
 10
7.120249442636624
 20
1.879791180077973
 30
0.0
 11
7.122289734185305
 21
1.853701245044533
 31
0.0
  0
LINE
  5
274
  8
LAYER_1
 10
7.122289734185305
 20
1.853701245044533
 30
0.0
 11
7.148460414061059
 21
1.836751210562866
 31
0.0
  0
LINE
  5
275
  8
LAYER_1
 10
7.148460414061059
 20
1.836751210562866
 30
0.0
 11
7.175299168450167
 21
1.814775106503049
 31
0.0
  0
LINE
  5
276
  8
LAYER_1
 10
7.175299168450167
 20
1.814775106503049
 30
0.0
 11
7.172602676629644
 21
1.781796627109486
 31
0.0
  0
LINE
  5
277
  8
LAYER_1
 10
7.172602676629644
 20
1.781796627109486
 30
0.0
 11
7.149753370534256
 21
1.767693442031558
 31
0.0
  0
LINE
  5
278
  8
LAYER_1
 10
7.149753370534256
 20
1.767693442031558
 30
0.0
 11
7.119526895040305
 21
1.778043327793938
 31
0.0
  0
LINE
  5
279
  8
LAYER_1
 10
6.873595768278388
 20
1.845672476642719
 30
0.0
 11
6.84597286866509
 21
1.917173221938157
 31
0.0
  0
LINE
  5
27A
  8
LAYER_1
 10
6.84597286866509
 20
1.917173221938157
 30
0.0
 11
6.841331969796135
 21
1.861367700652053
 31
0.0
  0
LINE
  5
27B
  8
LAYER_1
 10
6.841331969796135
 20
1.861367700652053
 30
0.0
 11
6.834519420581716
 21
1.791610984579435
 31
0.0
  0
LINE
  5
27C
  8
LAYER_1
 10
6.834519420581716
 20
1.791610984579435
 30
0.0
 11
6.832318678344533
 21
1.818776132182251
 31
0.0
  0
LINE
  5
27D
  8
LAYER_1
 10
6.832318678344533
 20
1.818776132182251
 30
0.0
 11
6.836605576388259
 21
1.899734117134017
 31
0.0
  0
LINE
  5
27E
  8
LAYER_1
 10
6.836605576388259
 20
1.899734117134017
 30
0.0
 11
6.841131295114495
 21
1.945075908367215
 31
0.0
  0
LINE
  5
27F
  8
LAYER_1
 10
6.841131295114495
 20
1.945075908367215
 30
0.0
 11
6.868924738521585
 21
1.873491449669075
 31
0.0
  0
LINE
  5
280
  8
LAYER_1
 10
6.868924738521585
 20
1.873491449669075
 30
0.0
 11
6.896717736644616
 21
1.801900311710071
 31
0.0
  0
LINE
  5
281
  8
LAYER_1
 10
6.896717736644616
 20
1.801900311710071
 30
0.0
 11
6.900596606064209
 21
1.87000368807945
 31
0.0
  0
LINE
  5
282
  8
LAYER_1
 10
6.900596606064209
 20
1.87000368807945
 30
0.0
 11
6.90447562391182
 21
1.938100385187966
 31
0.0
  0
LINE
  5
283
  8
LAYER_1
 10
6.90447562391182
 20
1.938100385187966
 30
0.0
 11
6.905824537748167
 21
1.856136058267623
 31
0.0
  0
LINE
  5
284
  8
LAYER_1
 10
6.905824537748167
 20
1.856136058267623
 30
0.0
 11
6.904194946527959
 21
1.785095736686998
 31
0.0
  0
LINE
  5
285
  8
LAYER_1
 10
6.904194946527959
 20
1.785095736686998
 30
0.0
 11
6.873591167009801
 21
1.845672476642719
 31
0.0
  0
LINE
  5
286
  8
LAYER_1
 10
6.873591167009801
 20
1.845672476642719
 30
0.0
 11
6.873595768278388
 21
1.845672476642719
 31
0.0
  0
LINE
  5
287
  8
LAYER_1
 10
6.938073345000506
 20
1.783484253685103
 30
0.0
 11
6.921342093418801
 21
1.798586804614715
 31
0.0
  0
LINE
  5
288
  8
LAYER_1
 10
6.921342093418801
 20
1.798586804614715
 30
0.0
 11
6.929675287687509
 21
1.795993767123406
 31
0.0
  0
LINE
  5
289
  8
LAYER_1
 10
6.929675287687509
 20
1.795993767123406
 30
0.0
 11
6.96513355399391
 21
1.783352301176251
 31
0.0
  0
LINE
  5
28A
  8
LAYER_1
 10
6.96513355399391
 20
1.783352301176251
 30
0.0
 11
6.987950057497111
 21
1.805271557304806
 31
0.0
  0
LINE
  5
28B
  8
LAYER_1
 10
6.987950057497111
 20
1.805271557304806
 30
0.0
 11
6.985544187737718
 21
1.831012686493679
 31
0.0
  0
LINE
  5
28C
  8
LAYER_1
 10
6.985544187737718
 20
1.831012686493679
 30
0.0
 11
6.952388188433472
 21
1.850962302810586
 31
0.0
  0
LINE
  5
28D
  8
LAYER_1
 10
6.952388188433472
 20
1.850962302810586
 30
0.0
 11
6.914917683473972
 21
1.890250160434277
 31
0.0
  0
LINE
  5
28E
  8
LAYER_1
 10
6.914917683473972
 20
1.890250160434277
 30
0.0
 11
6.941656991090378
 21
1.92747130632192
 31
0.0
  0
LINE
  5
28F
  8
LAYER_1
 10
6.941656991090378
 20
1.92747130632192
 30
0.0
 11
6.97430180429731
 21
1.928917292082673
 31
0.0
  0
LINE
  5
290
  8
LAYER_1
 10
6.97430180429731
 20
1.928917292082673
 30
0.0
 11
6.998675466147464
 21
1.904807386822213
 31
0.0
  0
LINE
  5
291
  8
LAYER_1
 10
6.998675466147464
 20
1.904807386822213
 30
0.0
 11
6.988704517117505
 21
1.908455895956379
 31
0.0
  0
LINE
  5
292
  8
LAYER_1
 10
6.988704517117505
 20
1.908455895956379
 30
0.0
 11
6.961870512425001
 21
1.926631945874675
 31
0.0
  0
LINE
  5
293
  8
LAYER_1
 10
6.961870512425001
 20
1.926631945874675
 30
0.0
 11
6.934803327314704
 21
1.914866353667421
 31
0.0
  0
LINE
  5
294
  8
LAYER_1
 10
6.934803327314704
 20
1.914866353667421
 30
0.0
 11
6.922971090926932
 21
1.883863154350223
 31
0.0
  0
LINE
  5
295
  8
LAYER_1
 10
6.922971090926932
 20
1.883863154350223
 30
0.0
 11
6.950282440128426
 21
1.858489087652259
 31
0.0
  0
LINE
  5
296
  8
LAYER_1
 10
6.950282440128426
 20
1.858489087652259
 30
0.0
 11
6.994310198109726
 21
1.827055743936114
 31
0.0
  0
LINE
  5
297
  8
LAYER_1
 10
6.994310198109726
 20
1.827055743936114
 30
0.0
 11
6.983911924813167
 21
1.788125300982074
 31
0.0
  0
LINE
  5
298
  8
LAYER_1
 10
6.983911924813167
 20
1.788125300982074
 30
0.0
 11
6.938073345000506
 21
1.783486480105395
 31
0.0
  0
LINE
  5
299
  8
LAYER_1
 10
6.938073345000506
 20
1.783486480105395
 30
0.0
 11
6.938073345000506
 21
1.783484253685103
 31
0.0
  0
LINE
  5
29A
  8
LAYER_1
 10
7.007392346845194
 20
1.780036864516646
 30
0.0
 11
7.056885818196832
 21
1.91922241916798
 31
0.0
  0
LINE
  5
29B
  8
LAYER_1
 10
7.056885818196832
 20
1.91922241916798
 30
0.0
 11
7.06705788719249
 21
1.895205429847394
 31
0.0
  0
LINE
  5
29C
  8
LAYER_1
 10
7.06705788719249
 20
1.895205429847394
 30
0.0
 11
7.087988464286731
 21
1.82112352130217
 31
0.0
  0
LINE
  5
29D
  8
LAYER_1
 10
7.087988464286731
 20
1.82112352130217
 30
0.0
 11
7.095361922984814
 21
1.774470071665391
 31
0.0
  0
LINE
  5
29E
  8
LAYER_1
 10
7.095361922984814
 20
1.774470071665391
 30
0.0
 11
7.085533761709101
 21
1.80548395779995
 31
0.0
  0
LINE
  5
29F
  8
LAYER_1
 10
7.085533761709101
 20
1.80548395779995
 30
0.0
 11
7.077576238756389
 21
1.826393606543519
 31
0.0
  0
LINE
  5
2A0
  8
LAYER_1
 10
7.077576238756389
 20
1.826393606543519
 30
0.0
 11
7.053352786061431
 21
1.829975619925179
 31
0.0
  0
LINE
  5
2A1
  8
LAYER_1
 10
7.053352786061431
 20
1.829975619925179
 30
0.0
 11
7.025451435484555
 21
1.821256215951124
 31
0.0
  0
LINE
  5
2A2
  8
LAYER_1
 10
7.025451435484555
 20
1.821256215951124
 30
0.0
 11
7.007392346845194
 21
1.780036864516646
 31
0.0
  0
LINE
  5
2A3
  8
LAYER_1
 10
7.07448997495807
 20
1.842183082344889
 30
0.0
 11
7.065324544787025
 21
1.877710070824065
 31
0.0
  0
LINE
  5
2A4
  8
LAYER_1
 10
7.065324544787025
 20
1.877710070824065
 30
0.0
 11
7.056264646937471
 21
1.907998440801933
 31
0.0
  0
LINE
  5
2A5
  8
LAYER_1
 10
7.056264646937471
 20
1.907998440801933
 30
0.0
 11
7.04753767313445
 21
1.88119783241369
 31
0.0
  0
LINE
  5
2A6
  8
LAYER_1
 10
7.04753767313445
 20
1.88119783241369
 30
0.0
 11
7.03519499278946
 21
1.845670843934514
 31
0.0
  0
LINE
  5
2A7
  8
LAYER_1
 10
7.03519499278946
 20
1.845670843934514
 30
0.0
 11
7.05308769361956
 21
1.836951439960458
 31
0.0
  0
LINE
  5
2A8
  8
LAYER_1
 10
7.05308769361956
 20
1.836951439960458
 30
0.0
 11
7.07448997495807
 21
1.842183082344889
 31
0.0
  0
LINE
  5
2A9
  8
LAYER_1
 10
6.725811926916471
 20
1.783503549327577
 30
0.0
 11
6.777011133062047
 21
1.953256963916473
 31
0.0
  0
LINE
  5
2AA
  8
LAYER_1
 10
6.777011133062047
 20
1.953256963916473
 30
0.0
 11
6.80076852177746
 21
1.872178603841334
 31
0.0
  0
LINE
  5
2AB
  8
LAYER_1
 10
6.80076852177746
 20
1.872178603841334
 30
0.0
 11
6.816749024439243
 21
1.786796128072254
 31
0.0
  0
LINE
  5
2AC
  8
LAYER_1
 10
6.816749024439243
 20
1.786796128072254
 30
0.0
 11
6.806295090635574
 21
1.821444274251149
 31
0.0
  0
LINE
  5
2AD
  8
LAYER_1
 10
6.806295090635574
 20
1.821444274251149
 30
0.0
 11
6.798853651904803
 21
1.843862545379466
 31
0.0
  0
LINE
  5
2AE
  8
LAYER_1
 10
6.798853651904803
 20
1.843862545379466
 30
0.0
 11
6.774956889279581
 21
1.845154759712571
 31
0.0
  0
LINE
  5
2AF
  8
LAYER_1
 10
6.774956889279581
 20
1.845154759712571
 30
0.0
 11
6.750872216782351
 21
1.838450859808035
 31
0.0
  0
LINE
  5
2B0
  8
LAYER_1
 10
6.750872216782351
 20
1.838450859808035
 30
0.0
 11
6.740322101622393
 21
1.811866659471448
 31
0.0
  0
LINE
  5
2B1
  8
LAYER_1
 10
6.740322101622393
 20
1.811866659471448
 30
0.0
 11
6.733669260956379
 21
1.791574471286765
 31
0.0
  0
LINE
  5
2B2
  8
LAYER_1
 10
6.733669260956379
 20
1.791574471286765
 30
0.0
 11
6.725811926916471
 21
1.783503549327577
 31
0.0
  0
LINE
  5
2B3
  8
LAYER_1
 10
6.795433870347868
 20
1.859622187149029
 30
0.0
 11
6.786498355178201
 21
1.902278470235103
 31
0.0
  0
LINE
  5
2B4
  8
LAYER_1
 10
6.786498355178201
 20
1.902278470235103
 30
0.0
 11
6.777696870509661
 21
1.936222028607972
 31
0.0
  0
LINE
  5
2B5
  8
LAYER_1
 10
6.777696870509661
 20
1.936222028607972
 30
0.0
 11
6.765705964569618
 21
1.898176958787062
 31
0.0
  0
LINE
  5
2B6
  8
LAYER_1
 10
6.765705964569618
 20
1.898176958787062
 30
0.0
 11
6.755202158951576
 21
1.856270682480826
 31
0.0
  0
LINE
  5
2B7
  8
LAYER_1
 10
6.755202158951576
 20
1.856270682480826
 30
0.0
 11
6.774641479739282
 21
1.850902783174973
 31
0.0
  0
LINE
  5
2B8
  8
LAYER_1
 10
6.774641479739282
 20
1.850902783174973
 30
0.0
 11
6.795433870347868
 21
1.859622187149029
 31
0.0
  0
LINE
  5
2B9
  8
LAYER_1
 10
6.676280754848014
 20
1.826683041180488
 30
0.0
 11
6.645591480790934
 21
1.865244640507399
 31
0.0
  0
LINE
  5
2BA
  8
LAYER_1
 10
6.645591480790934
 20
1.865244640507399
 30
0.0
 11
6.639510384853969
 21
1.795153070824
 31
0.0
  0
LINE
  5
2BB
  8
LAYER_1
 10
6.639510384853969
 20
1.795153070824
 30
0.0
 11
6.637601303674051
 21
1.810280706088804
 31
0.0
  0
LINE
  5
2BC
  8
LAYER_1
 10
6.637601303674051
 20
1.810280706088804
 30
0.0
 11
6.637608576646981
 21
1.882293231193643
 31
0.0
  0
LINE
  5
2BD
  8
LAYER_1
 10
6.637608576646981
 20
1.882293231193643
 30
0.0
 11
6.639491831351599
 21
1.944743874888786
 31
0.0
  0
LINE
  5
2BE
  8
LAYER_1
 10
6.639491831351599
 20
1.944743874888786
 30
0.0
 11
6.642319533540885
 21
1.951157004304179
 31
0.0
  0
LINE
  5
2BF
  8
LAYER_1
 10
6.642319533540885
 20
1.951157004304179
 30
0.0
 11
6.642851499560855
 21
1.882655989271996
 31
0.0
  0
LINE
  5
2C0
  8
LAYER_1
 10
6.642851499560855
 20
1.882655989271996
 30
0.0
 11
6.678049274693972
 21
1.920841026714783
 31
0.0
  0
LINE
  5
2C1
  8
LAYER_1
 10
6.678049274693972
 20
1.920841026714783
 30
0.0
 11
6.713246752971054
 21
1.959025618873525
 31
0.0
  0
LINE
  5
2C2
  8
LAYER_1
 10
6.713246752971054
 20
1.959025618873525
 30
0.0
 11
6.678331733214062
 21
1.916983382501911
 31
0.0
  0
LINE
  5
2C3
  8
LAYER_1
 10
6.678331733214062
 20
1.916983382501911
 30
0.0
 11
6.643416268173013
 21
1.874933724729345
 31
0.0
  0
LINE
  5
2C4
  8
LAYER_1
 10
6.643416268173013
 20
1.874933724729345
 30
0.0
 11
6.663852431536082
 21
1.850714279590889
 31
0.0
  0
LINE
  5
2C5
  8
LAYER_1
 10
6.663852431536082
 20
1.850714279590889
 30
0.0
 11
6.709890943890292
 21
1.788121441853591
 31
0.0
  0
LINE
  5
2C6
  8
LAYER_1
 10
6.709890943890292
 20
1.788121441853591
 30
0.0
 11
6.676281645416129
 21
1.826683041180488
 31
0.0
  0
LINE
  5
2C7
  8
LAYER_1
 10
6.676281645416129
 20
1.826683041180488
 30
0.0
 11
6.676280754848014
 21
1.826683041180488
 31
0.0
  0
LINE
  5
2C8
  8
LAYER_1
 10
6.347381334045476
 20
1.800021955130077
 30
0.0
 11
6.363076558054811
 21
1.825901864516681
 31
0.0
  0
LINE
  5
2C9
  8
LAYER_1
 10
6.363076558054811
 20
1.825901864516681
 30
0.0
 11
6.367565021348288
 21
1.911995607352637
 31
0.0
  0
LINE
  5
2CA
  8
LAYER_1
 10
6.367565021348288
 20
1.911995607352637
 30
0.0
 11
6.369340072027081
 21
1.967534255060656
 31
0.0
  0
LINE
  5
2CB
  8
LAYER_1
 10
6.369340072027081
 20
1.967534255060656
 30
0.0
 11
6.355358004212633
 21
1.978383155822783
 31
0.0
  0
LINE
  5
2CC
  8
LAYER_1
 10
6.355358004212633
 20
1.978383155822783
 30
0.0
 11
6.36656431964443
 21
1.982387892202453
 31
0.0
  0
LINE
  5
2CD
  8
LAYER_1
 10
6.36656431964443
 20
1.982387892202453
 30
0.0
 11
6.386452783617523
 21
1.978104556431191
 31
0.0
  0
LINE
  5
2CE
  8
LAYER_1
 10
6.386452783617523
 20
1.978104556431191
 30
0.0
 11
6.373389485240462
 21
1.88820229905663
 31
0.0
  0
LINE
  5
2CF
  8
LAYER_1
 10
6.373389485240462
 20
1.88820229905663
 30
0.0
 11
6.381403707696418
 21
1.800071381660402
 31
0.0
  0
LINE
  5
2D0
  8
LAYER_1
 10
6.381403707696418
 20
1.800071381660402
 30
0.0
 11
6.363076558054811
 21
1.796854204349344
 31
0.0
  0
LINE
  5
2D1
  8
LAYER_1
 10
6.363076558054811
 20
1.796854204349344
 30
0.0
 11
6.347381334045476
 21
1.80002106456196
 31
0.0
  0
LINE
  5
2D2
  8
LAYER_1
 10
6.347381334045476
 20
1.80002106456196
 30
0.0
 11
6.347381334045476
 21
1.800021955130077
 31
0.0
  0
LINE
  5
2D3
  8
LAYER_1
 10
6.474687452199014
 20
1.797286575168585
 30
0.0
 11
6.525836044390125
 21
1.97413395849587
 31
0.0
  0
LINE
  5
2D4
  8
LAYER_1
 10
6.525836044390125
 20
1.97413395849587
 30
0.0
 11
6.55011189217578
 21
1.88796303309006
 31
0.0
  0
LINE
  5
2D5
  8
LAYER_1
 10
6.55011189217578
 20
1.88796303309006
 30
0.0
 11
6.568595781805414
 21
1.795995993543698
 31
0.0
  0
LINE
  5
2D6
  8
LAYER_1
 10
6.568595781805414
 20
1.795995993543698
 30
0.0
 11
6.5578816536845
 21
1.82563543622264
 31
0.0
  0
LINE
  5
2D7
  8
LAYER_1
 10
6.5578816536845
 20
1.82563543622264
 30
0.0
 11
6.547275284305353
 21
1.853451885972675
 31
0.0
  0
LINE
  5
2D8
  8
LAYER_1
 10
6.547275284305353
 20
1.853451885972675
 30
0.0
 11
6.523517005021827
 21
1.857876970502048
 31
0.0
  0
LINE
  5
2D9
  8
LAYER_1
 10
6.523517005021827
 20
1.857876970502048
 30
0.0
 11
6.499815276813525
 21
1.853521201857532
 31
0.0
  0
LINE
  5
2DA
  8
LAYER_1
 10
6.499815276813525
 20
1.853521201857532
 30
0.0
 11
6.4893663895625
 21
1.826486522483378
 31
0.0
  0
LINE
  5
2DB
  8
LAYER_1
 10
6.4893663895625
 20
1.826486522483378
 30
0.0
 11
6.478074728019799
 21
1.795096074464709
 31
0.0
  0
LINE
  5
2DC
  8
LAYER_1
 10
6.478074728019799
 20
1.795096074464709
 30
0.0
 11
6.474685819490805
 21
1.797287020452643
 31
0.0
  0
LINE
  5
2DD
  8
LAYER_1
 10
6.474685819490805
 20
1.797287020452643
 30
0.0
 11
6.474687452199014
 21
1.797286575168585
 31
0.0
  0
LINE
  5
2DE
  8
LAYER_1
 10
6.544309840914469
 20
1.877059956101007
 30
0.0
 11
6.535191610853458
 21
1.923922837672535
 31
0.0
  0
LINE
  5
2DF
  8
LAYER_1
 10
6.535191610853458
 20
1.923922837672535
 30
0.0
 11
6.526208005005648
 21
1.958578108396353
 31
0.0
  0
LINE
  5
2E0
  8
LAYER_1
 10
6.526208005005648
 20
1.958578108396353
 30
0.0
 11
6.514399368672892
 21
1.916486593922429
 31
0.0
  0
LINE
  5
2E1
  8
LAYER_1
 10
6.514399368672892
 20
1.916486593922429
 30
0.0
 11
6.504095050312341
 21
1.870524967282051
 31
0.0
  0
LINE
  5
2E2
  8
LAYER_1
 10
6.504095050312341
 20
1.870524967282051
 30
0.0
 11
6.523517005021827
 21
1.864852938965356
 31
0.0
  0
LINE
  5
2E3
  8
LAYER_1
 10
6.523517005021827
 20
1.864852938965356
 30
0.0
 11
6.544309840914469
 21
1.877059956101007
 31
0.0
  0
LINE
  5
2E4
  8
LAYER_1
 10
5.959368079842133
 20
1.827525815472171
 30
0.0
 11
5.932930674816301
 21
1.946258879678354
 31
0.0
  0
LINE
  5
2E5
  8
LAYER_1
 10
5.932930674816301
 20
1.946258879678354
 30
0.0
 11
5.952181492019923
 21
1.882508154965109
 31
0.0
  0
LINE
  5
2E6
  8
LAYER_1
 10
5.952181492019923
 20
1.882508154965109
 30
0.0
 11
5.968304485579912
 21
1.815625450623699
 31
0.0
  0
LINE
  5
2E7
  8
LAYER_1
 10
5.968304485579912
 20
1.815625450623699
 30
0.0
 11
5.984242240972233
 21
1.86922666740017
 31
0.0
  0
LINE
  5
2E8
  8
LAYER_1
 10
5.984242240972233
 20
1.86922666740017
 30
0.0
 11
6.003045250842639
 21
1.925687646818034
 31
0.0
  0
LINE
  5
2E9
  8
LAYER_1
 10
6.003045250842639
 20
1.925687646818034
 30
0.0
 11
6.018687189193166
 21
1.874353519603204
 31
0.0
  0
LINE
  5
2EA
  8
LAYER_1
 10
6.018687189193166
 20
1.874353519603204
 30
0.0
 11
6.031464021493624
 21
1.82015962974701
 31
0.0
  0
LINE
  5
2EB
  8
LAYER_1
 10
6.031464021493624
 20
1.82015962974701
 30
0.0
 11
6.042637682761251
 21
1.887844439102906
 31
0.0
  0
LINE
  5
2EC
  8
LAYER_1
 10
6.042637682761251
 20
1.887844439102906
 30
0.0
 11
6.059033783876135
 21
1.96074723546549
 31
0.0
  0
LINE
  5
2ED
  8
LAYER_1
 10
6.059033783876135
 20
1.96074723546549
 30
0.0
 11
6.060319764232441
 21
1.948546897590688
 31
0.0
  0
LINE
  5
2EE
  8
LAYER_1
 10
6.060319764232441
 20
1.948546897590688
 30
0.0
 11
6.045979242752193
 21
1.869100948868109
 31
0.0
  0
LINE
  5
2EF
  8
LAYER_1
 10
6.045979242752193
 20
1.869100948868109
 30
0.0
 11
6.032613448072485
 21
1.804115451465094
 31
0.0
  0
LINE
  5
2F0
  8
LAYER_1
 10
6.032613448072485
 20
1.804115451465094
 30
0.0
 11
6.016902787549178
 21
1.855233319056282
 31
0.0
  0
LINE
  5
2F1
  8
LAYER_1
 10
6.016902787549178
 20
1.855233319056282
 30
0.0
 11
6.004153562860246
 21
1.909308763353351
 31
0.0
  0
LINE
  5
2F2
  8
LAYER_1
 10
6.004153562860246
 20
1.909308763353351
 30
0.0
 11
5.987995095003726
 21
1.857716668241565
 31
0.0
  0
LINE
  5
2F3
  8
LAYER_1
 10
5.987995095003726
 20
1.857716668241565
 30
0.0
 11
5.96910866858666
 21
1.803389935308402
 31
0.0
  0
LINE
  5
2F4
  8
LAYER_1
 10
5.96910866858666
 20
1.803389935308402
 30
0.0
 11
5.959368970410246
 21
1.827525815472171
 31
0.0
  0
LINE
  5
2F5
  8
LAYER_1
 10
5.959368970410246
 20
1.827525815472171
 30
0.0
 11
5.959368079842133
 21
1.827525815472171
 31
0.0
  0
LINE
  5
2F6
  8
LAYER_1
 10
6.0778082955669
 20
1.806682365625065
 30
0.0
 11
6.093461662874887
 21
1.866910596592248
 31
0.0
  0
LINE
  5
2F7
  8
LAYER_1
 10
6.093461662874887
 20
1.866910596592248
 30
0.0
 11
6.097267654137166
 21
1.949188700344692
 31
0.0
  0
LINE
  5
2F8
  8
LAYER_1
 10
6.097267654137166
 20
1.949188700344692
 30
0.0
 11
6.082305516113497
 21
1.963139895131192
 31
0.0
  0
LINE
  5
2F9
  8
LAYER_1
 10
6.082305516113497
 20
1.963139895131192
 30
0.0
 11
6.089925662179102
 21
1.970485300933689
 31
0.0
  0
LINE
  5
2FA
  8
LAYER_1
 10
6.089925662179102
 20
1.970485300933689
 30
0.0
 11
6.121316110197769
 21
1.973890981828831
 31
0.0
  0
LINE
  5
2FB
  8
LAYER_1
 10
6.121316110197769
 20
1.973890981828831
 30
0.0
 11
6.115439844926975
 21
1.969970107279863
 31
0.0
  0
LINE
  5
2FC
  8
LAYER_1
 10
6.115439844926975
 20
1.969970107279863
 30
0.0
 11
6.099546024228268
 21
1.889749661154326
 31
0.0
  0
LINE
  5
2FD
  8
LAYER_1
 10
6.099546024228268
 20
1.889749661154326
 30
0.0
 11
6.110009754281188
 21
1.806920741023518
 31
0.0
  0
LINE
  5
2FE
  8
LAYER_1
 10
6.110009754281188
 20
1.806920741023518
 30
0.0
 11
6.09451297853321
 21
1.803691095758879
 31
0.0
  0
LINE
  5
2FF
  8
LAYER_1
 10
6.09451297853321
 20
1.803691095758879
 30
0.0
 11
6.0778082955669
 21
1.806681920341006
 31
0.0
  0
LINE
  5
300
  8
LAYER_1
 10
6.0778082955669
 20
1.806681920341006
 30
0.0
 11
6.0778082955669
 21
1.806682365625065
 31
0.0
  0
LINE
  5
301
  8
LAYER_1
 10
6.151399649509457
 20
1.814830321726106
 30
0.0
 11
6.13985491819442
 21
1.888388724648451
 31
0.0
  0
LINE
  5
302
  8
LAYER_1
 10
6.13985491819442
 20
1.888388724648451
 30
0.0
 11
6.156977277606094
 21
1.96631387988873
 31
0.0
  0
LINE
  5
303
  8
LAYER_1
 10
6.156977277606094
 20
1.96631387988873
 30
0.0
 11
6.18487996403514
 21
1.97797735361894
 31
0.0
  0
LINE
  5
304
  8
LAYER_1
 10
6.18487996403514
 20
1.97797735361894
 30
0.0
 11
6.208173366763273
 21
1.970435725975364
 31
0.0
  0
LINE
  5
305
  8
LAYER_1
 10
6.208173366763273
 20
1.970435725975364
 30
0.0
 11
6.219614495321071
 21
1.94681682060164
 31
0.0
  0
LINE
  5
306
  8
LAYER_1
 10
6.219614495321071
 20
1.94681682060164
 30
0.0
 11
6.215117571630515
 21
1.95363931449333
 31
0.0
  0
LINE
  5
307
  8
LAYER_1
 10
6.215117571630515
 20
1.95363931449333
 30
0.0
 11
6.192611876399024
 21
1.971705527677599
 31
0.0
  0
LINE
  5
308
  8
LAYER_1
 10
6.192611876399024
 20
1.971705527677599
 30
0.0
 11
6.168103590335672
 21
1.969676368230338
 31
0.0
  0
LINE
  5
309
  8
LAYER_1
 10
6.168103590335672
 20
1.969676368230338
 30
0.0
 11
6.150261058175982
 21
1.943920396239577
 31
0.0
  0
LINE
  5
30A
  8
LAYER_1
 10
6.150261058175982
 20
1.943920396239577
 30
0.0
 11
6.148250006947038
 21
1.876027787657122
 31
0.0
  0
LINE
  5
30B
  8
LAYER_1
 10
6.148250006947038
 20
1.876027787657122
 30
0.0
 11
6.161445999973051
 21
1.813986360010276
 31
0.0
  0
LINE
  5
30C
  8
LAYER_1
 10
6.161445999973051
 20
1.813986360010276
 30
0.0
 11
6.210162450645411
 21
1.828362801071108
 31
0.0
  0
LINE
  5
30D
  8
LAYER_1
 10
6.210162450645411
 20
1.828362801071108
 30
0.0
 11
6.214609947805656
 21
1.830582987378776
 31
0.0
  0
LINE
  5
30E
  8
LAYER_1
 10
6.214609947805656
 20
1.830582987378776
 30
0.0
 11
6.177969007044148
 21
1.802073230352164
 31
0.0
  0
LINE
  5
30F
  8
LAYER_1
 10
6.177969007044148
 20
1.802073230352164
 30
0.0
 11
6.151399649509457
 21
1.814832102862326
 31
0.0
  0
LINE
  5
310
  8
LAYER_1
 10
6.151399649509457
 20
1.814832102862326
 30
0.0
 11
6.151399649509457
 21
1.814830321726106
 31
0.0
  0
LINE
  5
311
  8
LAYER_1
 10
6.232794606549058
 20
1.840438014125923
 30
0.0
 11
6.237298209500469
 21
1.934609803465989
 31
0.0
  0
LINE
  5
312
  8
LAYER_1
 10
6.237298209500469
 20
1.934609803465989
 30
0.0
 11
6.241737691547691
 21
1.981464966780536
 31
0.0
  0
LINE
  5
313
  8
LAYER_1
 10
6.241737691547691
 20
1.981464966780536
 30
0.0
 11
6.24336297835535
 21
1.93984129742239
 31
0.0
  0
LINE
  5
314
  8
LAYER_1
 10
6.24336297835535
 20
1.93984129742239
 30
0.0
 11
6.244489843875325
 21
1.892755625394401
 31
0.0
  0
LINE
  5
315
  8
LAYER_1
 10
6.244489843875325
 20
1.892755625394401
 30
0.0
 11
6.275880291893992
 21
1.892755625394401
 31
0.0
  0
LINE
  5
316
  8
LAYER_1
 10
6.275880291893992
 20
1.892755625394401
 30
0.0
 11
6.30727073991266
 21
1.892755625394401
 31
0.0
  0
LINE
  5
317
  8
LAYER_1
 10
6.30727073991266
 20
1.892755625394401
 30
0.0
 11
6.308489779232414
 21
1.93984129742239
 31
0.0
  0
LINE
  5
318
  8
LAYER_1
 10
6.308489779232414
 20
1.93984129742239
 30
0.0
 11
6.310766071331248
 21
1.973852093687867
 31
0.0
  0
LINE
  5
319
  8
LAYER_1
 10
6.310766071331248
 20
1.973852093687867
 30
0.0
 11
6.313555924375699
 21
1.97392452656112
 31
0.0
  0
LINE
  5
31A
  8
LAYER_1
 10
6.313555924375699
 20
1.97392452656112
 30
0.0
 11
6.308318790154566
 21
1.853426653209439
 31
0.0
  0
LINE
  5
31B
  8
LAYER_1
 10
6.308318790154566
 20
1.853426653209439
 30
0.0
 11
6.303706389465253
 21
1.800279774599019
 31
0.0
  0
LINE
  5
31C
  8
LAYER_1
 10
6.303706389465253
 20
1.800279774599019
 30
0.0
 11
6.300758163724566
 21
1.830260453293562
 31
0.0
  0
LINE
  5
31D
  8
LAYER_1
 10
6.300758163724566
 20
1.830260453293562
 30
0.0
 11
6.300297294725683
 21
1.885779805359121
 31
0.0
  0
LINE
  5
31E
  8
LAYER_1
 10
6.300297294725683
 20
1.885779805359121
 30
0.0
 11
6.269239473897514
 21
1.885779805359121
 31
0.0
  0
LINE
  5
31F
  8
LAYER_1
 10
6.269239473897514
 20
1.885779805359121
 30
0.0
 11
6.238181653069345
 21
1.885779805359121
 31
0.0
  0
LINE
  5
320
  8
LAYER_1
 10
6.238181653069345
 20
1.885779805359121
 30
0.0
 11
6.235706022141041
 21
1.842181746492713
 31
0.0
  0
LINE
  5
321
  8
LAYER_1
 10
6.235706022141041
 20
1.842181746492713
 30
0.0
 11
6.233230242784718
 21
1.798583836054334
 31
0.0
  0
LINE
  5
322
  8
LAYER_1
 10
6.233230242784718
 20
1.798583836054334
 30
0.0
 11
6.232798910961607
 21
1.840438014125923
 31
0.0
  0
LINE
  5
323
  8
LAYER_1
 10
6.232798910961607
 20
1.840438014125923
 30
0.0
 11
6.232799207817646
 21
1.840438014125923
 31
0.0
  0
LINE
  5
324
  8
LAYER_1
 10
6.232799207817646
 20
1.840438014125923
 30
0.0
 11
6.232794606549058
 21
1.840438014125923
 31
0.0
  0
LINE
  5
325
  8
LAYER_1
 10
6.437850141168418
 20
1.886979549036397
 30
0.0
 11
6.441423248868942
 21
1.975382238135367
 31
0.0
  0
LINE
  5
326
  8
LAYER_1
 10
6.441423248868942
 20
1.975382238135367
 30
0.0
 11
6.421432221134747
 21
1.978368906732953
 31
0.0
  0
LINE
  5
327
  8
LAYER_1
 10
6.421432221134747
 20
1.978368906732953
 30
0.0
 11
6.401441638684606
 21
1.981347263361499
 31
0.0
  0
LINE
  5
328
  8
LAYER_1
 10
6.401441638684606
 20
1.981347263361499
 30
0.0
 11
6.422368505078371
 21
1.981682413828324
 31
0.0
  0
LINE
  5
329
  8
LAYER_1
 10
6.422368505078371
 20
1.981682413828324
 30
0.0
 11
6.46073492156034
 21
1.976443646898972
 31
0.0
  0
LINE
  5
32A
  8
LAYER_1
 10
6.46073492156034
 20
1.976443646898972
 30
0.0
 11
6.463424140407934
 21
1.97016573540887
 31
0.0
  0
LINE
  5
32B
  8
LAYER_1
 10
6.463424140407934
 20
1.97016573540887
 30
0.0
 11
6.441474456535484
 21
1.884015738353725
 31
0.0
  0
LINE
  5
32C
  8
LAYER_1
 10
6.441474456535484
 20
1.884015738353725
 30
0.0
 11
6.434276885039871
 21
1.798563798271772
 31
0.0
  0
LINE
  5
32D
  8
LAYER_1
 10
6.434276885039871
 20
1.798563798271772
 30
0.0
 11
6.437850141168418
 21
1.886959808109879
 31
0.0
  0
LINE
  5
32E
  8
LAYER_1
 10
6.437850141168418
 20
1.886959808109879
 30
0.0
 11
6.437850141168418
 21
1.886979549036397
 31
0.0
  0
LINE
  5
32F
  8
LAYER_1
 10
7.290722436261468
 20
1.932865477387111
 30
0.0
 11
7.258262712794185
 21
2.083795695895034
 31
0.0
  0
LINE
  5
330
  8
LAYER_1
 10
7.258262712794185
 20
2.083795695895034
 30
0.0
 11
7.170822430970191
 21
2.238351417194181
 31
0.0
  0
LINE
  5
331
  8
LAYER_1
 10
7.170822430970191
 20
2.238351417194181
 30
0.0
 11
7.072800567246219
 21
2.351002643323312
 31
0.0
  0
LINE
  5
332
  8
LAYER_1
 10
7.072800567246219
 20
2.351002643323312
 30
0.0
 11
6.980221855833699
 21
2.407197788159195
 31
0.0
  0
LINE
  5
333
  8
LAYER_1
 10
6.980221855833699
 20
2.407197788159195
 30
0.0
 11
6.917643267186211
 21
2.43337054602722
 31
0.0
  0
LINE
  5
334
  8
LAYER_1
 10
6.917643267186211
 20
2.43337054602722
 30
0.0
 11
6.80254416616833
 21
2.43337054602722
 31
0.0
  0
LINE
  5
335
  8
LAYER_1
 10
6.80254416616833
 20
2.43337054602722
 30
0.0
 11
6.667119777517542
 21
2.423831225676409
 31
0.0
  0
LINE
  5
336
  8
LAYER_1
 10
6.667119777517542
 20
2.423831225676409
 30
0.0
 11
6.585156934877384
 21
2.373086654552921
 31
0.0
  0
LINE
  5
337
  8
LAYER_1
 10
6.585156934877384
 20
2.373086654552921
 30
0.0
 11
6.426653473557849
 21
2.182511163751627
 31
0.0
  0
LINE
  5
338
  8
LAYER_1
 10
6.426653473557849
 20
2.182511163751627
 30
0.0
 11
6.405279987255021
 21
2.148888506755768
 31
0.0
  0
LINE
  5
339
  8
LAYER_1
 10
6.405279987255021
 20
2.148888506755768
 30
0.0
 11
6.445675117900191
 21
2.105778924499774
 31
0.0
  0
LINE
  5
33A
  8
LAYER_1
 10
6.445675117900191
 20
2.105778924499774
 30
0.0
 11
6.50883806765834
 21
2.031745997200801
 31
0.0
  0
LINE
  5
33B
  8
LAYER_1
 10
6.50883806765834
 20
2.031745997200801
 30
0.0
 11
6.536888143110218
 21
2.004449936085265
 31
0.0
  0
LINE
  5
33C
  8
LAYER_1
 10
6.536888143110218
 20
2.004449936085265
 30
0.0
 11
6.648779269354229
 21
1.998018550023545
 31
0.0
  0
LINE
  5
33D
  8
LAYER_1
 10
6.648779269354229
 20
1.998018550023545
 30
0.0
 11
6.78569328160334
 21
1.980321032038376
 31
0.0
  0
LINE
  5
33E
  8
LAYER_1
 10
6.78569328160334
 20
1.980321032038376
 30
0.0
 11
6.813027934003809
 21
1.975982481044056
 31
0.0
  0
LINE
  5
33F
  8
LAYER_1
 10
6.813027934003809
 20
1.975982481044056
 30
0.0
 11
6.810820364077754
 21
2.129119527337934
 31
0.0
  0
LINE
  5
340
  8
LAYER_1
 10
6.810820364077754
 20
2.129119527337934
 30
0.0
 11
6.822811715301857
 21
2.353150099901683
 31
0.0
  0
LINE
  5
341
  8
LAYER_1
 10
6.822811715301857
 20
2.353150099901683
 30
0.0
 11
6.827079911415192
 21
2.360700781654415
 31
0.0
  0
LINE
  5
342
  8
LAYER_1
 10
6.827079911415192
 20
2.360700781654415
 30
0.0
 11
6.827625829668941
 21
2.333488285513553
 31
0.0
  0
LINE
  5
343
  8
LAYER_1
 10
6.827625829668941
 20
2.333488285513553
 30
0.0
 11
6.824453774475657
 21
2.194453533729472
 31
0.0
  0
LINE
  5
344
  8
LAYER_1
 10
6.824453774475657
 20
2.194453533729472
 30
0.0
 11
6.829401028775752
 21
1.977579714956136
 31
0.0
  0
LINE
  5
345
  8
LAYER_1
 10
6.829401028775752
 20
1.977579714956136
 30
0.0
 11
7.24514983945879
 21
1.909650593081011
 31
0.0
  0
LINE
  5
346
  8
LAYER_1
 10
7.24514983945879
 20
1.909650593081011
 30
0.0
 11
7.288466627229255
 21
1.902577107409258
 31
0.0
  0
LINE
  5
347
  8
LAYER_1
 10
7.288466627229255
 20
1.902577107409258
 30
0.0
 11
7.290724514253736
 21
1.932865477387111
 31
0.0
  0
LINE
  5
348
  8
LAYER_1
 10
7.290724514253736
 20
1.932865477387111
 30
0.0
 11
7.290722436261468
 21
1.932865477387111
 31
0.0
  0
LINE
  5
349
  8
LAYER_1
 10
6.814930632778912
 20
1.650287621170946
 30
0.0
 11
6.819393121169071
 21
1.740253108881589
 31
0.0
  0
LINE
  5
34A
  8
LAYER_1
 10
6.819393121169071
 20
1.740253108881589
 30
0.0
 11
6.822030835494086
 21
1.676509360285223
 31
0.0
  0
LINE
  5
34B
  8
LAYER_1
 10
6.822030835494086
 20
1.676509360285223
 30
0.0
 11
6.817636178708593
 21
1.584018963543997
 31
0.0
  0
LINE
  5
34C
  8
LAYER_1
 10
6.817636178708593
 20
1.584018963543997
 30
0.0
 11
6.814930187494856
 21
1.650287621170946
 31
0.0
  0
LINE
  5
34D
  8
LAYER_1
 10
6.814930187494856
 20
1.650287621170946
 30
0.0
 11
6.814930632778912
 21
1.650287621170946
 31
0.0
  0
ENDSEC
  0
EOF
