  0
SECTION
  2
HEADER
  9
$ACADVER
  1
AC1009
  9
$DWGCODEPAGE
  3
ansi_1252
  9
$INSBASE
 10
0.0
 20
0.0
 30
0.0
  9
$EXTMIN
 10
1.0
 20
0.7034844902519239
 30
0.0
  9
$EXTMAX
 10
9.0
 20
3.296515509748104
 30
0.0
  9
$LIMMIN
 10
0.0
 20
0.0
  9
$LIMMAX
 10
12.0
 20
9.0
  9
$ORTHOMODE
 70
     0
  9
$REGENMODE
 70
     1
  9
$FILLMODE
 70
     1
  9
$QTEXTMODE
 70
     0
  9
$MIRRTEXT
 70
     1
  9
$DRAGMODE
 70
     2
  9
$LTSCALE
 40
1.0
  9
$OSMODE
 70
    37
  9
$ATTMODE
 70
     1
  9
$TEXTSIZE
 40
0.2
  9
$TRACEWID
 40
0.05
  9
$TEXTSTYLE
  7
STANDARD
  9
$CLAYER
  8
0
  9
$CELTYPE
  6
BYLAYER
  9
$CECOLOR
 62
   256
  9
$DIMSCALE
 40
1.0
  9
$DIMASZ
 40
0.18
  9
$DIMEXO
 40
0.0625
  9
$DIMDLI
 40
0.38
  9
$DIMRND
 40
0.0
  9
$DIMDLE
 40
0.0
  9
$DIMEXE
 40
0.18
  9
$DIMTP
 40
0.0
  9
$DIMTM
 40
0.0
  9
$DIMTXT
 40
0.18
  9
$DIMCEN
 40
0.09
  9
$DIMTSZ
 40
0.0
  9
$DIMTOL
 70
     0
  9
$DIMLIM
 70
     0
  9
$DIMTIH
 70
     1
  9
$DIMTOH
 70
     1
  9
$DIMSE1
 70
     0
  9
$DIMSE2
 70
     0
  9
$DIMTAD
 70
     0
  9
$DIMZIN
 70
     0
  9
$DIMBLK
  1

  9
$DIMASO
 70
     1
  9
$DIMSHO
 70
     1
  9
$DIMPOST
  1

  9
$DIMAPOST
  1

  9
$DIMALT
 70
     0
  9
$DIMALTD
 70
     2
  9
$DIMALTF
 40
25.4
  9
$DIMLFAC
 40
1.0
  9
$DIMTOFL
 70
     0
  9
$DIMTVP
 40
0.0
  9
$DIMTIX
 70
     0
  9
$DIMSOXD
 70
     0
  9
$DIMSAH
 70
     0
  9
$DIMBLK1
  1

  9
$DIMBLK2
  1

  9
$DIMSTYLE
  2
STANDARD
  9
$DIMCLRD
 70
     0
  9
$DIMCLRE
 70
     0
  9
$DIMCLRT
 70
     0
  9
$DIMTFAC
 40
1.0
  9
$DIMGAP
 40
0.09
  9
$LUNITS
 70
     2
  9
$LUPREC
 70
     4
  9
$SKETCHINC
 40
0.1
  9
$FILLETRAD
 40
0.5
  9
$AUNITS
 70
     0
  9
$AUPREC
 70
     0
  9
$MENU
  1
.
  9
$ELEVATION
 40
0.0
  9
$PELEVATION
 40
0.0
  9
$THICKNESS
 40
0.0
  9
$LIMCHECK
 70
     0
  9
$CHAMFERA
 40
0.5
  9
$CHAMFERB
 40
0.5
  9
$SKPOLY
 70
     0
  9
$TDCREATE
 40
2454910.5
  9
$TDUPDATE
 40
2455344.944221435
  9
$TDINDWG
 40
0.0000000116
  9
$TDUSRTIMER
 40
0.0000000116
  9
$USRTIMER
 70
     1
  9
$ANGBASE
 50
0.0
  9
$ANGDIR
 70
     0
  9
$PDMODE
 70
     0
  9
$PDSIZE
 40
0.0
  9
$PLINEWID
 40
0.0
  9
$COORDS
 70
     1
  9
$SPLFRAME
 70
     0
  9
$SPLINETYPE
 70
     6
  9
$SPLINESEGS
 70
     8
  9
$ATTDIA
 70
     0
  9
$ATTREQ
 70
     1
  9
$HANDLING
 70
     1
  9
$HANDSEED
  5
4FB
  9
$SURFTAB1
 70
     6
  9
$SURFTAB2
 70
     6
  9
$SURFTYPE
 70
     6
  9
$SURFU
 70
     6
  9
$SURFV
 70
     6
  9
$UCSNAME
  2

  9
$UCSORG
 10
0.0
 20
0.0
 30
0.0
  9
$UCSXDIR
 10
1.0
 20
0.0
 30
0.0
  9
$UCSYDIR
 10
0.0
 20
1.0
 30
0.0
  9
$PUCSNAME
  2

  9
$PUCSORG
 10
0.0
 20
0.0
 30
0.0
  9
$PUCSXDIR
 10
1.0
 20
0.0
 30
0.0
  9
$PUCSYDIR
 10
0.0
 20
1.0
 30
0.0
  9
$USERI1
 70
     0
  9
$USERI2
 70
     0
  9
$USERI3
 70
     0
  9
$USERI4
 70
     0
  9
$USERI5
 70
     0
  9
$USERR1
 40
0.0
  9
$USERR2
 40
0.0
  9
$USERR3
 40
0.0
  9
$USERR4
 40
0.0
  9
$USERR5
 40
0.0
  9
$WORLDVIEW
 70
     1
  9
$SHADEDGE
 70
     3
  9
$SHADEDIF
 70
    70
  9
$TILEMODE
 70
     1
  9
$MAXACTVP
 70
    64
  9
$PLIMCHECK
 70
     0
  9
$PEXTMIN
 10
1.000000000000000E+20
 20
1.000000000000000E+20
 30
1.000000000000000E+20
  9
$PEXTMAX
 10
-1.000000000000000E+20
 20
-1.000000000000000E+20
 30
-1.000000000000000E+20
  9
$PLIMMIN
 10
0.0
 20
0.0
  9
$PLIMMAX
 10
12.0
 20
9.0
  9
$UNITMODE
 70
     0
  9
$VISRETAIN
 70
     1
  9
$PLINEGEN
 70
     0
  9
$PSLTSCALE
 70
     1
  0
ENDSEC
  0
SECTION
  2
TABLES
  0
TABLE
  2
VPORT
 70
     1
  0
VPORT
  2
*ACTIVE
 70
     0
 10
0.0
 20
0.0
 11
1.0
 21
1.0
 12
10.42990654205607
 22
4.5
 13
0.0
 23
0.0
 14
0.5
 24
0.5
 15
0.5
 25
0.5
 16
0.0
 26
0.0
 36
1.0
 17
0.0
 27
0.0
 37
0.0
 40
9.0
 41
1.972972972850329
 42
50.0
 43
0.0
 44
0.0
 50
0.0
 51
0.0
 71
     0
 72
   100
 73
     1
 74
     3
 75
     0
 76
     0
 77
     0
 78
     0
  0
ENDTAB
  0
TABLE
  2
LTYPE
 70
     2
  0
LTYPE
  2
CONTINUOUS
 70
     0
  3
Solid line
 72
    65
 73
     0
 40
0.0
  0
LTYPE
  2
CONTINUOUS2
 70
     0
  3
Solid Line
 72
    65
 73
     0
 40
0.0
  0
ENDTAB
  0
TABLE
  2
LAYER
 70
     2
  0
LAYER
  2
0
 70
     0
 62
     7
  6
CONTINUOUS
  0
LAYER
  2
DXFIMPORT
 70
     0
 62
   251
  6
CONTINUOUS
  0
ENDTAB
  0
TABLE
  2
STYLE
 70
     1
  0
STYLE
  2
STANDARD
 70
     0
 40
0.0
 41
1.0
 50
0.0
 71
     0
 42
0.2
  3
txt
  4

  0
ENDTAB
  0
TABLE
  2
VIEW
 70
     0
  0
ENDTAB
  0
TABLE
  2
UCS
 70
     0
  0
ENDTAB
  0
TABLE
  2
APPID
 70
     1
  0
APPID
  2
ACAD
 70
     0
  0
ENDTAB
  0
TABLE
  2
DIMSTYLE
 70
     1
  0
DIMSTYLE
  2
STANDARD
 70
     0
  3

  4

  5

  6

  7

 40
1.0
 41
0.18
 42
0.0625
 43
0.38
 44
0.18
 45
0.0
 46
0.0
 47
0.0
 48
0.0
140
0.18
141
0.09
142
0.0
143
25.4
144
1.0
145
0.0
146
1.0
147
0.09
 71
     0
 72
     0
 73
     1
 74
     1
 75
     0
 76
     0
 77
     0
 78
     0
170
     0
171
     2
172
     0
173
     0
174
     0
175
     0
176
     0
177
     0
178
     0
  0
ENDTAB
  0
ENDSEC
  0
SECTION
  2
BLOCKS
  0
BLOCK
  8
0
  2
$MODEL_SPACE
 70
     0
 10
0.0
 20
0.0
 30
0.0
  3
$MODEL_SPACE
  1

  0
ENDBLK
  5
21
  8
0
  0
BLOCK
 67
     1
  8
0
  2
$PAPER_SPACE
 70
     0
 10
0.0
 20
0.0
 30
0.0
  3
$PAPER_SPACE
  1

  0
ENDBLK
  5
1D
 67
     1
  8
0
  0
ENDSEC
  0
SECTION
  2
ENTITIES
  0
POLYLINE
  5
3D
  8
DXFIMPORT
 66
     1
 10
0.0
 20
0.0
 30
0.0
 70
     1
  0
VERTEX
  5
75
  8
DXFIMPORT
 10
2.191003382436179
 20
2.734550419391837
 30
0.0
  0
VERTEX
  5
76
  8
DXFIMPORT
 10
2.106275350381452
 20
2.727433256962627
 30
0.0
  0
VERTEX
  5
77
  8
DXFIMPORT
 10
2.022052963104386
 20
2.715778141745432
 30
0.0
  0
VERTEX
  5
78
  8
DXFIMPORT
 10
1.958846226594403
 20
2.70381987635281
 30
0.0
  0
VERTEX
  5
79
  8
DXFIMPORT
 10
1.896330531176204
 20
2.688694409207329
 30
0.0
  0
VERTEX
  5
7A
  8
DXFIMPORT
 10
1.83488394684872
 20
2.669902878323285
 30
0.0
  0
VERTEX
  5
7B
  8
DXFIMPORT
 10
1.774884552442529
 20
2.646946457041963
 30
0.0
  0
VERTEX
  5
7C
  8
DXFIMPORT
 10
1.712820416101408
 20
2.618998015675686
 30
0.0
  0
VERTEX
  5
7D
  8
DXFIMPORT
 10
1.681597855690995
 20
2.605545239789564
 30
0.0
  0
VERTEX
  5
7E
  8
DXFIMPORT
 10
1.649735919986995
 20
2.593758337043823
 30
0.0
  0
VERTEX
  5
7F
  8
DXFIMPORT
 10
1.60116436427603
 20
2.579904890684048
 30
0.0
  0
VERTEX
  5
80
  8
DXFIMPORT
 10
1.552746021944415
 20
2.565599902910719
 30
0.0
  0
VERTEX
  5
81
  8
DXFIMPORT
 10
1.525398581872764
 20
2.554857982886261
 30
0.0
  0
VERTEX
  5
82
  8
DXFIMPORT
 10
1.498723795167848
 20
2.542499144169312
 30
0.0
  0
VERTEX
  5
83
  8
DXFIMPORT
 10
1.446369569985848
 20
2.515540354545465
 30
0.0
  0
VERTEX
  5
84
  8
DXFIMPORT
 10
1.395126521569352
 20
2.489720720703986
 30
0.0
  0
VERTEX
  5
85
  8
DXFIMPORT
 10
1.343122201902361
 20
2.465481097628327
 30
0.0
  0
VERTEX
  5
86
  8
DXFIMPORT
 10
1.31615065038477
 20
2.4524514248873
 30
0.0
  0
VERTEX
  5
87
  8
DXFIMPORT
 10
1.303801288146701
 20
2.444291717302661
 30
0.0
  0
VERTEX
  5
88
  8
DXFIMPORT
 10
1.293062697695916
 20
2.43419400354469
 30
0.0
  0
VERTEX
  5
89
  8
DXFIMPORT
 10
1.283414970961701
 20
2.419492717019068
 30
0.0
  0
VERTEX
  5
8A
  8
DXFIMPORT
 10
1.277419150654111
 20
2.402906900629318
 30
0.0
  0
VERTEX
  5
8B
  8
DXFIMPORT
 10
1.274734790073637
 20
2.386351421336514
 30
0.0
  0
VERTEX
  5
8C
  8
DXFIMPORT
 10
1.274147575156974
 20
2.369539582534799
 30
0.0
  0
VERTEX
  5
8D
  8
DXFIMPORT
 10
1.275651933063273
 20
2.335699120540824
 30
0.0
  0
VERTEX
  5
8E
  8
DXFIMPORT
 10
1.275494992681104
 20
2.301991912147628
 30
0.0
  0
VERTEX
  5
8F
  8
DXFIMPORT
 10
1.272725988509023
 20
2.268372191172887
 30
0.0
  0
VERTEX
  5
90
  8
DXFIMPORT
 10
1.265574735484677
 20
2.189096720180515
 30
0.0
  0
VERTEX
  5
91
  8
DXFIMPORT
 10
1.261775603612307
 20
2.10959000720581
 30
0.0
  0
VERTEX
  5
92
  8
DXFIMPORT
 10
1.259429146184402
 20
1.984441374750247
 30
0.0
  0
VERTEX
  5
93
  8
DXFIMPORT
 10
1.256501196820579
 20
1.930790488171112
 30
0.0
  0
VERTEX
  5
94
  8
DXFIMPORT
 10
1.251607368247619
 20
1.877282994053701
 30
0.0
  0
VERTEX
  5
95
  8
DXFIMPORT
 10
1.319656876923773
 20
1.845995899970063
 30
0.0
  0
VERTEX
  5
96
  8
DXFIMPORT
 10
1.376201489795221
 20
1.821637763501712
 30
0.0
  0
VERTEX
  5
97
  8
DXFIMPORT
 10
1.433264244385327
 20
1.798519482547704
 30
0.0
  0
VERTEX
  5
98
  8
DXFIMPORT
 10
1.490817850554492
 20
1.776651778865158
 30
0.0
  0
VERTEX
  5
99
  8
DXFIMPORT
 10
1.548835009331356
 20
1.756045374211169
 30
0.0
  0
VERTEX
  5
9A
  8
DXFIMPORT
 10
1.757676697504849
 20
1.69894625043176
 30
0.0
  0
VERTEX
  5
9B
  8
DXFIMPORT
 10
1.860583866178104
 20
1.677239019835525
 30
0.0
  0
VERTEX
  5
9C
  8
DXFIMPORT
 10
1.964171680961215
 20
1.659055220047549
 30
0.0
  0
VERTEX
  5
9D
  8
DXFIMPORT
 10
2.099488548781437
 20
1.640283066045782
 30
0.0
  0
VERTEX
  5
9E
  8
DXFIMPORT
 10
2.241845036174652
 20
1.62463927171467
 30
0.0
  0
VERTEX
  5
9F
  8
DXFIMPORT
 10
2.299726309486118
 20
1.626985976431882
 30
0.0
  0
VERTEX
  5
A0
  8
DXFIMPORT
 10
2.30833023695493
 20
1.648886993514623
 30
0.0
  0
VERTEX
  5
A1
  8
DXFIMPORT
 10
2.318498472319618
 20
1.701292955148944
 30
0.0
  0
VERTEX
  5
A2
  8
DXFIMPORT
 10
2.324504714104478
 20
1.767685307632235
 30
0.0
  0
VERTEX
  5
A3
  8
DXFIMPORT
 10
2.327884549320515
 20
1.834263109420249
 30
0.0
  0
VERTEX
  5
A4
  8
DXFIMPORT
 10
2.328666698852544
 20
1.896055148055439
 30
0.0
  0
VERTEX
  5
A5
  8
DXFIMPORT
 10
2.324755942360582
 20
1.941421490116795
 30
0.0
  0
VERTEX
  5
A6
  8
DXFIMPORT
 10
2.322409484932678
 20
1.964104656731593
 30
0.0
  0
VERTEX
  5
A7
  8
DXFIMPORT
 10
2.083845001739633
 20
1.988352387363278
 30
0.0
  0
VERTEX
  5
A8
  8
DXFIMPORT
 10
2.035349805429007
 20
1.987570228999488
 30
0.0
  0
VERTEX
  5
A9
  8
DXFIMPORT
 10
2.029092582677379
 20
1.954718579730724
 30
0.0
  0
VERTEX
  5
AA
  8
DXFIMPORT
 10
2.015013334699688
 20
1.932817562647955
 30
0.0
  0
VERTEX
  5
AB
  8
DXFIMPORT
 10
1.920369646795677
 20
1.923431485647086
 30
0.0
  0
VERTEX
  5
AC
  8
DXFIMPORT
 10
1.800696334849022
 20
1.952372122302819
 30
0.0
  0
VERTEX
  5
AD
  8
DXFIMPORT
 10
1.727171752953268
 20
2.009470998792949
 30
0.0
  0
VERTEX
  5
AE
  8
DXFIMPORT
 10
1.681023261359883
 20
2.065787973040301
 30
0.0
  0
VERTEX
  5
AF
  8
DXFIMPORT
 10
1.64738946255909
 20
2.165906725332121
 30
0.0
  0
VERTEX
  5
B0
  8
DXFIMPORT
 10
1.659122244277114
 20
2.266807635987732
 30
0.0
  0
VERTEX
  5
B1
  8
DXFIMPORT
 10
1.690409347192542
 20
2.3332928455998
 30
0.0
  0
VERTEX
  5
B2
  8
DXFIMPORT
 10
1.759241005400725
 20
2.406035516421014
 30
0.0
  0
VERTEX
  5
B3
  8
DXFIMPORT
 10
1.841369753222807
 20
2.45531261497436
 30
0.0
  0
VERTEX
  5
B4
  8
DXFIMPORT
 10
1.91411217675477
 20
2.481906794202189
 30
0.0
  0
VERTEX
  5
B5
  8
DXFIMPORT
 10
1.993112317616919
 20
2.488164264243125
 30
0.0
  0
VERTEX
  5
B6
  8
DXFIMPORT
 10
2.051775749292176
 20
2.478778187242256
 30
0.0
  0
VERTEX
  5
B7
  8
DXFIMPORT
 10
2.080716385947937
 20
2.46391678973248
 30
0.0
  0
VERTEX
  5
B8
  8
DXFIMPORT
 10
2.098706399249409
 20
2.445926537973492
 30
0.0
  0
VERTEX
  5
B9
  8
DXFIMPORT
 10
2.117478553251146
 20
2.43419400354469
 30
0.0
  0
VERTEX
  5
BA
  8
DXFIMPORT
 10
2.173013369134708
 20
2.43419400354469
 30
0.0
  0
VERTEX
  5
BB
  8
DXFIMPORT
 10
2.261399348540181
 20
2.435758302608804
 30
0.0
  0
VERTEX
  5
BC
  8
DXFIMPORT
 10
2.349003416871199
 20
2.441233623117682
 30
0.0
  0
VERTEX
  5
BD
  8
DXFIMPORT
 10
2.355260878080401
 20
2.498332499607812
 30
0.0
  0
VERTEX
  5
BE
  8
DXFIMPORT
 10
2.359953792936153
 20
2.553085068809963
 30
0.0
  0
VERTEX
  5
BF
  8
DXFIMPORT
 10
2.361518348121308
 20
2.571075170429026
 30
0.0
  0
VERTEX
  5
C0
  8
DXFIMPORT
 10
2.386547980995772
 20
2.570292994401711
 30
0.0
  0
VERTEX
  5
C1
  8
DXFIMPORT
 10
2.393587600568765
 20
2.577332587479418
 30
0.0
  0
VERTEX
  5
C2
  8
DXFIMPORT
 10
2.396716207528698
 20
2.628956373086396
 30
0.0
  0
VERTEX
  5
C3
  8
DXFIMPORT
 10
2.394369750100793
 20
2.674322715147753
 30
0.0
  0
VERTEX
  5
C4
  8
DXFIMPORT
 10
2.375597596099055
 20
2.708738539835963
 30
0.0
  0
VERTEX
  5
C5
  8
DXFIMPORT
 10
2.348221258507408
 20
2.724382113373053
 30
0.0
  0
VERTEX
  5
C6
  8
DXFIMPORT
 10
2.313805301342768
 20
2.736896956305571
 30
0.0
  0
VERTEX
  5
C7
  8
DXFIMPORT
 10
2.252381962208631
 20
2.736894960327731
 30
0.0
  0
SEQEND
  5
C8
  8
DXFIMPORT
  0
POLYLINE
  5
3E
  8
DXFIMPORT
 66
     1
 10
0.0
 20
0.0
 30
0.0
 70
     1
  0
VERTEX
  5
C9
  8
DXFIMPORT
 10
1.210075723557736
 20
2.390697548288756
 30
0.0
  0
VERTEX
  5
CA
  8
DXFIMPORT
 10
1.125333313397107
 20
2.342273138537706
 30
0.0
  0
VERTEX
  5
CB
  8
DXFIMPORT
 10
1.052696976970992
 20
2.27604591347847
 30
0.0
  0
VERTEX
  5
CC
  8
DXFIMPORT
 10
1.01993939478217
 20
2.230470196873512
 30
0.0
  0
VERTEX
  5
CD
  8
DXFIMPORT
 10
1.0
 20
2.15783395759675
 30
0.0
  0
VERTEX
  5
CE
  8
DXFIMPORT
 10
1.016378782262677
 20
2.078076343141078
 30
0.0
  0
VERTEX
  5
CF
  8
DXFIMPORT
 10
1.064803015378516
 20
2.011849109250079
 30
0.0
  0
VERTEX
  5
D0
  8
DXFIMPORT
 10
1.126045427069243
 20
1.95559145793726
 30
0.0
  0
VERTEX
  5
D1
  8
DXFIMPORT
 10
1.220757534620986
 20
1.89221268756657
 30
0.0
  0
VERTEX
  5
D2
  8
DXFIMPORT
 10
1.240696947066681
 20
1.882955218660527
 30
0.0
  0
VERTEX
  5
D3
  8
DXFIMPORT
 10
1.240696947066681
 20
1.903606735946568
 30
0.0
  0
VERTEX
  5
D4
  8
DXFIMPORT
 10
1.243614015701723
 20
1.995163661771329
 30
0.0
  0
VERTEX
  5
D5
  8
DXFIMPORT
 10
1.24924239944994
 20
2.08662168954325
 30
0.0
  0
VERTEX
  5
D6
  8
DXFIMPORT
 10
1.270606021576384
 20
2.419894420808731
 30
0.0
  0
SEQEND
  5
D7
  8
DXFIMPORT
  0
POLYLINE
  5
3F
  8
DXFIMPORT
 66
     1
 10
0.0
 20
0.0
 30
0.0
 70
     1
  0
VERTEX
  5
D8
  8
DXFIMPORT
 10
1.289833293854656
 20
2.528848907784379
 30
0.0
  0
VERTEX
  5
D9
  8
DXFIMPORT
 10
1.309772670973246
 20
2.661303490379282
 30
0.0
  0
VERTEX
  5
DA
  8
DXFIMPORT
 10
1.319461898149598
 20
2.741654192872289
 30
0.0
  0
VERTEX
  5
DB
  8
DXFIMPORT
 10
1.326863575739821
 20
2.822242875980834
 30
0.0
  0
VERTEX
  5
DC
  8
DXFIMPORT
 10
1.33123928908941
 20
2.89589647223238
 30
0.0
  0
VERTEX
  5
DD
  8
DXFIMPORT
 10
1.333272660611385
 20
2.969651925176521
 30
0.0
  0
VERTEX
  5
DE
  8
DXFIMPORT
 10
1.331667682458942
 20
3.031642157346653
 30
0.0
  0
VERTEX
  5
DF
  8
DXFIMPORT
 10
1.328287829579381
 20
3.093561002397564
 30
0.0
  0
VERTEX
  5
E0
  8
DXFIMPORT
 10
1.319742377196121
 20
3.18756099627717
 30
0.0
  0
VERTEX
  5
E1
  8
DXFIMPORT
 10
1.305499944781616
 20
3.25450036150383
 30
0.0
  0
VERTEX
  5
E2
  8
DXFIMPORT
 10
1.29196965253459
 20
3.286545803525257
 30
0.0
  0
VERTEX
  5
E3
  8
DXFIMPORT
 10
1.281999955143476
 20
3.296515509748104
 30
0.0
  0
VERTEX
  5
E4
  8
DXFIMPORT
 10
1.265621164049094
 20
3.265182181398814
 30
0.0
  0
VERTEX
  5
E5
  8
DXFIMPORT
 10
1.220757534620986
 20
3.15480341408832
 30
0.0
  0
VERTEX
  5
E6
  8
DXFIMPORT
 10
1.182303007727967
 20
3.039439789250537
 30
0.0
  0
VERTEX
  5
E7
  8
DXFIMPORT
 10
1.161651490441898
 20
2.934045888299124
 30
0.0
  0
VERTEX
  5
E8
  8
DXFIMPORT
 10
1.143136331835819
 20
2.758151956610959
 30
0.0
  0
VERTEX
  5
E9
  8
DXFIMPORT
 10
1.141761544686176
 20
2.690861908674407
 30
0.0
  0
VERTEX
  5
EA
  8
DXFIMPORT
 10
1.142424218163683
 20
2.623561068326666
 30
0.0
  0
VERTEX
  5
EB
  8
DXFIMPORT
 10
1.147409058027449
 20
2.520303552550473
 30
0.0
  0
VERTEX
  5
EC
  8
DXFIMPORT
 10
1.160227236602339
 20
2.429864241844456
 30
0.0
  0
VERTEX
  5
ED
  8
DXFIMPORT
 10
1.160939376769761
 20
2.412773292919098
 30
0.0
  0
VERTEX
  5
EE
  8
DXFIMPORT
 10
1.162363604114034
 20
2.379303499908758
 30
0.0
  0
VERTEX
  5
EF
  8
DXFIMPORT
 10
1.160939376769761
 20
2.372182372019125
 30
0.0
  0
VERTEX
  5
F0
  8
DXFIMPORT
 10
1.27274238908808
 20
2.433424810205139
 30
0.0
  0
SEQEND
  5
F1
  8
DXFIMPORT
  0
POLYLINE
  5
40
  8
DXFIMPORT
 66
     1
 10
0.0
 20
0.0
 30
0.0
 70
     1
  0
VERTEX
  5
F2
  8
DXFIMPORT
 10
1.081181806472898
 20
1.912864204852639
 30
0.0
  0
VERTEX
  5
F3
  8
DXFIMPORT
 10
1.054121204315265
 20
1.757621887599896
 30
0.0
  0
VERTEX
  5
F4
  8
DXFIMPORT
 10
1.030621205845364
 20
1.610212820740685
 30
0.0
  0
VERTEX
  5
F5
  8
DXFIMPORT
 10
1.0242121209738
 20
1.533303652141797
 30
0.0
  0
VERTEX
  5
F6
  8
DXFIMPORT
 10
1.03275757335706
 20
1.378061334889082
 30
0.0
  0
VERTEX
  5
F7
  8
DXFIMPORT
 10
1.046999996939803
 20
1.291182592543748
 30
0.0
  0
VERTEX
  5
F8
  8
DXFIMPORT
 10
1.062569162895613
 20
1.239470303865858
 30
0.0
  0
VERTEX
  5
F9
  8
DXFIMPORT
 10
1.076196966609132
 20
1.187212892441323
 30
0.0
  0
VERTEX
  5
FA
  8
DXFIMPORT
 10
1.091151512695774
 20
1.125970454255281
 30
0.0
  0
VERTEX
  5
FB
  8
DXFIMPORT
 10
1.109666635974804
 20
1.064728016069267
 30
0.0
  0
VERTEX
  5
FC
  8
DXFIMPORT
 10
1.118212114853407
 20
1.034818782587848
 30
0.0
  0
VERTEX
  5
FD
  8
DXFIMPORT
 10
1.129606039588737
 20
1.01559173993536
 30
0.0
  0
VERTEX
  5
FE
  8
DXFIMPORT
 10
1.146696944355313
 20
1.018440194623935
 30
0.0
  0
VERTEX
  5
FF
  8
DXFIMPORT
 10
1.158090877922405
 20
1.037667484565702
 30
0.0
  0
VERTEX
  5
100
  8
DXFIMPORT
 10
1.195121186302913
 20
1.143061412012429
 30
0.0
  0
VERTEX
  5
101
  8
DXFIMPORT
 10
1.210787837229873
 20
1.212849196600615
 30
0.0
  0
VERTEX
  5
102
  8
DXFIMPORT
 10
1.221725636868086
 20
1.271434802803299
 30
0.0
  0
VERTEX
  5
103
  8
DXFIMPORT
 10
1.230727240843805
 20
1.330349038810169
 30
0.0
  0
VERTEX
  5
104
  8
DXFIMPORT
 10
1.237136325715369
 20
1.434318738912594
 30
0.0
  0
VERTEX
  5
105
  8
DXFIMPORT
 10
1.239272693227122
 20
1.549682487395017
 30
0.0
  0
VERTEX
  5
106
  8
DXFIMPORT
 10
1.239984806899258
 20
1.675015818455648
 30
0.0
  0
VERTEX
  5
107
  8
DXFIMPORT
 10
1.239272693227122
 20
1.804621822717365
 30
0.0
  0
VERTEX
  5
108
  8
DXFIMPORT
 10
1.238560579554928
 20
1.863015815046595
 30
0.0
  0
VERTEX
  5
109
  8
DXFIMPORT
 10
1.236424220874994
 20
1.871561170280501
 30
0.0
  0
VERTEX
  5
10A
  8
DXFIMPORT
 10
1.207227251205666
 20
1.885803673349074
 30
0.0
  0
VERTEX
  5
10B
  8
DXFIMPORT
 10
1.154530283066435
 20
1.919273219070135
 30
0.0
  0
VERTEX
  5
10C
  8
DXFIMPORT
 10
1.109666635974804
 20
1.956303571609396
 30
0.0
  0
VERTEX
  5
10D
  8
DXFIMPORT
 10
1.096136343727778
 20
1.967697628821156
 30
0.0
  0
VERTEX
  5
10E
  8
DXFIMPORT
 10
1.086166646336665
 20
1.939924736356176
 30
0.0
  0
SEQEND
  5
10F
  8
DXFIMPORT
  0
POLYLINE
  5
41
  8
DXFIMPORT
 66
     1
 10
0.0
 20
0.0
 30
0.0
 70
     1
  0
VERTEX
  5
110
  8
DXFIMPORT
 10
2.411445579052383
 20
2.598873162757059
 30
0.0
  0
VERTEX
  5
111
  8
DXFIMPORT
 10
2.411445579052383
 20
2.574039718607935
 30
0.0
  0
VERTEX
  5
112
  8
DXFIMPORT
 10
2.410452235634068
 20
2.562119677074293
 30
0.0
  0
VERTEX
  5
113
  8
DXFIMPORT
 10
2.393565494672487
 20
2.561126333656006
 30
0.0
  0
VERTEX
  5
114
  8
DXFIMPORT
 10
2.385301740118678
 20
2.509649190598537
 30
0.0
  0
VERTEX
  5
115
  8
DXFIMPORT
 10
2.379658783965795
 20
2.457819342358079
 30
0.0
  0
VERTEX
  5
116
  8
DXFIMPORT
 10
2.378665431715717
 20
2.444905851425005
 30
0.0
  0
VERTEX
  5
117
  8
DXFIMPORT
 10
2.389592138662863
 20
2.435965928463844
 30
0.0
  0
VERTEX
  5
118
  8
DXFIMPORT
 10
2.403498875864841
 20
2.437952473992254
 30
0.0
  0
VERTEX
  5
119
  8
DXFIMPORT
 10
2.427338976595649
 20
2.422059173598342
 30
0.0
  0
VERTEX
  5
11A
  8
DXFIMPORT
 10
2.437272357788004
 20
2.318751988001679
 30
0.0
  0
VERTEX
  5
11B
  8
DXFIMPORT
 10
2.428332320013965
 20
2.209484936194002
 30
0.0
  0
VERTEX
  5
11C
  8
DXFIMPORT
 10
2.424358964004284
 20
2.107171014529797
 30
0.0
  0
VERTEX
  5
11D
  8
DXFIMPORT
 10
2.418465424313808
 20
2.044968864269066
 30
0.0
  0
VERTEX
  5
11E
  8
DXFIMPORT
 10
2.410452235634068
 20
1.983003935092427
 30
0.0
  0
VERTEX
  5
11F
  8
DXFIMPORT
 10
2.403498875864841
 20
1.93929711613572
 30
0.0
  0
VERTEX
  5
120
  8
DXFIMPORT
 10
2.398532185268664
 20
1.925390352438427
 30
0.0
  0
VERTEX
  5
121
  8
DXFIMPORT
 10
2.381645444307082
 20
1.921417031755823
 30
0.0
  0
VERTEX
  5
122
  8
DXFIMPORT
 10
2.36773873360039
 20
1.914463654323072
 30
0.0
  0
VERTEX
  5
123
  8
DXFIMPORT
 10
2.360785373831106
 20
1.888636919746233
 30
0.0
  0
VERTEX
  5
124
  8
DXFIMPORT
 10
2.357805343576274
 20
1.809169923197999
 30
0.0
  0
VERTEX
  5
125
  8
DXFIMPORT
 10
2.352838679475383
 20
1.743609699178819
 30
0.0
  0
VERTEX
  5
126
  8
DXFIMPORT
 10
2.349858649220494
 20
1.69990287139035
 30
0.0
  0
VERTEX
  5
127
  8
DXFIMPORT
 10
2.341911946032951
 20
1.652222484461731
 30
0.0
  0
VERTEX
  5
128
  8
DXFIMPORT
 10
2.331978582504121
 20
1.635335911303599
 30
0.0
  0
VERTEX
  5
129
  8
DXFIMPORT
 10
2.337938598855089
 20
1.626395749884892
 30
0.0
  0
VERTEX
  5
12A
  8
DXFIMPORT
 10
2.374692084537855
 20
1.623415693134746
 30
0.0
  0
VERTEX
  5
12B
  8
DXFIMPORT
 10
2.514215979084156
 20
1.628269999579942
 30
0.0
  0
VERTEX
  5
12C
  8
DXFIMPORT
 10
2.653819924706681
 20
1.629375806635039
 30
0.0
  0
VERTEX
  5
12D
  8
DXFIMPORT
 10
2.829178731200955
 20
1.625929742047816
 30
0.0
  0
VERTEX
  5
12E
  8
DXFIMPORT
 10
3.00446802290918
 20
1.619442363620379
 30
0.0
  0
VERTEX
  5
12F
  8
DXFIMPORT
 10
3.091864271086422
 20
1.616175230498698
 30
0.0
  0
VERTEX
  5
130
  8
DXFIMPORT
 10
3.179295431212438
 20
1.614475770173556
 30
0.0
  0
VERTEX
  5
131
  8
DXFIMPORT
 10
3.200155492856652
 20
1.614475770173556
 30
0.0
  0
VERTEX
  5
132
  8
DXFIMPORT
 10
3.203135523111484
 20
1.631362590620995
 30
0.0
  0
VERTEX
  5
133
  8
DXFIMPORT
 10
3.207005706496261
 20
1.674013952388577
 30
0.0
  0
VERTEX
  5
134
  8
DXFIMPORT
 10
3.209095539462453
 20
1.716789444548482
 30
0.0
  0
VERTEX
  5
135
  8
DXFIMPORT
 10
3.210088882880768
 20
1.794269895568277
 30
0.0
  0
VERTEX
  5
136
  8
DXFIMPORT
 10
3.21406223005863
 20
1.878703476731573
 30
0.0
  0
VERTEX
  5
137
  8
DXFIMPORT
 10
3.217142209345866
 20
1.923379016158606
 30
0.0
  0
VERTEX
  5
138
  8
DXFIMPORT
 10
3.219028920654807
 20
1.968103907462705
 30
0.0
  0
VERTEX
  5
139
  8
DXFIMPORT
 10
3.219028920654807
 20
1.986977264606793
 30
0.0
  0
VERTEX
  5
13A
  8
DXFIMPORT
 10
3.175322084034576
 20
1.989957312525178
 30
0.0
  0
VERTEX
  5
13B
  8
DXFIMPORT
 10
3.136581902683474
 20
1.989957312525178
 30
0.0
  0
VERTEX
  5
13C
  8
DXFIMPORT
 10
3.129628551746009
 20
1.971083964212852
 30
0.0
  0
VERTEX
  5
13D
  8
DXFIMPORT
 10
3.113590269173471
 20
1.931481917860424
 30
0.0
  0
VERTEX
  5
13E
  8
DXFIMPORT
 10
3.095855060991028
 20
1.892610240428837
 30
0.0
  0
VERTEX
  5
13F
  8
DXFIMPORT
 10
3.044201521183311
 20
1.839963251221661
 30
0.0
  0
VERTEX
  5
140
  8
DXFIMPORT
 10
3.012414726096722
 20
1.823076686895291
 30
0.0
  0
VERTEX
  5
141
  8
DXFIMPORT
 10
2.942881119572576
 20
1.81612330946254
 30
0.0
  0
VERTEX
  5
142
  8
DXFIMPORT
 10
2.870890676279203
 20
1.812870536783237
 30
0.0
  0
VERTEX
  5
143
  8
DXFIMPORT
 10
2.798847171769353
 20
1.811156459894676
 30
0.0
  0
VERTEX
  5
144
  8
DXFIMPORT
 10
2.710440137447108
 20
1.811156459894676
 30
0.0
  0
VERTEX
  5
145
  8
DXFIMPORT
 10
2.695540083322101
 20
1.822083166841793
 30
0.0
  0
VERTEX
  5
146
  8
DXFIMPORT
 10
2.689580066971132
 20
1.834996657774838
 30
0.0
  0
VERTEX
  5
147
  8
DXFIMPORT
 10
2.6866000367163
 20
1.867776778616218
 30
0.0
  0
VERTEX
  5
148
  8
DXFIMPORT
 10
2.688586723552874
 20
1.947243766332662
 30
0.0
  0
VERTEX
  5
149
  8
DXFIMPORT
 10
2.701500117336536
 20
2.02075064054884
 30
0.0
  0
VERTEX
  5
14A
  8
DXFIMPORT
 10
2.716400171461544
 20
2.042604301732354
 30
0.0
  0
VERTEX
  5
14B
  8
DXFIMPORT
 10
2.742226959028983
 20
2.050550951929324
 30
0.0
  0
VERTEX
  5
14C
  8
DXFIMPORT
 10
2.784940461062661
 20
2.049557431875826
 30
0.0
  0
VERTEX
  5
14D
  8
DXFIMPORT
 10
2.830633993351228
 20
2.017770839919734
 30
0.0
  0
VERTEX
  5
14E
  8
DXFIMPORT
 10
2.86540079219742
 20
1.981017151106471
 30
0.0
  0
VERTEX
  5
14F
  8
DXFIMPORT
 10
2.902154277880186
 20
1.962143793962383
 30
0.0
  0
VERTEX
  5
150
  8
DXFIMPORT
 10
2.92698772202931
 20
1.957177200515588
 30
0.0
  0
VERTEX
  5
151
  8
DXFIMPORT
 10
2.956787830279325
 20
1.982010671159969
 30
0.0
  0
VERTEX
  5
152
  8
DXFIMPORT
 10
2.96473453346681
 20
2.015784047102017
 30
0.0
  0
VERTEX
  5
153
  8
DXFIMPORT
 10
2.973674571240906
 20
2.089290930149929
 30
0.0
  0
VERTEX
  5
154
  8
DXFIMPORT
 10
2.975661231582194
 20
2.262131669280137
 30
0.0
  0
VERTEX
  5
155
  8
DXFIMPORT
 10
2.978641261837083
 20
2.370405457155357
 30
0.0
  0
VERTEX
  5
156
  8
DXFIMPORT
 10
2.971687884404275
 20
2.428019030977595
 30
0.0
  0
VERTEX
  5
157
  8
DXFIMPORT
 10
2.959767834038871
 20
2.451859228857757
 30
0.0
  0
VERTEX
  5
158
  8
DXFIMPORT
 10
2.932947729548459
 20
2.458812615122298
 30
0.0
  0
VERTEX
  5
159
  8
DXFIMPORT
 10
2.893214240106147
 20
2.44887917210761
 30
0.0
  0
VERTEX
  5
15A
  8
DXFIMPORT
 10
2.861427445019558
 20
2.426032494280918
 30
0.0
  0
VERTEX
  5
15B
  8
DXFIMPORT
 10
2.838580687707008
 20
2.397225702953932
 30
0.0
  0
VERTEX
  5
15C
  8
DXFIMPORT
 10
2.817720599567565
 20
2.372392241141313
 30
0.0
  0
VERTEX
  5
15D
  8
DXFIMPORT
 10
2.788913808240579
 20
2.362458806958387
 30
0.0
  0
VERTEX
  5
15E
  8
DXFIMPORT
 10
2.75514032631736
 20
2.363452070890844
 30
0.0
  0
VERTEX
  5
15F
  8
DXFIMPORT
 10
2.738253603019302
 20
2.364445590944342
 30
0.0
  0
VERTEX
  5
160
  8
DXFIMPORT
 10
2.720373518639462
 20
2.367425647694489
 30
0.0
  0
VERTEX
  5
161
  8
DXFIMPORT
 10
2.719380175221147
 20
2.422059173598342
 30
0.0
  0
VERTEX
  5
162
  8
DXFIMPORT
 10
2.720373518639462
 20
2.504506218064961
 30
0.0
  0
VERTEX
  5
163
  8
DXFIMPORT
 10
2.721366862057721
 20
2.551192943631889
 30
0.0
  0
VERTEX
  5
164
  8
DXFIMPORT
 10
2.749180309966448
 20
2.557152977646354
 30
0.0
  0
VERTEX
  5
165
  8
DXFIMPORT
 10
2.876327499144566
 20
2.556159634228067
 30
0.0
  0
VERTEX
  5
166
  8
DXFIMPORT
 10
2.944898788224634
 20
2.55503056431607
 30
0.0
  0
VERTEX
  5
167
  8
DXFIMPORT
 10
3.013408069514981
 20
2.552186287050176
 30
0.0
  0
VERTEX
  5
168
  8
DXFIMPORT
 10
3.074001655928555
 20
2.547219596453999
 30
0.0
  0
VERTEX
  5
169
  8
DXFIMPORT
 10
3.100821760418967
 20
2.517419461708727
 30
0.0
  0
VERTEX
  5
16A
  8
DXFIMPORT
 10
3.135588585760445
 20
2.464772472501551
 30
0.0
  0
VERTEX
  5
16B
  8
DXFIMPORT
 10
3.16538869401046
 20
2.420072380780624
 30
0.0
  0
VERTEX
  5
16C
  8
DXFIMPORT
 10
3.19320214191913
 20
2.405172353150903
 30
0.0
  0
VERTEX
  5
16D
  8
DXFIMPORT
 10
3.222008933246173
 20
2.419079116848167
 30
0.0
  0
VERTEX
  5
16E
  8
DXFIMPORT
 10
3.23690898737118
 20
2.471725849934302
 30
0.0
  0
VERTEX
  5
16F
  8
DXFIMPORT
 10
3.237902330789439
 20
2.541259659588917
 30
0.0
  0
VERTEX
  5
170
  8
DXFIMPORT
 10
3.234922327029835
 20
2.596886475920456
 30
0.0
  0
VERTEX
  5
171
  8
DXFIMPORT
 10
3.232935631361499
 20
2.608806526285889
 30
0.0
  0
VERTEX
  5
172
  8
DXFIMPORT
 10
3.154461987063314
 20
2.614766560300353
 30
0.0
  0
VERTEX
  5
173
  8
DXFIMPORT
 10
3.078989180647511
 20
2.616633091036789
 30
0.0
  0
VERTEX
  5
174
  8
DXFIMPORT
 10
3.003474679490864
 20
2.616753220641641
 30
0.0
  0
VERTEX
  5
175
  8
DXFIMPORT
 10
2.805800549202161
 20
2.617746564059928
 30
0.0
  0
VERTEX
  5
176
  8
DXFIMPORT
 10
2.617066430192153
 20
2.617746564059928
 30
0.0
  0
VERTEX
  5
177
  8
DXFIMPORT
 10
2.49885926995637
 20
2.618739907478215
 30
0.0
  0
VERTEX
  5
178
  8
DXFIMPORT
 10
2.448199064735149
 20
2.618739907478215
 30
0.0
  0
VERTEX
  5
179
  8
DXFIMPORT
 10
2.412438922470642
 20
2.618739907478215
 30
0.0
  0
SEQEND
  5
17A
  8
DXFIMPORT
  0
POLYLINE
  5
42
  8
DXFIMPORT
 66
     1
 10
0.0
 20
0.0
 30
0.0
 70
     1
  0
VERTEX
  5
17B
  8
DXFIMPORT
 10
3.968005345016707
 20
2.59986643552125
 30
0.0
  0
VERTEX
  5
17C
  8
DXFIMPORT
 10
3.8428447543576
 20
2.604833126117427
 30
0.0
  0
VERTEX
  5
17D
  8
DXFIMPORT
 10
3.683910770092893
 20
2.606819812954029
 30
0.0
  0
VERTEX
  5
17E
  8
DXFIMPORT
 10
3.549810256472597
 20
2.606819812954029
 30
0.0
  0
VERTEX
  5
17F
  8
DXFIMPORT
 10
3.499772310593301
 20
2.612378602430368
 30
0.0
  0
VERTEX
  5
180
  8
DXFIMPORT
 10
3.449483118794319
 20
2.614766516141543
 30
0.0
  0
VERTEX
  5
181
  8
DXFIMPORT
 10
3.398246367422985
 20
2.613928832500164
 30
0.0
  0
VERTEX
  5
182
  8
DXFIMPORT
 10
3.347169453251183
 20
2.609799816713604
 30
0.0
  0
VERTEX
  5
183
  8
DXFIMPORT
 10
3.288562606664755
 20
2.581986368804905
 30
0.0
  0
VERTEX
  5
184
  8
DXFIMPORT
 10
3.263729065366306
 20
2.503512698011463
 30
0.0
  0
VERTEX
  5
185
  8
DXFIMPORT
 10
3.277635899717666
 20
2.421065653544844
 30
0.0
  0
VERTEX
  5
186
  8
DXFIMPORT
 10
3.34120933975089
 20
2.32570536543443
 30
0.0
  0
VERTEX
  5
187
  8
DXFIMPORT
 10
3.421669600231553
 20
2.237298207467518
 30
0.0
  0
VERTEX
  5
188
  8
DXFIMPORT
 10
3.478346212593863
 20
2.194485736726847
 30
0.0
  0
VERTEX
  5
189
  8
DXFIMPORT
 10
3.535903492775333
 20
2.152864626304222
 30
0.0
  0
VERTEX
  5
18A
  8
DXFIMPORT
 10
3.638217167150231
 20
2.083331063938914
 30
0.0
  0
VERTEX
  5
18B
  8
DXFIMPORT
 10
3.697890934550799
 20
2.045397981842967
 30
0.0
  0
VERTEX
  5
18C
  8
DXFIMPORT
 10
3.758411164362542
 20
2.008830669669265
 30
0.0
  0
VERTEX
  5
18D
  8
DXFIMPORT
 10
3.839864697607425
 20
1.950223823082837
 30
0.0
  0
VERTEX
  5
18E
  8
DXFIMPORT
 10
3.856751509223102
 20
1.905523484072603
 30
0.0
  0
VERTEX
  5
18F
  8
DXFIMPORT
 10
3.84185148159338
 20
1.860823392351676
 30
0.0
  0
VERTEX
  5
190
  8
DXFIMPORT
 10
3.798144662636673
 20
1.837976714525013
 30
0.0
  0
VERTEX
  5
191
  8
DXFIMPORT
 10
3.667023949645454
 20
1.852876742154734
 30
0.0
  0
VERTEX
  5
192
  8
DXFIMPORT
 10
3.464383155255803
 20
1.934330275399617
 30
0.0
  0
VERTEX
  5
193
  8
DXFIMPORT
 10
3.428622977664304
 20
1.960157257265735
 30
0.0
  0
VERTEX
  5
194
  8
DXFIMPORT
 10
3.401802979155036
 20
1.978037094356324
 30
0.0
  0
VERTEX
  5
195
  8
DXFIMPORT
 10
3.262735748443276
 20
1.985983991842573
 30
0.0
  0
VERTEX
  5
196
  8
DXFIMPORT
 10
3.251809015000902
 20
1.982010671159969
 30
0.0
  0
VERTEX
  5
197
  8
DXFIMPORT
 10
3.249822354659557
 20
1.93929711613572
 30
0.0
  0
VERTEX
  5
198
  8
DXFIMPORT
 10
3.243915920598909
 20
1.794301177663584
 30
0.0
  0
VERTEX
  5
199
  8
DXFIMPORT
 10
3.242484521865208
 20
1.721775353055278
 30
0.0
  0
VERTEX
  5
19A
  8
DXFIMPORT
 10
3.24286899489033
 20
1.649242427711584
 30
0.0
  0
VERTEX
  5
19B
  8
DXFIMPORT
 10
3.243862311813359
 20
1.614475770173556
 30
0.0
  0
VERTEX
  5
19C
  8
DXFIMPORT
 10
3.325316039356949
 20
1.611495713423409
 30
0.0
  0
VERTEX
  5
19D
  8
DXFIMPORT
 10
3.380441158707697
 20
1.60956538204988
 30
0.0
  0
VERTEX
  5
19E
  8
DXFIMPORT
 10
3.435576363928817
 20
1.609508929437482
 30
0.0
  0
VERTEX
  5
19F
  8
DXFIMPORT
 10
3.458423289044788
 20
1.61050244949098
 30
0.0
  0
VERTEX
  5
1A0
  8
DXFIMPORT
 10
3.464383155255803
 20
1.622422420370526
 30
0.0
  0
VERTEX
  5
1A1
  8
DXFIMPORT
 10
3.474316589438729
 20
1.646262618250717
 30
0.0
  0
VERTEX
  5
1A2
  8
DXFIMPORT
 10
3.510076758198466
 20
1.662155918644658
 30
0.0
  0
VERTEX
  5
1A3
  8
DXFIMPORT
 10
3.563717011338099
 20
1.663149182577087
 30
0.0
  0
VERTEX
  5
1A4
  8
DXFIMPORT
 10
3.619366648938524
 20
1.662508888780451
 30
0.0
  0
VERTEX
  5
1A5
  8
DXFIMPORT
 10
3.674970855963466
 20
1.660169134658702
 30
0.0
  0
VERTEX
  5
1A6
  8
DXFIMPORT
 10
3.806091312833644
 20
1.62738901381735
 30
0.0
  0
VERTEX
  5
1A7
  8
DXFIMPORT
 10
3.877611650353117
 20
1.619442363620379
 30
0.0
  0
VERTEX
  5
1A8
  8
DXFIMPORT
 10
4.036545634617823
 20
1.633349127317643
 30
0.0
  0
VERTEX
  5
1A9
  8
DXFIMPORT
 10
4.139852572925179
 20
1.664142455341306
 30
0.0
  0
VERTEX
  5
1AA
  8
DXFIMPORT
 10
4.204419533011901
 20
1.712816115034116
 30
0.0
  0
VERTEX
  5
1AB
  8
DXFIMPORT
 10
4.239186437839237
 20
1.801223025711749
 30
0.0
  0
VERTEX
  5
1AC
  8
DXFIMPORT
 10
4.242166494589355
 20
1.864796721866043
 30
0.0
  0
VERTEX
  5
1AD
  8
DXFIMPORT
 10
4.238193165075018
 20
1.925390352438427
 30
0.0
  0
VERTEX
  5
1AE
  8
DXFIMPORT
 10
4.201439723551061
 20
2.018764103852163
 30
0.0
  0
VERTEX
  5
1AF
  8
DXFIMPORT
 10
4.139852572925179
 20
2.092270986900076
 30
0.0
  0
VERTEX
  5
1B0
  8
DXFIMPORT
 10
4.037538907382043
 20
2.176704568063371
 30
0.0
  0
VERTEX
  5
1B1
  8
DXFIMPORT
 10
3.934231969074688
 20
2.256171811900884
 30
0.0
  0
VERTEX
  5
1B2
  8
DXFIMPORT
 10
3.877966740111447
 20
2.292468677907863
 30
0.0
  0
VERTEX
  5
1B3
  8
DXFIMPORT
 10
3.822978124449321
 20
2.330671958881254
 30
0.0
  0
VERTEX
  5
1B4
  8
DXFIMPORT
 10
3.74450440949704
 20
2.390272325521181
 30
0.0
  0
VERTEX
  5
1B5
  8
DXFIMPORT
 10
3.704770911222909
 20
2.442919067439078
 30
0.0
  0
VERTEX
  5
1B6
  8
DXFIMPORT
 10
3.712717561419879
 20
2.491592727131888
 30
0.0
  0
VERTEX
  5
1B7
  8
DXFIMPORT
 10
3.754437843679966
 20
2.517419461708727
 30
0.0
  0
VERTEX
  5
1B8
  8
DXFIMPORT
 10
3.807084576766101
 20
2.525366111905697
 30
0.0
  0
VERTEX
  5
1B9
  8
DXFIMPORT
 10
3.893504950747058
 20
2.503512698011463
 30
0.0
  0
VERTEX
  5
1BA
  8
DXFIMPORT
 10
3.98290538147819
 20
2.454839285607932
 30
0.0
  0
VERTEX
  5
1BB
  8
DXFIMPORT
 10
4.085219047021326
 20
2.396232191732196
 30
0.0
  0
VERTEX
  5
1BC
  8
DXFIMPORT
 10
4.149786007108105
 20
2.35947875020824
 30
0.0
  0
VERTEX
  5
1BD
  8
DXFIMPORT
 10
4.17958607119931
 20
2.348552043261122
 30
0.0
  0
VERTEX
  5
1BE
  8
DXFIMPORT
 10
4.218326296709222
 20
2.351532100011269
 30
0.0
  0
VERTEX
  5
1BF
  8
DXFIMPORT
 10
4.240179701771694
 20
2.366432127640991
 30
0.0
  0
VERTEX
  5
1C0
  8
DXFIMPORT
 10
4.246139815271988
 20
2.401199032468298
 30
0.0
  0
VERTEX
  5
1C1
  8
DXFIMPORT
 10
4.246492882557163
 20
2.454870753170212
 30
0.0
  0
VERTEX
  5
1C2
  8
DXFIMPORT
 10
4.249119872022163
 20
2.508479291458258
 30
0.0
  0
VERTEX
  5
1C3
  8
DXFIMPORT
 10
4.256073249454914
 20
2.592913075752023
 30
0.0
  0
VERTEX
  5
1C4
  8
DXFIMPORT
 10
4.259053058915754
 20
2.650526658406022
 30
0.0
  0
VERTEX
  5
1C5
  8
DXFIMPORT
 10
4.257066522219077
 20
2.664433369112714
 30
0.0
  0
VERTEX
  5
1C6
  8
DXFIMPORT
 10
4.218326296709222
 20
2.667413372872318
 30
0.0
  0
VERTEX
  5
1C7
  8
DXFIMPORT
 10
4.158726177358574
 20
2.674366759136831
 30
0.0
  0
VERTEX
  5
1C8
  8
DXFIMPORT
 10
4.12296600859878
 20
2.672380063468495
 30
0.0
  0
VERTEX
  5
1C9
  8
DXFIMPORT
 10
4.112039301651691
 20
2.672380063468495
 30
0.0
  0
VERTEX
  5
1CA
  8
DXFIMPORT
 10
4.094159217271795
 20
2.646553311228132
 30
0.0
  0
VERTEX
  5
1CB
  8
DXFIMPORT
 10
4.053432455065263
 20
2.617746519901146
 30
0.0
  0
VERTEX
  5
1CC
  8
DXFIMPORT
 10
3.994825352357736
 20
2.601853122357852
 30
0.0
  0
SEQEND
  5
1CD
  8
DXFIMPORT
  0
POLYLINE
  5
43
  8
DXFIMPORT
 66
     1
 10
0.0
 20
0.0
 30
0.0
 70
     1
  0
VERTEX
  5
1CE
  8
DXFIMPORT
 10
4.956376137768643
 20
2.612779820473207
 30
0.0
  0
VERTEX
  5
1CF
  8
DXFIMPORT
 10
4.850088895421834
 20
2.634633260862728
 30
0.0
  0
VERTEX
  5
1D0
  8
DXFIMPORT
 10
4.775251481175644
 20
2.653235721420316
 30
0.0
  0
VERTEX
  5
1D1
  8
DXFIMPORT
 10
4.701088354171816
 20
2.674366759136831
 30
0.0
  0
VERTEX
  5
1D2
  8
DXFIMPORT
 10
4.625594687137948
 20
2.684300113833899
 30
0.0
  0
VERTEX
  5
1D3
  8
DXFIMPORT
 10
4.496460758132685
 20
2.678340106314721
 30
0.0
  0
VERTEX
  5
1D4
  8
DXFIMPORT
 10
4.400107206089842
 20
2.643573280973243
 30
0.0
  0
VERTEX
  5
1D5
  8
DXFIMPORT
 10
4.316666641569725
 20
2.550199573718317
 30
0.0
  0
VERTEX
  5
1D6
  8
DXFIMPORT
 10
4.297793284425666
 20
2.423052437530771
 30
0.0
  0
VERTEX
  5
1D7
  8
DXFIMPORT
 10
4.308719991372811
 20
2.35848547744402
 30
0.0
  0
VERTEX
  5
1D8
  8
DXFIMPORT
 10
4.404080526772475
 20
2.255178291847386
 30
0.0
  0
VERTEX
  5
1D9
  8
DXFIMPORT
 10
4.520300956012875
 20
2.190611331760635
 30
0.0
  0
VERTEX
  5
1DA
  8
DXFIMPORT
 10
4.632729804536041
 20
2.132392252445953
 30
0.0
  0
VERTEX
  5
1DB
  8
DXFIMPORT
 10
4.74578843706098
 20
2.075384166452665
 30
0.0
  0
VERTEX
  5
1DC
  8
DXFIMPORT
 10
4.86002232960476
 20
2.016777319866236
 30
0.0
  0
VERTEX
  5
1DD
  8
DXFIMPORT
 10
4.897769043892936
 20
1.975057284895456
 30
0.0
  0
VERTEX
  5
1DE
  8
DXFIMPORT
 10
4.90174261186479
 20
1.929363681952793
 30
0.0
  0
VERTEX
  5
1DF
  8
DXFIMPORT
 10
4.862009122422478
 20
1.910490324808706
 30
0.0
  0
VERTEX
  5
1E0
  8
DXFIMPORT
 10
4.78651545538861
 20
1.905523484072603
 30
0.0
  0
VERTEX
  5
1E1
  8
DXFIMPORT
 10
4.676254883527406
 20
1.912476861505382
 30
0.0
  0
VERTEX
  5
1E2
  8
DXFIMPORT
 10
4.546127690589742
 20
1.963137066726603
 30
0.0
  0
VERTEX
  5
1E3
  8
DXFIMPORT
 10
4.485534060017358
 20
1.997903962722148
 30
0.0
  0
VERTEX
  5
1E4
  8
DXFIMPORT
 10
4.399113686036344
 20
2.016777319866236
 30
0.0
  0
VERTEX
  5
1E5
  8
DXFIMPORT
 10
4.326600075752651
 20
2.025717490116676
 30
0.0
  0
VERTEX
  5
1E6
  8
DXFIMPORT
 10
4.298786804479164
 20
2.02273743336653
 30
0.0
  0
VERTEX
  5
1E7
  8
DXFIMPORT
 10
4.289846634228695
 20
1.983003935092427
 30
0.0
  0
VERTEX
  5
1E8
  8
DXFIMPORT
 10
4.288035072368928
 20
1.888643835014619
 30
0.0
  0
VERTEX
  5
1E9
  8
DXFIMPORT
 10
4.288853370296238
 20
1.794269895568277
 30
0.0
  0
VERTEX
  5
1EA
  8
DXFIMPORT
 10
4.29282669097887
 20
1.688975917153925
 30
0.0
  0
VERTEX
  5
1EB
  8
DXFIMPORT
 10
4.29481322767549
 20
1.654209268447687
 30
0.0
  0
VERTEX
  5
1EC
  8
DXFIMPORT
 10
4.384213658406622
 20
1.64328256150057
 30
0.0
  0
VERTEX
  5
1ED
  8
DXFIMPORT
 10
4.489507380699933
 20
1.675069409577702
 30
0.0
  0
VERTEX
  5
1EE
  8
DXFIMPORT
 10
4.551094284036537
 20
1.71082933104816
 30
0.0
  0
VERTEX
  5
1EF
  8
DXFIMPORT
 10
4.583874404877918
 20
1.719769501298629
 30
0.0
  0
VERTEX
  5
1F0
  8
DXFIMPORT
 10
4.638508178071049
 20
1.696922823471937
 30
0.0
  0
VERTEX
  5
1F1
  8
DXFIMPORT
 10
4.848102358725157
 20
1.671095832774057
 30
0.0
  0
VERTEX
  5
1F2
  8
DXFIMPORT
 10
5.047763105196452
 20
1.668116032144951
 30
0.0
  0
VERTEX
  5
1F3
  8
DXFIMPORT
 10
5.166963591187027
 20
1.700896144154541
 30
0.0
  0
VERTEX
  5
1F4
  8
DXFIMPORT
 10
5.262323879297412
 20
1.802216545765248
 30
0.0
  0
VERTEX
  5
1F5
  8
DXFIMPORT
 10
5.290137397860178
 20
1.887643399692735
 30
0.0
  0
VERTEX
  5
1F6
  8
DXFIMPORT
 10
5.278217426980632
 20
1.986977264606793
 30
0.0
  0
VERTEX
  5
1F7
  8
DXFIMPORT
 10
5.249410635653646
 20
2.062470922808899
 30
0.0
  0
VERTEX
  5
1F8
  8
DXFIMPORT
 10
5.181863618816749
 20
2.141937919357105
 30
0.0
  0
VERTEX
  5
1F9
  8
DXFIMPORT
 10
5.09047665138894
 20
2.197564709193387
 30
0.0
  0
VERTEX
  5
1FA
  8
DXFIMPORT
 10
4.969289381412409
 20
2.266104998794503
 30
0.0
  0
VERTEX
  5
1FB
  8
DXFIMPORT
 10
4.894789234432039
 20
2.309811817751211
 30
0.0
  0
VERTEX
  5
1FC
  8
DXFIMPORT
 10
4.808368860451083
 20
2.35848547744402
 30
0.0
  0
VERTEX
  5
1FD
  8
DXFIMPORT
 10
4.738835059628229
 20
2.4151057873338
 30
0.0
  0
VERTEX
  5
1FE
  8
DXFIMPORT
 10
4.729895136667039
 20
2.464772472501551
 30
0.0
  0
VERTEX
  5
1FF
  8
DXFIMPORT
 10
4.750755277797111
 20
2.496559320578683
 30
0.0
  0
VERTEX
  5
200
  8
DXFIMPORT
 10
4.802408746950789
 20
2.516426188944507
 30
0.0
  0
VERTEX
  5
201
  8
DXFIMPORT
 10
4.842142245224863
 20
2.515432677722771
 30
0.0
  0
VERTEX
  5
202
  8
DXFIMPORT
 10
4.894789234432039
 20
2.501525914025507
 30
0.0
  0
VERTEX
  5
203
  8
DXFIMPORT
 10
4.97723603160938
 20
2.459805879054727
 30
0.0
  0
VERTEX
  5
204
  8
DXFIMPORT
 10
5.037829671013526
 20
2.412125739415416
 30
0.0
  0
VERTEX
  5
205
  8
DXFIMPORT
 10
5.072596567009043
 20
2.36742540040521
 30
0.0
  0
VERTEX
  5
206
  8
DXFIMPORT
 10
5.132196686359691
 20
2.322725308684284
 30
0.0
  0
VERTEX
  5
207
  8
DXFIMPORT
 10
5.190803789067218
 20
2.30285844031846
 30
0.0
  0
VERTEX
  5
208
  8
DXFIMPORT
 10
5.252390692403765
 20
2.305838488236844
 30
0.0
  0
VERTEX
  5
209
  8
DXFIMPORT
 10
5.282190747663208
 20
2.318751988001679
 30
0.0
  0
VERTEX
  5
20A
  8
DXFIMPORT
 10
5.290137397860178
 20
2.337625336314005
 30
0.0
  0
VERTEX
  5
20B
  8
DXFIMPORT
 10
5.288150861163558
 20
2.421065653544844
 30
0.0
  0
VERTEX
  5
20C
  8
DXFIMPORT
 10
5.287953577299902
 20
2.504511305158928
 30
0.0
  0
VERTEX
  5
20D
  8
DXFIMPORT
 10
5.28715734111006
 20
2.587946385155846
 30
0.0
  0
VERTEX
  5
20E
  8
DXFIMPORT
 10
5.286164077177602
 20
2.618739863319433
 30
0.0
  0
VERTEX
  5
20F
  8
DXFIMPORT
 10
5.268283992797706
 20
2.632646574026126
 30
0.0
  0
VERTEX
  5
210
  8
DXFIMPORT
 10
5.21464373082631
 20
2.64257995521848
 30
0.0
  0
VERTEX
  5
211
  8
DXFIMPORT
 10
5.140143583845941
 20
2.649533314987707
 30
0.0
  0
VERTEX
  5
212
  8
DXFIMPORT
 10
5.100410094403628
 20
2.649533314987707
 30
0.0
  0
VERTEX
  5
213
  8
DXFIMPORT
 10
5.072596567009043
 20
2.633639917444441
 30
0.0
  0
VERTEX
  5
214
  8
DXFIMPORT
 10
5.020943097855366
 20
2.609799816713604
 30
0.0
  0
SEQEND
  5
215
  8
DXFIMPORT
  0
POLYLINE
  5
44
  8
DXFIMPORT
 66
     1
 10
0.0
 20
0.0
 30
0.0
 70
     1
  0
VERTEX
  5
216
  8
DXFIMPORT
 10
5.324904302687514
 20
2.521392782391331
 30
0.0
  0
VERTEX
  5
217
  8
DXFIMPORT
 10
5.327346346258139
 20
2.471239873486979
 30
0.0
  0
VERTEX
  5
218
  8
DXFIMPORT
 10
5.32887762337009
 20
2.421065653544844
 30
0.0
  0
VERTEX
  5
219
  8
DXFIMPORT
 10
5.32887762337009
 20
2.413119003347873
 30
0.0
  0
VERTEX
  5
21A
  8
DXFIMPORT
 10
5.343777659831574
 20
2.394245646203785
 30
0.0
  0
VERTEX
  5
21B
  8
DXFIMPORT
 10
5.375564499076972
 20
2.356498693458093
 30
0.0
  0
VERTEX
  5
21C
  8
DXFIMPORT
 10
5.390464535538456
 20
2.315771931251533
 30
0.0
  0
VERTEX
  5
21D
  8
DXFIMPORT
 10
5.387484478788281
 20
2.229351557270547
 30
0.0
  0
VERTEX
  5
21E
  8
DXFIMPORT
 10
5.388477742720738
 20
2.089290930149929
 30
0.0
  0
VERTEX
  5
21F
  8
DXFIMPORT
 10
5.386491206024061
 20
2.024723970063178
 30
0.0
  0
VERTEX
  5
220
  8
DXFIMPORT
 10
5.384504422038162
 20
1.989957312525178
 30
0.0
  0
VERTEX
  5
221
  8
DXFIMPORT
 10
5.374571235144515
 20
1.969097171395163
 30
0.0
  0
VERTEX
  5
222
  8
DXFIMPORT
 10
5.36165774421147
 20
1.958170473279779
 30
0.0
  0
VERTEX
  5
223
  8
DXFIMPORT
 10
5.346757707749987
 20
1.941283652832368
 30
0.0
  0
VERTEX
  5
224
  8
DXFIMPORT
 10
5.336824273567061
 20
1.908503540822778
 30
0.0
  0
VERTEX
  5
225
  8
DXFIMPORT
 10
5.340797603081455
 20
1.836983194471514
 30
0.0
  0
VERTEX
  5
226
  8
DXFIMPORT
 10
5.33781754633128
 20
1.780363131871013
 30
0.0
  0
VERTEX
  5
227
  8
DXFIMPORT
 10
5.338811066384778
 20
1.739636122375174
 30
0.0
  0
VERTEX
  5
228
  8
DXFIMPORT
 10
5.405364563168177
 20
1.732682744942394
 30
0.0
  0
VERTEX
  5
229
  8
DXFIMPORT
 10
5.579198575062605
 20
1.735662792860808
 30
0.0
  0
VERTEX
  5
22A
  8
DXFIMPORT
 10
5.669592269726195
 20
1.737649585678497
 30
0.0
  0
VERTEX
  5
22B
  8
DXFIMPORT
 10
5.676545647158946
 20
1.754536397294174
 30
0.0
  0
VERTEX
  5
22C
  8
DXFIMPORT
 10
5.677197289767662
 20
1.802779446845562
 30
0.0
  0
VERTEX
  5
22D
  8
DXFIMPORT
 10
5.673565590408771
 20
1.850889958168779
 30
0.0
  0
VERTEX
  5
22E
  8
DXFIMPORT
 10
5.668598996961975
 20
1.883670070178368
 30
0.0
  0
VERTEX
  5
22F
  8
DXFIMPORT
 10
5.645752319135283
 20
1.904530211308412
 30
0.0
  0
VERTEX
  5
230
  8
DXFIMPORT
 10
5.616945527808298
 20
1.93234373870294
 30
0.0
  0
VERTEX
  5
231
  8
DXFIMPORT
 10
5.599065443428401
 20
1.965123850712558
 30
0.0
  0
VERTEX
  5
232
  8
DXFIMPORT
 10
5.594098602692327
 20
2.035650677010295
 30
0.0
  0
VERTEX
  5
233
  8
DXFIMPORT
 10
5.591667121907108
 20
2.104174513041812
 30
0.0
  0
VERTEX
  5
234
  8
DXFIMPORT
 10
5.59211206599565
 20
2.172731247380767
 30
0.0
  0
VERTEX
  5
235
  8
DXFIMPORT
 10
5.594098602692327
 20
2.215444793573283
 30
0.0
  0
VERTEX
  5
236
  8
DXFIMPORT
 10
5.59211206599565
 20
2.252198235097239
 30
0.0
  0
VERTEX
  5
237
  8
DXFIMPORT
 10
5.622905394019313
 20
2.221404907073577
 30
0.0
  0
VERTEX
  5
238
  8
DXFIMPORT
 10
5.674288266866313
 20
2.166371116957038
 30
0.0
  0
VERTEX
  5
239
  8
DXFIMPORT
 10
5.723232522865771
 20
2.109157798515753
 30
0.0
  0
VERTEX
  5
23A
  8
DXFIMPORT
 10
5.825010736439935
 20
2.015197247278081
 30
0.0
  0
VERTEX
  5
23B
  8
DXFIMPORT
 10
5.927860110073141
 20
1.92241029568828
 30
0.0
  0
VERTEX
  5
23C
  8
DXFIMPORT
 10
6.002664723161274
 20
1.856540059215831
 30
0.0
  0
VERTEX
  5
23D
  8
DXFIMPORT
 10
6.078847444140877
 20
1.79228311158235
 30
0.0
  0
VERTEX
  5
23E
  8
DXFIMPORT
 10
6.128514129308599
 20
1.752549613308219
 30
0.0
  0
VERTEX
  5
23F
  8
DXFIMPORT
 10
6.439428958862777
 20
1.550902082851024
 30
0.0
  0
VERTEX
  5
240
  8
DXFIMPORT
 10
6.680809740304767
 20
1.451568465226273
 30
0.0
  0
VERTEX
  5
241
  8
DXFIMPORT
 10
6.838750451805254
 20
1.427728267346083
 30
0.0
  0
VERTEX
  5
242
  8
DXFIMPORT
 10
6.914244118839122
 20
1.429715060163801
 30
0.0
  0
VERTEX
  5
243
  8
DXFIMPORT
 10
7.067217980771773
 20
1.450574945172775
 30
0.0
  0
VERTEX
  5
244
  8
DXFIMPORT
 10
7.1764852798687
 20
1.506201991130098
 30
0.0
  0
VERTEX
  5
245
  8
DXFIMPORT
 10
7.235092135286891
 20
1.550902082851024
 30
0.0
  0
VERTEX
  5
246
  8
DXFIMPORT
 10
7.258932333167081
 20
1.609508929437482
 30
0.0
  0
VERTEX
  5
247
  8
DXFIMPORT
 10
7.251978946902568
 20
1.681029275788717
 30
0.0
  0
VERTEX
  5
248
  8
DXFIMPORT
 10
7.229132021786597
 20
1.714802907851833
 30
0.0
  0
VERTEX
  5
249
  8
DXFIMPORT
 10
7.195358637012816
 20
1.724736094745452
 30
0.0
  0
VERTEX
  5
24A
  8
DXFIMPORT
 10
7.163571788935656
 20
1.721756037995277
 30
0.0
  0
VERTEX
  5
24B
  8
DXFIMPORT
 10
7.127811620175862
 20
1.712816115034116
 30
0.0
  0
VERTEX
  5
24C
  8
DXFIMPORT
 10
7.104964942349227
 20
1.673082625591775
 30
0.0
  0
VERTEX
  5
24D
  8
DXFIMPORT
 10
7.039404709498228
 20
1.612488986187628
 30
0.0
  0
VERTEX
  5
24E
  8
DXFIMPORT
 10
6.950004287598858
 20
1.583682194860614
 30
0.0
  0
VERTEX
  5
24F
  8
DXFIMPORT
 10
6.842723772487886
 20
1.588649035596717
 30
0.0
  0
VERTEX
  5
250
  8
DXFIMPORT
 10
6.722530022564854
 20
1.618449099687922
 30
0.0
  0
VERTEX
  5
251
  8
DXFIMPORT
 10
6.588429500112795
 20
1.673082625591775
 30
0.0
  0
VERTEX
  5
252
  8
DXFIMPORT
 10
6.466248957372045
 20
1.743609699178819
 30
0.0
  0
VERTEX
  5
253
  8
DXFIMPORT
 10
6.412608704232412
 20
1.820096630145116
 30
0.0
  0
VERTEX
  5
254
  8
DXFIMPORT
 10
6.381815376208749
 20
1.928370409188602
 30
0.0
  0
VERTEX
  5
255
  8
DXFIMPORT
 10
6.382808648972969
 20
1.996910698789691
 30
0.0
  0
VERTEX
  5
256
  8
DXFIMPORT
 10
6.381815376208749
 20
2.103197693847221
 30
0.0
  0
VERTEX
  5
257
  8
DXFIMPORT
 10
6.376848535472675
 20
2.281005026424225
 30
0.0
  0
VERTEX
  5
258
  8
DXFIMPORT
 10
6.381815376208749
 20
2.323718581448503
 30
0.0
  0
VERTEX
  5
259
  8
DXFIMPORT
 10
6.412608704232412
 20
2.339612129131723
 30
0.0
  0
VERTEX
  5
25A
  8
DXFIMPORT
 10
6.434462118126646
 20
2.369412184391138
 30
0.0
  0
VERTEX
  5
25B
  8
DXFIMPORT
 10
6.433468845362427
 20
2.4151057873338
 30
0.0
  0
VERTEX
  5
25C
  8
DXFIMPORT
 10
6.433468845362427
 20
2.474705906684449
 30
0.0
  0
VERTEX
  5
25D
  8
DXFIMPORT
 10
6.438435438809279
 20
2.551192890641317
 30
0.0
  0
VERTEX
  5
25E
  8
DXFIMPORT
 10
6.420555354429382
 20
2.564106284425037
 30
0.0
  0
VERTEX
  5
25F
  8
DXFIMPORT
 10
6.354001857645983
 20
2.570066327271263
 30
0.0
  0
VERTEX
  5
260
  8
DXFIMPORT
 10
6.279016317114497
 20
2.56820201330666
 30
0.0
  0
VERTEX
  5
261
  8
DXFIMPORT
 10
6.204007796342466
 20
2.568079640434661
 30
0.0
  0
VERTEX
  5
262
  8
DXFIMPORT
 10
6.138427374087257
 20
2.569400500855323
 30
0.0
  0
VERTEX
  5
263
  8
DXFIMPORT
 10
6.072887330640583
 20
2.572052987612551
 30
0.0
  0
VERTEX
  5
264
  8
DXFIMPORT
 10
6.06891400995795
 20
2.460799151818946
 30
0.0
  0
VERTEX
  5
265
  8
DXFIMPORT
 10
6.075867387390701
 20
2.404179089218445
 30
0.0
  0
VERTEX
  5
266
  8
DXFIMPORT
 10
6.102687394731788
 20
2.366432127640991
 30
0.0
  0
VERTEX
  5
267
  8
DXFIMPORT
 10
6.13248769728051
 20
2.328685422184577
 30
0.0
  0
VERTEX
  5
268
  8
DXFIMPORT
 10
6.133480970044729
 20
2.267098518848002
 30
0.0
  0
VERTEX
  5
269
  8
DXFIMPORT
 10
6.133480970044729
 20
2.181671408799474
 30
0.0
  0
VERTEX
  5
26A
  8
DXFIMPORT
 10
6.127520856544379
 20
2.145911240039709
 30
0.0
  0
VERTEX
  5
26B
  8
DXFIMPORT
 10
6.032160568433994
 20
2.237298207467518
 30
0.0
  0
VERTEX
  5
26C
  8
DXFIMPORT
 10
5.961145336954814
 20
2.306339672975554
 30
0.0
  0
VERTEX
  5
26D
  8
DXFIMPORT
 10
5.891106668549185
 20
2.376365561823917
 30
0.0
  0
VERTEX
  5
26E
  8
DXFIMPORT
 10
5.806724187951545
 20
2.463365210968988
 30
0.0
  0
VERTEX
  5
26F
  8
DXFIMPORT
 10
5.764029161960593
 20
2.506346677444725
 30
0.0
  0
VERTEX
  5
270
  8
DXFIMPORT
 10
5.720252466115653
 20
2.548212886881743
 30
0.0
  0
VERTEX
  5
271
  8
DXFIMPORT
 10
5.675552383226488
 20
2.587946385155846
 30
0.0
  0
VERTEX
  5
272
  8
DXFIMPORT
 10
5.638798941702532
 20
2.60383978269914
 30
0.0
  0
VERTEX
  5
273
  8
DXFIMPORT
 10
5.530525162659046
 20
2.601853122357852
 30
0.0
  0
VERTEX
  5
274
  8
DXFIMPORT
 10
5.412317940600929
 20
2.616753176482831
 30
0.0
  0
VERTEX
  5
275
  8
DXFIMPORT
 10
5.339804330317236
 20
2.616753176482831
 30
0.0
  0
VERTEX
  5
276
  8
DXFIMPORT
 10
5.325897566619972
 20
2.617746519901146
 30
0.0
  0
VERTEX
  5
277
  8
DXFIMPORT
 10
5.323911029923295
 20
2.568079640434661
 30
0.0
  0
SEQEND
  5
278
  8
DXFIMPORT
  0
POLYLINE
  5
45
  8
DXFIMPORT
 66
     1
 10
0.0
 20
0.0
 30
0.0
  0
VERTEX
  5
279
  8
DXFIMPORT
 10
7.598018111458828
 20
2.272377915584372
 30
0.0
  0
VERTEX
  5
27A
  8
DXFIMPORT
 10
7.469170578779597
 20
2.418098058408589
 30
0.0
  0
VERTEX
  5
27B
  8
DXFIMPORT
 10
7.394009665981969
 20
2.441106507590376
 30
0.0
  0
VERTEX
  5
27C
  8
DXFIMPORT
 10
7.159323297094488
 20
2.511665976074539
 30
0.0
  0
VERTEX
  5
27D
  8
DXFIMPORT
 10
7.043693032578744
 20
2.526971231366304
 30
0.0
  0
VERTEX
  5
27E
  8
DXFIMPORT
 10
6.927704966954252
 20
2.539276108027252
 30
0.0
  0
VERTEX
  5
27F
  8
DXFIMPORT
 10
6.8142933554617
 20
2.548379860143712
 30
0.0
  0
VERTEX
  5
280
  8
DXFIMPORT
 10
6.700688072295577
 20
2.55461497699909
 30
0.0
  0
VERTEX
  5
281
  8
DXFIMPORT
 10
6.587179753026817
 20
2.55461497699909
 30
0.0
  0
VERTEX
  5
282
  8
DXFIMPORT
 10
6.564171312676763
 20
2.551547176709448
 30
0.0
  0
VERTEX
  5
283
  8
DXFIMPORT
 10
6.565705203989864
 20
2.528538833508776
 30
0.0
  0
VERTEX
  5
284
  8
DXFIMPORT
 10
6.568383823926069
 20
2.464909594413399
 30
0.0
  0
VERTEX
  5
285
  8
DXFIMPORT
 10
6.568772995447716
 20
2.401225200974352
 30
0.0
  0
VERTEX
  5
286
  8
DXFIMPORT
 10
6.573374687050432
 20
2.381284552082207
 30
0.0
  0
VERTEX
  5
287
  8
DXFIMPORT
 10
6.594849236087384
 20
2.372081177708537
 30
0.0
  0
VERTEX
  5
288
  8
DXFIMPORT
 10
6.622459368040097
 20
2.362877794503135
 30
0.0
  0
VERTEX
  5
289
  8
DXFIMPORT
 10
6.650069499992867
 20
2.338335454008302
 30
0.0
  0
VERTEX
  5
28A
  8
DXFIMPORT
 10
6.668476257571911
 20
2.295386364766131
 30
0.0
  0
VERTEX
  5
28B
  8
DXFIMPORT
 10
6.670010148884955
 20
2.209488177450083
 30
0.0
  0
VERTEX
  5
28C
  8
DXFIMPORT
 10
6.653137291450719
 20
2.152734013399794
 30
0.0
  0
VERTEX
  5
28D
  8
DXFIMPORT
 10
6.619391576582245
 20
2.095979602060225
 30
0.0
  0
VERTEX
  5
28E
  8
DXFIMPORT
 10
6.573374687050432
 20
2.037691546696891
 30
0.0
  0
VERTEX
  5
28F
  8
DXFIMPORT
 10
6.530425597808289
 20
1.999344140225702
 30
0.0
  0
VERTEX
  5
290
  8
DXFIMPORT
 10
6.485942599589521
 20
1.976335699875676
 30
0.0
  0
VERTEX
  5
291
  8
DXFIMPORT
 10
6.439925718889526
 20
1.9655984253572
 30
0.0
  0
VERTEX
  5
292
  8
DXFIMPORT
 10
6.415383378394665
 20
1.944123876320248
 30
0.0
  0
VERTEX
  5
293
  8
DXFIMPORT
 10
6.40464585658691
 20
1.904242578535957
 30
0.0
  0
VERTEX
  5
294
  8
DXFIMPORT
 10
6.426120652913141
 20
1.845954523172622
 30
0.0
  0
VERTEX
  5
295
  8
DXFIMPORT
 10
6.44452740166048
 20
1.799937633640837
 30
0.0
  0
VERTEX
  5
296
  8
DXFIMPORT
 10
6.461400267926479
 20
1.781530876061765
 30
0.0
  0
VERTEX
  5
297
  8
DXFIMPORT
 10
6.485942599589521
 20
1.772327501688096
 30
0.0
  0
VERTEX
  5
298
  8
DXFIMPORT
 10
6.589396471894531
 20
1.764772213289376
 30
0.0
  0
VERTEX
  5
299
  8
DXFIMPORT
 10
6.69301858923501
 20
1.760056335856575
 30
0.0
  0
VERTEX
  5
29A
  8
DXFIMPORT
 10
6.779675071498275
 20
1.758296369140993
 30
0.0
  0
VERTEX
  5
29B
  8
DXFIMPORT
 10
6.866349111301247
 20
1.75852243571174
 30
0.0
  0
VERTEX
  5
29C
  8
DXFIMPORT
 10
6.906230417917243
 20
1.76159022716962
 30
0.0
  0
VERTEX
  5
29D
  8
DXFIMPORT
 10
6.924637175496343
 20
1.789200359122361
 30
0.0
  0
VERTEX
  5
29E
  8
DXFIMPORT
 10
6.933840549870013
 20
1.819878282532954
 30
0.0
  0
VERTEX
  5
29F
  8
DXFIMPORT
 10
6.921569375206673
 20
1.907310369993866
 30
0.0
  0
VERTEX
  5
2A0
  8
DXFIMPORT
 10
6.906230417917243
 20
1.956395050983531
 30
0.0
  0
VERTEX
  5
2A1
  8
DXFIMPORT
 10
6.883221977567246
 20
1.993208557309913
 30
0.0
  0
VERTEX
  5
2A2
  8
DXFIMPORT
 10
6.883221977567246
 20
2.030022063636295
 30
0.0
  0
VERTEX
  5
2A3
  8
DXFIMPORT
 10
6.883221977567246
 20
2.053030512818083
 30
0.0
  0
SEQEND
  5
2A4
  8
DXFIMPORT
  0
POLYLINE
  5
46
  8
DXFIMPORT
 66
     1
 10
0.0
 20
0.0
 30
0.0
  0
VERTEX
  5
2A5
  8
DXFIMPORT
 10
7.467636678634733
 20
2.424233641324349
 30
0.0
  0
VERTEX
  5
2A6
  8
DXFIMPORT
 10
7.53206032574559
 20
2.522403250593015
 30
0.0
  0
VERTEX
  5
2A7
  8
DXFIMPORT
 10
7.611823177435213
 20
2.620572559581831
 30
0.0
  0
VERTEX
  5
2A8
  8
DXFIMPORT
 10
7.714594222185497
 20
2.70340300843057
 30
0.0
  0
VERTEX
  5
2A9
  8
DXFIMPORT
 10
7.800492409501601
 20
2.718741992215257
 30
0.0
  0
VERTEX
  5
2AA
  8
DXFIMPORT
 10
7.94621255232579
 20
2.718741992215257
 30
0.0
  0
VERTEX
  5
2AB
  8
DXFIMPORT
 10
8.04898384436541
 20
2.689597942454185
 30
0.0
  0
VERTEX
  5
2AC
  8
DXFIMPORT
 10
8.134882040513219
 20
2.63591155219828
 30
0.0
  0
VERTEX
  5
2AD
  8
DXFIMPORT
 10
8.21924632768446
 20
2.543877799629968
 30
0.0
  0
VERTEX
  5
2AE
  8
DXFIMPORT
 10
8.320483481121755
 20
2.388954035142802
 30
0.0
  0
VERTEX
  5
2AF
  8
DXFIMPORT
 10
8.358831134882223
 20
2.276979607187059
 30
0.0
  0
VERTEX
  5
2B0
  8
DXFIMPORT
 10
8.363432826484939
 20
2.177276353894655
 30
0.0
  0
SEQEND
  5
2B1
  8
DXFIMPORT
  0
POLYLINE
  5
47
  8
DXFIMPORT
 66
     1
 10
0.0
 20
0.0
 30
0.0
  0
VERTEX
  5
2B2
  8
DXFIMPORT
 10
7.88332280535974
 20
2.250903375379153
 30
0.0
  0
VERTEX
  5
2B3
  8
DXFIMPORT
 10
7.886390596817648
 20
2.695733525369974
 30
0.0
  0
SEQEND
  5
2B4
  8
DXFIMPORT
  0
POLYLINE
  5
48
  8
DXFIMPORT
 66
     1
 10
0.0
 20
0.0
 30
0.0
  0
VERTEX
  5
2B5
  8
DXFIMPORT
 10
7.884856705504603
 20
1.838285040112027
 30
0.0
  0
VERTEX
  5
2B6
  8
DXFIMPORT
 10
7.887924496962455
 20
2.016216997659939
 30
0.0
  0
SEQEND
  5
2B7
  8
DXFIMPORT
  0
POLYLINE
  5
49
  8
DXFIMPORT
 66
     1
 10
0.0
 20
0.0
 30
0.0
  0
VERTEX
  5
2B8
  8
DXFIMPORT
 10
7.403213040355638
 20
2.046894929902322
 30
0.0
  0
VERTEX
  5
2B9
  8
DXFIMPORT
 10
7.400145248897729
 20
1.970200116959887
 30
0.0
  0
VERTEX
  5
2BA
  8
DXFIMPORT
 10
7.389407974379253
 20
1.953327259525651
 30
0.0
  0
VERTEX
  5
2BB
  8
DXFIMPORT
 10
7.364865633884449
 20
1.951793359380815
 30
0.0
  0
VERTEX
  5
2BC
  8
DXFIMPORT
 10
7.344924984992304
 20
1.934920501946578
 30
0.0
  0
VERTEX
  5
2BD
  8
DXFIMPORT
 10
7.352594468052871
 20
1.896573095475389
 30
0.0
  0
VERTEX
  5
2BE
  8
DXFIMPORT
 10
7.371001216800209
 20
1.841352831569935
 30
0.0
  0
VERTEX
  5
2BF
  8
DXFIMPORT
 10
7.394009665981969
 20
1.82447997413567
 30
0.0
  0
VERTEX
  5
2C0
  8
DXFIMPORT
 10
7.447593590153815
 20
1.816780613229668
 30
0.0
  0
VERTEX
  5
2C1
  8
DXFIMPORT
 10
7.501382402335025
 20
1.810674908159314
 30
0.0
  0
VERTEX
  5
2C2
  8
DXFIMPORT
 10
7.558843063057793
 20
1.805930892737905
 30
0.0
  0
VERTEX
  5
2C3
  8
DXFIMPORT
 10
7.616424869037928
 20
1.803005425098718
 30
0.0
  0
VERTEX
  5
2C4
  8
DXFIMPORT
 10
7.821966958538553
 20
1.813742699617194
 30
0.0
  0
VERTEX
  5
2C5
  8
DXFIMPORT
 10
8.062788910341794
 20
1.847488414485696
 30
0.0
  0
VERTEX
  5
2C6
  8
DXFIMPORT
 10
8.148687106489604
 20
1.865895172064768
 30
0.0
  0
VERTEX
  5
2C7
  8
DXFIMPORT
 10
8.164026063779033
 20
1.868962963522648
 30
0.0
  0
VERTEX
  5
2C8
  8
DXFIMPORT
 10
8.334288547098083
 20
2.014683106346865
 30
0.0
  0
SEQEND
  5
2C9
  8
DXFIMPORT
  0
POLYLINE
  5
4A
  8
DXFIMPORT
 66
     1
 10
0.0
 20
0.0
 30
0.0
 70
     1
  0
VERTEX
  5
2CA
  8
DXFIMPORT
 10
7.255959006218347
 20
2.051496612673247
 30
0.0
  0
VERTEX
  5
2CB
  8
DXFIMPORT
 10
7.087230166923064
 20
2.056098304275963
 30
0.0
  0
VERTEX
  5
2CC
  8
DXFIMPORT
 10
6.944577824388489
 20
2.059166095733843
 30
0.0
  0
VERTEX
  5
2CD
  8
DXFIMPORT
 10
6.851010154011817
 20
2.063767787336559
 30
0.0
  0
VERTEX
  5
2CE
  8
DXFIMPORT
 10
6.840272879493341
 20
2.082174536083869
 30
0.0
  0
VERTEX
  5
2CF
  8
DXFIMPORT
 10
6.841806779638148
 20
2.111318815470696
 30
0.0
  0
VERTEX
  5
2D0
  8
DXFIMPORT
 10
6.872484703048769
 20
2.165005188063105
 30
0.0
  0
VERTEX
  5
2D1
  8
DXFIMPORT
 10
6.915433792290912
 20
2.200284794244652
 30
0.0
  0
VERTEX
  5
2D2
  8
DXFIMPORT
 10
6.984459122172723
 20
2.224827134739513
 30
0.0
  0
VERTEX
  5
2D3
  8
DXFIMPORT
 10
7.085696275610019
 20
2.252437266692226
 30
0.0
  0
VERTEX
  5
2D4
  8
DXFIMPORT
 10
7.216077699602295
 20
2.263174541210702
 30
0.0
  0
VERTEX
  5
2D5
  8
DXFIMPORT
 10
7.374069017089823
 20
2.272377915584372
 30
0.0
  0
VERTEX
  5
2D6
  8
DXFIMPORT
 10
7.469959864374005
 20
2.271008595294433
 30
0.0
  0
VERTEX
  5
2D7
  8
DXFIMPORT
 10
7.56580604061412
 20
2.267776232813418
 30
0.0
  0
VERTEX
  5
2D8
  8
DXFIMPORT
 10
7.70385694766702
 20
2.260106749752822
 30
0.0
  0
VERTEX
  5
2D9
  8
DXFIMPORT
 10
7.80981832455069
 20
2.25224568814582
 30
0.0
  0
VERTEX
  5
2DA
  8
DXFIMPORT
 10
7.915534628915168
 20
2.24169999217375
 30
0.0
  0
VERTEX
  5
2DB
  8
DXFIMPORT
 10
7.98320306479394
 20
2.233027830524122
 30
0.0
  0
VERTEX
  5
2DC
  8
DXFIMPORT
 10
8.05071297057367
 20
2.223173255129751
 30
0.0
  0
VERTEX
  5
2DD
  8
DXFIMPORT
 10
8.185500612815986
 20
2.201818694389488
 30
0.0
  0
VERTEX
  5
2DE
  8
DXFIMPORT
 10
8.294682076033666
 20
2.184111429896944
 30
0.0
  0
VERTEX
  5
2DF
  8
DXFIMPORT
 10
8.349112003365235
 20
2.174380137045887
 30
0.0
  0
VERTEX
  5
2E0
  8
DXFIMPORT
 10
8.40331412426923
 20
2.16347128791827
 30
0.0
  0
VERTEX
  5
2E1
  8
DXFIMPORT
 10
8.492404886985696
 20
2.142543442513073
 30
0.0
  0
VERTEX
  5
2E2
  8
DXFIMPORT
 10
8.581246081817085
 20
2.120522189844365
 30
0.0
  0
VERTEX
  5
2E3
  8
DXFIMPORT
 10
8.710912689618624
 20
2.090824485856103
 30
0.0
  0
VERTEX
  5
2E4
  8
DXFIMPORT
 10
8.840474800031188
 20
2.060699995878679
 30
0.0
  0
VERTEX
  5
2E5
  8
DXFIMPORT
 10
8.949381427697233
 20
2.03155596378113
 30
0.0
  0
VERTEX
  5
2E6
  8
DXFIMPORT
 10
8.995398317229046
 20
2.005479731973224
 30
0.0
  0
VERTEX
  5
2E7
  8
DXFIMPORT
 10
9.0
 20
1.994742457454748
 30
0.0
  0
VERTEX
  5
2E8
  8
DXFIMPORT
 10
8.933275520335428
 20
1.994047786509384
 30
0.0
  0
VERTEX
  5
2E9
  8
DXFIMPORT
 10
8.866551031839094
 20
1.994742457454748
 30
0.0
  0
VERTEX
  5
2EA
  8
DXFIMPORT
 10
8.764456155496134
 20
1.998316564904115
 30
0.0
  0
VERTEX
  5
2EB
  8
DXFIMPORT
 10
8.662450550587153
 20
2.004063603353217
 30
0.0
  0
VERTEX
  5
2EC
  8
DXFIMPORT
 10
8.458534388174655
 20
2.017750897804774
 30
0.0
  0
VERTEX
  5
2ED
  8
DXFIMPORT
 10
8.253841746220246
 20
2.028745150055357
 30
0.0
  0
VERTEX
  5
2EE
  8
DXFIMPORT
 10
8.04898384436541
 20
2.036157655383818
 30
0.0
  0
VERTEX
  5
2EF
  8
DXFIMPORT
 10
7.850744428421024
 20
2.040713121552642
 30
0.0
  0
VERTEX
  5
2F0
  8
DXFIMPORT
 10
7.652473765708407
 20
2.043911720213686
 30
0.0
  0
VERTEX
  5
2F1
  8
DXFIMPORT
 10
7.454201928371617
 20
2.047068023574212
 30
0.0
  0
SEQEND
  5
2F2
  8
DXFIMPORT
  0
POLYLINE
  5
4B
  8
DXFIMPORT
 66
     1
 10
0.0
 20
0.0
 30
0.0
  0
VERTEX
  5
2F3
  8
DXFIMPORT
 10
7.00381278577396
 20
2.209743406493629
 30
0.0
  0
VERTEX
  5
2F4
  8
DXFIMPORT
 10
7.038398480541559
 20
2.077916320474543
 30
0.0
  0
VERTEX
  5
2F5
  8
DXFIMPORT
 10
7.069475458213674
 20
2.189693588211298
 30
0.0
  0
VERTEX
  5
2F6
  8
DXFIMPORT
 10
7.100051436614137
 20
2.075911334230426
 30
0.0
  0
VERTEX
  5
2F7
  8
DXFIMPORT
 10
7.128120943751867
 20
2.23430419653593
 30
0.0
  0
SEQEND
  5
2F8
  8
DXFIMPORT
  0
POLYLINE
  5
4C
  8
DXFIMPORT
 66
     1
 10
0.0
 20
0.0
 30
0.0
  0
VERTEX
  5
2F9
  8
DXFIMPORT
 10
7.166215602904174
 20
2.0739063568181
 30
0.0
  0
VERTEX
  5
2FA
  8
DXFIMPORT
 10
7.168220589148291
 20
2.236810420509329
 30
0.0
  0
SEQEND
  5
2FB
  8
DXFIMPORT
  0
POLYLINE
  5
4D
  8
DXFIMPORT
 66
     1
 10
0.0
 20
0.0
 30
0.0
  0
VERTEX
  5
2FC
  8
DXFIMPORT
 10
7.19278137035883
 20
2.241822877287831
 30
0.0
  0
VERTEX
  5
2FD
  8
DXFIMPORT
 10
7.147669524304888
 20
2.235306680826227
 30
0.0
  0
SEQEND
  5
2FE
  8
DXFIMPORT
  0
POLYLINE
  5
4E
  8
DXFIMPORT
 66
     1
 10
0.0
 20
0.0
 30
0.0
  0
VERTEX
  5
2FF
  8
DXFIMPORT
 10
7.286513797225609
 20
2.217262096077292
 30
0.0
  0
VERTEX
  5
300
  8
DXFIMPORT
 10
7.281501340447051
 20
2.23430419653593
 30
0.0
  0
VERTEX
  5
301
  8
DXFIMPORT
 10
7.270474189889001
 20
2.244830347822244
 30
0.0
  0
VERTEX
  5
302
  8
DXFIMPORT
 10
7.255436819553438
 20
2.250845297722833
 30
0.0
  0
VERTEX
  5
303
  8
DXFIMPORT
 10
7.231377037614607
 20
2.245331594383288
 30
0.0
  0
VERTEX
  5
304
  8
DXFIMPORT
 10
7.218846147373483
 20
2.229793233607722
 30
0.0
  0
VERTEX
  5
305
  8
DXFIMPORT
 10
7.212831197472894
 20
2.210244653054673
 30
0.0
  0
VERTEX
  5
306
  8
DXFIMPORT
 10
7.212831197472894
 20
2.102978595535404
 30
0.0
  0
VERTEX
  5
307
  8
DXFIMPORT
 10
7.221352371346882
 20
2.085936247787487
 30
0.0
  0
VERTEX
  5
308
  8
DXFIMPORT
 10
7.23939696492755
 20
2.074407603379115
 30
0.0
  0
VERTEX
  5
309
  8
DXFIMPORT
 10
7.260950522892983
 20
2.07490884994013
 30
0.0
  0
VERTEX
  5
30A
  8
DXFIMPORT
 10
7.272980413862399
 20
2.081926284131015
 30
0.0
  0
VERTEX
  5
30B
  8
DXFIMPORT
 10
7.284508819813254
 20
2.098467385317917
 30
0.0
  0
VERTEX
  5
30C
  8
DXFIMPORT
 10
7.286513797225609
 20
2.10748980575292
 30
0.0
  0
SEQEND
  5
30D
  8
DXFIMPORT
  0
POLYLINE
  5
4F
  8
DXFIMPORT
 66
     1
 10
0.0
 20
0.0
 30
0.0
  0
VERTEX
  5
30E
  8
DXFIMPORT
 10
7.310573587996146
 20
2.24783782718842
 30
0.0
  0
VERTEX
  5
30F
  8
DXFIMPORT
 10
7.308067355190985
 20
2.072903863696041
 30
0.0
  0
SEQEND
  5
310
  8
DXFIMPORT
  0
POLYLINE
  5
50
  8
DXFIMPORT
 66
     1
 10
0.0
 20
0.0
 30
0.0
  0
VERTEX
  5
311
  8
DXFIMPORT
 10
7.311074834557189
 20
2.16062158795151
 30
0.0
  0
VERTEX
  5
312
  8
DXFIMPORT
 10
7.377239000847226
 20
2.159619103661214
 30
0.0
  0
SEQEND
  5
313
  8
DXFIMPORT
  0
POLYLINE
  5
51
  8
DXFIMPORT
 66
     1
 10
0.0
 20
0.0
 30
0.0
  0
VERTEX
  5
314
  8
DXFIMPORT
 10
7.382752704186771
 20
2.251847790844892
 30
0.0
  0
VERTEX
  5
315
  8
DXFIMPORT
 10
7.376236507725196
 20
2.071901370573983
 30
0.0
  0
SEQEND
  5
316
  8
DXFIMPORT
  0
POLYLINE
  5
52
  8
DXFIMPORT
 66
     1
 10
0.0
 20
0.0
 30
0.0
  0
VERTEX
  5
317
  8
DXFIMPORT
 10
7.412827188736856
 20
2.248840311478716
 30
0.0
  0
VERTEX
  5
318
  8
DXFIMPORT
 10
7.461447760717988
 20
2.25034405116179
 30
0.0
  0
SEQEND
  5
319
  8
DXFIMPORT
  0
POLYLINE
  5
53
  8
DXFIMPORT
 66
     1
 10
0.0
 20
0.0
 30
0.0
  0
VERTEX
  5
31A
  8
DXFIMPORT
 10
7.438390463069481
 20
2.247336580627405
 30
0.0
  0
VERTEX
  5
31B
  8
DXFIMPORT
 10
7.433879500141245
 20
2.070898877451924
 30
0.0
  0
SEQEND
  5
31C
  8
DXFIMPORT
  0
POLYLINE
  5
54
  8
DXFIMPORT
 66
     1
 10
0.0
 20
0.0
 30
0.0
  0
VERTEX
  5
31D
  8
DXFIMPORT
 10
7.407814731958354
 20
2.071400124012939
 30
0.0
  0
VERTEX
  5
31E
  8
DXFIMPORT
 10
7.453929071134326
 20
2.071901370573983
 30
0.0
  0
SEQEND
  5
31F
  8
DXFIMPORT
  0
POLYLINE
  5
55
  8
DXFIMPORT
 66
     1
 10
0.0
 20
0.0
 30
0.0
  0
VERTEX
  5
320
  8
DXFIMPORT
 10
7.478991355026949
 20
2.251346544283848
 30
0.0
  0
VERTEX
  5
321
  8
DXFIMPORT
 10
7.540143064538483
 20
2.24783782718842
 30
0.0
  0
SEQEND
  5
322
  8
DXFIMPORT
  0
POLYLINE
  5
56
  8
DXFIMPORT
 66
     1
 10
0.0
 20
0.0
 30
0.0
  0
VERTEX
  5
323
  8
DXFIMPORT
 10
7.509065839577033
 20
2.248339064917701
 30
0.0
  0
VERTEX
  5
324
  8
DXFIMPORT
 10
7.508063346454946
 20
2.069395146600584
 30
0.0
  0
SEQEND
  5
325
  8
DXFIMPORT
  0
POLYLINE
  5
57
  8
DXFIMPORT
 66
     1
 10
0.0
 20
0.0
 30
0.0
  0
VERTEX
  5
326
  8
DXFIMPORT
 10
7.547160251440062
 20
2.068893900039569
 30
0.0
  0
VERTEX
  5
327
  8
DXFIMPORT
 10
7.591771107053944
 20
2.246835334066361
 30
0.0
  0
VERTEX
  5
328
  8
DXFIMPORT
 10
7.638386701622721
 20
2.066387923355478
 30
0.0
  0
SEQEND
  5
329
  8
DXFIMPORT
  0
POLYLINE
  5
58
  8
DXFIMPORT
 66
     1
 10
0.0
 20
0.0
 30
0.0
  0
VERTEX
  5
32A
  8
DXFIMPORT
 10
7.564703845749023
 20
2.131549349234177
 30
0.0
  0
VERTEX
  5
32B
  8
DXFIMPORT
 10
7.62084310731376
 20
2.128541869868002
 30
0.0
  0
SEQEND
  5
32C
  8
DXFIMPORT
  0
POLYLINE
  5
59
  8
DXFIMPORT
 66
     1
 10
0.0
 20
0.0
 30
0.0
  0
VERTEX
  5
32D
  8
DXFIMPORT
 10
7.705553361034845
 20
2.240319137604757
 30
0.0
  0
VERTEX
  5
32E
  8
DXFIMPORT
 10
7.708059337718907
 20
2.063881690550318
 30
0.0
  0
SEQEND
  5
32F
  8
DXFIMPORT
  0
POLYLINE
  5
5A
  8
DXFIMPORT
 66
     1
 10
0.0
 20
0.0
 30
0.0
  0
VERTEX
  5
330
  8
DXFIMPORT
 10
7.780739700470576
 20
2.230294224047697
 30
0.0
  0
VERTEX
  5
331
  8
DXFIMPORT
 10
7.708059337718907
 20
2.150095436665197
 30
0.0
  0
VERTEX
  5
332
  8
DXFIMPORT
 10
7.782243431321888
 20
2.061375466576948
 30
0.0
  0
SEQEND
  5
333
  8
DXFIMPORT
  0
POLYLINE
  5
5B
  8
DXFIMPORT
 66
     1
 10
0.0
 20
0.0
 30
0.0
  0
VERTEX
  5
334
  8
DXFIMPORT
 10
7.803295751558039
 20
2.061375466576948
 30
0.0
  0
VERTEX
  5
335
  8
DXFIMPORT
 10
7.844898880516496
 20
2.221272059733764
 30
0.0
  0
VERTEX
  5
336
  8
DXFIMPORT
 10
7.885499525184684
 20
2.058869233771816
 30
0.0
  0
SEQEND
  5
337
  8
DXFIMPORT
  0
POLYLINE
  5
5C
  8
DXFIMPORT
 66
     1
 10
0.0
 20
0.0
 30
0.0
  0
VERTEX
  5
338
  8
DXFIMPORT
 10
7.820337852016678
 20
2.120522189844365
 30
0.0
  0
VERTEX
  5
339
  8
DXFIMPORT
 10
7.868958671287089
 20
2.122025929527439
 30
0.0
  0
SEQEND
  5
33A
  8
DXFIMPORT
  0
POLYLINE
  5
5D
  8
DXFIMPORT
 66
     1
 10
0.0
 20
0.0
 30
0.0
  0
VERTEX
  5
33B
  8
DXFIMPORT
 10
7.90605059002803
 20
2.057866749481519
 30
0.0
  0
VERTEX
  5
33C
  8
DXFIMPORT
 10
7.905549343467044
 20
2.21475586327216
 30
0.0
  0
VERTEX
  5
33D
  8
DXFIMPORT
 10
7.972214756318124
 20
2.054859270115344
 30
0.0
  0
VERTEX
  5
33E
  8
DXFIMPORT
 10
7.974720989123227
 20
2.210244653054673
 30
0.0
  0
SEQEND
  5
33F
  8
DXFIMPORT
  0
POLYLINE
  5
5E
  8
DXFIMPORT
 66
     1
 10
0.0
 20
0.0
 30
0.0
  0
VERTEX
  5
340
  8
DXFIMPORT
 10
7.988755619047481
 20
2.084933754665428
 30
0.0
  0
VERTEX
  5
341
  8
DXFIMPORT
 10
7.996274299799381
 20
2.068893900039569
 30
0.0
  0
VERTEX
  5
342
  8
DXFIMPORT
 10
8.014820387230372
 20
2.054859270115344
 30
0.0
  0
VERTEX
  5
343
  8
DXFIMPORT
 10
8.032864980811098
 20
2.053355539264004
 30
0.0
  0
VERTEX
  5
344
  8
DXFIMPORT
 10
8.048904835436929
 20
2.060372973454889
 30
0.0
  0
VERTEX
  5
345
  8
DXFIMPORT
 10
8.060433479845301
 20
2.071901370573983
 30
0.0
  0
VERTEX
  5
346
  8
DXFIMPORT
 10
8.062939712650461
 20
2.090948704566017
 30
0.0
  0
VERTEX
  5
347
  8
DXFIMPORT
 10
8.052413552532357
 20
2.114507248775539
 30
0.0
  0
VERTEX
  5
348
  8
DXFIMPORT
 10
8.031361241127968
 20
2.127539385577705
 30
0.0
  0
VERTEX
  5
349
  8
DXFIMPORT
 10
8.005296720234355
 20
2.134055573207547
 30
0.0
  0
VERTEX
  5
34A
  8
DXFIMPORT
 10
7.990760596459836
 20
2.152100414077552
 30
0.0
  0
VERTEX
  5
34B
  8
DXFIMPORT
 10
7.989758103337749
 20
2.173653972042956
 30
0.0
  0
VERTEX
  5
34C
  8
DXFIMPORT
 10
8.001788003138927
 20
2.194706044989829
 30
0.0
  0
VERTEX
  5
34D
  8
DXFIMPORT
 10
8.026850278199788
 20
2.204730949715099
 30
0.0
  0
VERTEX
  5
34E
  8
DXFIMPORT
 10
8.049406081997972
 20
2.195708529280125
 30
0.0
  0
VERTEX
  5
34F
  8
DXFIMPORT
 10
8.065947183184846
 20
2.177162441849106
 30
0.0
  0
SEQEND
  5
350
  8
DXFIMPORT
  0
POLYLINE
  5
5F
  8
DXFIMPORT
 66
     1
 10
0.0
 20
0.0
 30
0.0
  0
VERTEX
  5
351
  8
DXFIMPORT
 10
8.079480813837336
 20
2.051350553019887
 30
0.0
  0
VERTEX
  5
352
  8
DXFIMPORT
 10
8.12459266872304
 20
2.190696072501595
 30
0.0
  0
VERTEX
  5
353
  8
DXFIMPORT
 10
8.165193313391171
 20
2.047841835924459
 30
0.0
  0
SEQEND
  5
354
  8
DXFIMPORT
  0
POLYLINE
  5
60
  8
DXFIMPORT
 66
     1
 10
0.0
 20
0.0
 30
0.0
  0
VERTEX
  5
355
  8
DXFIMPORT
 10
8.099029147101135
 20
2.107991052313935
 30
0.0
  0
VERTEX
  5
356
  8
DXFIMPORT
 10
8.14664722596018
 20
2.106487321462623
 30
0.0
  0
SEQEND
  5
357
  8
DXFIMPORT
  0
POLYLINE
  5
61
  8
DXFIMPORT
 66
     1
 10
0.0
 20
0.0
 30
0.0
  0
VERTEX
  5
358
  8
DXFIMPORT
 10
8.181734414578102
 20
2.064884183672376
 30
0.0
  0
VERTEX
  5
359
  8
DXFIMPORT
 10
8.190756835013076
 20
2.052353046141945
 30
0.0
  0
VERTEX
  5
35A
  8
DXFIMPORT
 10
8.206796442349628
 20
2.043831872267987
 30
0.0
  0
VERTEX
  5
35B
  8
DXFIMPORT
 10
8.221332566124204
 20
2.043330625706972
 30
0.0
  0
VERTEX
  5
35C
  8
DXFIMPORT
 10
8.235868689898723
 20
2.052854292702989
 30
0.0
  0
VERTEX
  5
35D
  8
DXFIMPORT
 10
8.242886124089637
 20
2.064884183672376
 30
0.0
  0
VERTEX
  5
35E
  8
DXFIMPORT
 10
8.24438986377271
 20
2.08142503757
 30
0.0
  0
VERTEX
  5
35F
  8
DXFIMPORT
 10
8.23436495021565
 20
2.100472371562034
 30
0.0
  0
VERTEX
  5
360
  8
DXFIMPORT
 10
8.214315131933347
 20
2.108993545435993
 30
0.0
  0
VERTEX
  5
361
  8
DXFIMPORT
 10
8.196270291063342
 20
2.117514719309952
 30
0.0
  0
VERTEX
  5
362
  8
DXFIMPORT
 10
8.183238154261176
 20
2.134055573207547
 30
0.0
  0
VERTEX
  5
363
  8
DXFIMPORT
 10
8.182235661139089
 20
2.15310290719961
 30
0.0
  0
VERTEX
  5
364
  8
DXFIMPORT
 10
8.192761565136152
 20
2.168641524096188
 30
0.0
  0
VERTEX
  5
365
  8
DXFIMPORT
 10
8.2108064060061
 20
2.175157711726058
 30
0.0
  0
VERTEX
  5
366
  8
DXFIMPORT
 10
8.234866196776693
 20
2.166135291291056
 30
0.0
  0
VERTEX
  5
367
  8
DXFIMPORT
 10
8.246394850016827
 20
2.147589203860036
 30
0.0
  0
SEQEND
  5
368
  8
DXFIMPORT
  0
POLYLINE
  5
62
  8
DXFIMPORT
 66
     1
 10
0.0
 20
0.0
 30
0.0
 70
     1
  0
VERTEX
  5
369
  8
DXFIMPORT
 10
2.604848873146182
 20
1.393193425854832
 30
0.0
  0
VERTEX
  5
36A
  8
DXFIMPORT
 10
2.547719368111018
 20
1.382286908311983
 30
0.0
  0
VERTEX
  5
36B
  8
DXFIMPORT
 10
2.499938325609264
 20
1.36514810007705
 30
0.0
  0
VERTEX
  5
36C
  8
DXFIMPORT
 10
2.448521768428066
 20
1.332428300159165
 30
0.0
  0
VERTEX
  5
36D
  8
DXFIMPORT
 10
2.402298807431066
 20
1.298150683689329
 30
0.0
  0
VERTEX
  5
36E
  8
DXFIMPORT
 10
2.346727366237133
 20
1.223362895104771
 30
0.0
  0
VERTEX
  5
36F
  8
DXFIMPORT
 10
2.329588505011657
 20
1.193759496653968
 30
0.0
  0
VERTEX
  5
370
  8
DXFIMPORT
 10
2.312449670281467
 20
1.147017289968232
 30
0.0
  0
VERTEX
  5
371
  8
DXFIMPORT
 10
2.301023765741718
 20
1.081577946253532
 30
0.0
  0
VERTEX
  5
372
  8
DXFIMPORT
 10
2.300504396408371
 20
1.023409773205742
 30
0.0
  0
VERTEX
  5
373
  8
DXFIMPORT
 10
2.310891597608475
 20
0.9647221690023002
 30
0.0
  0
VERTEX
  5
374
  8
DXFIMPORT
 10
2.332704676852984
 20
0.9044764921258093
 30
0.0
  0
VERTEX
  5
375
  8
DXFIMPORT
 10
2.364904939634073
 20
0.846308319078048
 30
0.0
  0
VERTEX
  5
376
  8
DXFIMPORT
 10
2.410608540129488
 20
0.7943721982647958
 30
0.0
  0
VERTEX
  5
377
  8
DXFIMPORT
 10
2.470334856504337
 20
0.751265576912516
 30
0.0
  0
VERTEX
  5
378
  8
DXFIMPORT
 10
2.528503091374489
 20
0.722181371159877
 30
0.0
  0
VERTEX
  5
379
  8
DXFIMPORT
 10
2.590306823260448
 20
0.7066006355979653
 30
0.0
  0
VERTEX
  5
37A
  8
DXFIMPORT
 10
2.664575189521088
 20
0.7034844902519239
 30
0.0
  0
VERTEX
  5
37B
  8
DXFIMPORT
 10
2.7357273839404
 20
0.7149104477822448
 30
0.0
  0
VERTEX
  5
37C
  8
DXFIMPORT
 10
2.798050485159706
 20
0.7403590682014283
 30
0.0
  0
VERTEX
  5
37D
  8
DXFIMPORT
 10
2.850505772175836
 20
0.7746366846712647
 30
0.0
  0
VERTEX
  5
37E
  8
DXFIMPORT
 10
2.901402960023688
 20
0.8229369728617542
 30
0.0
  0
VERTEX
  5
37F
  8
DXFIMPORT
 10
2.94087426982702
 20
0.8774697990336051
 30
0.0
  0
VERTEX
  5
380
  8
DXFIMPORT
 10
2.966322863750918
 20
0.9351187705514974
 30
0.0
  0
VERTEX
  5
381
  8
DXFIMPORT
 10
2.981384282970055
 20
0.9886127167484631
 30
0.0
  0
VERTEX
  5
382
  8
DXFIMPORT
 10
2.982942355643104
 20
1.058206838494783
 30
0.0
  0
VERTEX
  5
383
  8
DXFIMPORT
 10
2.978787480462131
 20
1.116894442698253
 30
0.0
  0
VERTEX
  5
384
  8
DXFIMPORT
 10
2.957493761719149
 20
1.176101248431621
 30
0.0
  0
VERTEX
  5
385
  8
DXFIMPORT
 10
2.932045167795252
 20
1.228037113123804
 30
0.0
  0
VERTEX
  5
386
  8
DXFIMPORT
 10
2.909193349884049
 20
1.26231498571471
 30
0.0
  0
VERTEX
  5
387
  8
DXFIMPORT
 10
2.901402960023688
 20
1.272182870571982
 30
0.0
  0
VERTEX
  5
388
  8
DXFIMPORT
 10
2.910232062055456
 20
1.315808931911675
 30
0.0
  0
VERTEX
  5
389
  8
DXFIMPORT
 10
2.924774138436476
 20
1.375535168800724
 30
0.0
  0
VERTEX
  5
38A
  8
DXFIMPORT
 10
2.941393630328605
 20
1.424354896978656
 30
0.0
  0
VERTEX
  5
38B
  8
DXFIMPORT
 10
2.965803494417571
 20
1.475252137817051
 30
0.0
  0
VERTEX
  5
38C
  8
DXFIMPORT
 10
2.987097239655839
 20
1.515762301099983
 30
0.0
  0
VERTEX
  5
38D
  8
DXFIMPORT
 10
3.01722005159877
 20
1.562504507785718
 30
0.0
  0
VERTEX
  5
38E
  8
DXFIMPORT
 10
3.03487827332583
 20
1.589511200877922
 30
0.0
  0
VERTEX
  5
38F
  8
DXFIMPORT
 10
3.046823529535402
 20
1.593665978909542
 30
0.0
  0
VERTEX
  5
390
  8
DXFIMPORT
 10
3.036955715332226
 20
1.599379085735194
 30
0.0
  0
VERTEX
  5
391
  8
DXFIMPORT
 10
2.970997108265294
 20
1.599898278433358
 30
0.0
  0
VERTEX
  5
392
  8
DXFIMPORT
 10
2.894651299998259
 20
1.601975791093793
 30
0.0
  0
VERTEX
  5
393
  8
DXFIMPORT
 10
2.85517999019487
 20
1.603014423779371
 30
0.0
  0
VERTEX
  5
394
  8
DXFIMPORT
 10
2.862451019553646
 20
1.596782124255554
 30
0.0
  0
VERTEX
  5
395
  8
DXFIMPORT
 10
2.898806175179232
 20
1.578604683335072
 30
0.0
  0
VERTEX
  5
396
  8
DXFIMPORT
 10
2.922177335928552
 20
1.555233584408086
 30
0.0
  0
VERTEX
  5
397
  8
DXFIMPORT
 10
2.92581285060794
 20
1.523552664465058
 30
0.0
  0
VERTEX
  5
398
  8
DXFIMPORT
 10
2.91958052458881
 20
1.476291017791908
 30
0.0
  0
VERTEX
  5
399
  8
DXFIMPORT
 10
2.900364256683986
 20
1.417083964769262
 30
0.0
  0
VERTEX
  5
39A
  8
DXFIMPORT
 10
2.881667322785518
 20
1.367744805435649
 30
0.0
  0
VERTEX
  5
39B
  8
DXFIMPORT
 10
2.870760778747353
 20
1.358396360565791
 30
0.0
  0
VERTEX
  5
39C
  8
DXFIMPORT
 10
2.845312184823456
 20
1.361512505911833
 30
0.0
  0
VERTEX
  5
39D
  8
DXFIMPORT
 10
2.804802171680421
 20
1.380728835638962
 30
0.0
  0
VERTEX
  5
39E
  8
DXFIMPORT
 10
2.766369591712021
 20
1.393712865842275
 30
0.0
  0
VERTEX
  5
39F
  8
DXFIMPORT
 10
2.736766122607094
 20
1.40150322920735
 30
0.0
  0
VERTEX
  5
3A0
  8
DXFIMPORT
 10
2.714433674029237
 20
1.416045332083684
 30
0.0
  0
VERTEX
  5
3A1
  8
DXFIMPORT
 10
2.710798159349849
 20
1.435780854508948
 30
0.0
  0
VERTEX
  5
3A2
  8
DXFIMPORT
 10
2.718069188708625
 20
1.455516615391758
 30
0.0
  0
VERTEX
  5
3A3
  8
DXFIMPORT
 10
2.734169311267408
 20
1.496545971372854
 30
0.0
  0
VERTEX
  5
3A4
  8
DXFIMPORT
 10
2.752866245165876
 20
1.538613960039527
 30
0.0
  0
VERTEX
  5
3A5
  8
DXFIMPORT
 10
2.772082521902462
 20
1.574969098001588
 30
0.0
  0
VERTEX
  5
3A6
  8
DXFIMPORT
 10
2.794934339813722
 20
1.589511200877922
 30
0.0
  0
VERTEX
  5
3A7
  8
DXFIMPORT
 10
2.819863564404272
 20
1.595743491569976
 30
0.0
  0
VERTEX
  5
3A8
  8
DXFIMPORT
 10
2.827653954264633
 20
1.600937158408215
 30
0.0
  0
VERTEX
  5
3A9
  8
DXFIMPORT
 10
2.819344221566212
 20
1.606130816414691
 30
0.0
  0
VERTEX
  5
3AA
  8
DXFIMPORT
 10
2.655746069825796
 20
1.608208081785847
 30
0.0
  0
VERTEX
  5
3AB
  8
DXFIMPORT
 10
2.651591212308347
 20
1.607688889087711
 30
0.0
  0
VERTEX
  5
3AC
  8
DXFIMPORT
 10
2.659900945006768
 20
1.601456351106378
 30
0.0
  0
VERTEX
  5
3AD
  8
DXFIMPORT
 10
2.688465710771993
 20
1.586914495519324
 30
0.0
  0
VERTEX
  5
3AE
  8
DXFIMPORT
 10
2.698333524975169
 20
1.572891832630432
 30
0.0
  0
VERTEX
  5
3AF
  8
DXFIMPORT
 10
2.701969030822795
 20
1.544846259563371
 30
0.0
  0
VERTEX
  5
3B0
  8
DXFIMPORT
 10
2.696256109464116
 20
1.504855783557133
 30
0.0
  0
VERTEX
  5
3B1
  8
DXFIMPORT
 10
2.683791466257674
 20
1.463826180286731
 30
0.0
  0
VERTEX
  5
3B2
  8
DXFIMPORT
 10
2.671326849546517
 20
1.432664700331173
 30
0.0
  0
VERTEX
  5
3B3
  8
DXFIMPORT
 10
2.657823503000373
 20
1.404099934565949
 30
0.0
  0
VERTEX
  5
3B4
  8
DXFIMPORT
 10
2.651071842975
 20
1.392154793169254
 30
0.0
  0
VERTEX
  5
3B5
  8
DXFIMPORT
 10
2.628220033895502
 20
1.392154793169254
 30
0.0
  0
SEQEND
  5
3B6
  8
DXFIMPORT
  0
POLYLINE
  5
63
  8
DXFIMPORT
 66
     1
 10
0.0
 20
0.0
 30
0.0
 70
     1
  0
VERTEX
  5
3B7
  8
DXFIMPORT
 10
2.571090520028577
 20
1.233230779962042
 30
0.0
  0
VERTEX
  5
3B8
  8
DXFIMPORT
 10
2.514999744828344
 20
1.200511227333465
 30
0.0
  0
VERTEX
  5
3B9
  8
DXFIMPORT
 10
2.4791639497044
 20
1.161039952857124
 30
0.0
  0
VERTEX
  5
3BA
  8
DXFIMPORT
 10
2.458908943132883
 20
1.121049229561606
 30
0.0
  0
VERTEX
  5
3BB
  8
DXFIMPORT
 10
2.449560480599473
 20
1.081058506266089
 30
0.0
  0
VERTEX
  5
3BC
  8
DXFIMPORT
 10
2.448002407926481
 20
1.047300320951933
 30
0.0
  0
VERTEX
  5
3BD
  8
DXFIMPORT
 10
2.449041137761412
 20
1.009387110316851
 30
0.0
  0
VERTEX
  5
3BE
  8
DXFIMPORT
 10
2.463063827145618
 20
0.9699158358405384
 30
0.0
  0
VERTEX
  5
3BF
  8
DXFIMPORT
 10
2.480202688371094
 20
0.9382349158975103
 30
0.0
  0
VERTEX
  5
3C0
  8
DXFIMPORT
 10
2.510325500314025
 20
0.902918419452817
 30
0.0
  0
VERTEX
  5
3C1
  8
DXFIMPORT
 10
2.547719368111018
 20
0.8748730936750349
 30
0.0
  0
VERTEX
  5
3C2
  8
DXFIMPORT
 10
2.62666196122251
 20
0.8520211786144216
 30
0.0
  0
VERTEX
  5
3C3
  8
DXFIMPORT
 10
2.695736740130712
 20
0.8608501746650745
 30
0.0
  0
VERTEX
  5
3C4
  8
DXFIMPORT
 10
2.731053165921367
 20
0.8722761321953669
 30
0.0
  0
VERTEX
  5
3C5
  8
DXFIMPORT
 10
2.773121251737393
 20
0.9013603379480344
 30
0.0
  0
VERTEX
  5
3C6
  8
DXFIMPORT
 10
2.808957020366108
 20
0.9444672154213549
 30
0.0
  0
VERTEX
  5
3C7
  8
DXFIMPORT
 10
2.827134620258278
 20
0.9854965714024502
 30
0.0
  0
VERTEX
  5
3C8
  8
DXFIMPORT
 10
2.837002425629748
 20
1.021332260545307
 30
0.0
  0
VERTEX
  5
3C9
  8
DXFIMPORT
 10
2.836483056296402
 20
1.07171006139626
 30
0.0
  0
VERTEX
  5
3CA
  8
DXFIMPORT
 10
2.832847541617014
 20
1.09508116915498
 30
0.0
  0
VERTEX
  5
3CB
  8
DXFIMPORT
 10
2.823499105578946
 20
1.12312674222207
 30
0.0
  0
VERTEX
  5
3CC
  8
DXFIMPORT
 10
2.796492412486714
 20
1.171427021580797
 30
0.0
  0
VERTEX
  5
3CD
  8
DXFIMPORT
 10
2.767927664385013
 20
1.2010304200316
 30
0.0
  0
VERTEX
  5
3CE
  8
DXFIMPORT
 10
2.716511116035576
 20
1.23167270728905
 30
0.0
  0
VERTEX
  5
3CF
  8
DXFIMPORT
 10
2.666652631527427
 20
1.243098664819343
 30
0.0
  0
VERTEX
  5
3D0
  8
DXFIMPORT
 10
2.633413647743168
 20
1.244137297504921
 30
0.0
  0
VERTEX
  5
3D1
  8
DXFIMPORT
 10
2.597058483285821
 20
1.239982510641539
 30
0.0
  0
SEQEND
  5
3D2
  8
DXFIMPORT
  0
POLYLINE
  5
64
  8
DXFIMPORT
 66
     1
 10
0.0
 20
0.0
 30
0.0
 70
     1
  0
VERTEX
  5
3D3
  8
DXFIMPORT
 10
2.646916967794027
 20
1.097678121802886
 30
0.0
  0
VERTEX
  5
3D4
  8
DXFIMPORT
 10
2.626142618384392
 20
1.094561976456845
 30
0.0
  0
VERTEX
  5
3D5
  8
DXFIMPORT
 10
2.60848438782557
 20
1.085213531586987
 30
0.0
  0
VERTEX
  5
3D6
  8
DXFIMPORT
 10
2.596019779946175
 20
1.065477761872415
 30
0.0
  0
VERTEX
  5
3D7
  8
DXFIMPORT
 10
2.593942337939836
 20
1.041587222958015
 30
0.0
  0
VERTEX
  5
3D8
  8
DXFIMPORT
 10
2.602771439971605
 20
1.018216115199266
 30
0.0
  0
VERTEX
  5
3D9
  8
DXFIMPORT
 10
2.615755417184346
 20
1.005751524983395
 30
0.0
  0
VERTEX
  5
3DA
  8
DXFIMPORT
 10
2.640165307768598
 20
0.9995192342913413
 30
0.0
  0
VERTEX
  5
3DB
  8
DXFIMPORT
 10
2.663017116848039
 20
1.003154819624797
 30
0.0
  0
VERTEX
  5
3DC
  8
DXFIMPORT
 10
2.67807850957189
 20
1.015619409840667
 30
0.0
  0
VERTEX
  5
3DD
  8
DXFIMPORT
 10
2.688465710771993
 20
1.030680705415136
 30
0.0
  0
VERTEX
  5
3DE
  8
DXFIMPORT
 10
2.691062495616393
 20
1.047300320951933
 30
0.0
  0
VERTEX
  5
3DF
  8
DXFIMPORT
 10
2.686907638098944
 20
1.065477761872415
 30
0.0
  0
VERTEX
  5
3E0
  8
DXFIMPORT
 10
2.677559175565591
 20
1.08261657893911
 30
0.0
  0
VERTEX
  5
3E1
  8
DXFIMPORT
 10
2.665094532359149
 20
1.092484454964648
 30
0.0
  0
SEQEND
  5
3E2
  8
DXFIMPORT
  0
POLYLINE
  5
65
  8
DXFIMPORT
 66
     1
 10
0.0
 20
0.0
 30
0.0
 70
     1
  0
VERTEX
  5
3E3
  8
DXFIMPORT
 10
2.648475040467019
 20
0.9828996099227822
 30
0.0
  0
VERTEX
  5
3E4
  8
DXFIMPORT
 10
2.633932981749467
 20
0.980302904564212
 30
0.0
  0
VERTEX
  5
3E5
  8
DXFIMPORT
 10
2.624065176378053
 20
0.97562868654515
 30
0.0
  0
VERTEX
  5
3E6
  8
DXFIMPORT
 10
2.622507103705061
 20
0.9517381387989872
 30
0.0
  0
VERTEX
  5
3E7
  8
DXFIMPORT
 10
2.624065176378053
 20
0.9221347403481843
 30
0.0
  0
VERTEX
  5
3E8
  8
DXFIMPORT
 10
2.632374909076475
 20
0.8894149404302993
 30
0.0
  0
VERTEX
  5
3E9
  8
DXFIMPORT
 10
2.636010423755863
 20
0.8805859443796464
 30
0.0
  0
VERTEX
  5
3EA
  8
DXFIMPORT
 10
2.648994409800366
 20
0.8769503590461909
 30
0.0
  0
VERTEX
  5
3EB
  8
DXFIMPORT
 10
2.693659298124373
 20
0.8826634570400813
 30
0.0
  0
VERTEX
  5
3EC
  8
DXFIMPORT
 10
2.732611238594359
 20
0.9003214579731491
 30
0.0
  0
VERTEX
  5
3ED
  8
DXFIMPORT
 10
2.753385614499223
 20
0.919018595002143
 30
0.0
  0
VERTEX
  5
3EE
  8
DXFIMPORT
 10
2.755463030010333
 20
0.9273281510653817
 30
0.0
  0
VERTEX
  5
3EF
  8
DXFIMPORT
 10
2.746633927978564
 20
0.9361574032370754
 30
0.0
  0
VERTEX
  5
3F0
  8
DXFIMPORT
 10
2.718069188708625
 20
0.9501800661259665
 30
0.0
  0
VERTEX
  5
3F1
  8
DXFIMPORT
 10
2.693659298124373
 20
0.9662802416753209
 30
0.0
  0
VERTEX
  5
3F2
  8
DXFIMPORT
 10
2.679117248238583
 20
0.979264271878634
 30
0.0
  0
VERTEX
  5
3F3
  8
DXFIMPORT
 10
2.670288146206815
 20
0.9875738367736062
 30
0.0
  0
VERTEX
  5
3F4
  8
DXFIMPORT
 10
2.661459017679761
 20
0.9865352040880282
 30
0.0
  0
SEQEND
  5
3F5
  8
DXFIMPORT
  0
POLYLINE
  5
66
  8
DXFIMPORT
 66
     1
 10
0.0
 20
0.0
 30
0.0
 70
     1
  0
VERTEX
  5
3F6
  8
DXFIMPORT
 10
3.934639987573007
 20
2.630351164173305
 30
0.0
  0
VERTEX
  5
3F7
  8
DXFIMPORT
 10
2.429503429105409
 20
2.632859728563176
 30
0.0
  0
VERTEX
  5
3F8
  8
DXFIMPORT
 10
2.411943504871488
 20
2.647911079575465
 30
0.0
  0
VERTEX
  5
3F9
  8
DXFIMPORT
 10
2.401909273807235
 20
2.693065185602848
 30
0.0
  0
VERTEX
  5
3FA
  8
DXFIMPORT
 10
2.389366469521292
 20
2.718150794174647
 30
0.0
  0
VERTEX
  5
3FB
  8
DXFIMPORT
 10
2.406926393755214
 20
2.723167914122655
 30
0.0
  0
VERTEX
  5
3FC
  8
DXFIMPORT
 10
2.432012002327042
 20
2.728185051734187
 30
0.0
  0
VERTEX
  5
3FD
  8
DXFIMPORT
 10
2.459606175288741
 20
2.763304891370268
 30
0.0
  0
VERTEX
  5
3FE
  8
DXFIMPORT
 10
2.49134182565092
 20
2.831659457882097
 30
0.0
  0
VERTEX
  5
3FF
  8
DXFIMPORT
 10
2.501097820935797
 20
2.888421694161366
 30
0.0
  0
VERTEX
  5
400
  8
DXFIMPORT
 10
2.50553238913659
 20
2.926558860576449
 30
0.0
  0
VERTEX
  5
401
  8
DXFIMPORT
 10
2.505975831825879
 20
2.978443112460923
 30
0.0
  0
VERTEX
  5
402
  8
DXFIMPORT
 10
2.509080010136586
 20
2.991303286056507
 30
0.0
  0
VERTEX
  5
403
  8
DXFIMPORT
 10
2.527261690302055
 20
3.001946219710476
 30
0.0
  0
VERTEX
  5
404
  8
DXFIMPORT
 10
2.568946460053553
 20
3.01037187809581
 30
0.0
  0
VERTEX
  5
405
  8
DXFIMPORT
 10
2.627967251249572
 20
3.020065582974638
 30
0.0
  0
VERTEX
  5
406
  8
DXFIMPORT
 10
2.687348987661039
 20
3.02722315070767
 30
0.0
  0
VERTEX
  5
407
  8
DXFIMPORT
 10
2.769125569037499
 20
3.031555093852717
 30
0.0
  0
VERTEX
  5
408
  8
DXFIMPORT
 10
2.850983932515192
 20
3.033874994177125
 30
0.0
  0
VERTEX
  5
409
  8
DXFIMPORT
 10
2.943001726092518
 20
3.034228609031459
 30
0.0
  0
VERTEX
  5
40A
  8
DXFIMPORT
 10
3.035018203737479
 20
3.032935692300669
 30
0.0
  0
VERTEX
  5
40B
  8
DXFIMPORT
 10
3.219051680101302
 20
3.028996983287044
 30
0.0
  0
VERTEX
  5
40C
  8
DXFIMPORT
 10
3.353418568446784
 20
3.027884658392765
 30
0.0
  0
VERTEX
  5
40D
  8
DXFIMPORT
 10
3.487785412633457
 20
3.028996983287044
 30
0.0
  0
VERTEX
  5
40E
  8
DXFIMPORT
 10
3.56627708255462
 20
3.039639908109251
 30
0.0
  0
VERTEX
  5
40F
  8
DXFIMPORT
 10
3.677140837155264
 20
3.067134114375079
 30
0.0
  0
VERTEX
  5
410
  8
DXFIMPORT
 10
3.756962764490083
 20
3.094628347136194
 30
0.0
  0
VERTEX
  5
411
  8
DXFIMPORT
 10
3.816829329219956
 20
3.103497448210788
 30
0.0
  0
VERTEX
  5
412
  8
DXFIMPORT
 10
3.832793672294486
 20
3.104384368916357
 30
0.0
  0
VERTEX
  5
413
  8
DXFIMPORT
 10
3.832793672294486
 20
3.097732534278634
 30
0.0
  0
VERTEX
  5
414
  8
DXFIMPORT
 10
3.823924535892843
 20
3.092411080699293
 30
0.0
  0
VERTEX
  5
415
  8
DXFIMPORT
 10
3.806186280753138
 20
3.081768147045324
 30
0.0
  0
VERTEX
  5
416
  8
DXFIMPORT
 10
3.80086474768791
 20
3.064029936064372
 30
0.0
  0
VERTEX
  5
417
  8
DXFIMPORT
 10
3.804412351024382
 20
3.045404830873139
 30
0.0
  0
VERTEX
  5
418
  8
DXFIMPORT
 10
3.818159586633669
 20
3.03431845452991
 30
0.0
  0
VERTEX
  5
419
  8
DXFIMPORT
 10
3.883790853333494
 20
3.033874994177125
 30
0.0
  0
VERTEX
  5
41A
  8
DXFIMPORT
 10
4.024373852585995
 20
3.034340348463928
 30
0.0
  0
VERTEX
  5
41B
  8
DXFIMPORT
 10
4.164941519902413
 20
3.036535729798544
 30
0.0
  0
VERTEX
  5
41C
  8
DXFIMPORT
 10
4.349192831636344
 20
3.041201186711305
 30
0.0
  0
VERTEX
  5
41D
  8
DXFIMPORT
 10
4.533452736673098
 20
3.045404830873139
 30
0.0
  0
VERTEX
  5
41E
  8
DXFIMPORT
 10
4.733012315329063
 20
3.047363485702249
 30
0.0
  0
VERTEX
  5
41F
  8
DXFIMPORT
 10
4.932562364515547
 20
3.049839372578674
 30
0.0
  0
VERTEX
  5
420
  8
DXFIMPORT
 10
4.980899039558892
 20
3.050726284452509
 30
0.0
  0
VERTEX
  5
421
  8
DXFIMPORT
 10
5.010610362121668
 20
3.050726284452509
 30
0.0
  0
VERTEX
  5
422
  8
DXFIMPORT
 10
5.019036073497546
 20
3.045848282394161
 30
0.0
  0
VERTEX
  5
423
  8
DXFIMPORT
 10
5.018592657303543
 20
3.038752996235445
 30
0.0
  0
VERTEX
  5
424
  8
DXFIMPORT
 10
5.002184898035068
 20
3.032988073471557
 30
0.0
  0
VERTEX
  5
425
  8
DXFIMPORT
 10
4.988881078619727
 20
3.027666619892216
 30
0.0
  0
VERTEX
  5
426
  8
DXFIMPORT
 10
4.978238268610369
 20
3.019240961506881
 30
0.0
  0
VERTEX
  5
427
  8
DXFIMPORT
 10
4.969812557234491
 20
2.98465147791407
 30
0.0
  0
VERTEX
  5
428
  8
DXFIMPORT
 10
4.942761749499141
 20
2.957157245152985
 30
0.0
  0
VERTEX
  5
429
  8
DXFIMPORT
 10
4.896642420378555
 20
2.93542794398752
 30
0.0
  0
VERTEX
  5
42A
  8
DXFIMPORT
 10
4.830124065169741
 20
2.923898116123269
 30
0.0
  0
VERTEX
  5
42B
  8
DXFIMPORT
 10
4.764936223495738
 20
2.923454655770485
 30
0.0
  0
VERTEX
  5
42C
  8
DXFIMPORT
 10
4.720590815272146
 20
2.910151004158593
 30
0.0
  0
VERTEX
  5
42D
  8
DXFIMPORT
 10
4.682897197527438
 20
2.88975208405148
 30
0.0
  0
VERTEX
  5
42E
  8
DXFIMPORT
 10
4.656733222180037
 20
2.861814408601106
 30
0.0
  0
VERTEX
  5
42F
  8
DXFIMPORT
 10
4.631012919147679
 20
2.825894543949971
 30
0.0
  0
VERTEX
  5
430
  8
DXFIMPORT
 10
4.599527419566869
 20
2.810373599405921
 30
0.0
  0
VERTEX
  5
431
  8
DXFIMPORT
 10
4.513940799093859
 20
2.806382500389645
 30
0.0
  0
VERTEX
  5
432
  8
DXFIMPORT
 10
4.449196117492761
 20
2.80815633296902
 30
0.0
  0
VERTEX
  5
433
  8
DXFIMPORT
 10
4.418597706420996
 20
2.802834879389678
 30
0.0
  0
VERTEX
  5
434
  8
DXFIMPORT
 10
4.398642352647812
 20
2.787757404030174
 30
0.0
  0
VERTEX
  5
435
  8
DXFIMPORT
 10
4.385782196715752
 20
2.774010292065498
 30
0.0
  0
VERTEX
  5
436
  8
DXFIMPORT
 10
4.37868674275353
 20
2.738533870103595
 30
0.0
  0
VERTEX
  5
437
  8
DXFIMPORT
 10
4.364052913213811
 20
2.707935476695326
 30
0.0
  0
VERTEX
  5
438
  8
DXFIMPORT
 10
4.343653887125583
 20
2.692858010167583
 30
0.0
  0
VERTEX
  5
439
  8
DXFIMPORT
 10
4.304629764677884
 20
2.684875812135033
 30
0.0
  0
VERTEX
  5
43A
  8
DXFIMPORT
 10
4.266049314545228
 20
2.687536530092927
 30
0.0
  0
VERTEX
  5
43B
  8
DXFIMPORT
 10
4.20465208209481
 20
2.689892128392842
 30
0.0
  0
VERTEX
  5
43C
  8
DXFIMPORT
 10
4.143212236400473
 20
2.691084177588181
 30
0.0
  0
VERTEX
  5
43D
  8
DXFIMPORT
 10
4.119265615807592
 20
2.691527620277441
 30
0.0
  0
VERTEX
  5
43E
  8
DXFIMPORT
 10
4.097536332305651
 20
2.688423441966762
 30
0.0
  0
VERTEX
  5
43F
  8
DXFIMPORT
 10
4.076250464997713
 20
2.669798319112004
 30
0.0
  0
VERTEX
  5
440
  8
DXFIMPORT
 10
4.061172971974656
 20
2.651616665441793
 30
0.0
  0
VERTEX
  5
441
  8
DXFIMPORT
 10
4.045208637731889
 20
2.636095747393028
 30
0.0
  0
VERTEX
  5
442
  8
DXFIMPORT
 10
4.013279713125371
 20
2.625896256428291
 30
0.0
  0
VERTEX
  5
443
  8
DXFIMPORT
 10
3.972038492044192
 20
2.625009371049771
 30
0.0
  0
SEQEND
  5
444
  8
DXFIMPORT
  0
POLYLINE
  5
67
  8
DXFIMPORT
 66
     1
 10
0.0
 20
0.0
 30
0.0
  0
VERTEX
  5
445
  8
DXFIMPORT
 10
4.062352930490022
 20
2.70627907120209
 30
0.0
  0
VERTEX
  5
446
  8
DXFIMPORT
 10
3.147287444686867
 20
2.711583806259029
 30
0.0
  0
SEQEND
  5
447
  8
DXFIMPORT
  0
POLYLINE
  5
68
  8
DXFIMPORT
 66
     1
 10
0.0
 20
0.0
 30
0.0
  0
VERTEX
  5
448
  8
DXFIMPORT
 10
4.393898584515682
 20
2.807068895975505
 30
0.0
  0
VERTEX
  5
449
  8
DXFIMPORT
 10
3.436395156434742
 20
2.817678348425858
 30
0.0
  0
SEQEND
  5
44A
  8
DXFIMPORT
  0
POLYLINE
  5
69
  8
DXFIMPORT
 66
     1
 10
0.0
 20
0.0
 30
0.0
  0
VERTEX
  5
44B
  8
DXFIMPORT
 10
4.701572643752911
 20
2.934382378370032
 30
0.0
  0
VERTEX
  5
44C
  8
DXFIMPORT
 10
3.595537013843796
 20
2.929077652144883
 30
0.0
  0
SEQEND
  5
44D
  8
DXFIMPORT
  0
POLYLINE
  5
6A
  8
DXFIMPORT
 66
     1
 10
0.0
 20
0.0
 30
0.0
 70
     1
  0
VERTEX
  5
44E
  8
DXFIMPORT
 10
3.495421493976266
 20
2.949981854927501
 30
0.0
  0
VERTEX
  5
44F
  8
DXFIMPORT
 10
2.696745212354585
 20
2.9451266829698
 30
0.0
  0
VERTEX
  5
450
  8
DXFIMPORT
 10
2.688248661428588
 20
2.940271502180309
 30
0.0
  0
VERTEX
  5
451
  8
DXFIMPORT
 10
2.697958996512227
 20
2.934202546064938
 30
0.0
  0
VERTEX
  5
452
  8
DXFIMPORT
 10
2.71737970200661
 20
2.920850814349478
 30
0.0
  0
VERTEX
  5
453
  8
DXFIMPORT
 10
2.730731433722042
 20
2.891719773771456
 30
0.0
  0
VERTEX
  5
454
  8
DXFIMPORT
 10
2.721021080974879
 20
2.872299059445339
 30
0.0
  0
VERTEX
  5
455
  8
DXFIMPORT
 10
2.700386582491092
 20
2.860161147214598
 30
0.0
  0
VERTEX
  5
456
  8
DXFIMPORT
 10
2.687034859607422
 20
2.860161147214598
 30
0.0
  0
VERTEX
  5
457
  8
DXFIMPORT
 10
2.688248661428588
 20
2.851664569793343
 30
0.0
  0
VERTEX
  5
458
  8
DXFIMPORT
 10
2.702814168469956
 20
2.843168018867345
 30
0.0
  0
VERTEX
  5
459
  8
DXFIMPORT
 10
2.721021080974879
 20
2.826174925847113
 30
0.0
  0
VERTEX
  5
45A
  8
DXFIMPORT
 10
2.728303847743234
 20
2.800685255405625
 30
0.0
  0
VERTEX
  5
45B
  8
DXFIMPORT
 10
2.719807296817237
 20
2.776409360290046
 30
0.0
  0
VERTEX
  5
45C
  8
DXFIMPORT
 10
2.69917279833345
 20
2.749705905690888
 30
0.0
  0
VERTEX
  5
45D
  8
DXFIMPORT
 10
2.671255541913069
 20
2.74849213036498
 30
0.0
  0
VERTEX
  5
45E
  8
DXFIMPORT
 10
2.653048638239909
 20
2.744850733733188
 30
0.0
  0
VERTEX
  5
45F
  8
DXFIMPORT
 10
2.651834854082267
 20
2.739995552943697
 30
0.0
  0
VERTEX
  5
460
  8
DXFIMPORT
 10
2.668827955934205
 20
2.731499002017728
 30
0.0
  0
VERTEX
  5
461
  8
DXFIMPORT
 10
2.684607264796796
 20
2.713292098344539
 30
0.0
  0
VERTEX
  5
462
  8
DXFIMPORT
 10
2.687034859607422
 20
2.693871410513708
 30
0.0
  0
VERTEX
  5
463
  8
DXFIMPORT
 10
2.678538308681425
 20
2.664740343440428
 30
0.0
  0
VERTEX
  5
464
  8
DXFIMPORT
 10
2.655476224218773
 20
2.65138862055673
 30
0.0
  0
VERTEX
  5
465
  8
DXFIMPORT
 10
2.622703787008959
 20
2.648961034577866
 30
0.0
  0
VERTEX
  5
466
  8
DXFIMPORT
 10
2.604496883335798
 20
2.641678267809539
 30
0.0
  0
VERTEX
  5
467
  8
DXFIMPORT
 10
3.075448837018143
 20
2.644105853788403
 30
0.0
  0
VERTEX
  5
468
  8
DXFIMPORT
 10
3.087586784575933
 20
2.65017483639906
 30
0.0
  0
VERTEX
  5
469
  8
DXFIMPORT
 10
3.098510921480738
 20
2.664740343440428
 30
0.0
  0
VERTEX
  5
46A
  8
DXFIMPORT
 10
3.104579877596109
 20
2.693871410513708
 30
0.0
  0
VERTEX
  5
46B
  8
DXFIMPORT
 10
3.1094350583856
 20
2.715719693155165
 30
0.0
  0
VERTEX
  5
46C
  8
DXFIMPORT
 10
3.120359195290462
 20
2.724216235249401
 30
0.0
  0
VERTEX
  5
46D
  8
DXFIMPORT
 10
3.143421279753056
 20
2.724216235249401
 30
0.0
  0
VERTEX
  5
46E
  8
DXFIMPORT
 10
3.201683387404387
 20
2.729071416038863
 30
0.0
  0
VERTEX
  5
46F
  8
DXFIMPORT
 10
3.234455798118915
 20
2.730285226691819
 30
0.0
  0
VERTEX
  5
470
  8
DXFIMPORT
 10
3.264800649349866
 20
2.756988672459215
 30
0.0
  0
VERTEX
  5
471
  8
DXFIMPORT
 10
3.287862707317231
 20
2.783692127058373
 30
0.0
  0
VERTEX
  5
472
  8
DXFIMPORT
 10
3.300000769687927
 20
2.812823167636367
 30
0.0
  0
VERTEX
  5
473
  8
DXFIMPORT
 10
3.314566303224581
 20
2.82131974505765
 30
0.0
  0
VERTEX
  5
474
  8
DXFIMPORT
 10
3.370400727747665
 20
2.820105934404694
 30
0.0
  0
VERTEX
  5
475
  8
DXFIMPORT
 10
3.426235152270749
 20
2.828602485330691
 30
0.0
  0
VERTEX
  5
476
  8
DXFIMPORT
 10
3.496635348788004
 20
2.860161147214598
 30
0.0
  0
VERTEX
  5
477
  8
DXFIMPORT
 10
3.536690384962696
 20
2.896574954560947
 30
0.0
  0
VERTEX
  5
478
  8
DXFIMPORT
 10
3.547614592521654
 20
2.928133581117805
 30
0.0
  0
VERTEX
  5
479
  8
DXFIMPORT
 10
3.552469773311088
 20
2.934202546064938
 30
0.0
  0
VERTEX
  5
47A
  8
DXFIMPORT
 10
3.587669875985625
 20
2.94391289881213
 30
0.0
  0
VERTEX
  5
47B
  8
DXFIMPORT
 10
3.639862974530956
 20
2.973043939390124
 30
0.0
  0
VERTEX
  5
47C
  8
DXFIMPORT
 10
3.670207649126723
 20
3.007030160757608
 30
0.0
  0
VERTEX
  5
47D
  8
DXFIMPORT
 10
3.715118104548424
 20
3.03494741717796
 30
0.0
  0
VERTEX
  5
47E
  8
DXFIMPORT
 10
3.746676633955929
 20
3.045871562914556
 30
0.0
  0
VERTEX
  5
47F
  8
DXFIMPORT
 10
3.729683638085078
 20
3.045871562914556
 30
0.0
  0
VERTEX
  5
480
  8
DXFIMPORT
 10
3.670207649126723
 20
3.022809478451933
 30
0.0
  0
VERTEX
  5
481
  8
DXFIMPORT
 10
3.630152621783793
 20
2.987609472926778
 30
0.0
  0
VERTEX
  5
482
  8
DXFIMPORT
 10
3.581600840384397
 20
2.964547388464155
 30
0.0
  0
VERTEX
  5
483
  8
DXFIMPORT
 10
3.534262913796738
 20
2.953623251559293
 30
0.0
  0
SEQEND
  5
484
  8
DXFIMPORT
  0
POLYLINE
  5
6B
  8
DXFIMPORT
 66
     1
 10
0.0
 20
0.0
 30
0.0
 70
     1
  0
VERTEX
  5
485
  8
DXFIMPORT
 10
3.485711141229103
 20
2.919637030191808
 30
0.0
  0
VERTEX
  5
486
  8
DXFIMPORT
 10
3.177407492288808
 20
2.920850814349478
 30
0.0
  0
VERTEX
  5
487
  8
DXFIMPORT
 10
3.160414399268575
 20
2.920850814349478
 30
0.0
  0
VERTEX
  5
488
  8
DXFIMPORT
 10
3.145848865731921
 20
2.90749909146578
 30
0.0
  0
VERTEX
  5
489
  8
DXFIMPORT
 10
3.145848865731921
 20
2.890505963118528
 30
0.0
  0
VERTEX
  5
48A
  8
DXFIMPORT
 10
3.139779900784788
 20
2.867443887487639
 30
0.0
  0
VERTEX
  5
48B
  8
DXFIMPORT
 10
3.128855763879926
 20
2.851664569793343
 30
0.0
  0
VERTEX
  5
48C
  8
DXFIMPORT
 10
3.121572997111628
 20
2.845595613677943
 30
0.0
  0
VERTEX
  5
48D
  8
DXFIMPORT
 10
3.147062667553143
 20
2.844381829520273
 30
0.0
  0
VERTEX
  5
48E
  8
DXFIMPORT
 10
3.221093936374302
 20
2.842531116466688
 30
0.0
  0
VERTEX
  5
48F
  8
DXFIMPORT
 10
3.295145597730198
 20
2.843168018867345
 30
0.0
  0
VERTEX
  5
490
  8
DXFIMPORT
 10
3.331004187627741
 20
2.843015635673538
 30
0.0
  0
VERTEX
  5
491
  8
DXFIMPORT
 10
3.366759410601674
 20
2.844381829520273
 30
0.0
  0
VERTEX
  5
492
  8
DXFIMPORT
 10
3.380106231858406
 20
2.846586042615314
 30
0.0
  0
VERTEX
  5
493
  8
DXFIMPORT
 10
3.3931468913093
 20
2.850184693526813
 30
0.0
  0
VERTEX
  5
494
  8
DXFIMPORT
 10
3.405738623547791
 20
2.855130179066293
 30
0.0
  0
VERTEX
  5
495
  8
DXFIMPORT
 10
3.417738645503562
 20
2.861374922540506
 30
0.0
  0
VERTEX
  5
496
  8
DXFIMPORT
 10
3.44808357622037
 20
2.891719773771456
 30
0.0
  0
VERTEX
  5
497
  8
DXFIMPORT
 10
3.474786924838384
 20
2.90749909146578
 30
0.0
  0
VERTEX
  5
498
  8
DXFIMPORT
 10
3.497848956310463
 20
2.908712875623451
 30
0.0
  0
VERTEX
  5
499
  8
DXFIMPORT
 10
3.506345454245889
 20
2.914781858234107
 30
0.0
  0
VERTEX
  5
49A
  8
DXFIMPORT
 10
3.499062819953963
 20
2.917209444212972
 30
0.0
  0
SEQEND
  5
49B
  8
DXFIMPORT
  0
POLYLINE
  5
6C
  8
DXFIMPORT
 66
     1
 10
0.0
 20
0.0
 30
0.0
 70
     1
  0
VERTEX
  5
49C
  8
DXFIMPORT
 10
2.977131543052167
 20
2.918423228370614
 30
0.0
  0
VERTEX
  5
49D
  8
DXFIMPORT
 10
2.870317706992012
 20
2.919637030191808
 30
0.0
  0
VERTEX
  5
49E
  8
DXFIMPORT
 10
2.859393570087207
 20
2.917209444212972
 30
0.0
  0
VERTEX
  5
49F
  8
DXFIMPORT
 10
2.850897001497685
 20
2.905071496655182
 30
0.0
  0
VERTEX
  5
4A0
  8
DXFIMPORT
 10
2.839972855761062
 20
2.885650791160799
 30
0.0
  0
VERTEX
  5
4A1
  8
DXFIMPORT
 10
2.822979762740829
 20
2.874726654255966
 30
0.0
  0
VERTEX
  5
4A2
  8
DXFIMPORT
 10
2.816910780130172
 20
2.867443887487639
 30
0.0
  0
VERTEX
  5
4A3
  8
DXFIMPORT
 10
2.822979762740829
 20
2.862588733193462
 30
0.0
  0
VERTEX
  5
4A4
  8
DXFIMPORT
 10
2.848469406687059
 20
2.863802517351132
 30
0.0
  0
VERTEX
  5
4A5
  8
DXFIMPORT
 10
2.890952205475799
 20
2.862588733193462
 30
0.0
  0
VERTEX
  5
4A6
  8
DXFIMPORT
 10
2.921297047875044
 20
2.861374922540506
 30
0.0
  0
VERTEX
  5
4A7
  8
DXFIMPORT
 10
2.946786700652979
 20
2.866230103329968
 30
0.0
  0
VERTEX
  5
4A8
  8
DXFIMPORT
 10
2.9552832692425
 20
2.890505963118528
 30
0.0
  0
VERTEX
  5
4A9
  8
DXFIMPORT
 10
2.971062586936796
 20
2.906285280812824
 30
0.0
  0
VERTEX
  5
4AA
  8
DXFIMPORT
 10
2.99291086074652
 20
2.909926677444645
 30
0.0
  0
VERTEX
  5
4AB
  8
DXFIMPORT
 10
3.007476394283174
 20
2.917209444212972
 30
0.0
  0
VERTEX
  5
4AC
  8
DXFIMPORT
 10
2.998979825693652
 20
2.920850814349478
 30
0.0
  0
SEQEND
  5
4AD
  8
DXFIMPORT
  0
POLYLINE
  5
6D
  8
DXFIMPORT
 66
     1
 10
0.0
 20
0.0
 30
0.0
 70
     1
  0
VERTEX
  5
4AE
  8
DXFIMPORT
 10
3.246593745676705
 20
2.811609392310459
 30
0.0
  0
VERTEX
  5
4AF
  8
DXFIMPORT
 10
3.024469496135112
 20
2.814036978289323
 30
0.0
  0
VERTEX
  5
4B0
  8
DXFIMPORT
 10
3.015972945209114
 20
2.80432662554216
 30
0.0
  0
VERTEX
  5
4B1
  8
DXFIMPORT
 10
3.015972945209114
 20
2.784905937711301
 30
0.0
  0
VERTEX
  5
4B2
  8
DXFIMPORT
 10
3.012331575072608
 20
2.765485223385184
 30
0.0
  0
VERTEX
  5
4B3
  8
DXFIMPORT
 10
3.000193627514818
 20
2.752133500501486
 30
0.0
  0
VERTEX
  5
4B4
  8
DXFIMPORT
 10
3.000193627514818
 20
2.747278319712024
 30
0.0
  0
VERTEX
  5
4B5
  8
DXFIMPORT
 10
3.045103985787136
 20
2.747278319712024
 30
0.0
  0
VERTEX
  5
4B6
  8
DXFIMPORT
 10
3.167697139541644
 20
2.749705905690888
 30
0.0
  0
VERTEX
  5
4B7
  8
DXFIMPORT
 10
3.207752343519758
 20
2.754561086480351
 30
0.0
  0
VERTEX
  5
4B8
  8
DXFIMPORT
 10
3.229600617329481
 20
2.775195584964138
 30
0.0
  0
VERTEX
  5
4B9
  8
DXFIMPORT
 10
3.246593745676705
 20
2.7909748938267
 30
0.0
  0
VERTEX
  5
4BA
  8
DXFIMPORT
 10
3.268442019486429
 20
2.800685255405625
 30
0.0
  0
VERTEX
  5
4BB
  8
DXFIMPORT
 10
3.272083416118221
 20
2.810395581657531
 30
0.0
  0
VERTEX
  5
4BC
  8
DXFIMPORT
 10
3.263586838696938
 20
2.814036978289323
 30
0.0
  0
SEQEND
  5
4BD
  8
DXFIMPORT
  0
POLYLINE
  5
6E
  8
DXFIMPORT
 66
     1
 10
0.0
 20
0.0
 30
0.0
  0
VERTEX
  5
4BE
  8
DXFIMPORT
 10
3.082731603786442
 20
2.706009331576212
 30
0.0
  0
VERTEX
  5
4BF
  8
DXFIMPORT
 10
3.002621213493683
 20
2.707223142229168
 30
0.0
  0
VERTEX
  5
4C0
  8
DXFIMPORT
 10
2.933434968937547
 20
2.708436926386838
 30
0.0
  0
VERTEX
  5
4C1
  8
DXFIMPORT
 10
2.904303928359525
 20
2.704795556250303
 30
0.0
  0
VERTEX
  5
4C2
  8
DXFIMPORT
 10
2.90141784153991
 20
2.703587574559236
 30
0.0
  0
VERTEX
  5
4C3
  8
DXFIMPORT
 10
2.899362832204929
 20
2.70122452225354
 30
0.0
  0
VERTEX
  5
4C4
  8
DXFIMPORT
 10
2.898398050699768
 20
2.698235245145554
 30
0.0
  0
VERTEX
  5
4C5
  8
DXFIMPORT
 10
2.89823504289825
 20
2.695085194671378
 30
0.0
  0
VERTEX
  5
4C6
  8
DXFIMPORT
 10
2.89823504289825
 20
2.678092075155888
 30
0.0
  0
VERTEX
  5
4C7
  8
DXFIMPORT
 10
2.88852469015103
 20
2.668381740072221
 30
0.0
  0
VERTEX
  5
4C8
  8
DXFIMPORT
 10
2.882455725203897
 20
2.661098973303893
 30
0.0
  0
VERTEX
  5
4C9
  8
DXFIMPORT
 10
2.893379862108759
 20
2.652602431209658
 30
0.0
  0
VERTEX
  5
4CA
  8
DXFIMPORT
 10
3.045104065272994
 20
2.655030017188523
 30
0.0
  0
VERTEX
  5
4CB
  8
DXFIMPORT
 10
3.041462686304726
 20
2.664740343440428
 30
0.0
  0
VERTEX
  5
4CC
  8
DXFIMPORT
 10
3.065738554925019
 20
2.687802427903051
 30
0.0
  0
VERTEX
  5
4CD
  8
DXFIMPORT
 10
3.088800639387671
 20
2.696298978829049
 30
0.0
  0
VERTEX
  5
4CE
  8
DXFIMPORT
 10
3.091228225366535
 20
2.703581745597376
 30
0.0
  0
VERTEX
  5
4CF
  8
DXFIMPORT
 10
3.082731674440538
 20
2.706009331576212
 30
0.0
  0
SEQEND
  5
4D0
  8
DXFIMPORT
  0
POLYLINE
  5
6F
  8
DXFIMPORT
 66
     1
 10
0.0
 20
0.0
 30
0.0
 70
     1
  0
VERTEX
  5
4D1
  8
DXFIMPORT
 10
2.824193546898528
 20
2.707223142229168
 30
0.0
  0
VERTEX
  5
4D2
  8
DXFIMPORT
 10
2.78535214474158
 20
2.708436926386838
 30
0.0
  0
VERTEX
  5
4D3
  8
DXFIMPORT
 10
2.763503870931856
 20
2.698726564807885
 30
0.0
  0
VERTEX
  5
4D4
  8
DXFIMPORT
 10
2.763503870931856
 20
2.680519661134724
 30
0.0
  0
VERTEX
  5
4D5
  8
DXFIMPORT
 10
2.770786637700212
 20
2.665954154093356
 30
0.0
  0
VERTEX
  5
4D6
  8
DXFIMPORT
 10
2.793848695667577
 20
2.662312757461564
 30
0.0
  0
VERTEX
  5
4D7
  8
DXFIMPORT
 10
2.830262503013898
 20
2.675664506840548
 30
0.0
  0
VERTEX
  5
4D8
  8
DXFIMPORT
 10
2.842400450571688
 20
2.690230022713678
 30
0.0
  0
VERTEX
  5
4D9
  8
DXFIMPORT
 10
2.844828036550552
 20
2.699940375460841
 30
0.0
  0
SEQEND
  5
4DA
  8
DXFIMPORT
  0
POLYLINE
  5
70
  8
DXFIMPORT
 66
     1
 10
0.0
 20
0.0
 30
0.0
 70
     1
  0
VERTEX
  5
4DB
  8
DXFIMPORT
 10
2.934648779590475
 20
2.80432662554216
 30
0.0
  0
VERTEX
  5
4DC
  8
DXFIMPORT
 10
2.826621132877392
 20
2.80311284138449
 30
0.0
  0
VERTEX
  5
4DD
  8
DXFIMPORT
 10
2.822979762740829
 20
2.787333523690165
 30
0.0
  0
VERTEX
  5
4DE
  8
DXFIMPORT
 10
2.814483185319602
 20
2.775195584964138
 30
0.0
  0
VERTEX
  5
4DF
  8
DXFIMPORT
 10
2.802345273088804
 20
2.767912818195811
 30
0.0
  0
VERTEX
  5
4E0
  8
DXFIMPORT
 10
2.799917678278234
 20
2.760630051427484
 30
0.0
  0
VERTEX
  5
4E1
  8
DXFIMPORT
 10
2.818124581951395
 20
2.753347284659156
 30
0.0
  0
VERTEX
  5
4E2
  8
DXFIMPORT
 10
2.8836694387075
 20
2.756988672459215
 30
0.0
  0
VERTEX
  5
4E3
  8
DXFIMPORT
 10
2.893949704952718
 20
2.762835589286567
 30
0.0
  0
VERTEX
  5
4E4
  8
DXFIMPORT
 10
2.903090144201826
 20
2.770340404174675
 30
0.0
  0
VERTEX
  5
4E5
  8
DXFIMPORT
 10
2.911317503071075
 20
2.779990877586386
 30
0.0
  0
VERTEX
  5
4E6
  8
DXFIMPORT
 10
2.917655651243194
 20
2.7909748938267
 30
0.0
  0
VERTEX
  5
4E7
  8
DXFIMPORT
 10
2.935862563748117
 20
2.793402488637298
 30
0.0
  0
VERTEX
  5
4E8
  8
DXFIMPORT
 10
2.944359105842352
 20
2.801899030731533
 30
0.0
  0
SEQEND
  5
4E9
  8
DXFIMPORT
  0
POLYLINE
  5
71
  8
DXFIMPORT
 66
     1
 10
0.0
 20
0.0
 30
0.0
 70
     1
  0
VERTEX
  5
4EA
  8
DXFIMPORT
 10
2.604496883335798
 20
2.885650791160799
 30
0.0
  0
VERTEX
  5
4EB
  8
DXFIMPORT
 10
2.547448577505691
 20
2.886864592981993
 30
0.0
  0
VERTEX
  5
4EC
  8
DXFIMPORT
 10
2.54137962139032
 20
2.882009421024293
 30
0.0
  0
VERTEX
  5
4ED
  8
DXFIMPORT
 10
2.542593432043248
 20
2.872299059445339
 30
0.0
  0
VERTEX
  5
4EE
  8
DXFIMPORT
 10
2.551089974137483
 20
2.857733552404
 30
0.0
  0
VERTEX
  5
4EF
  8
DXFIMPORT
 10
2.551089974137483
 20
2.827388701173021
 30
0.0
  0
VERTEX
  5
4F0
  8
DXFIMPORT
 10
2.540165837232621
 20
2.80311284138449
 30
0.0
  0
VERTEX
  5
4F1
  8
DXFIMPORT
 10
2.5316692686431
 20
2.781264541079508
 30
0.0
  0
VERTEX
  5
4F2
  8
DXFIMPORT
 10
2.526814114348952
 20
2.770340404174675
 30
0.0
  0
VERTEX
  5
4F3
  8
DXFIMPORT
 10
2.574152058600134
 20
2.771554188332345
 30
0.0
  0
VERTEX
  5
4F4
  8
DXFIMPORT
 10
2.588717565641446
 20
2.7909748938267
 30
0.0
  0
VERTEX
  5
4F5
  8
DXFIMPORT
 10
2.58993137629443
 20
2.823747331036515
 30
0.0
  0
VERTEX
  5
4F6
  8
DXFIMPORT
 10
2.594786557083864
 20
2.846809389003852
 30
0.0
  0
VERTEX
  5
4F7
  8
DXFIMPORT
 10
2.598427927220428
 20
2.865016292677041
 30
0.0
  0
VERTEX
  5
4F8
  8
DXFIMPORT
 10
2.609352064125233
 20
2.878368050887758
 30
0.0
  0
VERTEX
  5
4F9
  8
DXFIMPORT
 10
2.62027622752538
 20
2.884437007003157
 30
0.0
  0
SEQEND
  5
4FA
  8
DXFIMPORT
  0
ENDSEC
  0
EOF
