999
"DXF R12 Output" (www.mydxf.blogspot.com)
 0 
SECTION
 2 
HEADER
 9 
$ACADVER
 1 
AC1009
 9 
$EXTMIN
 10 
 0 
 20 
 0 
 9 
$EXTMAX
 10 
 8.5 
 20 
 11 
 0 
ENDSEC
 0 
SECTION
 2 
ENTITIES
0
LINE
8
Layer 1
10
125.517046
20
2.137291
11
123.658245
21
3.275790
0
LINE
8
Layer 1
10
123.658245
20
3.275790
11
121.962510
21
4.809085
0
LINE
8
Layer 1
10
121.962510
20
4.809085
11
120.452295
21
6.713103
0
LINE
8
Layer 1
10
120.452295
20
6.713103
11
119.150054
21
8.963767
0
LINE
8
Layer 1
10
119.150054
20
8.963767
11
118.162796
21
11.156358
0
LINE
8
Layer 1
10
118.162796
20
11.156358
11
117.572307
21
12.810089
0
LINE
8
Layer 1
10
117.572307
20
12.810089
11
116.963754
21
15.208978
0
LINE
8
Layer 1
10
116.963754
20
15.208978
11
116.752000
21
17.001089
0
LINE
8
Layer 1
10
116.752000
20
17.001089
11
116.665022
21
19.724534
0
LINE
8
Layer 1
10
116.665022
20
19.724534
11
116.791607
21
22.830677
0
LINE
8
Layer 1
10
116.791607
20
22.830677
11
117.296080
21
25.086756
0
LINE
8
Layer 1
10
117.296080
20
25.086756
11
118.169772
21
27.517463
0
LINE
8
Layer 1
10
118.169772
20
27.517463
11
119.129496
21
29.482536
0
LINE
8
Layer 1
10
119.129496
20
29.482536
11
120.292668
21
31.184815
0
LINE
8
Layer 1
10
120.292668
20
31.184815
11
121.776704
21
32.827141
0
LINE
8
Layer 1
10
121.776704
20
32.827141
11
123.877194
21
34.923081
0
LINE
8
Layer 1
10
123.877194
20
34.923081
11
123.525447
21
36.072696
0
LINE
8
Layer 1
10
123.525447
20
36.072696
11
122.383981
21
40.287950
0
LINE
8
Layer 1
10
122.383981
20
40.287950
11
122.176809
21
41.763784
0
LINE
8
Layer 1
10
122.176809
20
41.763784
11
122.120175
21
43.290089
0
LINE
8
Layer 1
10
122.120175
20
43.290089
11
122.213694
21
45.132466
0
LINE
8
Layer 1
10
122.213694
20
45.132466
11
122.506353
21
47.077264
0
LINE
8
Layer 1
10
122.506353
20
47.077264
11
123.002352
21
49.136170
0
LINE
8
Layer 1
10
123.002352
20
49.136170
11
123.705887
21
51.320873
0
LINE
8
Layer 1
10
123.705887
20
51.320873
11
125.752363
21
56.114427
0
LINE
8
Layer 1
10
125.752363
20
56.114427
11
128.679369
21
61.551436
0
LINE
8
Layer 1
10
128.679369
20
61.551436
11
129.784488
21
63.656227
0
LINE
8
Layer 1
10
129.784488
20
63.656227
11
130.442915
21
65.597836
0
LINE
8
Layer 1
10
130.442915
20
65.597836
11
130.760411
21
67.828410
0
LINE
8
Layer 1
10
130.760411
20
67.828410
11
130.842741
21
70.800093
0
LINE
8
Layer 1
10
130.842741
20
70.800093
11
130.710875
21
73.996680
0
LINE
8
Layer 1
10
130.710875
20
73.996680
11
130.241686
21
76.603914
0
LINE
8
Layer 1
10
130.241686
20
76.603914
11
129.801678
21
78.818430
0
LINE
8
Layer 1
10
129.801678
20
78.818430
11
129.992498
21
80.397090
0
LINE
8
Layer 1
10
129.992498
20
80.397090
11
130.605298
21
82.380626
0
LINE
8
Layer 1
10
130.605298
20
82.380626
11
131.376312
21
84.251347
0
LINE
8
Layer 1
10
131.376312
20
84.251347
11
132.133755
21
85.642634
0
LINE
8
Layer 1
10
132.133755
20
85.642634
11
132.705842
21
86.187867
0
LINE
8
Layer 1
10
132.705842
20
86.187867
11
133.113133
21
86.035992
0
LINE
8
Layer 1
10
133.113133
20
86.035992
11
133.291781
21
85.622615
0
LINE
8
Layer 1
10
133.291781
20
85.622615
11
133.234296
21
85.011106
0
LINE
8
Layer 1
10
133.234296
20
85.011106
11
132.933186
21
84.264836
0
LINE
8
Layer 1
10
132.933186
20
84.264836
11
132.516196
21
82.859786
0
LINE
8
Layer 1
10
132.516196
20
82.859786
11
132.398522
21
80.972509
0
LINE
8
Layer 1
10
132.398522
20
80.972509
11
132.575415
21
78.919098
0
LINE
8
Layer 1
10
132.575415
20
78.919098
11
133.042124
21
77.015645
0
LINE
8
Layer 1
10
133.042124
20
77.015645
11
134.396511
21
73.205645
0
LINE
8
Layer 1
10
134.396511
20
73.205645
11
134.867930
21
71.567552
0
LINE
8
Layer 1
10
134.867930
20
71.567552
11
135.128622
21
69.894953
0
LINE
8
Layer 1
10
135.128622
20
69.894953
11
135.179732
21
68.195418
0
LINE
8
Layer 1
10
135.179732
20
68.195418
11
135.022406
21
66.476519
0
LINE
8
Layer 1
10
135.022406
20
66.476519
11
134.657790
21
64.745825
0
LINE
8
Layer 1
10
134.657790
20
64.745825
11
134.087028
21
63.010909
0
LINE
8
Layer 1
10
134.087028
20
63.010909
11
133.311267
21
61.279339
0
LINE
8
Layer 1
10
133.311267
20
61.279339
11
132.331652
21
59.558688
0
LINE
8
Layer 1
10
132.331652
20
59.558688
11
127.456074
21
50.700720
0
LINE
8
Layer 1
10
127.456074
20
50.700720
11
127.047258
21
49.682741
0
LINE
8
Layer 1
10
127.047258
20
49.682741
11
126.246116
21
47.392997
0
LINE
8
Layer 1
10
126.246116
20
47.392997
11
125.861999
21
44.943966
0
LINE
8
Layer 1
10
125.861999
20
44.943966
11
125.898280
21
42.384215
0
LINE
8
Layer 1
10
125.898280
20
42.384215
11
126.358334
21
39.762311
0
LINE
8
Layer 1
10
126.358334
20
39.762311
11
127.232091
21
36.083494
0
LINE
8
Layer 1
10
127.232091
20
36.083494
11
127.687179
21
33.436885
0
LINE
8
Layer 1
10
127.687179
20
33.436885
11
127.754025
21
31.558693
0
LINE
8
Layer 1
10
127.754025
20
31.558693
11
127.463059
21
30.185129
0
LINE
8
Layer 1
10
127.463059
20
30.185129
11
127.078100
21
29.583972
0
LINE
8
Layer 1
10
127.078100
20
29.583972
11
126.616904
21
29.463595
0
LINE
8
Layer 1
10
126.616904
20
29.463595
11
126.153373
21
29.806234
0
LINE
8
Layer 1
10
126.153373
20
29.806234
11
125.761409
21
30.594128
0
LINE
8
Layer 1
10
125.761409
20
30.594128
11
125.315572
21
31.696222
0
LINE
8
Layer 1
10
125.315572
20
31.696222
11
125.095009
21
31.963367
0
LINE
8
Layer 1
10
125.095009
20
31.963367
11
124.850221
21
32.039263
0
LINE
8
Layer 1
10
124.850221
20
32.039263
11
124.210579
21
31.611363
0
LINE
8
Layer 1
10
124.210579
20
31.611363
11
123.241872
21
30.400636
0
LINE
8
Layer 1
10
123.241872
20
30.400636
11
121.914710
21
28.353732
0
LINE
8
Layer 1
10
121.914710
20
28.353732
11
121.090786
21
26.364250
0
LINE
8
Layer 1
10
121.090786
20
26.364250
11
120.676642
21
24.111990
0
LINE
8
Layer 1
10
120.676642
20
24.111990
11
120.578821
21
21.276756
0
LINE
8
Layer 1
10
120.578821
20
21.276756
11
120.759443
21
17.842461
0
LINE
8
Layer 1
10
120.759443
20
17.842461
11
121.065430
21
16.519384
0
LINE
8
Layer 1
10
121.065430
20
16.519384
11
121.615982
21
14.832878
0
LINE
8
Layer 1
10
121.615982
20
14.832878
11
123.233138
21
11.023227
0
LINE
8
Layer 1
10
123.233138
20
11.023227
11
125.144046
21
7.862490
0
LINE
8
Layer 1
10
125.144046
20
7.862490
11
126.129162
21
6.636410
0
LINE
8
Layer 1
10
126.129162
20
6.636410
11
127.091124
21
5.705694
0
LINE
8
Layer 1
10
127.091124
20
5.705694
11
127.997734
21
5.114720
0
LINE
8
Layer 1
10
127.997734
20
5.114720
11
128.816794
21
4.907867
0
LINE
8
Layer 1
10
128.816794
20
4.907867
11
129.423038
21
5.006218
0
LINE
8
Layer 1
10
129.423038
20
5.006218
11
130.065095
21
5.522915
0
LINE
8
Layer 1
10
130.065095
20
5.522915
11
132.665766
21
9.141200
0
LINE
8
Layer 1
10
132.665766
20
9.141200
11
135.137874
21
12.389799
0
LINE
8
Layer 1
10
135.137874
20
12.389799
11
136.069527
21
13.322758
0
LINE
8
Layer 1
10
136.069527
20
13.322758
11
136.675642
21
13.656756
0
LINE
8
Layer 1
10
136.675642
20
13.656756
11
137.144459
21
13.419165
0
LINE
8
Layer 1
10
137.144459
20
13.419165
11
137.433052
21
12.628370
0
LINE
8
Layer 1
10
137.433052
20
12.628370
11
137.563186
21
11.167339
0
LINE
8
Layer 1
10
137.563186
20
11.167339
11
137.556621
21
8.919038
0
LINE
8
Layer 1
10
137.556621
20
8.919038
11
137.422932
21
6.240047
0
LINE
8
Layer 1
10
137.422932
20
6.240047
11
137.228659
21
4.837311
0
LINE
8
Layer 1
10
137.228659
20
4.837311
11
137.143169
21
4.456356
0
LINE
8
Layer 1
10
137.143169
20
4.456356
11
137.418250
21
4.343423
0
LINE
8
Layer 1
10
137.418250
20
4.343423
11
138.532679
21
5.157443
0
LINE
8
Layer 1
10
138.532679
20
5.157443
11
140.473574
21
7.158361
0
LINE
8
Layer 1
10
140.473574
20
7.158361
11
142.640496
21
9.684463
0
LINE
8
Layer 1
10
142.640496
20
9.684463
11
144.433008
21
12.074034
0
LINE
8
Layer 1
10
144.433008
20
12.074034
11
145.927436
21
14.445119
0
LINE
8
Layer 1
10
145.927436
20
14.445119
11
147.149529
21
16.692996
0
LINE
8
Layer 1
10
147.149529
20
16.692996
11
148.106580
21
18.843803
0
LINE
8
Layer 1
10
148.106580
20
18.843803
11
148.805882
21
20.923677
0
LINE
8
Layer 1
10
148.805882
20
20.923677
11
149.254727
21
22.958755
0
LINE
8
Layer 1
10
149.254727
20
22.958755
11
149.460409
21
24.975175
0
LINE
8
Layer 1
10
149.460409
20
24.975175
11
149.430219
21
26.999074
0
LINE
8
Layer 1
10
149.430219
20
26.999074
11
149.171451
21
29.056590
0
LINE
8
Layer 1
10
149.171451
20
29.056590
11
148.888258
21
30.528518
0
LINE
8
Layer 1
10
148.888258
20
30.528518
11
148.617746
21
31.330696
0
LINE
8
Layer 1
10
148.617746
20
31.330696
11
148.220069
21
31.710506
0
LINE
8
Layer 1
10
148.220069
20
31.710506
11
147.555379
21
31.915331
0
LINE
8
Layer 1
10
147.555379
20
31.915331
11
146.793660
21
32.211329
0
LINE
8
Layer 1
10
146.793660
20
32.211329
11
146.430413
21
32.575779
0
LINE
8
Layer 1
10
146.430413
20
32.575779
11
146.907089
21
33.590513
0
LINE
8
Layer 1
10
146.907089
20
33.590513
11
148.164759
21
35.449956
0
LINE
8
Layer 1
10
148.164759
20
35.449956
11
150.329681
21
38.819185
0
LINE
8
Layer 1
10
150.329681
20
38.819185
11
151.998835
21
42.302311
0
LINE
8
Layer 1
10
151.998835
20
42.302311
11
152.554976
21
44.029837
0
LINE
8
Layer 1
10
152.554976
20
44.029837
11
152.970158
21
45.989075
0
LINE
8
Layer 1
10
152.970158
20
45.989075
11
153.242705
21
48.112201
0
LINE
8
Layer 1
10
153.242705
20
48.112201
11
153.370939
21
50.331391
0
LINE
8
Layer 1
10
153.370939
20
50.331391
11
153.353183
21
52.578822
0
LINE
8
Layer 1
10
153.353183
20
52.578822
11
153.187758
21
54.786668
0
LINE
8
Layer 1
10
153.187758
20
54.786668
11
152.872988
21
56.887106
0
LINE
8
Layer 1
10
152.872988
20
56.887106
11
152.407194
21
58.812311
0
LINE
8
Layer 1
10
152.407194
20
58.812311
11
151.556789
21
62.044244
0
LINE
8
Layer 1
10
151.556789
20
62.044244
11
151.138931
21
64.938236
0
LINE
8
Layer 1
10
151.138931
20
64.938236
11
151.102891
21
68.180024
0
LINE
8
Layer 1
10
151.102891
20
68.180024
11
151.397942
21
72.455340
0
LINE
8
Layer 1
10
151.397942
20
72.455340
11
151.731545
21
75.558414
0
LINE
8
Layer 1
10
151.731545
20
75.558414
11
152.156230
21
78.029467
0
LINE
8
Layer 1
10
152.156230
20
78.029467
11
152.743041
21
80.194089
0
LINE
8
Layer 1
10
152.743041
20
80.194089
11
153.563021
21
82.377867
0
LINE
8
Layer 1
10
153.563021
20
82.377867
11
154.349663
21
84.364589
0
LINE
8
Layer 1
10
154.349663
20
84.364589
11
154.771324
21
85.920613
0
LINE
8
Layer 1
10
154.771324
20
85.920613
11
154.941263
21
87.680819
0
LINE
8
Layer 1
10
154.941263
20
87.680819
11
154.972741
21
90.280089
0
LINE
8
Layer 1
10
154.972741
20
90.280089
11
154.869676
21
94.076899
0
LINE
8
Layer 1
10
154.869676
20
94.076899
11
154.658355
21
94.968572
0
LINE
8
Layer 1
10
154.658355
20
94.968572
11
154.267185
21
95.758423
0
LINE
8
Layer 1
10
154.267185
20
95.758423
11
153.457398
21
96.964934
0
LINE
8
Layer 1
10
153.457398
20
96.964934
11
152.581177
21
97.705556
0
LINE
8
Layer 1
10
152.581177
20
97.705556
11
151.466560
21
98.076282
0
LINE
8
Layer 1
10
151.466560
20
98.076282
11
149.941585
21
98.173108
0
LINE
8
Layer 1
10
149.941585
20
98.173108
11
147.244844
21
97.959947
0
LINE
8
Layer 1
10
147.244844
20
97.959947
11
146.583149
21
97.702142
0
LINE
8
Layer 1
10
146.583149
20
97.702142
11
146.364963
21
97.340197
0
LINE
8
Layer 1
10
146.364963
20
97.340197
11
146.535799
21
96.960600
0
LINE
8
Layer 1
10
146.535799
20
96.960600
11
146.946533
21
96.620923
0
LINE
8
Layer 1
10
146.946533
20
96.620923
11
147.354035
21
96.230436
0
LINE
8
Layer 1
10
147.354035
20
96.230436
11
147.440421
21
95.693772
0
LINE
8
Layer 1
10
147.440421
20
95.693772
11
147.204889
21
95.215177
0
LINE
8
Layer 1
10
147.204889
20
95.215177
11
146.506074
21
95.166838
0
LINE
8
Layer 1
10
146.506074
20
95.166838
11
145.094963
21
95.614911
0
LINE
8
Layer 1
10
145.094963
20
95.614911
11
144.018805
21
96.142815
0
LINE
8
Layer 1
10
144.018805
20
96.142815
11
142.681526
21
96.552665
0
LINE
8
Layer 1
10
142.681526
20
96.552665
11
141.193883
21
96.817988
0
LINE
8
Layer 1
10
141.193883
20
96.817988
11
139.666636
21
96.912311
0
LINE
8
Layer 1
10
139.666636
20
96.912311
11
137.674996
21
96.760279
0
LINE
8
Layer 1
10
137.674996
20
96.760279
11
135.977274
21
96.114926
0
LINE
8
Layer 1
10
135.977274
20
96.114926
11
131.916534
21
93.744482
0
LINE
8
Layer 1
10
131.916534
20
93.744482
11
126.102023
21
89.887177
0
LINE
8
Layer 1
10
126.102023
20
89.887177
11
116.341498
21
83.256611
0
LINE
8
Layer 1
10
116.341498
20
83.256611
11
109.756437
21
78.995727
0
LINE
8
Layer 1
10
109.756437
20
78.995727
11
106.626856
21
76.802981
0
LINE
8
Layer 1
10
106.626856
20
76.802981
11
102.878083
21
73.474521
0
LINE
8
Layer 1
10
102.878083
20
73.474521
11
98.882697
21
69.693725
0
LINE
8
Layer 1
10
98.882697
20
69.693725
11
97.333331
21
66.440242
0
LINE
8
Layer 1
10
97.333331
20
66.440242
11
95.251087
21
61.963808
0
LINE
8
Layer 1
10
95.251087
20
61.963808
11
94.769576
21
61.122601
0
LINE
8
Layer 1
10
94.769576
20
61.122601
11
94.365473
21
60.856653
0
LINE
8
Layer 1
10
94.365473
20
60.856653
11
94.070882
21
61.223161
0
LINE
8
Layer 1
10
94.070882
20
61.223161
11
93.929879
21
61.985345
0
LINE
8
Layer 1
10
93.929879
20
61.985345
11
93.952054
21
62.999803
0
LINE
8
Layer 1
10
93.952054
20
62.999803
11
94.146999
21
64.123133
0
LINE
8
Layer 1
10
94.146999
20
64.123133
11
94.294945
21
64.952557
0
LINE
8
Layer 1
10
94.294945
20
64.952557
11
94.264190
21
65.516971
0
LINE
8
Layer 1
10
94.264190
20
65.516971
11
94.070302
21
65.819572
0
LINE
8
Layer 1
10
94.070302
20
65.819572
11
93.728848
21
65.863559
0
LINE
8
Layer 1
10
93.728848
20
65.863559
11
93.255396
21
65.652131
0
LINE
8
Layer 1
10
93.255396
20
65.652131
11
92.665513
21
65.188487
0
LINE
8
Layer 1
10
92.665513
20
65.188487
11
91.198728
21
63.517345
0
LINE
8
Layer 1
10
91.198728
20
63.517345
11
90.074495
21
62.146955
0
LINE
8
Layer 1
10
90.074495
20
62.146955
11
89.080590
21
61.211662
0
LINE
8
Layer 1
10
89.080590
20
61.211662
11
88.171489
21
60.676286
0
LINE
8
Layer 1
10
88.171489
20
60.676286
11
87.301668
21
60.505645
0
LINE
8
Layer 1
10
87.301668
20
60.505645
11
86.896994
21
60.599371
0
LINE
8
Layer 1
10
86.896994
20
60.599371
11
86.457506
21
60.926091
0
LINE
8
Layer 1
10
86.457506
20
60.926091
11
85.192410
21
62.551756
0
LINE
8
Layer 1
10
85.192410
20
62.551756
11
83.171229
21
65.578931
0
LINE
8
Layer 1
10
83.171229
20
65.578931
11
81.545603
21
68.266318
0
LINE
8
Layer 1
10
81.545603
20
68.266318
11
80.276854
21
70.725552
0
LINE
8
Layer 1
10
80.276854
20
70.725552
11
79.326307
21
73.068272
0
LINE
8
Layer 1
10
79.326307
20
73.068272
11
78.655285
21
75.406115
0
LINE
8
Layer 1
10
78.655285
20
75.406115
11
78.225112
21
77.850719
0
LINE
8
Layer 1
10
78.225112
20
77.850719
11
77.997110
21
80.513720
0
LINE
8
Layer 1
10
77.997110
20
80.513720
11
77.932605
21
83.506756
0
LINE
8
Layer 1
10
77.932605
20
83.506756
11
78.043246
21
87.677664
0
LINE
8
Layer 1
10
78.043246
20
87.677664
11
78.437811
21
90.138978
0
LINE
8
Layer 1
10
78.437811
20
90.138978
11
79.398382
21
92.826133
0
LINE
8
Layer 1
10
79.398382
20
92.826133
11
79.866957
21
93.554370
0
LINE
8
Layer 1
10
79.866957
20
93.554370
11
80.295067
21
93.807867
0
LINE
8
Layer 1
10
80.295067
20
93.807867
11
80.801062
21
93.532766
0
LINE
8
Layer 1
10
80.801062
20
93.532766
11
81.829860
21
92.608205
0
LINE
8
Layer 1
10
81.829860
20
92.608205
11
86.070906
21
88.215171
0
LINE
8
Layer 1
10
86.070906
20
88.215171
11
87.643656
21
86.645720
0
LINE
8
Layer 1
10
87.643656
20
86.645720
11
88.998561
21
85.574318
0
LINE
8
Layer 1
10
88.998561
20
85.574318
11
90.356000
21
84.855510
0
LINE
8
Layer 1
10
90.356000
20
84.855510
11
91.936353
21
84.343838
0
LINE
8
Layer 1
10
91.936353
20
84.343838
11
93.571827
21
83.747132
0
LINE
8
Layer 1
10
93.571827
20
83.747132
11
94.917675
21
82.908332
0
LINE
8
Layer 1
10
94.917675
20
82.908332
11
96.104831
21
81.936884
0
LINE
8
Layer 1
10
96.104831
20
81.936884
11
96.563962
21
82.637607
0
LINE
8
Layer 1
10
96.563962
20
82.637607
11
97.284802
21
84.221081
0
LINE
8
Layer 1
10
97.284802
20
84.221081
11
97.709891
21
86.158519
0
LINE
8
Layer 1
10
97.709891
20
86.158519
11
97.799565
21
88.147399
0
LINE
8
Layer 1
10
97.799565
20
88.147399
11
97.514162
21
89.885198
0
LINE
8
Layer 1
10
97.514162
20
89.885198
11
96.430476
21
92.537867
0
LINE
8
Layer 1
10
96.430476
20
92.537867
11
95.049390
21
95.906621
0
LINE
8
Layer 1
10
95.049390
20
95.906621
11
94.809705
21
96.914568
0
LINE
8
Layer 1
10
94.809705
20
96.914568
11
94.829828
21
97.600493
0
LINE
8
Layer 1
10
94.829828
20
97.600493
11
95.157869
21
98.178756
0
LINE
8
Layer 1
10
95.157869
20
98.178756
11
95.767055
21
98.681303
0
LINE
8
Layer 1
10
95.767055
20
98.681303
11
96.540747
21
99.035844
0
LINE
8
Layer 1
10
96.540747
20
99.035844
11
97.362309
21
99.170089
0
LINE
8
Layer 1
10
97.362309
20
99.170089
11
98.544716
21
99.378466
0
LINE
8
Layer 1
10
98.544716
20
99.378466
11
98.848703
21
99.633415
0
LINE
8
Layer 1
10
98.848703
20
99.633415
11
98.951629
21
99.983965
0
LINE
8
Layer 1
10
98.951629
20
99.983965
11
98.354446
21
100.951585
0
LINE
8
Layer 1
10
98.354446
20
100.951585
11
96.829973
21
102.505897
0
LINE
8
Layer 1
10
96.829973
20
102.505897
11
94.778828
21
104.274586
0
LINE
8
Layer 1
10
94.778828
20
104.274586
11
92.601629
21
105.885338
0
LINE
8
Layer 1
10
92.601629
20
105.885338
11
89.027727
21
108.568727
0
LINE
8
Layer 1
10
89.027727
20
108.568727
11
88.020270
21
109.579349
0
LINE
8
Layer 1
10
88.020270
20
109.579349
11
87.662741
21
110.254031
0
LINE
8
Layer 1
10
87.662741
20
110.254031
11
87.890666
21
110.748447
0
LINE
8
Layer 1
10
87.890666
20
110.748447
11
88.438657
21
111.310570
0
LINE
8
Layer 1
10
88.438657
20
111.310570
11
88.933191
21
111.639251
0
LINE
8
Layer 1
10
88.933191
20
111.639251
11
89.508005
21
111.798110
0
LINE
8
Layer 1
10
89.508005
20
111.798110
11
91.909965
21
111.727985
0
LINE
8
Layer 1
10
91.909965
20
111.727985
11
93.616947
21
111.646277
0
LINE
8
Layer 1
10
93.616947
20
111.646277
11
94.604636
21
111.757557
0
LINE
8
Layer 1
10
94.604636
20
111.757557
11
95.098817
21
112.136522
0
LINE
8
Layer 1
10
95.098817
20
112.136522
11
95.325274
21
112.857867
0
LINE
8
Layer 1
10
95.325274
20
112.857867
11
95.691984
21
113.307307
0
LINE
8
Layer 1
10
95.691984
20
113.307307
11
96.471727
21
113.513045
0
LINE
8
Layer 1
10
96.471727
20
113.513045
11
97.494862
21
113.460651
0
LINE
8
Layer 1
10
97.494862
20
113.460651
11
98.591745
21
113.135698
0
LINE
8
Layer 1
10
98.591745
20
113.135698
11
102.792372
21
111.185046
0
LINE
8
Layer 1
10
102.792372
20
111.185046
11
106.177074
21
109.273631
0
LINE
8
Layer 1
10
106.177074
20
109.273631
11
109.094607
21
107.179811
0
LINE
8
Layer 1
10
109.094607
20
107.179811
11
111.893725
21
104.681943
0
LINE
8
Layer 1
10
111.893725
20
104.681943
11
115.502055
21
100.978361
0
LINE
8
Layer 1
10
115.502055
20
100.978361
11
118.274941
21
97.720848
0
LINE
8
Layer 1
10
118.274941
20
97.720848
11
120.054472
21
95.112863
0
LINE
8
Layer 1
10
120.054472
20
95.112863
11
120.522384
21
94.116023
0
LINE
8
Layer 1
10
120.522384
20
94.116023
11
120.682741
21
93.357861
0
LINE
8
Layer 1
10
120.682741
20
93.357861
11
120.376531
21
92.502488
0
LINE
8
Layer 1
10
120.376531
20
92.502488
11
119.296578
21
91.191588
0
LINE
8
Layer 1
10
119.296578
20
91.191588
11
113.847499
21
86.187867
0
LINE
8
Layer 1
10
113.847499
20
86.187867
11
111.525214
21
83.966600
0
LINE
8
Layer 1
10
111.525214
20
83.966600
11
112.211413
21
84.313306
0
LINE
8
Layer 1
10
112.211413
20
84.313306
11
113.859222
21
85.469299
0
LINE
8
Layer 1
10
113.859222
20
85.469299
11
118.984931
21
89.435847
0
LINE
8
Layer 1
10
118.984931
20
89.435847
11
126.166701
21
94.930630
0
LINE
8
Layer 1
10
126.166701
20
94.930630
11
129.048320
21
96.860444
0
LINE
8
Layer 1
10
129.048320
20
96.860444
11
131.751457
21
98.453121
0
LINE
8
Layer 1
10
131.751457
20
98.453121
11
134.080361
21
99.648287
0
LINE
8
Layer 1
10
134.080361
20
99.648287
11
136.122178
21
100.327096
0
LINE
8
Layer 1
10
136.122178
20
100.327096
11
138.750066
21
100.683029
0
LINE
8
Layer 1
10
138.750066
20
100.683029
11
142.837185
21
100.909566
0
LINE
8
Layer 1
10
142.837185
20
100.909566
11
147.706547
21
101.080768
0
LINE
8
Layer 1
10
147.706547
20
101.080768
11
150.896665
21
101.053732
0
LINE
8
Layer 1
10
150.896665
20
101.053732
11
152.938728
21
100.799949
0
LINE
8
Layer 1
10
152.938728
20
100.799949
11
154.363928
21
100.290909
0
LINE
8
Layer 1
10
154.363928
20
100.290909
11
155.378455
21
99.667084
0
LINE
8
Layer 1
10
155.378455
20
99.667084
11
156.209934
21
98.881659
0
LINE
8
Layer 1
10
156.209934
20
98.881659
11
156.900205
21
97.885654
0
LINE
8
Layer 1
10
156.900205
20
97.885654
11
157.491111
21
96.630089
0
LINE
8
Layer 1
10
157.491111
20
96.630089
11
157.748419
21
95.747020
0
LINE
8
Layer 1
10
157.748419
20
95.747020
11
157.914727
21
94.453007
0
LINE
8
Layer 1
10
157.914727
20
94.453007
11
158.079841
21
89.322707
0
LINE
8
Layer 1
10
158.079841
20
89.322707
11
158.109607
21
85.713136
0
LINE
8
Layer 1
10
158.109607
20
85.713136
11
158.005109
21
83.435146
0
LINE
8
Layer 1
10
158.005109
20
83.435146
11
157.670525
21
81.588616
0
LINE
8
Layer 1
10
157.670525
20
81.588616
11
157.010029
21
79.273423
0
LINE
8
Layer 1
10
157.010029
20
79.273423
11
155.559351
21
74.040334
0
LINE
8
Layer 1
10
155.559351
20
74.040334
11
155.429982
21
72.629047
0
LINE
8
Layer 1
10
155.429982
20
72.629047
11
155.503719
21
70.947867
0
LINE
8
Layer 1
10
155.503719
20
70.947867
11
156.075120
21
64.597867
0
LINE
8
Layer 1
10
156.075120
20
64.597867
11
156.920991
21
56.695645
0
LINE
8
Layer 1
10
156.920991
20
56.695645
11
157.645224
21
50.236645
0
LINE
8
Layer 1
10
157.645224
20
50.236645
11
157.808535
21
48.287276
0
LINE
8
Layer 1
10
157.808535
20
48.287276
11
157.788466
21
46.386110
0
LINE
8
Layer 1
10
157.788466
20
46.386110
11
157.583498
21
44.527493
0
LINE
8
Layer 1
10
157.583498
20
44.527493
11
157.192111
21
42.705772
0
LINE
8
Layer 1
10
157.192111
20
42.705772
11
156.612787
21
40.915293
0
LINE
8
Layer 1
10
156.612787
20
40.915293
11
155.844006
21
39.150402
0
LINE
8
Layer 1
10
155.844006
20
39.150402
11
154.884249
21
37.405446
0
LINE
8
Layer 1
10
154.884249
20
37.405446
11
153.731996
21
35.674771
0
LINE
8
Layer 1
10
153.731996
20
35.674771
11
152.187241
21
33.481013
0
LINE
8
Layer 1
10
152.187241
20
33.481013
11
152.218481
21
32.505700
0
LINE
8
Layer 1
10
152.218481
20
32.505700
11
152.593308
21
30.658791
0
LINE
8
Layer 1
10
152.593308
20
30.658791
11
153.081242
21
27.915264
0
LINE
8
Layer 1
10
153.081242
20
27.915264
11
153.057688
21
24.098978
0
LINE
8
Layer 1
10
153.057688
20
24.098978
11
152.880041
21
21.250186
0
LINE
8
Layer 1
10
152.880041
20
21.250186
11
152.530380
21
19.043053
0
LINE
8
Layer 1
10
152.530380
20
19.043053
11
151.906389
21
17.034586
0
LINE
8
Layer 1
10
151.906389
20
17.034586
11
150.905752
21
14.781792
0
LINE
8
Layer 1
10
150.905752
20
14.781792
11
149.380744
21
11.918035
0
LINE
8
Layer 1
10
149.380744
20
11.918035
11
147.757651
21
9.458027
0
LINE
8
Layer 1
10
147.757651
20
9.458027
11
145.946360
21
7.280074
0
LINE
8
Layer 1
10
145.946360
20
7.280074
11
143.856758
21
5.262485
0
LINE
8
Layer 1
10
143.856758
20
5.262485
11
141.408734
21
3.209102
0
LINE
8
Layer 1
10
141.408734
20
3.209102
11
139.613378
21
1.984322
0
LINE
8
Layer 1
10
139.613378
20
1.984322
11
138.116522
21
1.392748
0
LINE
8
Layer 1
10
138.116522
20
1.392748
11
136.563997
21
1.238978
0
LINE
8
Layer 1
10
136.563997
20
1.238978
11
135.240049
21
1.339771
0
LINE
8
Layer 1
10
135.240049
20
1.339771
11
134.340281
21
1.657467
0
LINE
8
Layer 1
10
134.340281
20
1.657467
11
133.827612
21
2.215045
0
LINE
8
Layer 1
10
133.827612
20
2.215045
11
133.664963
21
3.035483
0
LINE
8
Layer 1
10
133.664963
20
3.035483
11
133.544705
21
3.844630
0
LINE
8
Layer 1
10
133.544705
20
3.844630
11
133.255574
21
4.501148
0
LINE
8
Layer 1
10
133.255574
20
4.501148
11
132.988523
21
4.764412
0
LINE
8
Layer 1
10
132.988523
20
4.764412
11
132.657642
21
4.698717
0
LINE
8
Layer 1
10
132.657642
20
4.698717
11
131.116445
21
3.143978
0
LINE
8
Layer 1
10
131.116445
20
3.143978
11
129.500684
21
1.554399
0
LINE
8
Layer 1
10
129.500684
20
1.554399
11
128.956436
21
1.303873
0
LINE
8
Layer 1
10
128.956436
20
1.303873
11
128.350834
21
1.254167
0
LINE
8
Layer 1
10
128.350834
20
1.254167
11
127.091111
21
1.519850
0
LINE
8
Layer 1
10
127.091111
20
1.519850
11
125.517046
21
2.137291
0
LINE
8
Layer 1
10
125.517046
20
2.137291
11
125.517046
21
2.137291
0
LINE
8
Layer 1
10
99.657185
20
20.587716
11
96.504356
21
21.418249
0
LINE
8
Layer 1
10
96.504356
20
21.418249
11
92.680804
21
22.648816
0
LINE
8
Layer 1
10
92.680804
20
22.648816
11
88.676554
21
24.110858
0
LINE
8
Layer 1
10
88.676554
20
24.110858
11
84.981629
21
25.635816
0
LINE
8
Layer 1
10
84.981629
20
25.635816
11
82.126864
21
26.676802
0
LINE
8
Layer 1
10
82.126864
20
26.676802
11
78.349407
21
27.868632
0
LINE
8
Layer 1
10
78.349407
20
27.868632
11
73.917659
21
28.675236
0
LINE
8
Layer 1
10
73.917659
20
28.675236
11
68.046318
21
29.305464
0
LINE
8
Layer 1
10
68.046318
20
29.305464
11
65.784216
21
29.539966
0
LINE
8
Layer 1
10
65.784216
20
29.539966
11
63.607690
21
29.919898
0
LINE
8
Layer 1
10
63.607690
20
29.919898
11
61.527758
21
30.441087
0
LINE
8
Layer 1
10
61.527758
20
30.441087
11
59.555436
21
31.099360
0
LINE
8
Layer 1
10
59.555436
20
31.099360
11
57.701741
21
31.890542
0
LINE
8
Layer 1
10
57.701741
20
31.890542
11
55.977689
21
32.810461
0
LINE
8
Layer 1
10
55.977689
20
32.810461
11
54.394298
21
33.854942
0
LINE
8
Layer 1
10
54.394298
20
33.854942
11
52.962584
21
35.019813
0
LINE
8
Layer 1
10
52.962584
20
35.019813
11
51.809426
21
36.146418
0
LINE
8
Layer 1
10
51.809426
20
36.146418
11
51.015574
21
37.123032
0
LINE
8
Layer 1
10
51.015574
20
37.123032
11
50.556933
21
37.985024
0
LINE
8
Layer 1
10
50.556933
20
37.985024
11
50.409407
21
38.767766
0
LINE
8
Layer 1
10
50.409407
20
38.767766
11
50.524900
21
39.206333
0
LINE
8
Layer 1
10
50.524900
20
39.206333
11
51.185518
21
38.950400
0
LINE
8
Layer 1
10
51.185518
20
38.950400
11
51.915803
21
38.418216
0
LINE
8
Layer 1
10
51.915803
20
38.418216
11
52.581734
21
37.704728
0
LINE
8
Layer 1
10
52.581734
20
37.704728
11
53.543718
21
36.766936
0
LINE
8
Layer 1
10
53.543718
20
36.766936
11
55.072818
21
35.639798
0
LINE
8
Layer 1
10
55.072818
20
35.639798
11
56.824128
21
34.555798
0
LINE
8
Layer 1
10
56.824128
20
34.555798
11
58.452741
21
33.747416
0
LINE
8
Layer 1
10
58.452741
20
33.747416
11
60.535002
21
33.102113
0
LINE
8
Layer 1
10
60.535002
20
33.102113
11
63.275458
21
32.631352
0
LINE
8
Layer 1
10
63.275458
20
32.631352
11
66.850110
21
32.313143
0
LINE
8
Layer 1
10
66.850110
20
32.313143
11
71.434963
21
32.125497
0
LINE
8
Layer 1
10
71.434963
20
32.125497
11
77.543495
21
31.842921
0
LINE
8
Layer 1
10
77.543495
20
31.842921
11
82.347000
21
31.313003
0
LINE
8
Layer 1
10
82.347000
20
31.313003
11
86.104209
21
30.495005
0
LINE
8
Layer 1
10
86.104209
20
30.495005
11
89.073852
21
29.348187
0
LINE
8
Layer 1
10
89.073852
20
29.348187
11
94.859407
21
26.444219
0
LINE
8
Layer 1
10
94.859407
20
26.444219
11
98.271650
21
24.828979
0
LINE
8
Layer 1
10
98.271650
20
24.828979
11
100.927185
21
23.741467
0
LINE
8
Layer 1
10
100.927185
20
23.741467
11
104.427014
21
22.799792
0
LINE
8
Layer 1
10
104.427014
20
22.799792
11
107.903542
21
22.258408
0
LINE
8
Layer 1
10
107.903542
20
22.258408
11
110.866327
21
22.165618
0
LINE
8
Layer 1
10
110.866327
20
22.165618
11
112.001804
21
22.302540
0
LINE
8
Layer 1
10
112.001804
20
22.302540
11
112.824929
21
22.569723
0
LINE
8
Layer 1
10
112.824929
20
22.569723
11
113.580227
21
22.823175
0
LINE
8
Layer 1
10
113.580227
20
22.823175
11
114.295577
21
22.843738
0
LINE
8
Layer 1
10
114.295577
20
22.843738
11
114.828944
21
22.650997
0
LINE
8
Layer 1
10
114.828944
20
22.650997
11
115.038296
21
22.264534
0
LINE
8
Layer 1
10
115.038296
20
22.264534
11
114.810314
21
21.918687
0
LINE
8
Layer 1
10
114.810314
20
21.918687
11
114.262185
21
21.666550
0
LINE
8
Layer 1
10
114.262185
20
21.666550
11
113.166858
21
21.231138
0
LINE
8
Layer 1
10
113.166858
20
21.231138
11
111.248088
21
20.564498
0
LINE
8
Layer 1
10
111.248088
20
20.564498
11
108.938574
21
20.274429
0
LINE
8
Layer 1
10
108.938574
20
20.274429
11
105.620507
21
20.182844
0
LINE
8
Layer 1
10
105.620507
20
20.182844
11
102.218506
21
20.287890
0
LINE
8
Layer 1
10
102.218506
20
20.287890
11
99.657185
21
20.587716
0
LINE
8
Layer 1
10
99.657185
20
20.587716
11
99.657185
21
20.587716
0
LINE
8
Layer 1
10
104.172741
20
25.238659
11
102.197185
21
25.766025
0
LINE
8
Layer 1
10
102.197185
20
25.766025
11
99.516074
21
26.651255
0
LINE
8
Layer 1
10
99.516074
20
26.651255
11
97.117185
21
27.553398
0
LINE
8
Layer 1
10
97.117185
20
27.553398
11
94.646930
21
28.737855
0
LINE
8
Layer 1
10
94.646930
20
28.737855
11
91.896074
21
30.381519
0
LINE
8
Layer 1
10
91.896074
20
30.381519
11
89.253361
21
32.068127
0
LINE
8
Layer 1
10
89.253361
20
32.068127
11
87.025141
21
33.280920
0
LINE
8
Layer 1
10
87.025141
20
33.280920
11
85.224916
21
34.013377
0
LINE
8
Layer 1
10
85.224916
20
34.013377
11
83.866188
21
34.258978
0
LINE
8
Layer 1
10
83.866188
20
34.258978
11
82.787184
21
34.640972
0
LINE
8
Layer 1
10
82.787184
20
34.640972
11
81.023686
21
35.559382
0
LINE
8
Layer 1
10
81.023686
20
35.559382
11
78.182342
21
37.170618
0
LINE
8
Layer 1
10
78.182342
20
37.170618
11
76.306372
21
38.000058
0
LINE
8
Layer 1
10
76.306372
20
38.000058
11
74.462593
21
38.341423
0
LINE
8
Layer 1
10
74.462593
20
38.341423
11
71.717820
21
38.488437
0
LINE
8
Layer 1
10
71.717820
20
38.488437
11
68.561774
21
38.701479
0
LINE
8
Layer 1
10
68.561774
20
38.701479
11
66.919407
21
38.963160
0
LINE
8
Layer 1
10
66.919407
20
38.963160
11
66.108624
21
39.287787
0
LINE
8
Layer 1
10
66.108624
20
39.287787
11
65.284410
21
39.435135
0
LINE
8
Layer 1
10
65.284410
20
39.435135
11
64.505167
21
39.401080
0
LINE
8
Layer 1
10
64.505167
20
39.401080
11
63.829300
21
39.181492
0
LINE
8
Layer 1
10
63.829300
20
39.181492
11
62.910970
21
38.888144
0
LINE
8
Layer 1
10
62.910970
20
38.888144
11
61.795897
21
38.789535
0
LINE
8
Layer 1
10
61.795897
20
38.789535
11
60.685020
21
38.885870
0
LINE
8
Layer 1
10
60.685020
20
38.885870
11
59.779281
21
39.177355
0
LINE
8
Layer 1
10
59.779281
20
39.177355
11
58.577828
21
40.137992
0
LINE
8
Layer 1
10
58.577828
20
40.137992
11
56.759407
21
41.881941
0
LINE
8
Layer 1
10
56.759407
20
41.881941
11
54.647651
21
43.880333
0
LINE
8
Layer 1
10
54.647651
20
43.880333
11
52.740949
21
45.452713
0
LINE
8
Layer 1
10
52.740949
20
45.452713
11
51.541846
21
46.387208
0
LINE
8
Layer 1
10
51.541846
20
46.387208
11
50.672384
21
47.242738
0
LINE
8
Layer 1
10
50.672384
20
47.242738
11
50.070351
21
48.091349
0
LINE
8
Layer 1
10
50.070351
20
48.091349
11
49.673535
21
49.005089
0
LINE
8
Layer 1
10
49.673535
20
49.005089
11
49.368090
21
49.676871
0
LINE
8
Layer 1
10
49.368090
20
49.676871
11
49.079223
21
49.769500
0
LINE
8
Layer 1
10
49.079223
20
49.769500
11
48.811095
21
49.285896
0
LINE
8
Layer 1
10
48.811095
20
49.285896
11
48.567865
21
48.228978
0
LINE
8
Layer 1
10
48.567865
20
48.228978
11
48.213816
21
46.821858
0
LINE
8
Layer 1
10
48.213816
20
46.821858
11
47.974728
21
46.551328
0
LINE
8
Layer 1
10
47.974728
20
46.551328
11
47.627368
21
46.442410
0
LINE
8
Layer 1
10
47.627368
20
46.442410
11
47.008507
21
46.520429
0
LINE
8
Layer 1
10
47.008507
20
46.520429
11
46.435021
21
46.838929
0
LINE
8
Layer 1
10
46.435021
20
46.838929
11
46.151908
21
47.200066
0
LINE
8
Layer 1
10
46.151908
20
47.200066
11
45.987942
21
47.780867
0
LINE
8
Layer 1
10
45.987942
20
47.780867
11
45.893852
21
50.419203
0
LINE
8
Layer 1
10
45.893852
20
50.419203
11
45.997305
21
53.062491
0
LINE
8
Layer 1
10
45.997305
20
53.062491
11
46.360579
21
55.381144
0
LINE
8
Layer 1
10
46.360579
20
55.381144
11
47.063043
21
57.722193
0
LINE
8
Layer 1
10
47.063043
20
57.722193
11
48.184068
21
60.432668
0
LINE
8
Layer 1
10
48.184068
20
60.432668
11
49.086187
21
62.198006
0
LINE
8
Layer 1
10
49.086187
20
62.198006
11
50.217061
21
64.007628
0
LINE
8
Layer 1
10
50.217061
20
64.007628
11
51.563171
21
65.846286
0
LINE
8
Layer 1
10
51.563171
20
65.846286
11
53.110998
21
67.698733
0
LINE
8
Layer 1
10
53.110998
20
67.698733
11
56.757723
21
71.384008
0
LINE
8
Layer 1
10
56.757723
20
71.384008
11
61.049081
21
74.941475
0
LINE
8
Layer 1
10
61.049081
20
74.941475
11
63.906438
21
77.191986
0
LINE
8
Layer 1
10
63.906438
20
77.191986
11
65.530922
21
78.646223
0
LINE
8
Layer 1
10
65.530922
20
78.646223
11
66.196367
21
79.595415
0
LINE
8
Layer 1
10
66.196367
20
79.595415
11
66.868353
21
80.860106
0
LINE
8
Layer 1
10
66.868353
20
80.860106
11
68.173236
21
84.212311
0
LINE
8
Layer 1
10
68.173236
20
84.212311
11
69.004790
21
86.611200
0
LINE
8
Layer 1
10
69.004790
20
86.611200
11
70.162651
21
89.574534
0
LINE
8
Layer 1
10
70.162651
20
89.574534
11
71.098345
21
91.742686
0
LINE
8
Layer 1
10
71.098345
20
91.742686
11
72.051342
21
93.586825
0
LINE
8
Layer 1
10
72.051342
20
93.586825
11
73.284088
21
95.275752
0
LINE
8
Layer 1
10
73.284088
20
95.275752
11
74.608169
21
96.532980
0
LINE
8
Layer 1
10
74.608169
20
96.532980
11
75.762587
21
97.160078
0
LINE
8
Layer 1
10
75.762587
20
97.160078
11
76.194610
21
97.175320
0
LINE
8
Layer 1
10
76.194610
20
97.175320
11
76.486343
21
96.958618
0
LINE
8
Layer 1
10
76.486343
20
96.958618
11
76.323772
21
96.177357
0
LINE
8
Layer 1
10
76.323772
20
96.177357
11
75.728161
21
94.630285
0
LINE
8
Layer 1
10
75.728161
20
94.630285
11
74.824175
21
92.537867
0
LINE
8
Layer 1
10
74.824175
20
92.537867
11
74.825516
21
85.058978
0
LINE
8
Layer 1
10
74.825516
20
85.058978
11
74.929855
21
78.327418
0
LINE
8
Layer 1
10
74.929855
20
78.327418
11
75.124425
21
76.500681
0
LINE
8
Layer 1
10
75.124425
20
76.500681
11
75.472166
21
74.773700
0
LINE
8
Layer 1
10
75.472166
20
74.773700
11
76.536612
21
70.938584
0
LINE
8
Layer 1
10
76.536612
20
70.938584
11
77.228559
21
69.214905
0
LINE
8
Layer 1
10
77.228559
20
69.214905
11
78.128998
21
67.437241
0
LINE
8
Layer 1
10
78.128998
20
67.437241
11
80.861393
21
63.170249
0
LINE
8
Layer 1
10
80.861393
20
63.170249
11
85.345865
21
57.038186
0
LINE
8
Layer 1
10
85.345865
20
57.038186
11
89.877391
21
51.052353
0
LINE
8
Layer 1
10
89.877391
20
51.052353
11
92.949224
21
47.228562
0
LINE
8
Layer 1
10
92.949224
20
47.228562
11
95.303319
21
44.697889
0
LINE
8
Layer 1
10
95.303319
20
44.697889
11
97.681629
21
42.591409
0
LINE
8
Layer 1
10
97.681629
20
42.591409
11
99.040858
21
41.589904
0
LINE
8
Layer 1
10
99.040858
20
41.589904
11
100.533347
21
40.716643
0
LINE
8
Layer 1
10
100.533347
20
40.716643
11
102.132625
21
39.979637
0
LINE
8
Layer 1
10
102.132625
20
39.979637
11
103.812220
21
39.386902
0
LINE
8
Layer 1
10
103.812220
20
39.386902
11
105.545662
21
38.946449
0
LINE
8
Layer 1
10
105.545662
20
38.946449
11
107.306478
21
38.666293
0
LINE
8
Layer 1
10
107.306478
20
38.666293
11
109.068199
21
38.554446
0
LINE
8
Layer 1
10
109.068199
20
38.554446
11
110.804353
21
38.618922
0
LINE
8
Layer 1
10
110.804353
20
38.618922
11
112.384457
21
38.841345
0
LINE
8
Layer 1
10
112.384457
20
38.841345
11
113.850268
21
39.268720
0
LINE
8
Layer 1
10
113.850268
20
39.268720
11
115.499739
21
40.013117
0
LINE
8
Layer 1
10
115.499739
20
40.013117
11
117.630826
21
41.186608
0
LINE
8
Layer 1
10
117.630826
20
41.186608
11
119.204822
21
42.043206
0
LINE
8
Layer 1
10
119.204822
20
42.043206
11
120.144947
21
42.396681
0
LINE
8
Layer 1
10
120.144947
20
42.396681
11
120.578037
21
42.267776
0
LINE
8
Layer 1
10
120.578037
20
42.267776
11
120.630930
21
41.677234
0
LINE
8
Layer 1
10
120.630930
20
41.677234
11
120.365902
21
41.044078
0
LINE
8
Layer 1
10
120.365902
20
41.044078
11
119.743053
21
40.308314
0
LINE
8
Layer 1
10
119.743053
20
40.308314
11
117.661634
21
38.684431
0
LINE
8
Layer 1
10
117.661634
20
38.684431
11
114.862154
21
37.116520
0
LINE
8
Layer 1
10
114.862154
20
37.116520
11
111.820096
21
35.915515
0
LINE
8
Layer 1
10
111.820096
20
35.915515
11
109.617603
21
35.514569
0
LINE
8
Layer 1
10
109.617603
20
35.514569
11
106.878878
21
35.369747
0
LINE
8
Layer 1
10
106.878878
20
35.369747
11
104.199964
21
35.484371
0
LINE
8
Layer 1
10
104.199964
20
35.484371
11
102.176905
21
35.861763
0
LINE
8
Layer 1
10
102.176905
20
35.861763
11
100.055395
21
36.811645
0
LINE
8
Layer 1
10
100.055395
20
36.811645
11
97.734410
21
38.198400
0
LINE
8
Layer 1
10
97.734410
20
38.198400
11
95.610103
21
39.759335
0
LINE
8
Layer 1
10
95.610103
20
39.759335
11
94.078631
21
41.231758
0
LINE
8
Layer 1
10
94.078631
20
41.231758
11
91.377491
21
44.483373
0
LINE
8
Layer 1
10
91.377491
20
44.483373
11
89.983600
21
46.483609
0
LINE
8
Layer 1
10
89.983600
20
46.483609
11
88.536393
21
49.022539
0
LINE
8
Layer 1
10
88.536393
20
49.022539
11
87.335623
21
51.181224
0
LINE
8
Layer 1
10
87.335623
20
51.181224
11
86.743940
21
51.910366
0
LINE
8
Layer 1
10
86.743940
20
51.910366
11
86.036702
21
52.484924
0
LINE
8
Layer 1
10
86.036702
20
52.484924
11
85.122889
21
52.964060
0
LINE
8
Layer 1
10
85.122889
20
52.964060
11
83.911484
21
53.406939
0
LINE
8
Layer 1
10
83.911484
20
53.406939
11
80.231821
21
54.420570
0
LINE
8
Layer 1
10
80.231821
20
54.420570
11
78.416483
21
54.850521
0
LINE
8
Layer 1
10
78.416483
20
54.850521
11
77.268547
21
54.912139
0
LINE
8
Layer 1
10
77.268547
20
54.912139
11
76.366671
21
54.542008
0
LINE
8
Layer 1
10
76.366671
20
54.542008
11
75.289514
21
53.676714
0
LINE
8
Layer 1
10
75.289514
20
53.676714
11
74.346288
21
52.857228
0
LINE
8
Layer 1
10
74.346288
20
52.857228
11
70.350626
21
52.988450
0
LINE
8
Layer 1
10
70.350626
20
52.988450
11
65.030353
21
53.312029
0
LINE
8
Layer 1
10
65.030353
20
53.312029
11
63.790544
21
53.365492
0
LINE
8
Layer 1
10
63.790544
20
53.365492
11
62.557982
21
53.103403
0
LINE
8
Layer 1
10
62.557982
20
53.103403
11
61.143696
21
52.461200
0
LINE
8
Layer 1
10
61.143696
20
52.461200
11
59.358716
21
51.374322
0
LINE
8
Layer 1
10
59.358716
20
51.374322
11
57.884029
21
50.304688
0
LINE
8
Layer 1
10
57.884029
20
50.304688
11
57.267511
21
49.514325
0
LINE
8
Layer 1
10
57.267511
20
49.514325
11
57.268859
21
49.181493
0
LINE
8
Layer 1
10
57.268859
20
49.181493
11
57.470102
21
48.867625
0
LINE
8
Layer 1
10
57.470102
20
48.867625
11
58.452741
21
48.228978
0
LINE
8
Layer 1
10
58.452741
20
48.228978
11
59.786615
21
47.848900
0
LINE
8
Layer 1
10
59.786615
20
47.848900
11
61.917458
21
47.673534
0
LINE
8
Layer 1
10
61.917458
20
47.673534
11
64.939124
21
47.700170
0
LINE
8
Layer 1
10
64.939124
20
47.700170
11
68.945464
21
47.926100
0
LINE
8
Layer 1
10
68.945464
20
47.926100
11
71.254245
21
48.032811
0
LINE
8
Layer 1
10
71.254245
20
48.032811
11
73.012427
21
47.936094
0
LINE
8
Layer 1
10
73.012427
20
47.936094
11
74.558947
21
47.590595
0
LINE
8
Layer 1
10
74.558947
20
47.590595
11
76.232741
21
46.950960
0
LINE
8
Layer 1
10
76.232741
20
46.950960
11
77.542176
21
46.420006
0
LINE
8
Layer 1
10
77.542176
20
46.420006
11
78.406873
21
46.302497
0
LINE
8
Layer 1
10
78.406873
20
46.302497
11
79.214353
21
46.652258
0
LINE
8
Layer 1
10
79.214353
20
46.652258
11
80.352135
21
47.523112
0
LINE
8
Layer 1
10
80.352135
20
47.523112
11
81.591921
21
48.454278
0
LINE
8
Layer 1
10
81.591921
20
48.454278
11
82.541615
21
48.990476
0
LINE
8
Layer 1
10
82.541615
20
48.990476
11
83.336838
21
49.188794
0
LINE
8
Layer 1
10
83.336838
20
49.188794
11
84.113212
21
49.106322
0
LINE
8
Layer 1
10
84.113212
20
49.106322
11
85.030750
21
48.689279
0
LINE
8
Layer 1
10
85.030750
20
48.689279
11
85.917429
21
47.873297
0
LINE
8
Layer 1
10
85.917429
20
47.873297
11
86.827660
21
46.594962
0
LINE
8
Layer 1
10
86.827660
20
46.594962
11
87.815849
21
44.790860
0
LINE
8
Layer 1
10
87.815849
20
44.790860
11
89.049722
21
42.589734
0
LINE
8
Layer 1
10
89.049722
20
42.589734
11
90.382410
21
40.813234
0
LINE
8
Layer 1
10
90.382410
20
40.813234
11
91.977872
21
39.275797
0
LINE
8
Layer 1
10
91.977872
20
39.275797
11
94.000069
21
37.791861
0
LINE
8
Layer 1
10
94.000069
20
37.791861
11
97.249292
21
35.873095
0
LINE
8
Layer 1
10
97.249292
20
35.873095
11
101.632741
21
33.940984
0
LINE
8
Layer 1
10
101.632741
20
33.940984
11
102.862992
21
33.395119
0
LINE
8
Layer 1
10
102.862992
20
33.395119
11
103.812771
21
32.834253
0
LINE
8
Layer 1
10
103.812771
20
32.834253
11
105.718410
21
31.072497
0
LINE
8
Layer 1
10
105.718410
20
31.072497
11
107.204207
21
29.619039
0
LINE
8
Layer 1
10
107.204207
20
29.619039
11
108.490373
21
28.689109
0
LINE
8
Layer 1
10
108.490373
20
28.689109
11
109.732155
21
28.195271
0
LINE
8
Layer 1
10
109.732155
20
28.195271
11
111.084800
21
28.050089
0
LINE
8
Layer 1
10
111.084800
20
28.050089
11
112.065947
21
27.967673
0
LINE
8
Layer 1
10
112.065947
20
27.967673
11
112.614360
21
27.698239
0
LINE
8
Layer 1
10
112.614360
20
27.698239
11
112.760485
21
27.208509
0
LINE
8
Layer 1
10
112.760485
20
27.208509
11
112.534765
21
26.465205
0
LINE
8
Layer 1
10
112.534765
20
26.465205
11
111.978864
21
25.767481
0
LINE
8
Layer 1
10
111.978864
20
25.767481
11
111.017142
21
25.298498
0
LINE
8
Layer 1
10
111.017142
20
25.298498
11
109.590297
21
25.040201
0
LINE
8
Layer 1
10
109.590297
20
25.040201
11
107.639028
21
24.974533
0
LINE
8
Layer 1
10
107.639028
20
24.974533
11
104.172741
21
25.238659
0
LINE
8
Layer 1
10
104.172741
20
25.238659
11
104.172741
21
25.238659
0
LINE
8
Layer 1
10
140.297185
20
26.184787
11
138.180518
21
27.074952
0
LINE
8
Layer 1
10
138.180518
20
27.074952
11
132.965412
21
29.353720
0
LINE
8
Layer 1
10
132.965412
20
29.353720
11
131.603604
21
30.147906
0
LINE
8
Layer 1
10
131.603604
20
30.147906
11
130.919172
21
30.790306
0
LINE
8
Layer 1
10
130.919172
20
30.790306
11
130.600996
21
31.550201
0
LINE
8
Layer 1
10
130.600996
20
31.550201
11
130.999761
21
32.528953
0
LINE
8
Layer 1
10
130.999761
20
32.528953
11
131.651767
21
33.387543
0
LINE
8
Layer 1
10
131.651767
20
33.387543
11
132.683687
21
33.637076
0
LINE
8
Layer 1
10
132.683687
20
33.637076
11
133.981064
21
33.564158
0
LINE
8
Layer 1
10
133.981064
20
33.564158
11
135.505910
21
33.271378
0
LINE
8
Layer 1
10
135.505910
20
33.271378
11
137.617530
21
32.810285
0
LINE
8
Layer 1
10
137.617530
20
32.810285
11
139.487353
21
32.627594
0
LINE
8
Layer 1
10
139.487353
20
32.627594
11
141.184709
21
32.721582
0
LINE
8
Layer 1
10
141.184709
20
32.721582
11
142.778929
21
33.090525
0
LINE
8
Layer 1
10
142.778929
20
33.090525
11
144.052195
21
33.451516
0
LINE
8
Layer 1
10
144.052195
20
33.451516
11
144.871378
21
33.518482
0
LINE
8
Layer 1
10
144.871378
20
33.518482
11
145.389051
21
33.270796
0
LINE
8
Layer 1
10
145.389051
20
33.270796
11
145.757790
21
32.687833
0
LINE
8
Layer 1
10
145.757790
20
32.687833
11
145.877846
21
31.977403
0
LINE
8
Layer 1
10
145.877846
20
31.977403
11
145.724300
21
30.984299
0
LINE
8
Layer 1
10
145.724300
20
30.984299
11
145.299784
21
29.718803
0
LINE
8
Layer 1
10
145.299784
20
29.718803
11
144.606930
21
28.191200
0
LINE
8
Layer 1
10
144.606930
20
28.191200
11
143.715449
21
26.757563
0
LINE
8
Layer 1
10
143.715449
20
26.757563
11
142.753556
21
25.970216
0
LINE
8
Layer 1
10
142.753556
20
25.970216
11
142.221099
21
25.807213
0
LINE
8
Layer 1
10
142.221099
20
25.807213
11
141.640913
21
25.791758
0
LINE
8
Layer 1
10
141.640913
20
25.791758
11
140.297185
21
26.184787
0
LINE
8
Layer 1
10
140.297185
20
26.184787
11
140.297185
21
26.184787
0
LINE
8
Layer 1
10
41.604478
20
29.331618
11
39.867370
21
30.952295
0
LINE
8
Layer 1
10
39.867370
20
30.952295
11
38.291955
21
32.720316
0
LINE
8
Layer 1
10
38.291955
20
32.720316
11
36.876679
21
34.618552
0
LINE
8
Layer 1
10
36.876679
20
34.618552
11
35.619989
21
36.629873
0
LINE
8
Layer 1
10
35.619989
20
36.629873
11
33.991686
21
39.907966
0
LINE
8
Layer 1
10
33.991686
20
39.907966
11
32.729916
21
43.350994
0
LINE
8
Layer 1
10
32.729916
20
43.350994
11
31.829012
21
46.896454
0
LINE
8
Layer 1
10
31.829012
20
46.896454
11
31.283306
21
50.481842
0
LINE
8
Layer 1
10
31.283306
20
50.481842
11
31.224154
21
55.360679
0
LINE
8
Layer 1
10
31.224154
20
55.360679
11
31.611164
21
60.239535
0
LINE
8
Layer 1
10
31.611164
20
60.239535
11
32.178170
21
62.739987
0
LINE
8
Layer 1
10
32.178170
20
62.739987
11
32.963493
21
65.172338
0
LINE
8
Layer 1
10
32.963493
20
65.172338
11
33.935742
21
67.544745
0
LINE
8
Layer 1
10
33.935742
20
67.544745
11
35.063523
21
69.865363
0
LINE
8
Layer 1
10
35.063523
20
69.865363
11
37.660115
21
74.383858
0
LINE
8
Layer 1
10
37.660115
20
74.383858
11
40.502134
21
78.793069
0
LINE
8
Layer 1
10
40.502134
20
78.793069
11
45.601129
21
86.517255
0
LINE
8
Layer 1
10
45.601129
20
86.517255
11
48.749289
21
91.712030
0
LINE
8
Layer 1
10
48.749289
20
91.712030
11
50.648742
21
95.647414
0
LINE
8
Layer 1
10
50.648742
20
95.647414
11
52.001618
21
99.593423
0
LINE
8
Layer 1
10
52.001618
20
99.593423
11
52.413604
21
102.214446
0
LINE
8
Layer 1
10
52.413604
20
102.214446
11
52.548238
21
105.818118
0
LINE
8
Layer 1
10
52.548238
20
105.818118
11
52.406392
21
109.519720
0
LINE
8
Layer 1
10
52.406392
20
109.519720
11
51.988940
21
112.434534
0
LINE
8
Layer 1
10
51.988940
20
112.434534
11
51.034145
21
115.879243
0
LINE
8
Layer 1
10
51.034145
20
115.879243
11
50.018161
21
118.618456
0
LINE
8
Layer 1
10
50.018161
20
118.618456
11
48.785815
21
121.006007
0
LINE
8
Layer 1
10
48.785815
20
121.006007
11
47.181934
21
123.395729
0
LINE
8
Layer 1
10
47.181934
20
123.395729
11
45.093994
21
125.975797
0
LINE
8
Layer 1
10
45.093994
20
125.975797
11
43.146195
21
127.845728
0
LINE
8
Layer 1
10
43.146195
20
127.845728
11
41.365592
21
128.983694
0
LINE
8
Layer 1
10
41.365592
20
128.983694
11
40.546444
21
129.271369
0
LINE
8
Layer 1
10
40.546444
20
129.271369
11
39.779242
21
129.367867
0
LINE
8
Layer 1
10
39.779242
20
129.367867
11
38.878073
21
129.182251
0
LINE
8
Layer 1
10
38.878073
20
129.182251
11
37.846339
21
128.735980
0
LINE
8
Layer 1
10
37.846339
20
128.735980
11
37.152545
21
128.405625
0
LINE
8
Layer 1
10
37.152545
20
128.405625
11
36.377538
21
128.215243
0
LINE
8
Layer 1
10
36.377538
20
128.215243
11
33.617185
21
128.111702
0
LINE
8
Layer 1
10
33.617185
20
128.111702
11
30.842741
21
128.234042
0
LINE
8
Layer 1
10
30.842741
20
128.234042
11
29.156426
21
128.734690
0
LINE
8
Layer 1
10
29.156426
20
128.734690
11
27.669916
21
129.668404
0
LINE
8
Layer 1
10
27.669916
20
129.668404
11
26.155890
21
131.059098
0
LINE
8
Layer 1
10
26.155890
20
131.059098
11
24.797562
21
132.712597
0
LINE
8
Layer 1
10
24.797562
20
132.712597
11
23.778145
21
134.434727
0
LINE
8
Layer 1
10
23.778145
20
134.434727
11
23.299167
21
135.545847
0
LINE
8
Layer 1
10
23.299167
20
135.545847
11
23.037721
21
136.547145
0
LINE
8
Layer 1
10
23.037721
20
136.547145
11
22.888171
21
139.951200
0
LINE
8
Layer 1
10
22.888171
20
139.951200
11
22.859774
21
143.620089
0
LINE
8
Layer 1
10
22.859774
20
143.620089
11
21.555489
21
145.388147
0
LINE
8
Layer 1
10
21.555489
20
145.388147
11
20.646375
21
146.847072
0
LINE
8
Layer 1
10
20.646375
20
146.847072
11
20.121276
21
148.337694
0
LINE
8
Layer 1
10
20.121276
20
148.337694
11
19.933233
21
150.072406
0
LINE
8
Layer 1
10
19.933233
20
150.072406
11
20.035282
21
152.263599
0
LINE
8
Layer 1
10
20.035282
20
152.263599
11
20.299580
21
154.048834
0
LINE
8
Layer 1
10
20.299580
20
154.048834
11
20.787813
21
155.562901
0
LINE
8
Layer 1
10
20.787813
20
155.562901
11
21.599881
21
157.035242
0
LINE
8
Layer 1
10
21.599881
20
157.035242
11
22.835683
21
158.695294
0
LINE
8
Layer 1
10
22.835683
20
158.695294
11
23.781007
21
159.903753
0
LINE
8
Layer 1
10
23.781007
20
159.903753
11
24.315483
21
160.774645
0
LINE
8
Layer 1
10
24.315483
20
160.774645
11
24.589527
21
161.628917
0
LINE
8
Layer 1
10
24.589527
20
161.628917
11
24.753555
21
162.787516
0
LINE
8
Layer 1
10
24.753555
20
162.787516
11
25.021875
21
164.714059
0
LINE
8
Layer 1
10
25.021875
20
164.714059
11
25.381609
21
166.288379
0
LINE
8
Layer 1
10
25.381609
20
166.288379
11
25.898529
21
167.737298
0
LINE
8
Layer 1
10
25.898529
20
167.737298
11
26.638407
21
169.287642
0
LINE
8
Layer 1
10
26.638407
20
169.287642
11
27.420728
21
170.564570
0
LINE
8
Layer 1
10
27.420728
20
170.564570
11
28.435421
21
171.893413
0
LINE
8
Layer 1
10
28.435421
20
171.893413
11
30.828157
21
174.401727
0
LINE
8
Layer 1
10
30.828157
20
174.401727
11
33.149072
21
176.202355
0
LINE
8
Layer 1
10
33.149072
20
176.202355
11
34.073990
21
176.646591
0
LINE
8
Layer 1
10
34.073990
20
176.646591
11
34.730625
21
176.685070
0
LINE
8
Layer 1
10
34.730625
20
176.685070
11
34.939746
21
176.516124
0
LINE
8
Layer 1
10
34.939746
20
176.516124
11
35.074960
21
176.166988
0
LINE
8
Layer 1
10
35.074960
20
176.166988
11
35.169407
21
174.723665
0
LINE
8
Layer 1
10
35.169407
20
174.723665
11
35.281126
21
173.169809
0
LINE
8
Layer 1
10
35.281126
20
173.169809
11
35.621994
21
171.666019
0
LINE
8
Layer 1
10
35.621994
20
171.666019
11
36.200575
21
170.184485
0
LINE
8
Layer 1
10
36.200575
20
170.184485
11
37.025436
21
168.697396
0
LINE
8
Layer 1
10
37.025436
20
168.697396
11
37.626745
21
167.853848
0
LINE
8
Layer 1
10
37.626745
20
167.853848
11
38.378967
21
167.178567
0
LINE
8
Layer 1
10
38.378967
20
167.178567
11
41.708324
21
165.352767
0
LINE
8
Layer 1
10
41.708324
20
165.352767
11
46.684857
21
162.686045
0
LINE
8
Layer 1
10
46.684857
20
162.686045
11
50.296405
21
160.329824
0
LINE
8
Layer 1
10
50.296405
20
160.329824
11
51.686651
21
159.195758
0
LINE
8
Layer 1
10
51.686651
20
159.195758
11
52.851261
21
158.052445
0
LINE
8
Layer 1
10
52.851261
20
158.052445
11
53.828771
21
156.870928
0
LINE
8
Layer 1
10
53.828771
20
156.870928
11
54.657718
21
155.622250
0
LINE
8
Layer 1
10
54.657718
20
155.622250
11
55.703146
21
153.690170
0
LINE
8
Layer 1
10
55.703146
20
153.690170
11
56.425199
21
151.885681
0
LINE
8
Layer 1
10
56.425199
20
151.885681
11
56.899771
21
149.973025
0
LINE
8
Layer 1
10
56.899771
20
149.973025
11
57.202759
21
147.716440
0
LINE
8
Layer 1
10
57.202759
20
147.716440
11
57.350650
21
144.575068
0
LINE
8
Layer 1
10
57.350650
20
144.575068
11
57.079761
21
141.993476
0
LINE
8
Layer 1
10
57.079761
20
141.993476
11
56.336036
21
139.712611
0
LINE
8
Layer 1
10
56.336036
20
139.712611
11
55.065422
21
137.473422
0
LINE
8
Layer 1
10
55.065422
20
137.473422
11
54.078296
21
135.711929
0
LINE
8
Layer 1
10
54.078296
20
135.711929
11
54.306279
21
135.367865
0
LINE
8
Layer 1
10
54.306279
20
135.367865
11
54.854407
21
134.955884
0
LINE
8
Layer 1
10
54.854407
20
134.955884
11
56.103080
21
134.020167
0
LINE
8
Layer 1
10
56.103080
20
134.020167
11
57.480716
21
132.642742
0
LINE
8
Layer 1
10
57.480716
20
132.642742
11
58.944183
21
130.886575
0
LINE
8
Layer 1
10
58.944183
20
130.886575
11
60.450345
21
128.814632
0
LINE
8
Layer 1
10
60.450345
20
128.814632
11
63.418218
21
123.975291
0
LINE
8
Layer 1
10
63.418218
20
123.975291
11
66.039258
21
118.628454
0
LINE
8
Layer 1
10
66.039258
20
118.628454
11
67.282091
21
115.806231
0
LINE
8
Layer 1
10
67.282091
20
115.806231
11
68.619539
21
112.787311
0
LINE
8
Layer 1
10
68.619539
20
112.787311
11
69.082009
21
111.940204
0
LINE
8
Layer 1
10
69.082009
20
111.940204
11
69.456444
21
111.587867
0
LINE
8
Layer 1
10
69.456444
20
111.587867
11
70.004323
21
111.924471
0
LINE
8
Layer 1
10
70.004323
20
111.924471
11
70.883797
21
112.733754
0
LINE
8
Layer 1
10
70.883797
20
112.733754
11
72.845881
21
114.394873
0
LINE
8
Layer 1
10
72.845881
20
114.394873
11
76.612507
21
116.831993
0
LINE
8
Layer 1
10
76.612507
20
116.831993
11
80.929699
21
119.797242
0
LINE
8
Layer 1
10
80.929699
20
119.797242
11
82.578547
21
121.146860
0
LINE
8
Layer 1
10
82.578547
20
121.146860
11
83.632331
21
122.212187
0
LINE
8
Layer 1
10
83.632331
20
122.212187
11
84.542846
21
123.586682
0
LINE
8
Layer 1
10
84.542846
20
123.586682
11
85.228969
21
125.226208
0
LINE
8
Layer 1
10
85.228969
20
125.226208
11
85.771742
21
127.380985
0
LINE
8
Layer 1
10
85.771742
20
127.380985
11
86.252205
21
130.301230
0
LINE
8
Layer 1
10
86.252205
20
130.301230
11
86.737496
21
132.711064
0
LINE
8
Layer 1
10
86.737496
20
132.711064
11
87.510366
21
135.030313
0
LINE
8
Layer 1
10
87.510366
20
135.030313
11
88.588471
21
137.302770
0
LINE
8
Layer 1
10
88.588471
20
137.302770
11
89.989465
21
139.572232
0
LINE
8
Layer 1
10
89.989465
20
139.572232
11
93.965808
21
145.182083
0
LINE
8
Layer 1
10
93.965808
20
145.182083
11
94.825196
21
146.094758
0
LINE
8
Layer 1
10
94.825196
20
146.094758
11
95.433357
21
146.372092
0
LINE
8
Layer 1
10
95.433357
20
146.372092
11
96.069651
21
146.355869
0
LINE
8
Layer 1
10
96.069651
20
146.355869
11
96.622963
21
146.130193
0
LINE
8
Layer 1
10
96.622963
20
146.130193
11
96.863930
21
145.868857
0
LINE
8
Layer 1
10
96.863930
20
145.868857
11
96.860810
21
145.480900
0
LINE
8
Layer 1
10
96.860810
20
145.480900
11
95.909779
21
143.558839
0
LINE
8
Layer 1
10
95.909779
20
143.558839
11
93.342497
21
138.609124
0
LINE
8
Layer 1
10
93.342497
20
138.609124
11
91.307093
21
134.107389
0
LINE
8
Layer 1
10
91.307093
20
134.107389
11
89.901233
21
130.289748
0
LINE
8
Layer 1
10
89.901233
20
130.289748
11
89.222586
21
127.392311
0
LINE
8
Layer 1
10
89.222586
20
127.392311
11
88.932968
21
125.937752
0
LINE
8
Layer 1
10
88.932968
20
125.937752
11
88.497709
21
124.620336
0
LINE
8
Layer 1
10
88.497709
20
124.620336
11
87.487296
21
123.047778
0
LINE
8
Layer 1
10
87.487296
20
123.047778
11
85.815918
21
121.203068
0
LINE
8
Layer 1
10
85.815918
20
121.203068
11
83.724472
21
119.324567
0
LINE
8
Layer 1
10
83.724472
20
119.324567
11
81.453852
21
117.650633
0
LINE
8
Layer 1
10
81.453852
20
117.650633
11
78.742215
21
115.774173
0
LINE
8
Layer 1
10
78.742215
20
115.774173
11
76.631345
21
114.017518
0
LINE
8
Layer 1
10
76.631345
20
114.017518
11
74.749800
21
112.032563
0
LINE
8
Layer 1
10
74.749800
20
112.032563
11
72.726138
21
109.471200
0
LINE
8
Layer 1
10
72.726138
20
109.471200
11
70.069946
21
105.797036
0
LINE
8
Layer 1
10
70.069946
20
105.797036
11
68.257437
21
102.825858
0
LINE
8
Layer 1
10
68.257437
20
102.825858
11
66.801207
21
99.639516
0
LINE
8
Layer 1
10
66.801207
20
99.639516
11
65.213854
21
95.319858
0
LINE
8
Layer 1
10
65.213854
20
95.319858
11
63.231562
21
90.098747
0
LINE
8
Layer 1
10
63.231562
20
90.098747
11
62.225709
21
88.786402
0
LINE
8
Layer 1
10
62.225709
20
88.786402
11
60.293256
21
86.795227
0
LINE
8
Layer 1
10
60.293256
20
86.795227
11
54.642741
21
81.743542
0
LINE
8
Layer 1
10
54.642741
20
81.743542
11
51.462875
21
79.102760
0
LINE
8
Layer 1
10
51.462875
20
79.102760
11
48.586702
21
76.186128
0
LINE
8
Layer 1
10
48.586702
20
76.186128
11
46.008121
21
73.023335
0
LINE
8
Layer 1
10
46.008121
20
73.023335
11
43.721031
21
69.644071
0
LINE
8
Layer 1
10
43.721031
20
69.644071
11
42.142350
21
66.889886
0
LINE
8
Layer 1
10
42.142350
20
66.889886
11
40.732870
21
64.036993
0
LINE
8
Layer 1
10
40.732870
20
64.036993
11
39.489736
21
61.099289
0
LINE
8
Layer 1
10
39.489736
20
61.099289
11
38.410092
21
58.090672
0
LINE
8
Layer 1
10
38.410092
20
58.090672
11
37.679454
21
54.627498
0
LINE
8
Layer 1
10
37.679454
20
54.627498
11
37.334129
21
51.080300
0
LINE
8
Layer 1
10
37.334129
20
51.080300
11
37.351614
21
47.505336
0
LINE
8
Layer 1
10
37.351614
20
47.505336
11
37.709407
21
43.958863
0
LINE
8
Layer 1
10
37.709407
20
43.958863
11
39.158798
21
41.082530
0
LINE
8
Layer 1
10
39.158798
20
41.082530
11
40.529454
21
38.169729
0
LINE
8
Layer 1
10
40.529454
20
38.169729
11
40.074825
21
37.812963
0
LINE
8
Layer 1
10
40.074825
20
37.812963
11
39.343806
21
38.042552
0
LINE
8
Layer 1
10
39.343806
20
38.042552
11
38.745982
21
38.548926
0
LINE
8
Layer 1
10
38.745982
20
38.548926
11
38.172308
21
39.113981
0
LINE
8
Layer 1
10
38.172308
20
39.113981
11
37.513740
21
39.519609
0
LINE
8
Layer 1
10
37.513740
20
39.519609
11
37.657478
21
38.791456
0
LINE
8
Layer 1
10
37.657478
20
38.791456
11
38.344443
21
37.349127
0
LINE
8
Layer 1
10
38.344443
20
37.349127
11
39.321065
21
35.668617
0
LINE
8
Layer 1
10
39.321065
20
35.668617
11
40.333772
21
34.225924
0
LINE
8
Layer 1
10
40.333772
20
34.225924
11
43.096206
21
30.667943
0
LINE
8
Layer 1
10
43.096206
20
30.667943
11
43.722029
21
29.685866
0
LINE
8
Layer 1
10
43.722029
20
29.685866
11
43.918296
21
29.129798
0
LINE
8
Layer 1
10
43.918296
20
29.129798
11
43.737002
21
28.736147
0
LINE
8
Layer 1
10
43.737002
20
28.736147
11
43.242027
21
28.642832
0
LINE
8
Layer 1
10
43.242027
20
28.642832
11
42.506732
21
28.843456
0
LINE
8
Layer 1
10
42.506732
20
28.843456
11
41.604478
21
29.331618
0
LINE
8
Layer 1
10
41.604478
20
29.331618
11
41.604478
21
29.331618
0
LINE
8
Layer 1
10
46.068274
20
79.978978
11
48.108786
21
82.409233
0
LINE
8
Layer 1
10
48.108786
20
82.409233
11
50.018819
21
84.921646
0
LINE
8
Layer 1
10
50.018819
20
84.921646
11
51.781331
21
87.486973
0
LINE
8
Layer 1
10
51.781331
20
87.486973
11
53.379277
21
90.075969
0
LINE
8
Layer 1
10
53.379277
20
90.075969
11
54.795616
21
92.659389
0
LINE
8
Layer 1
10
54.795616
20
92.659389
11
56.013304
21
95.207987
0
LINE
8
Layer 1
10
56.013304
20
95.207987
11
57.015299
21
97.692519
0
LINE
8
Layer 1
10
57.015299
20
97.692519
11
57.784557
21
100.083739
0
LINE
8
Layer 1
10
57.784557
20
100.083739
11
58.199437
21
102.704074
0
LINE
8
Layer 1
10
58.199437
20
102.704074
11
58.335312
21
106.146910
0
LINE
8
Layer 1
10
58.335312
20
106.146910
11
58.192769
21
109.786970
0
LINE
8
Layer 1
10
58.192769
20
109.786970
11
57.772396
21
112.998978
0
LINE
8
Layer 1
10
57.772396
20
112.998978
11
57.036927
21
116.066319
0
LINE
8
Layer 1
10
57.036927
20
116.066319
11
56.110302
21
118.919049
0
LINE
8
Layer 1
10
56.110302
20
118.919049
11
55.008735
21
121.530426
0
LINE
8
Layer 1
10
55.008735
20
121.530426
11
53.748442
21
123.873710
0
LINE
8
Layer 1
10
53.748442
20
123.873710
11
52.345638
21
125.922160
0
LINE
8
Layer 1
10
52.345638
20
125.922160
11
50.816538
21
127.649036
0
LINE
8
Layer 1
10
50.816538
20
127.649036
11
49.177358
21
129.027596
0
LINE
8
Layer 1
10
49.177358
20
129.027596
11
47.444313
21
130.031101
0
LINE
8
Layer 1
10
47.444313
20
130.031101
11
45.258124
21
131.124993
0
LINE
8
Layer 1
10
45.258124
20
131.124993
11
44.989526
21
131.463753
0
LINE
8
Layer 1
10
44.989526
20
131.463753
11
44.994370
21
131.871187
0
LINE
8
Layer 1
10
44.994370
20
131.871187
11
45.003750
21
132.188370
0
LINE
8
Layer 1
10
45.003750
20
132.188370
11
44.872891
21
132.370200
0
LINE
8
Layer 1
10
44.872891
20
132.370200
11
43.936037
21
132.472311
0
LINE
8
Layer 1
10
43.936037
20
132.472311
11
43.113795
21
132.389409
0
LINE
8
Layer 1
10
43.113795
20
132.389409
11
42.747074
21
132.190089
0
LINE
8
Layer 1
10
42.747074
20
132.190089
11
42.676518
21
131.663169
0
LINE
8
Layer 1
10
42.676518
20
131.663169
11
43.485614
21
130.873290
0
LINE
8
Layer 1
10
43.485614
20
130.873290
11
45.470518
21
129.317843
0
LINE
8
Layer 1
10
45.470518
20
129.317843
11
47.409319
21
127.763799
0
LINE
8
Layer 1
10
47.409319
20
127.763799
11
49.151882
21
126.131425
0
LINE
8
Layer 1
10
49.151882
20
126.131425
11
50.703383
21
124.413163
0
LINE
8
Layer 1
10
50.703383
20
124.413163
11
52.068998
21
122.601453
0
LINE
8
Layer 1
10
52.068998
20
122.601453
11
53.253903
21
120.688739
0
LINE
8
Layer 1
10
53.253903
20
120.688739
11
54.263273
21
118.667460
0
LINE
8
Layer 1
10
54.263273
20
118.667460
11
55.102286
21
116.530059
0
LINE
8
Layer 1
10
55.102286
20
116.530059
11
55.776117
21
114.268978
0
LINE
8
Layer 1
10
55.776117
20
114.268978
11
56.114385
21
112.754961
0
LINE
8
Layer 1
10
56.114385
20
112.754961
11
56.314555
21
111.207696
0
LINE
8
Layer 1
10
56.314555
20
111.207696
11
56.450490
21
106.225645
0
LINE
8
Layer 1
10
56.450490
20
106.225645
11
56.372296
21
101.284792
0
LINE
8
Layer 1
10
56.372296
20
101.284792
11
56.178177
21
100.034395
0
LINE
8
Layer 1
10
56.178177
20
100.034395
11
55.819720
21
98.887867
0
LINE
8
Layer 1
10
55.819720
20
98.887867
11
54.563231
21
95.961712
0
LINE
8
Layer 1
10
54.563231
20
95.961712
11
52.675749
21
92.566932
0
LINE
8
Layer 1
10
52.675749
20
92.566932
11
49.983213
21
88.416786
0
LINE
8
Layer 1
10
49.983213
20
88.416786
11
46.311563
21
83.224534
0
LINE
8
Layer 1
10
46.311563
20
83.224534
11
43.841755
21
79.464907
0
LINE
8
Layer 1
10
43.841755
20
79.464907
11
41.427184
21
75.160491
0
LINE
8
Layer 1
10
41.427184
20
75.160491
11
39.338977
21
70.831153
0
LINE
8
Layer 1
10
39.338977
20
70.831153
11
37.848261
21
66.996756
0
LINE
8
Layer 1
10
37.848261
20
66.996756
11
36.963934
21
64.380488
0
LINE
8
Layer 1
10
36.963934
20
64.380488
11
36.593059
21
62.666709
0
LINE
8
Layer 1
10
36.593059
20
62.666709
11
36.635394
21
62.137550
0
LINE
8
Layer 1
10
36.635394
20
62.137550
11
36.841026
21
62.044447
0
LINE
8
Layer 1
10
36.841026
20
62.044447
11
37.564153
21
64.499704
0
LINE
8
Layer 1
10
37.564153
20
64.499704
11
38.421926
21
66.887907
0
LINE
8
Layer 1
10
38.421926
20
66.887907
11
40.517991
21
71.475294
0
LINE
8
Layer 1
10
40.517991
20
71.475294
11
43.082386
21
75.830891
0
LINE
8
Layer 1
10
43.082386
20
75.830891
11
46.068274
21
79.978978
0
LINE
8
Layer 1
10
46.068274
20
79.978978
11
46.068274
21
79.978978
0
LINE
8
Layer 1
10
49.790683
20
134.955399
11
51.318826
21
136.202944
0
LINE
8
Layer 1
10
51.318826
20
136.202944
11
52.560630
21
137.613584
0
LINE
8
Layer 1
10
52.560630
20
137.613584
11
53.207141
21
138.767692
0
LINE
8
Layer 1
10
53.207141
20
138.767692
11
53.210614
21
139.117414
0
LINE
8
Layer 1
10
53.210614
20
139.117414
11
52.949407
21
139.245645
0
LINE
8
Layer 1
10
52.949407
20
139.245645
11
52.750088
21
139.170555
0
LINE
8
Layer 1
10
52.750088
20
139.170555
11
52.667185
21
138.990019
0
LINE
8
Layer 1
10
52.667185
20
138.990019
11
52.210427
21
138.437621
0
LINE
8
Layer 1
10
52.210427
20
138.437621
11
51.030051
21
137.696900
0
LINE
8
Layer 1
10
51.030051
20
137.696900
11
49.410903
21
136.922060
0
LINE
8
Layer 1
10
49.410903
20
136.922060
11
47.637830
21
136.267309
0
LINE
8
Layer 1
10
47.637830
20
136.267309
11
44.710578
21
135.248557
0
LINE
8
Layer 1
10
44.710578
20
135.248557
11
44.343149
21
134.952955
0
LINE
8
Layer 1
10
44.343149
20
134.952955
11
44.515168
21
134.704077
0
LINE
8
Layer 1
10
44.515168
20
134.704077
11
45.611629
21
134.443213
0
LINE
8
Layer 1
10
45.611629
20
134.443213
11
46.263066
21
134.317799
0
LINE
8
Layer 1
10
46.263066
20
134.317799
11
46.838506
21
134.034942
0
LINE
8
Layer 1
10
46.838506
20
134.034942
11
47.289006
21
133.799177
0
LINE
8
Layer 1
10
47.289006
20
133.799177
11
47.816787
21
133.838325
0
LINE
8
Layer 1
10
47.816787
20
133.838325
11
49.790683
21
134.955399
0
LINE
8
Layer 1
10
49.790683
20
134.955399
11
49.790683
21
134.955399
0
LINE
8
Layer 1
10
36.483725
20
136.296979
11
37.264804
21
137.112671
0
LINE
8
Layer 1
10
37.264804
20
137.112671
11
37.427185
21
138.294432
0
LINE
8
Layer 1
10
37.427185
20
138.294432
11
37.351852
21
139.107342
0
LINE
8
Layer 1
10
37.351852
20
139.107342
11
36.842642
21
140.007413
0
LINE
8
Layer 1
10
36.842642
20
140.007413
11
32.823314
21
144.277292
0
LINE
8
Layer 1
10
32.823314
20
144.277292
11
30.135948
21
147.067807
0
LINE
8
Layer 1
10
30.135948
20
147.067807
11
28.444519
21
149.045346
0
LINE
8
Layer 1
10
28.444519
20
149.045346
11
27.154847
21
150.992072
0
LINE
8
Layer 1
10
27.154847
20
150.992072
11
25.672756
21
153.690151
0
LINE
8
Layer 1
10
25.672756
20
153.690151
11
25.337930
21
154.647742
0
LINE
8
Layer 1
10
25.337930
20
154.647742
11
25.099018
21
155.887392
0
LINE
8
Layer 1
10
25.099018
20
155.887392
11
24.889514
21
156.903869
0
LINE
8
Layer 1
10
24.889514
20
156.903869
11
24.616133
21
157.224019
0
LINE
8
Layer 1
10
24.616133
20
157.224019
11
24.158241
21
156.701028
0
LINE
8
Layer 1
10
24.158241
20
156.701028
11
23.749053
21
155.593207
0
LINE
8
Layer 1
10
23.749053
20
155.593207
11
23.452227
21
154.132186
0
LINE
8
Layer 1
10
23.452227
20
154.132186
11
23.331423
21
152.549595
0
LINE
8
Layer 1
10
23.331423
20
152.549595
11
23.515436
21
150.592878
0
LINE
8
Layer 1
10
23.515436
20
150.592878
11
24.205872
21
148.794432
0
LINE
8
Layer 1
10
24.205872
20
148.794432
11
25.563041
21
146.862177
0
LINE
8
Layer 1
10
25.563041
20
146.862177
11
27.747253
21
144.504032
0
LINE
8
Layer 1
10
27.747253
20
144.504032
11
29.883572
21
142.210325
0
LINE
8
Layer 1
10
29.883572
20
142.210325
11
30.170219
21
141.684325
0
LINE
8
Layer 1
10
30.170219
20
141.684325
11
30.091067
21
141.364312
0
LINE
8
Layer 1
10
30.091067
20
141.364312
11
29.572581
21
141.060206
0
LINE
8
Layer 1
10
29.572581
20
141.060206
11
28.772383
21
140.955174
0
LINE
8
Layer 1
10
28.772383
20
140.955174
11
27.818997
21
141.049968
0
LINE
8
Layer 1
10
27.818997
20
141.049968
11
26.840950
21
141.345336
0
LINE
8
Layer 1
10
26.840950
20
141.345336
11
26.043849
21
141.578637
0
LINE
8
Layer 1
10
26.043849
20
141.578637
11
25.823287
21
141.539569
0
LINE
8
Layer 1
10
25.823287
20
141.539569
11
25.720219
21
141.391364
0
LINE
8
Layer 1
10
25.720219
20
141.391364
11
25.863075
21
140.751563
0
LINE
8
Layer 1
10
25.863075
20
140.751563
11
26.465433
21
139.627280
0
LINE
8
Layer 1
10
26.465433
20
139.627280
11
27.986256
21
137.537157
0
LINE
8
Layer 1
10
27.986256
20
137.537157
11
28.787648
21
136.777021
0
LINE
8
Layer 1
10
28.787648
20
136.777021
11
29.638653
21
136.194260
0
LINE
8
Layer 1
10
29.638653
20
136.194260
11
30.555989
21
135.779443
0
LINE
8
Layer 1
10
30.555989
20
135.779443
11
31.556374
21
135.523137
0
LINE
8
Layer 1
10
31.556374
20
135.523137
11
33.873169
21
135.448336
0
LINE
8
Layer 1
10
33.873169
20
135.448336
11
35.376417
21
135.711086
0
LINE
8
Layer 1
10
35.376417
20
135.711086
11
36.483725
21
136.296979
0
LINE
8
Layer 1
10
36.483725
20
136.296979
11
36.483725
21
136.296979
0
LINE
8
Layer 1
10
34.573797
20
155.153648
11
34.660405
21
155.541758
0
LINE
8
Layer 1
10
34.660405
20
155.541758
11
34.531359
21
156.348692
0
LINE
8
Layer 1
10
34.531359
20
156.348692
11
33.504940
21
159.739759
0
LINE
8
Layer 1
10
33.504940
20
159.739759
11
32.530768
21
163.018841
0
LINE
8
Layer 1
10
32.530768
20
163.018841
11
31.984863
21
165.741116
0
LINE
8
Layer 1
10
31.984863
20
165.741116
11
31.842439
21
168.089155
0
LINE
8
Layer 1
10
31.842439
20
168.089155
11
32.078713
21
170.245526
0
LINE
8
Layer 1
10
32.078713
20
170.245526
11
32.271849
21
171.535827
0
LINE
8
Layer 1
10
32.271849
20
171.535827
11
32.251309
21
172.173372
0
LINE
8
Layer 1
10
32.251309
20
172.173372
11
31.928943
21
172.191238
0
LINE
8
Layer 1
10
31.928943
20
172.191238
11
31.470902
21
171.772060
0
LINE
8
Layer 1
10
31.470902
20
171.772060
11
30.246193
21
169.741890
0
LINE
8
Layer 1
10
30.246193
20
169.741890
11
29.281147
21
167.642873
0
LINE
8
Layer 1
10
29.281147
20
167.642873
11
28.681947
21
165.844326
0
LINE
8
Layer 1
10
28.681947
20
165.844326
11
28.373830
21
164.050222
0
LINE
8
Layer 1
10
28.373830
20
164.050222
11
28.282036
21
161.964534
0
LINE
8
Layer 1
10
28.282036
20
161.964534
11
28.390803
21
159.401994
0
LINE
8
Layer 1
10
28.390803
20
159.401994
11
28.615015
21
158.686788
0
LINE
8
Layer 1
10
28.615015
20
158.686788
11
29.021411
21
157.977022
0
LINE
8
Layer 1
10
29.021411
20
157.977022
11
29.588963
21
157.223251
0
LINE
8
Layer 1
10
29.588963
20
157.223251
11
30.293585
21
156.561324
0
LINE
8
Layer 1
10
30.293585
20
156.561324
11
32.495549
21
155.209042
0
LINE
8
Layer 1
10
32.495549
20
155.209042
11
33.767401
21
154.790196
0
LINE
8
Layer 1
10
33.767401
20
154.790196
11
34.219133
21
154.874392
0
LINE
8
Layer 1
10
34.219133
20
154.874392
11
34.573797
21
155.153648
0
LINE
8
Layer 1
10
34.573797
20
155.153648
11
34.573797
21
155.153648
0
LINE
8
Layer 1
10
43.060377
20
157.153198
11
43.329921
21
157.677149
0
LINE
8
Layer 1
10
43.329921
20
157.677149
11
43.254729
21
158.145104
0
LINE
8
Layer 1
10
43.254729
20
158.145104
11
42.854400
21
158.522235
0
LINE
8
Layer 1
10
42.854400
20
158.522235
11
42.148531
21
158.773712
0
LINE
8
Layer 1
10
42.148531
20
158.773712
11
40.928880
21
159.134580
0
LINE
8
Layer 1
10
40.928880
20
159.134580
11
39.791316
21
159.692259
0
LINE
8
Layer 1
10
39.791316
20
159.692259
11
38.739915
21
160.444309
0
LINE
8
Layer 1
10
38.739915
20
160.444309
11
37.778755
21
161.388290
0
LINE
8
Layer 1
10
37.778755
20
161.388290
11
36.494082
21
162.670089
0
LINE
8
Layer 1
10
36.494082
20
162.670089
11
36.406246
21
162.541074
0
LINE
8
Layer 1
10
36.406246
20
162.541074
11
36.456205
21
162.189953
0
LINE
8
Layer 1
10
36.456205
20
162.189953
11
36.875703
21
161.036948
0
LINE
8
Layer 1
10
36.875703
20
161.036948
11
37.564965
21
159.642180
0
LINE
8
Layer 1
10
37.564965
20
159.642180
11
38.336378
21
158.436756
0
LINE
8
Layer 1
10
38.336378
20
158.436756
11
39.446018
21
157.480718
0
LINE
8
Layer 1
10
39.446018
20
157.480718
11
40.831608
21
156.886060
0
LINE
8
Layer 1
10
40.831608
20
156.886060
11
42.150583
21
156.745861
0
LINE
8
Layer 1
10
42.150583
20
156.745861
11
42.678038
21
156.875270
0
LINE
8
Layer 1
10
42.678038
20
156.875270
11
43.060377
21
157.153198
0
LINE
8
Layer 1
10
43.060377
20
157.153198
11
43.060377
21
157.153198
0
LINE
8
Layer 1
10
166.191074
20
32.752555
11
165.892791
21
32.994605
0
LINE
8
Layer 1
10
165.892791
20
32.994605
11
165.905701
21
33.370391
0
LINE
8
Layer 1
10
165.905701
20
33.370391
11
166.896629
21
34.605999
0
LINE
8
Layer 1
10
166.896629
20
34.605999
11
168.457205
21
35.866910
0
LINE
8
Layer 1
10
168.457205
20
35.866910
11
170.361428
21
36.753967
0
LINE
8
Layer 1
10
170.361428
20
36.753967
11
173.090891
21
37.429582
0
LINE
8
Layer 1
10
173.090891
20
37.429582
11
177.127185
21
38.056168
0
LINE
8
Layer 1
10
177.127185
20
38.056168
11
180.862848
21
38.696545
0
LINE
8
Layer 1
10
180.862848
20
38.696545
11
183.614067
21
39.587919
0
LINE
8
Layer 1
10
183.614067
20
39.587919
11
184.790627
21
40.204307
0
LINE
8
Layer 1
10
184.790627
20
40.204307
11
185.925217
21
40.975337
0
LINE
8
Layer 1
10
185.925217
20
40.975337
11
188.340675
21
43.103848
0
LINE
8
Layer 1
10
188.340675
20
43.103848
11
190.249487
21
45.103644
0
LINE
8
Layer 1
10
190.249487
20
45.103644
11
191.652127
21
46.925646
0
LINE
8
Layer 1
10
191.652127
20
46.925646
11
192.646695
21
48.717754
0
LINE
8
Layer 1
10
192.646695
20
48.717754
11
193.331290
21
50.627867
0
LINE
8
Layer 1
10
193.331290
20
50.627867
11
194.201294
21
53.167867
0
LINE
8
Layer 1
10
194.201294
20
53.167867
11
194.652650
21
54.886094
0
LINE
8
Layer 1
10
194.652650
20
54.886094
11
195.070767
21
57.976694
0
LINE
8
Layer 1
10
195.070767
20
57.976694
11
195.410420
21
62.014270
0
LINE
8
Layer 1
10
195.410420
20
62.014270
11
195.626389
21
66.573423
0
LINE
8
Layer 1
10
195.626389
20
66.573423
11
196.009647
21
74.240014
0
LINE
8
Layer 1
10
196.009647
20
74.240014
11
196.639218
21
79.483625
0
LINE
8
Layer 1
10
196.639218
20
79.483625
11
197.050593
21
81.219421
0
LINE
8
Layer 1
10
197.050593
20
81.219421
11
197.528610
21
82.376601
0
LINE
8
Layer 1
10
197.528610
20
82.376601
11
198.074958
21
82.964208
0
LINE
8
Layer 1
10
198.074958
20
82.964208
11
198.691325
21
82.991285
0
LINE
8
Layer 1
10
198.691325
20
82.991285
11
198.902385
21
82.849838
0
LINE
8
Layer 1
10
198.902385
20
82.849838
11
199.005361
21
82.590341
0
LINE
8
Layer 1
10
199.005361
20
82.590341
11
198.924875
21
81.471028
0
LINE
8
Layer 1
10
198.924875
20
81.471028
11
198.744494
21
78.983638
0
LINE
8
Layer 1
10
198.744494
20
78.983638
11
198.755442
21
75.554816
0
LINE
8
Layer 1
10
198.755442
20
75.554816
11
198.942321
21
71.747755
0
LINE
8
Layer 1
10
198.942321
20
71.747755
11
199.289735
21
68.125645
0
LINE
8
Layer 1
10
199.289735
20
68.125645
11
199.660962
21
64.380648
0
LINE
8
Layer 1
10
199.660962
20
64.380648
11
199.820160
21
60.767881
0
LINE
8
Layer 1
10
199.820160
20
60.767881
11
199.765459
21
57.412051
0
LINE
8
Layer 1
10
199.765459
20
57.412051
11
199.494987
21
54.437867
0
LINE
8
Layer 1
10
199.494987
20
54.437867
11
199.050260
21
52.101029
0
LINE
8
Layer 1
10
199.050260
20
52.101029
11
198.379847
21
49.848877
0
LINE
8
Layer 1
10
198.379847
20
49.848877
11
197.495505
21
47.700848
0
LINE
8
Layer 1
10
197.495505
20
47.700848
11
196.408995
21
45.676374
0
LINE
8
Layer 1
10
196.408995
20
45.676374
11
195.132076
21
43.794892
0
LINE
8
Layer 1
10
195.132076
20
43.794892
11
193.676507
21
42.075833
0
LINE
8
Layer 1
10
193.676507
20
42.075833
11
192.054047
21
40.538635
0
LINE
8
Layer 1
10
192.054047
20
40.538635
11
190.276457
21
39.202730
0
LINE
8
Layer 1
10
190.276457
20
39.202730
11
188.327925
21
38.072491
0
LINE
8
Layer 1
10
188.327925
20
38.072491
11
185.985339
21
37.265975
0
LINE
8
Layer 1
10
185.985339
20
37.265975
11
182.300836
21
36.542579
0
LINE
8
Layer 1
10
182.300836
20
36.542579
11
176.326554
21
35.661696
0
LINE
8
Layer 1
10
176.326554
20
35.661696
11
173.573425
21
35.242173
0
LINE
8
Layer 1
10
173.573425
20
35.242173
11
171.670336
21
34.822803
0
LINE
8
Layer 1
10
171.670336
20
34.822803
11
170.098415
21
34.256395
0
LINE
8
Layer 1
10
170.098415
20
34.256395
11
168.338791
21
33.395756
0
LINE
8
Layer 1
10
168.338791
20
33.395756
11
166.645457
21
32.587926
0
LINE
8
Layer 1
10
166.645457
20
32.587926
11
166.191074
21
32.752555
0
LINE
8
Layer 1
10
166.191074
20
32.752555
11
166.191074
21
32.752555
0
LINE
8
Layer 1
10
170.640395
20
41.072271
11
170.720056
21
41.485482
0
LINE
8
Layer 1
10
170.720056
20
41.485482
11
171.075332
21
41.982171
0
LINE
8
Layer 1
10
171.075332
20
41.982171
11
173.370057
21
44.052956
0
LINE
8
Layer 1
10
173.370057
20
44.052956
11
175.295877
21
45.791531
0
LINE
8
Layer 1
10
175.295877
20
45.791531
11
176.862432
21
47.435559
0
LINE
8
Layer 1
10
176.862432
20
47.435559
11
178.296423
21
49.246039
0
LINE
8
Layer 1
10
178.296423
20
49.246039
11
179.824555
21
51.483974
0
LINE
8
Layer 1
10
179.824555
20
51.483974
11
182.190193
21
55.439684
0
LINE
8
Layer 1
10
182.190193
20
55.439684
11
184.048752
21
59.318692
0
LINE
8
Layer 1
10
184.048752
20
59.318692
11
185.519118
21
63.405481
0
LINE
8
Layer 1
10
185.519118
20
63.405481
11
186.720175
21
67.984534
0
LINE
8
Layer 1
10
186.720175
20
67.984534
11
187.570753
21
71.512311
0
LINE
8
Layer 1
10
187.570753
20
71.512311
11
188.419523
21
74.757867
0
LINE
8
Layer 1
10
188.419523
20
74.757867
11
189.236174
21
77.578537
0
LINE
8
Layer 1
10
189.236174
20
77.578537
11
190.182695
21
79.825249
0
LINE
8
Layer 1
10
190.182695
20
79.825249
11
191.445158
21
81.858528
0
LINE
8
Layer 1
10
191.445158
20
81.858528
11
193.209638
21
84.038897
0
LINE
8
Layer 1
10
193.209638
20
84.038897
11
195.861106
21
87.478232
0
LINE
8
Layer 1
10
195.861106
20
87.478232
11
196.862937
21
89.084721
0
LINE
8
Layer 1
10
196.862937
20
89.084721
11
197.517512
21
90.421200
0
LINE
8
Layer 1
10
197.517512
20
90.421200
11
197.905757
21
92.448018
0
LINE
8
Layer 1
10
197.905757
20
92.448018
11
198.049441
21
95.248302
0
LINE
8
Layer 1
10
198.049441
20
95.248302
11
197.941866
21
97.824738
0
LINE
8
Layer 1
10
197.941866
20
97.824738
11
197.791764
21
98.717354
0
LINE
8
Layer 1
10
197.791764
20
98.717354
11
197.576336
21
99.180015
0
LINE
8
Layer 1
10
197.576336
20
99.180015
11
197.206054
21
99.378107
0
LINE
8
Layer 1
10
197.206054
20
99.378107
11
196.892550
21
99.235050
0
LINE
8
Layer 1
10
196.892550
20
99.235050
11
196.200863
21
97.666965
0
LINE
8
Layer 1
10
196.200863
20
97.666965
11
194.901298
21
94.577389
0
LINE
8
Layer 1
10
194.901298
20
94.577389
11
193.147820
21
91.125760
0
LINE
8
Layer 1
10
193.147820
20
91.125760
11
191.595111
21
88.755997
0
LINE
8
Layer 1
10
191.595111
20
88.755997
11
189.553398
21
86.487500
0
LINE
8
Layer 1
10
189.553398
20
86.487500
11
187.484183
21
84.257486
0
LINE
8
Layer 1
10
187.484183
20
84.257486
11
185.939327
21
82.205806
0
LINE
8
Layer 1
10
185.939327
20
82.205806
11
184.859398
21
80.241526
0
LINE
8
Layer 1
10
184.859398
20
80.241526
11
184.184965
21
78.273715
0
LINE
8
Layer 1
10
184.184965
20
78.273715
11
183.900280
21
76.046952
0
LINE
8
Layer 1
10
183.900280
20
76.046952
11
183.650004
21
72.459898
0
LINE
8
Layer 1
10
183.650004
20
72.459898
11
183.329700
21
68.296631
0
LINE
8
Layer 1
10
183.329700
20
68.296631
11
183.027817
21
67.276368
0
LINE
8
Layer 1
10
183.027817
20
67.276368
11
182.499373
21
66.251009
0
LINE
8
Layer 1
10
182.499373
20
66.251009
11
181.596657
21
64.769245
0
LINE
8
Layer 1
10
181.596657
20
64.769245
11
180.529669
21
63.312419
0
LINE
8
Layer 1
10
180.529669
20
63.312419
11
177.281281
21
59.692283
0
LINE
8
Layer 1
10
177.281281
20
59.692283
11
175.088997
21
57.538180
0
LINE
8
Layer 1
10
175.088997
20
57.538180
11
173.442494
21
56.196445
0
LINE
8
Layer 1
10
173.442494
20
56.196445
11
172.406860
21
55.711409
0
LINE
8
Layer 1
10
172.406860
20
55.711409
11
172.138460
21
55.804006
0
LINE
8
Layer 1
10
172.138460
20
55.804006
11
172.047185
21
56.127402
0
LINE
8
Layer 1
10
172.047185
20
56.127402
11
172.483618
21
56.942955
0
LINE
8
Layer 1
10
172.483618
20
56.942955
11
173.532916
21
58.314624
0
LINE
8
Layer 1
10
173.532916
20
58.314624
11
175.989836
21
61.415646
0
LINE
8
Layer 1
10
175.989836
20
61.415646
11
176.887197
21
62.796824
0
LINE
8
Layer 1
10
176.887197
20
62.796824
11
177.649155
21
64.247729
0
LINE
8
Layer 1
10
177.649155
20
64.247729
11
179.022861
21
67.906570
0
LINE
8
Layer 1
10
179.022861
20
67.906570
11
180.622945
21
73.487867
0
LINE
8
Layer 1
10
180.622945
20
73.487867
11
181.845337
21
77.699551
0
LINE
8
Layer 1
10
181.845337
20
77.699551
11
182.991861
21
80.960567
0
LINE
8
Layer 1
10
182.991861
20
80.960567
11
184.233634
21
83.700905
0
LINE
8
Layer 1
10
184.233634
20
83.700905
11
185.741776
21
86.350554
0
LINE
8
Layer 1
10
185.741776
20
86.350554
11
187.622108
21
89.634879
0
LINE
8
Layer 1
10
187.622108
20
89.634879
11
189.096380
21
92.885423
0
LINE
8
Layer 1
10
189.096380
20
92.885423
11
190.389051
21
96.673139
0
LINE
8
Layer 1
10
190.389051
20
96.673139
11
191.724576
21
101.568978
0
LINE
8
Layer 1
10
191.724576
20
101.568978
11
191.969275
21
103.048476
0
LINE
8
Layer 1
10
191.969275
20
103.048476
11
192.142514
21
105.141386
0
LINE
8
Layer 1
10
192.142514
20
105.141386
11
192.275823
21
110.355112
0
LINE
8
Layer 1
10
192.275823
20
110.355112
11
192.126928
21
115.585493
0
LINE
8
Layer 1
10
192.126928
20
115.585493
11
191.698253
21
119.207867
0
LINE
8
Layer 1
10
191.698253
20
119.207867
11
190.712102
21
122.930464
0
LINE
8
Layer 1
10
190.712102
20
122.930464
11
190.441864
21
123.659778
0
LINE
8
Layer 1
10
190.441864
20
123.659778
11
190.248551
21
123.864534
0
LINE
8
Layer 1
10
190.248551
20
123.864534
11
190.081500
21
122.786798
0
LINE
8
Layer 1
10
190.081500
20
122.786798
11
189.995897
21
120.195645
0
LINE
8
Layer 1
10
189.995897
20
120.195645
11
189.935951
21
117.820288
0
LINE
8
Layer 1
10
189.935951
20
117.820288
11
189.721159
21
116.321405
0
LINE
8
Layer 1
10
189.721159
20
116.321405
11
189.232335
21
115.266383
0
LINE
8
Layer 1
10
189.232335
20
115.266383
11
188.350291
21
114.222612
0
LINE
8
Layer 1
10
188.350291
20
114.222612
11
187.655842
21
113.207081
0
LINE
8
Layer 1
10
187.655842
20
113.207081
11
187.239504
21
111.964834
0
LINE
8
Layer 1
10
187.239504
20
111.964834
11
186.586170
21
108.624534
0
LINE
8
Layer 1
10
186.586170
20
108.624534
11
185.309699
21
103.262311
0
LINE
8
Layer 1
10
185.309699
20
103.262311
11
184.148047
21
98.746756
0
LINE
8
Layer 1
10
184.148047
20
98.746756
11
183.208299
21
95.532812
0
LINE
8
Layer 1
10
183.208299
20
95.532812
11
182.107765
21
92.782212
0
LINE
8
Layer 1
10
182.107765
20
92.782212
11
181.018330
21
90.861589
0
LINE
8
Layer 1
10
181.018330
20
90.861589
11
180.531489
21
90.327092
0
LINE
8
Layer 1
10
180.531489
20
90.327092
11
180.111880
21
90.137575
0
LINE
8
Layer 1
10
180.111880
20
90.137575
11
179.436771
21
89.840920
0
LINE
8
Layer 1
10
179.436771
20
89.840920
11
178.621420
21
88.957085
0
LINE
8
Layer 1
10
178.621420
20
88.957085
11
177.666444
21
87.486892
0
LINE
8
Layer 1
10
177.666444
20
87.486892
11
176.572460
21
85.431162
0
LINE
8
Layer 1
10
176.572460
20
85.431162
11
174.869407
21
81.740383
0
LINE
8
Layer 1
10
174.869407
20
81.740383
11
173.652670
21
78.691485
0
LINE
8
Layer 1
10
173.652670
20
78.691485
11
171.811561
21
74.828710
0
LINE
8
Layer 1
10
171.811561
20
74.828710
11
171.118725
21
73.839779
0
LINE
8
Layer 1
10
171.118725
20
73.839779
11
170.533486
21
73.488155
0
LINE
8
Layer 1
10
170.533486
20
73.488155
11
170.192349
21
73.645798
0
LINE
8
Layer 1
10
170.192349
20
73.645798
11
170.134044
21
74.167479
0
LINE
8
Layer 1
10
170.134044
20
74.167479
11
170.900107
21
76.592311
0
LINE
8
Layer 1
10
170.900107
20
76.592311
11
173.012066
21
82.236756
0
LINE
8
Layer 1
10
173.012066
20
82.236756
11
174.011020
21
84.917867
0
LINE
8
Layer 1
10
174.011020
20
84.917867
11
175.784675
21
90.118080
0
LINE
8
Layer 1
10
175.784675
20
90.118080
11
177.838885
21
97.758978
0
LINE
8
Layer 1
10
177.838885
20
97.758978
11
178.673057
21
101.145645
0
LINE
8
Layer 1
10
178.673057
20
101.145645
11
180.402086
21
108.342311
0
LINE
8
Layer 1
10
180.402086
20
108.342311
11
181.374613
21
114.268978
0
LINE
8
Layer 1
10
181.374613
20
114.268978
11
181.859999
21
120.158639
0
LINE
8
Layer 1
10
181.859999
20
120.158639
11
181.872348
21
126.549324
0
LINE
8
Layer 1
10
181.872348
20
126.549324
11
181.445482
21
132.439076
0
LINE
8
Layer 1
10
181.445482
20
132.439076
11
181.077912
21
134.882992
0
LINE
8
Layer 1
10
181.077912
20
134.882992
11
180.613219
21
136.825942
0
LINE
8
Layer 1
10
180.613219
20
136.825942
11
178.272859
21
143.342757
0
LINE
8
Layer 1
10
178.272859
20
143.342757
11
177.151579
21
146.043511
0
LINE
8
Layer 1
10
177.151579
20
146.043511
11
176.545508
21
147.147867
0
LINE
8
Layer 1
10
176.545508
20
147.147867
11
176.283536
21
146.948256
0
LINE
8
Layer 1
10
176.283536
20
146.948256
11
176.068081
21
146.298071
0
LINE
8
Layer 1
10
176.068081
20
146.298071
11
175.709086
21
143.337867
0
LINE
8
Layer 1
10
175.709086
20
143.337867
11
175.359176
21
140.765596
0
LINE
8
Layer 1
10
175.359176
20
140.765596
11
174.776387
21
138.681200
0
LINE
8
Layer 1
10
174.776387
20
138.681200
11
173.592975
21
134.588978
0
LINE
8
Layer 1
10
173.592975
20
134.588978
11
172.643971
21
130.606151
0
LINE
8
Layer 1
10
172.643971
20
130.606151
11
171.591140
21
126.912309
0
LINE
8
Layer 1
10
171.591140
20
126.912309
11
170.598600
21
124.034727
0
LINE
8
Layer 1
10
170.598600
20
124.034727
11
169.830465
21
122.500681
0
LINE
8
Layer 1
10
169.830465
20
122.500681
11
169.246138
21
122.024924
0
LINE
8
Layer 1
10
169.246138
20
122.024924
11
168.477297
21
121.607349
0
LINE
8
Layer 1
10
168.477297
20
121.607349
11
167.810943
21
121.248939
0
LINE
8
Layer 1
10
167.810943
20
121.248939
11
167.348570
21
120.712338
0
LINE
8
Layer 1
10
167.348570
20
120.712338
11
166.972486
21
119.793212
0
LINE
8
Layer 1
10
166.972486
20
119.793212
11
166.565001
21
118.287227
0
LINE
8
Layer 1
10
166.565001
20
118.287227
11
165.778185
21
115.719981
0
LINE
8
Layer 1
10
165.778185
20
115.719981
11
164.809292
21
113.390415
0
LINE
8
Layer 1
10
164.809292
20
113.390415
11
163.848661
21
111.695520
0
LINE
8
Layer 1
10
163.848661
20
111.695520
11
163.430924
21
111.210135
0
LINE
8
Layer 1
10
163.430924
20
111.210135
11
163.086629
21
111.032290
0
LINE
8
Layer 1
10
163.086629
20
111.032290
11
162.811566
21
111.219442
0
LINE
8
Layer 1
10
162.811566
20
111.219442
11
162.758960
21
111.775876
0
LINE
8
Layer 1
10
162.758960
20
111.775876
11
163.309495
21
113.849630
0
LINE
8
Layer 1
10
163.309495
20
113.849630
11
164.533925
21
117.406645
0
LINE
8
Layer 1
10
164.533925
20
117.406645
11
165.728866
21
121.367225
0
LINE
8
Layer 1
10
165.728866
20
121.367225
11
167.709540
21
129.367867
0
LINE
8
Layer 1
10
167.709540
20
129.367867
11
168.182154
21
132.146481
0
LINE
8
Layer 1
10
168.182154
20
132.146481
11
168.573924
21
135.420580
0
LINE
8
Layer 1
10
168.573924
20
135.420580
11
169.084297
21
142.726265
0
LINE
8
Layer 1
10
169.084297
20
142.726265
11
169.179385
21
149.826983
0
LINE
8
Layer 1
10
169.179385
20
149.826983
11
169.052050
21
152.844874
0
LINE
8
Layer 1
10
169.052050
20
152.844874
11
168.797915
21
155.264795
0
LINE
8
Layer 1
10
168.797915
20
155.264795
11
168.194601
21
158.591403
0
LINE
8
Layer 1
10
168.194601
20
158.591403
11
167.427207
21
161.881820
0
LINE
8
Layer 1
10
167.427207
20
161.881820
11
166.507805
21
165.089536
0
LINE
8
Layer 1
10
166.507805
20
165.089536
11
165.448468
21
168.168041
0
LINE
8
Layer 1
10
165.448468
20
168.168041
11
163.601638
21
172.099136
0
LINE
8
Layer 1
10
163.601638
20
172.099136
11
161.600588
21
175.613828
0
LINE
8
Layer 1
10
161.600588
20
175.613828
11
160.686231
21
176.638670
0
LINE
8
Layer 1
10
160.686231
20
176.638670
11
160.263734
21
176.741022
0
LINE
8
Layer 1
10
160.263734
20
176.741022
11
159.666779
21
176.678802
0
LINE
8
Layer 1
10
159.666779
20
176.678802
11
158.610204
21
176.345812
0
LINE
8
Layer 1
10
158.610204
20
176.345812
11
157.212035
21
175.731865
0
LINE
8
Layer 1
10
157.212035
20
175.731865
11
155.947780
21
175.065604
0
LINE
8
Layer 1
10
155.947780
20
175.065604
11
155.292947
21
174.575676
0
LINE
8
Layer 1
10
155.292947
20
174.575676
11
155.885238
21
172.265645
0
LINE
8
Layer 1
10
155.885238
20
172.265645
11
156.438464
21
170.125503
0
LINE
8
Layer 1
10
156.438464
20
170.125503
11
156.323716
21
167.882790
0
LINE
8
Layer 1
10
156.323716
20
167.882790
11
155.901804
21
165.811157
0
LINE
8
Layer 1
10
155.901804
20
165.811157
11
155.092296
21
163.659063
0
LINE
8
Layer 1
10
155.092296
20
163.659063
11
153.847532
21
161.322368
0
LINE
8
Layer 1
10
153.847532
20
161.322368
11
152.119852
21
158.696931
0
LINE
8
Layer 1
10
152.119852
20
158.696931
11
150.688274
21
156.618512
0
LINE
8
Layer 1
10
150.688274
20
156.618512
11
149.890233
21
155.233514
0
LINE
8
Layer 1
10
149.890233
20
155.233514
11
149.544391
21
154.150717
0
LINE
8
Layer 1
10
149.544391
20
154.150717
11
149.469407
21
152.978906
0
LINE
8
Layer 1
10
149.469407
20
152.978906
11
149.732566
21
151.155169
0
LINE
8
Layer 1
10
149.732566
20
151.155169
11
150.734796
21
148.519890
0
LINE
8
Layer 1
10
150.734796
20
148.519890
11
151.656942
21
146.111358
0
LINE
8
Layer 1
10
151.656942
20
146.111358
11
152.024627
21
144.297109
0
LINE
8
Layer 1
10
152.024627
20
144.297109
11
151.851548
21
142.847418
0
LINE
8
Layer 1
10
151.851548
20
142.847418
11
151.151401
21
141.532559
0
LINE
8
Layer 1
10
151.151401
20
141.532559
11
150.424413
21
140.649606
0
LINE
8
Layer 1
10
150.424413
20
140.649606
11
149.881401
21
140.190020
0
LINE
8
Layer 1
10
149.881401
20
140.190020
11
149.566797
21
139.714964
0
LINE
8
Layer 1
10
149.566797
20
139.714964
11
149.469407
21
138.532977
0
LINE
8
Layer 1
10
149.469407
20
138.532977
11
149.284671
21
136.671039
0
LINE
8
Layer 1
10
149.284671
20
136.671039
11
148.999529
21
136.253117
0
LINE
8
Layer 1
10
148.999529
20
136.253117
11
148.537673
21
136.186821
0
LINE
8
Layer 1
10
148.537673
20
136.186821
11
147.862956
21
136.479345
0
LINE
8
Layer 1
10
147.862956
20
136.479345
11
146.939229
21
137.137885
0
LINE
8
Layer 1
10
146.939229
20
137.137885
11
144.200155
21
139.581791
0
LINE
8
Layer 1
10
144.200155
20
139.581791
11
142.164793
21
141.255475
0
LINE
8
Layer 1
10
142.164793
20
141.255475
11
140.107932
21
142.499120
0
LINE
8
Layer 1
10
140.107932
20
142.499120
11
134.398658
21
144.631291
0
LINE
8
Layer 1
10
134.398658
20
144.631291
11
127.236674
21
146.852462
0
LINE
8
Layer 1
10
127.236674
20
146.852462
11
123.338155
21
148.273056
0
LINE
8
Layer 1
10
123.338155
20
148.273056
11
121.466848
21
148.961049
0
LINE
8
Layer 1
10
121.466848
20
148.961049
11
120.747082
21
149.071508
0
LINE
8
Layer 1
10
120.747082
20
149.071508
11
121.342776
21
148.519196
0
LINE
8
Layer 1
10
121.342776
20
148.519196
11
122.701760
21
147.771114
0
LINE
8
Layer 1
10
122.701760
20
147.771114
11
126.813524
21
146.123138
0
LINE
8
Layer 1
10
126.813524
20
146.123138
11
132.079968
21
144.262755
0
LINE
8
Layer 1
10
132.079968
20
144.262755
11
136.253099
21
142.542941
0
LINE
8
Layer 1
10
136.253099
20
142.542941
11
139.520914
21
140.878185
0
LINE
8
Layer 1
10
139.520914
20
140.878185
11
142.071412
21
139.182975
0
LINE
8
Layer 1
10
142.071412
20
139.182975
11
143.650426
21
137.827217
0
LINE
8
Layer 1
10
143.650426
20
137.827217
11
145.173326
21
136.248911
0
LINE
8
Layer 1
10
145.173326
20
136.248911
11
146.621007
21
134.477555
0
LINE
8
Layer 1
10
146.621007
20
134.477555
11
147.974363
21
132.542648
0
LINE
8
Layer 1
10
147.974363
20
132.542648
11
149.214287
21
130.473689
0
LINE
8
Layer 1
10
149.214287
20
130.473689
11
150.321674
21
128.300177
0
LINE
8
Layer 1
10
150.321674
20
128.300177
11
151.277416
21
126.051610
0
LINE
8
Layer 1
10
151.277416
20
126.051610
11
152.062409
21
123.757487
0
LINE
8
Layer 1
10
152.062409
20
123.757487
11
152.533205
21
121.281973
0
LINE
8
Layer 1
10
152.533205
20
121.281973
11
152.768864
21
117.232311
0
LINE
8
Layer 1
10
152.768864
20
117.232311
11
152.807502
21
113.119534
0
LINE
8
Layer 1
10
152.807502
20
113.119534
11
152.641343
21
112.334218
0
LINE
8
Layer 1
10
152.641343
20
112.334218
11
152.300037
21
111.799534
0
LINE
8
Layer 1
10
152.300037
20
111.799534
11
151.750639
21
111.209051
0
LINE
8
Layer 1
10
151.750639
20
111.209051
11
151.388658
21
111.049566
0
LINE
8
Layer 1
10
151.388658
20
111.049566
11
151.228675
21
111.318034
0
LINE
8
Layer 1
10
151.228675
20
111.318034
11
151.285270
21
112.011412
0
LINE
8
Layer 1
10
151.285270
20
112.011412
11
151.470620
21
115.625953
0
LINE
8
Layer 1
10
151.470620
20
115.625953
11
151.307598
21
118.243411
0
LINE
8
Layer 1
10
151.307598
20
118.243411
11
150.606788
21
120.830865
0
LINE
8
Layer 1
10
150.606788
20
120.830865
11
149.487612
21
123.582464
0
LINE
8
Layer 1
10
149.487612
20
123.582464
11
147.997313
21
126.335323
0
LINE
8
Layer 1
10
147.997313
20
126.335323
11
146.193921
21
129.023304
0
LINE
8
Layer 1
10
146.193921
20
129.023304
11
144.135467
21
131.580267
0
LINE
8
Layer 1
10
144.135467
20
131.580267
11
141.879981
21
133.940074
0
LINE
8
Layer 1
10
141.879981
20
133.940074
11
139.485493
21
136.036584
0
LINE
8
Layer 1
10
139.485493
20
136.036584
11
137.010032
21
137.803660
0
LINE
8
Layer 1
10
137.010032
20
137.803660
11
134.511629
21
139.175163
0
LINE
8
Layer 1
10
134.511629
20
139.175163
11
132.357376
21
139.986432
0
LINE
8
Layer 1
10
132.357376
20
139.986432
11
130.091998
21
140.302440
0
LINE
8
Layer 1
10
130.091998
20
140.302440
11
128.001573
21
140.324212
0
LINE
8
Layer 1
10
128.001573
20
140.324212
11
127.501376
21
140.112658
0
LINE
8
Layer 1
10
127.501376
20
140.112658
11
127.021864
21
139.683758
0
LINE
8
Layer 1
10
127.021864
20
139.683758
11
126.601545
21
139.213348
0
LINE
8
Layer 1
10
126.601545
20
139.213348
11
126.388652
21
138.744851
0
LINE
8
Layer 1
10
126.388652
20
138.744851
11
126.392604
21
136.989095
0
LINE
8
Layer 1
10
126.392604
20
136.989095
11
126.542128
21
135.845743
0
LINE
8
Layer 1
10
126.542128
20
135.845743
11
126.849661
21
134.705998
0
LINE
8
Layer 1
10
126.849661
20
134.705998
11
127.353909
21
133.507565
0
LINE
8
Layer 1
10
127.353909
20
133.507565
11
128.093577
21
132.188148
0
LINE
8
Layer 1
10
128.093577
20
132.188148
11
130.433997
21
128.937186
0
LINE
8
Layer 1
10
130.433997
20
128.937186
11
134.180563
21
124.454756
0
LINE
8
Layer 1
10
134.180563
20
124.454756
11
136.492755
21
121.721913
0
LINE
8
Layer 1
10
136.492755
20
121.721913
11
137.812539
21
119.959922
0
LINE
8
Layer 1
10
137.812539
20
119.959922
11
138.360576
21
118.826760
0
LINE
8
Layer 1
10
138.360576
20
118.826760
11
138.357523
21
117.980404
0
LINE
8
Layer 1
10
138.357523
20
117.980404
11
138.120715
21
117.482997
0
LINE
8
Layer 1
10
138.120715
20
117.482997
11
137.718977
21
117.237487
0
LINE
8
Layer 1
10
137.718977
20
117.237487
11
137.146655
21
117.246543
0
LINE
8
Layer 1
10
137.146655
20
117.246543
11
136.398092
21
117.512833
0
LINE
8
Layer 1
10
136.398092
20
117.512833
11
134.349627
21
118.827795
0
LINE
8
Layer 1
10
134.349627
20
118.827795
11
131.528340
21
121.203726
0
LINE
8
Layer 1
10
131.528340
20
121.203726
11
127.930098
21
124.071912
0
LINE
8
Layer 1
10
127.930098
20
124.071912
11
122.234963
21
128.000506
0
LINE
8
Layer 1
10
122.234963
20
128.000506
11
116.341882
21
132.162387
0
LINE
8
Layer 1
10
116.341882
20
132.162387
11
111.610862
21
136.163434
0
LINE
8
Layer 1
10
111.610862
20
136.163434
11
109.757884
21
137.987787
0
LINE
8
Layer 1
10
109.757884
20
137.987787
11
108.179305
21
139.764514
0
LINE
8
Layer 1
10
108.179305
20
139.764514
11
106.889818
21
141.466328
0
LINE
8
Layer 1
10
106.889818
20
141.466328
11
105.904116
21
143.065940
0
LINE
8
Layer 1
10
105.904116
20
143.065940
11
105.236893
21
144.536063
0
LINE
8
Layer 1
10
105.236893
20
144.536063
11
104.902843
21
145.849408
0
LINE
8
Layer 1
10
104.902843
20
145.849408
11
104.916659
21
146.978689
0
LINE
8
Layer 1
10
104.916659
20
146.978689
11
105.293033
21
147.896617
0
LINE
8
Layer 1
10
105.293033
20
147.896617
11
106.006389
21
148.539237
0
LINE
8
Layer 1
10
106.006389
20
148.539237
11
107.178506
21
149.154964
0
LINE
8
Layer 1
10
107.178506
20
149.154964
11
108.704455
21
149.698706
0
LINE
8
Layer 1
10
108.704455
20
149.698706
11
110.479309
21
150.125371
0
LINE
8
Layer 1
10
110.479309
20
150.125371
11
113.768296
21
150.746175
0
LINE
8
Layer 1
10
113.768296
20
150.746175
11
114.262020
21
150.858117
0
LINE
8
Layer 1
10
114.262020
20
150.858117
11
114.263383
21
150.934403
0
LINE
8
Layer 1
10
114.263383
20
150.934403
11
112.536280
21
151.040363
0
LINE
8
Layer 1
10
112.536280
20
151.040363
11
110.349615
21
150.988129
0
LINE
8
Layer 1
10
110.349615
20
150.988129
11
108.006495
21
150.664062
0
LINE
8
Layer 1
10
108.006495
20
150.664062
11
105.373419
21
150.042801
0
LINE
8
Layer 1
10
105.373419
20
150.042801
11
102.316890
21
149.098985
0
LINE
8
Layer 1
10
102.316890
20
149.098985
11
99.084934
21
148.184700
0
LINE
8
Layer 1
10
99.084934
20
148.184700
11
95.904744
21
147.542281
0
LINE
8
Layer 1
10
95.904744
20
147.542281
11
92.738526
21
147.225033
0
LINE
8
Layer 1
10
92.738526
20
147.225033
11
89.479377
21
147.532050
0
LINE
8
Layer 1
10
89.479377
20
147.532050
11
86.458981
21
148.089546
0
LINE
8
Layer 1
10
86.458981
20
148.089546
11
84.179300
21
148.958323
0
LINE
8
Layer 1
10
84.179300
20
148.958323
11
82.520112
21
149.926241
0
LINE
8
Layer 1
10
82.520112
20
149.926241
11
80.945187
21
151.163605
0
LINE
8
Layer 1
10
80.945187
20
151.163605
11
79.523761
21
152.608438
0
LINE
8
Layer 1
10
79.523761
20
152.608438
11
78.325068
21
154.198763
0
LINE
8
Layer 1
10
78.325068
20
154.198763
11
77.407680
21
155.614534
0
LINE
8
Layer 1
10
77.407680
20
155.614534
11
75.550212
21
155.615589
0
LINE
8
Layer 1
10
75.550212
20
155.615589
11
74.163224
21
155.724883
0
LINE
8
Layer 1
10
74.163224
20
155.724883
11
73.030057
21
156.047620
0
LINE
8
Layer 1
10
73.030057
20
156.047620
11
72.162768
21
156.578654
0
LINE
8
Layer 1
10
72.162768
20
156.578654
11
71.573413
21
157.312840
0
LINE
8
Layer 1
10
71.573413
20
157.312840
11
71.029798
21
158.625913
0
LINE
8
Layer 1
10
71.029798
20
158.625913
11
70.709819
21
160.133129
0
LINE
8
Layer 1
10
70.709819
20
160.133129
11
70.609012
21
161.868884
0
LINE
8
Layer 1
10
70.609012
20
161.868884
11
70.722916
21
163.867569
0
LINE
8
Layer 1
10
70.722916
20
163.867569
11
70.947260
21
166.332590
0
LINE
8
Layer 1
10
70.947260
20
166.332590
11
70.954649
21
167.840126
0
LINE
8
Layer 1
10
70.954649
20
167.840126
11
70.699986
21
168.849158
0
LINE
8
Layer 1
10
70.699986
20
168.849158
11
70.138174
21
169.818662
0
LINE
8
Layer 1
10
70.138174
20
169.818662
11
69.535122
21
171.034151
0
LINE
8
Layer 1
10
69.535122
20
171.034151
11
69.156099
21
172.462835
0
LINE
8
Layer 1
10
69.156099
20
172.462835
11
69.021861
21
173.985370
0
LINE
8
Layer 1
10
69.021861
20
173.985370
11
69.153162
21
175.482411
0
LINE
8
Layer 1
10
69.153162
20
175.482411
11
69.499028
21
176.378878
0
LINE
8
Layer 1
10
69.499028
20
176.378878
11
70.188781
21
177.313446
0
LINE
8
Layer 1
10
70.188781
20
177.313446
11
71.190485
21
178.264890
0
LINE
8
Layer 1
10
71.190485
20
178.264890
11
72.472204
21
179.211984
0
LINE
8
Layer 1
10
72.472204
20
179.211984
11
75.747945
21
181.008221
0
LINE
8
Layer 1
10
75.747945
20
181.008221
11
79.760518
21
182.532353
0
LINE
8
Layer 1
10
79.760518
20
182.532353
11
81.592249
21
183.124440
0
LINE
8
Layer 1
10
81.592249
20
183.124440
11
82.526032
21
183.563935
0
LINE
8
Layer 1
10
82.526032
20
183.563935
11
82.824940
21
184.047924
0
LINE
8
Layer 1
10
82.824940
20
184.047924
11
82.752049
21
184.773491
0
LINE
8
Layer 1
10
82.752049
20
184.773491
11
82.469971
21
185.688721
0
LINE
8
Layer 1
10
82.469971
20
185.688721
11
81.982580
21
186.369992
0
LINE
8
Layer 1
10
81.982580
20
186.369992
11
81.237874
21
186.867035
0
LINE
8
Layer 1
10
81.237874
20
186.867035
11
80.183852
21
187.229581
0
LINE
8
Layer 1
10
80.183852
20
187.229581
11
78.922947
21
187.660017
0
LINE
8
Layer 1
10
78.922947
20
187.660017
11
77.639031
21
188.302473
0
LINE
8
Layer 1
10
77.639031
20
188.302473
11
76.364074
21
189.129002
0
LINE
8
Layer 1
10
76.364074
20
189.129002
11
75.130048
21
190.111662
0
LINE
8
Layer 1
10
75.130048
20
190.111662
11
72.912671
21
192.433592
0
LINE
8
Layer 1
10
72.912671
20
192.433592
11
71.993263
21
193.716973
0
LINE
8
Layer 1
10
71.993263
20
193.716973
11
71.242668
21
195.044706
0
LINE
8
Layer 1
10
71.242668
20
195.044706
11
70.702340
21
196.217569
0
LINE
8
Layer 1
10
70.702340
20
196.217569
11
70.424162
21
197.252343
0
LINE
8
Layer 1
10
70.424162
20
197.252343
11
70.306074
21
201.193423
0
LINE
8
Layer 1
10
70.306074
20
201.193423
11
70.352578
21
204.006249
0
LINE
8
Layer 1
10
70.352578
20
204.006249
11
70.607741
21
205.849754
0
LINE
8
Layer 1
10
70.607741
20
205.849754
11
71.245034
21
207.379653
0
LINE
8
Layer 1
10
71.245034
20
207.379653
11
72.437933
21
209.251658
0
LINE
8
Layer 1
10
72.437933
20
209.251658
11
73.643447
21
210.798294
0
LINE
8
Layer 1
10
73.643447
20
210.798294
11
75.125355
21
212.314385
0
LINE
8
Layer 1
10
75.125355
20
212.314385
11
76.820081
21
213.757807
0
LINE
8
Layer 1
10
76.820081
20
213.757807
11
78.664049
21
215.086435
0
LINE
8
Layer 1
10
78.664049
20
215.086435
11
80.593686
21
216.258147
0
LINE
8
Layer 1
10
80.593686
20
216.258147
11
82.545415
21
217.230817
0
LINE
8
Layer 1
10
82.545415
20
217.230817
11
84.455661
21
217.962321
0
LINE
8
Layer 1
10
84.455661
20
217.962321
11
86.260850
21
218.410537
0
LINE
8
Layer 1
10
86.260850
20
218.410537
11
87.238341
21
218.468409
0
LINE
8
Layer 1
10
87.238341
20
218.468409
11
87.848024
21
218.282783
0
LINE
8
Layer 1
10
87.848024
20
218.282783
11
88.034011
21
217.894006
0
LINE
8
Layer 1
10
88.034011
20
217.894006
11
87.740417
21
217.342421
0
LINE
8
Layer 1
10
87.740417
20
217.342421
11
84.974495
21
215.313475
0
LINE
8
Layer 1
10
84.974495
20
215.313475
11
83.202589
21
214.068789
0
LINE
8
Layer 1
10
83.202589
20
214.068789
11
82.182846
21
212.999796
0
LINE
8
Layer 1
10
82.182846
20
212.999796
11
81.715426
21
211.801875
0
LINE
8
Layer 1
10
81.715426
20
211.801875
11
81.600489
21
210.170407
0
LINE
8
Layer 1
10
81.600489
20
210.170407
11
81.730937
21
208.298539
0
LINE
8
Layer 1
10
81.730937
20
208.298539
11
82.006615
21
207.763896
0
LINE
8
Layer 1
10
82.006615
20
207.763896
11
82.517491
21
207.188165
0
LINE
8
Layer 1
10
82.517491
20
207.188165
11
83.543285
21
206.354118
0
LINE
8
Layer 1
10
83.543285
20
206.354118
11
84.997562
21
205.483855
0
LINE
8
Layer 1
10
84.997562
20
205.483855
11
86.748135
21
204.647754
0
LINE
8
Layer 1
10
86.748135
20
204.647754
11
88.662815
21
203.916196
0
LINE
8
Layer 1
10
88.662815
20
203.916196
11
91.127496
21
203.170298
0
LINE
8
Layer 1
10
91.127496
20
203.170298
11
93.387797
21
202.688442
0
LINE
8
Layer 1
10
93.387797
20
202.688442
11
95.716698
21
202.426378
0
LINE
8
Layer 1
10
95.716698
20
202.426378
11
98.387185
21
202.339855
0
LINE
8
Layer 1
10
98.387185
20
202.339855
11
102.197185
21
202.322312
0
LINE
8
Layer 1
10
102.197185
20
202.322312
11
104.151295
21
203.414995
0
LINE
8
Layer 1
10
104.151295
20
203.414995
11
106.464873
21
204.590387
0
LINE
8
Layer 1
10
106.464873
20
204.590387
11
108.528102
21
205.339128
0
LINE
8
Layer 1
10
108.528102
20
205.339128
11
110.606520
21
205.734576
0
LINE
8
Layer 1
10
110.606520
20
205.734576
11
112.965667
21
205.850090
0
LINE
8
Layer 1
10
112.965667
20
205.850090
11
115.819385
21
205.712293
0
LINE
8
Layer 1
10
115.819385
20
205.712293
11
118.121523
21
205.111763
0
LINE
8
Layer 1
10
118.121523
20
205.111763
11
119.969471
21
204.577896
0
LINE
8
Layer 1
10
119.969471
20
204.577896
11
121.698689
21
204.259530
0
LINE
8
Layer 1
10
121.698689
20
204.259530
11
123.075430
21
204.186150
0
LINE
8
Layer 1
10
123.075430
20
204.186150
11
123.865948
21
204.387236
0
LINE
8
Layer 1
10
123.865948
20
204.387236
11
127.104686
21
206.173898
0
LINE
8
Layer 1
10
127.104686
20
206.173898
11
130.983852
21
207.883208
0
LINE
8
Layer 1
10
130.983852
20
207.883208
11
133.045407
21
208.334977
0
LINE
8
Layer 1
10
133.045407
20
208.334977
11
135.781629
21
208.589452
0
LINE
8
Layer 1
10
135.781629
20
208.589452
11
137.865228
21
208.638260
0
LINE
8
Layer 1
10
137.865228
20
208.638260
11
139.500522
21
208.439473
0
LINE
8
Layer 1
10
139.500522
20
208.439473
11
141.377832
21
207.835285
0
LINE
8
Layer 1
10
141.377832
20
207.835285
11
144.187474
21
206.667891
0
LINE
8
Layer 1
10
144.187474
20
206.667891
11
146.384433
21
205.726925
0
LINE
8
Layer 1
10
146.384433
20
205.726925
11
148.736767
21
206.211129
0
LINE
8
Layer 1
10
148.736767
20
206.211129
11
151.441012
21
206.997219
0
LINE
8
Layer 1
10
151.441012
20
206.997219
11
152.490695
21
207.502675
0
LINE
8
Layer 1
10
152.490695
20
207.502675
11
153.342442
21
208.086124
0
LINE
8
Layer 1
10
153.342442
20
208.086124
11
153.999021
21
208.749855
0
LINE
8
Layer 1
10
153.999021
20
208.749855
11
154.463200
21
209.496156
0
LINE
8
Layer 1
10
154.463200
20
209.496156
11
154.737748
21
210.327317
0
LINE
8
Layer 1
10
154.737748
20
210.327317
11
154.825432
21
211.245626
0
LINE
8
Layer 1
10
154.825432
20
211.245626
11
154.646075
21
212.654527
0
LINE
8
Layer 1
10
154.646075
20
212.654527
11
154.113008
21
214.013075
0
LINE
8
Layer 1
10
154.113008
20
214.013075
11
153.212113
21
215.333548
0
LINE
8
Layer 1
10
153.212113
20
215.333548
11
151.929272
21
216.628226
0
LINE
8
Layer 1
10
151.929272
20
216.628226
11
150.250365
21
217.909387
0
LINE
8
Layer 1
10
150.250365
20
217.909387
11
148.161276
21
219.189310
0
LINE
8
Layer 1
10
148.161276
20
219.189310
11
145.647885
21
220.480273
0
LINE
8
Layer 1
10
145.647885
20
220.480273
11
142.696074
21
221.794555
0
LINE
8
Layer 1
10
142.696074
20
221.794555
11
137.440548
21
224.083111
0
LINE
8
Layer 1
10
137.440548
20
224.083111
11
136.482504
21
224.660924
0
LINE
8
Layer 1
10
136.482504
20
224.660924
11
135.953438
21
225.207390
0
LINE
8
Layer 1
10
135.953438
20
225.207390
11
135.509643
21
225.924409
0
LINE
8
Layer 1
10
135.509643
20
225.924409
11
135.400929
21
226.570690
0
LINE
8
Layer 1
10
135.400929
20
226.570690
11
135.633679
21
227.212512
0
LINE
8
Layer 1
10
135.633679
20
227.212512
11
136.214273
21
227.916154
0
LINE
8
Layer 1
10
136.214273
20
227.916154
11
137.070253
21
228.772133
0
LINE
8
Layer 1
10
137.070253
20
228.772133
11
144.187051
21
228.633514
0
LINE
8
Layer 1
10
144.187051
20
228.633514
11
149.752160
21
228.436148
0
LINE
8
Layer 1
10
149.752160
20
228.436148
11
153.138296
21
228.156284
0
LINE
8
Layer 1
10
153.138296
20
228.156284
11
157.349156
21
227.278361
0
LINE
8
Layer 1
10
157.349156
20
227.278361
11
160.917029
21
226.281452
0
LINE
8
Layer 1
10
160.917029
20
226.281452
11
164.229146
21
225.039548
0
LINE
8
Layer 1
10
164.229146
20
225.039548
11
167.672741
21
223.426642
0
LINE
8
Layer 1
10
167.672741
20
223.426642
11
171.247197
21
221.419709
0
LINE
8
Layer 1
10
171.247197
20
221.419709
11
173.922178
21
219.406878
0
LINE
8
Layer 1
10
173.922178
20
219.406878
11
174.996340
21
218.331240
0
LINE
8
Layer 1
10
174.996340
20
218.331240
11
175.934402
21
217.173714
0
LINE
8
Layer 1
10
175.934402
20
217.173714
11
177.520586
21
214.505785
0
LINE
8
Layer 1
10
177.520586
20
214.505785
11
179.036936
21
210.771712
0
LINE
8
Layer 1
10
179.036936
20
210.771712
11
179.497922
21
209.131740
0
LINE
8
Layer 1
10
179.497922
20
209.131740
11
179.668441
21
207.926021
0
LINE
8
Layer 1
10
179.668441
20
207.926021
11
178.923058
21
205.053145
0
LINE
8
Layer 1
10
178.923058
20
205.053145
11
178.048759
21
202.869465
0
LINE
8
Layer 1
10
178.048759
20
202.869465
11
176.788812
21
201.185712
0
LINE
8
Layer 1
10
176.788812
20
201.185712
11
174.552461
21
199.116515
0
LINE
8
Layer 1
10
174.552461
20
199.116515
11
171.826458
21
197.275776
0
LINE
8
Layer 1
10
171.826458
20
197.275776
11
168.585177
21
195.648603
0
LINE
8
Layer 1
10
168.585177
20
195.648603
11
164.802992
21
194.220104
0
LINE
8
Layer 1
10
164.802992
20
194.220104
11
162.996841
21
193.538580
0
LINE
8
Layer 1
10
162.996841
20
193.538580
11
162.335693
21
193.109356
0
LINE
8
Layer 1
10
162.335693
20
193.109356
11
163.310996
21
192.436493
0
LINE
8
Layer 1
10
163.310996
20
192.436493
11
165.330719
21
191.418247
0
LINE
8
Layer 1
10
165.330719
20
191.418247
11
167.786913
21
190.339452
0
LINE
8
Layer 1
10
167.786913
20
190.339452
11
170.071629
21
189.484943
0
LINE
8
Layer 1
10
170.071629
20
189.484943
11
173.587361
21
188.539680
0
LINE
8
Layer 1
10
173.587361
20
188.539680
11
176.562741
21
188.005029
0
LINE
8
Layer 1
10
176.562741
20
188.005029
11
177.332993
21
187.816909
0
LINE
8
Layer 1
10
177.332993
20
187.816909
11
177.495919
21
187.640051
0
LINE
8
Layer 1
10
177.495919
20
187.640051
11
177.510055
21
187.405118
0
LINE
8
Layer 1
10
177.510055
20
187.405118
11
177.089988
21
186.752398
0
LINE
8
Layer 1
10
177.089988
20
186.752398
11
176.068852
21
185.841488
0
LINE
8
Layer 1
10
176.068852
20
185.841488
11
174.879528
21
184.734867
0
LINE
8
Layer 1
10
174.879528
20
184.734867
11
174.650512
21
184.295671
0
LINE
8
Layer 1
10
174.650512
20
184.295671
11
174.587185
21
183.826367
0
LINE
8
Layer 1
10
174.587185
20
183.826367
11
174.538482
21
183.356686
0
LINE
8
Layer 1
10
174.538482
20
183.356686
11
174.328950
21
183.005803
0
LINE
8
Layer 1
10
174.328950
20
183.005803
11
173.046861
21
182.277879
0
LINE
8
Layer 1
10
173.046861
20
182.277879
11
171.749492
21
181.517031
0
LINE
8
Layer 1
10
171.749492
20
181.517031
11
171.052750
21
180.617032
0
LINE
8
Layer 1
10
171.052750
20
180.617032
11
170.283316
21
179.638996
0
LINE
8
Layer 1
10
170.283316
20
179.638996
11
168.912007
21
178.619497
0
LINE
8
Layer 1
10
168.912007
20
178.619497
11
167.268608
21
177.769972
0
LINE
8
Layer 1
10
167.268608
20
177.769972
11
166.629302
21
177.694540
0
LINE
8
Layer 1
10
166.629302
20
177.694540
11
165.818583
21
177.771690
0
LINE
8
Layer 1
10
165.818583
20
177.771690
11
164.573111
21
177.826377
0
LINE
8
Layer 1
10
164.573111
20
177.826377
11
163.740623
21
177.525152
0
LINE
8
Layer 1
10
163.740623
20
177.525152
11
163.069135
21
177.085179
0
LINE
8
Layer 1
10
163.069135
20
177.085179
11
164.125746
21
175.028188
0
LINE
8
Layer 1
10
164.125746
20
175.028188
11
166.879326
21
169.725645
0
LINE
8
Layer 1
10
166.879326
20
169.725645
11
169.312160
21
164.603905
0
LINE
8
Layer 1
10
169.312160
20
164.603905
11
170.150268
21
162.464400
0
LINE
8
Layer 1
10
170.150268
20
162.464400
11
170.638970
21
160.835645
0
LINE
8
Layer 1
10
170.638970
20
160.835645
11
171.150944
21
158.659206
0
LINE
8
Layer 1
10
171.150944
20
158.659206
11
171.722937
21
157.204208
0
LINE
8
Layer 1
10
171.722937
20
157.204208
11
172.738002
21
155.774367
0
LINE
8
Layer 1
10
172.738002
20
155.774367
11
174.579190
21
153.673398
0
LINE
8
Layer 1
10
174.579190
20
153.673398
11
177.532790
21
150.130528
0
LINE
8
Layer 1
10
177.532790
20
150.130528
11
179.817467
21
146.837226
0
LINE
8
Layer 1
10
179.817467
20
146.837226
11
181.529360
21
143.637294
0
LINE
8
Layer 1
10
181.529360
20
143.637294
11
182.764611
21
140.374534
0
LINE
8
Layer 1
10
182.764611
20
140.374534
11
183.606258
21
137.729876
0
LINE
8
Layer 1
10
183.606258
20
137.729876
11
184.289875
21
136.116314
0
LINE
8
Layer 1
10
184.289875
20
136.116314
11
185.162689
21
134.903251
0
LINE
8
Layer 1
10
185.162689
20
134.903251
11
186.571930
21
133.460089
0
LINE
8
Layer 1
10
186.571930
20
133.460089
11
189.190562
21
130.534787
0
LINE
8
Layer 1
10
189.190562
20
130.534787
11
191.392964
21
127.289983
0
LINE
8
Layer 1
10
191.392964
20
127.289983
11
193.271196
21
123.568517
0
LINE
8
Layer 1
10
193.271196
20
123.568517
11
194.917320
21
119.213226
0
LINE
8
Layer 1
10
194.917320
20
119.213226
11
195.891155
21
116.747004
0
LINE
8
Layer 1
10
195.891155
20
116.747004
11
197.729018
21
114.127867
0
LINE
8
Layer 1
10
197.729018
20
114.127867
11
199.079619
21
112.234913
0
LINE
8
Layer 1
10
199.079619
20
112.234913
11
200.160868
21
110.448116
0
LINE
8
Layer 1
10
200.160868
20
110.448116
11
200.990834
21
108.700079
0
LINE
8
Layer 1
10
200.990834
20
108.700079
11
201.587587
21
106.923402
0
LINE
8
Layer 1
10
201.587587
20
106.923402
11
201.969195
21
105.050686
0
LINE
8
Layer 1
10
201.969195
20
105.050686
11
202.153726
21
103.014532
0
LINE
8
Layer 1
10
202.153726
20
103.014532
11
202.159251
21
100.747540
0
LINE
8
Layer 1
10
202.159251
20
100.747540
11
202.003838
21
98.182311
0
LINE
8
Layer 1
10
202.003838
20
98.182311
11
201.745685
21
95.618754
0
LINE
8
Layer 1
10
201.745685
20
95.618754
11
201.415423
21
93.612668
0
LINE
8
Layer 1
10
201.415423
20
93.612668
11
200.930489
21
91.774738
0
LINE
8
Layer 1
10
200.930489
20
91.774738
11
200.208323
21
89.715645
0
LINE
8
Layer 1
10
200.208323
20
89.715645
11
199.195908
21
87.306266
0
LINE
8
Layer 1
10
199.195908
20
87.306266
11
198.020645
21
85.179289
0
LINE
8
Layer 1
10
198.020645
20
85.179289
11
196.443427
21
82.956879
0
LINE
8
Layer 1
10
196.443427
20
82.956879
11
194.225141
21
80.261200
0
LINE
8
Layer 1
10
194.225141
20
80.261200
11
191.886501
21
77.404582
0
LINE
8
Layer 1
10
191.886501
20
77.404582
11
190.844740
21
75.886756
0
LINE
8
Layer 1
10
190.844740
20
75.886756
11
190.353404
21
71.697140
0
LINE
8
Layer 1
10
190.353404
20
71.697140
11
190.332566
21
67.137867
0
LINE
8
Layer 1
10
190.332566
20
67.137867
11
190.532741
21
64.033423
0
LINE
8
Layer 1
10
190.532741
20
64.033423
11
191.013523
21
65.585645
0
LINE
8
Layer 1
10
191.013523
20
65.585645
11
191.804425
21
68.351846
0
LINE
8
Layer 1
10
191.804425
20
68.351846
11
192.094628
21
69.150300
0
LINE
8
Layer 1
10
192.094628
20
69.150300
11
192.460457
21
69.641118
0
LINE
8
Layer 1
10
192.460457
20
69.641118
11
192.867123
21
69.795254
0
LINE
8
Layer 1
10
192.867123
20
69.795254
11
193.279835
21
69.583661
0
LINE
8
Layer 1
10
193.279835
20
69.583661
11
193.509813
21
67.867444
0
LINE
8
Layer 1
10
193.509813
20
67.867444
11
193.530241
21
64.393787
0
LINE
8
Layer 1
10
193.530241
20
64.393787
11
193.369793
21
60.642251
0
LINE
8
Layer 1
10
193.369793
20
60.642251
11
193.057142
21
58.092396
0
LINE
8
Layer 1
10
193.057142
20
58.092396
11
192.311010
21
55.908380
0
LINE
8
Layer 1
10
192.311010
20
55.908380
11
191.241260
21
53.782050
0
LINE
8
Layer 1
10
191.241260
20
53.782050
11
189.890744
21
51.786388
0
LINE
8
Layer 1
10
189.890744
20
51.786388
11
188.302313
21
49.994374
0
LINE
8
Layer 1
10
188.302313
20
49.994374
11
186.861227
21
48.657023
0
LINE
8
Layer 1
10
186.861227
20
48.657023
11
185.137106
21
47.490681
0
LINE
8
Layer 1
10
185.137106
20
47.490681
11
182.060696
21
45.875885
0
LINE
8
Layer 1
10
182.060696
20
45.875885
11
176.562741
21
43.193174
0
LINE
8
Layer 1
10
176.562741
20
43.193174
11
171.801262
21
41.033551
0
LINE
8
Layer 1
10
171.801262
20
41.033551
11
170.888718
21
40.820364
0
LINE
8
Layer 1
10
170.888718
20
40.820364
11
170.696274
21
40.893462
0
LINE
8
Layer 1
10
170.696274
20
40.893462
11
170.640395
21
41.072271
0
LINE
8
Layer 1
10
170.640395
20
41.072271
11
170.640395
21
41.072271
0
LINE
8
Layer 1
10
96.834963
20
152.082432
11
99.798296
21
152.922021
0
LINE
8
Layer 1
10
99.798296
20
152.922021
11
102.023533
21
153.651342
0
LINE
8
Layer 1
10
102.023533
20
153.651342
11
103.890518
21
154.069028
0
LINE
8
Layer 1
10
103.890518
20
154.069028
11
106.007185
21
154.578552
0
LINE
8
Layer 1
10
106.007185
20
154.578552
11
109.442535
21
154.827574
0
LINE
8
Layer 1
10
109.442535
20
154.827574
11
118.142741
21
154.907567
0
LINE
8
Layer 1
10
118.142741
20
154.907567
11
128.023572
21
154.994844
0
LINE
8
Layer 1
10
128.023572
20
154.994844
11
129.856451
21
155.184180
0
LINE
8
Layer 1
10
129.856451
20
155.184180
11
131.099083
21
155.543343
0
LINE
8
Layer 1
10
131.099083
20
155.543343
11
132.684717
21
156.172069
0
LINE
8
Layer 1
10
132.684717
20
156.172069
11
134.210144
21
156.961735
0
LINE
8
Layer 1
10
134.210144
20
156.961735
11
138.039407
21
159.581946
0
LINE
8
Layer 1
10
138.039407
20
159.581946
11
139.779685
21
160.834541
0
LINE
8
Layer 1
10
139.779685
20
160.834541
11
141.173040
21
161.683084
0
LINE
8
Layer 1
10
141.173040
20
161.683084
11
142.643137
21
162.352112
0
LINE
8
Layer 1
10
142.643137
20
162.352112
11
144.613644
21
163.066160
0
LINE
8
Layer 1
10
144.613644
20
163.066160
11
146.382511
21
163.779156
0
LINE
8
Layer 1
10
146.382511
20
163.779156
11
148.085277
21
164.655478
0
LINE
8
Layer 1
10
148.085277
20
164.655478
11
149.561445
21
165.603041
0
LINE
8
Layer 1
10
149.561445
20
165.603041
11
150.650516
21
166.529760
0
LINE
8
Layer 1
10
150.650516
20
166.529760
11
151.470609
21
167.635392
0
LINE
8
Layer 1
10
151.470609
20
167.635392
11
152.264492
21
169.108825
0
LINE
8
Layer 1
10
152.264492
20
169.108825
11
152.904959
21
170.680048
0
LINE
8
Layer 1
10
152.904959
20
170.680048
11
153.264808
21
172.079048
0
LINE
8
Layer 1
10
153.264808
20
172.079048
11
153.305623
21
173.213839
0
LINE
8
Layer 1
10
153.305623
20
173.213839
11
152.911603
21
174.001774
0
LINE
8
Layer 1
10
152.911603
20
174.001774
11
151.902752
21
174.623754
0
LINE
8
Layer 1
10
151.902752
20
174.623754
11
150.099076
21
175.260677
0
LINE
8
Layer 1
10
150.099076
20
175.260677
11
147.969069
21
176.082430
0
LINE
8
Layer 1
10
147.969069
20
176.082430
11
146.593413
21
177.117194
0
LINE
8
Layer 1
10
146.593413
20
177.117194
11
145.896756
21
177.970015
0
LINE
8
Layer 1
10
145.896756
20
177.970015
11
145.584265
21
178.709992
0
LINE
8
Layer 1
10
145.584265
20
178.709992
11
145.669092
21
179.262476
0
LINE
8
Layer 1
10
145.669092
20
179.262476
11
146.164385
21
179.552814
0
LINE
8
Layer 1
10
146.164385
20
179.552814
11
147.011790
21
179.365389
0
LINE
8
Layer 1
10
147.011790
20
179.365389
11
148.340047
21
178.779585
0
LINE
8
Layer 1
10
148.340047
20
178.779585
11
150.027486
21
178.114001
0
LINE
8
Layer 1
10
150.027486
20
178.114001
11
151.786915
21
177.888411
0
LINE
8
Layer 1
10
151.786915
20
177.888411
11
153.769671
21
178.102343
0
LINE
8
Layer 1
10
153.769671
20
178.102343
11
156.127094
21
178.755325
0
LINE
8
Layer 1
10
156.127094
20
178.755325
11
158.608215
21
179.422657
0
LINE
8
Layer 1
10
158.608215
20
179.422657
11
161.032912
21
179.789576
0
LINE
8
Layer 1
10
161.032912
20
179.789576
11
163.048044
21
180.056220
0
LINE
8
Layer 1
10
163.048044
20
180.056220
11
163.560705
21
180.264104
0
LINE
8
Layer 1
10
163.560705
20
180.264104
11
163.897722
21
180.563373
0
LINE
8
Layer 1
10
163.897722
20
180.563373
11
164.450856
21
180.996963
0
LINE
8
Layer 1
10
164.450856
20
180.996963
11
165.336477
21
180.799119
0
LINE
8
Layer 1
10
165.336477
20
180.799119
11
166.320360
21
180.491124
0
LINE
8
Layer 1
10
166.320360
20
180.491124
11
166.876524
21
180.476218
0
LINE
8
Layer 1
10
166.876524
20
180.476218
11
167.091127
21
180.787532
0
LINE
8
Layer 1
10
167.091127
20
180.787532
11
167.050325
21
181.458201
0
LINE
8
Layer 1
10
167.050325
20
181.458201
11
166.886732
21
182.466316
0
LINE
8
Layer 1
10
166.886732
20
182.466316
11
167.901267
21
182.275988
0
LINE
8
Layer 1
10
167.901267
20
182.275988
11
168.767371
21
182.222146
0
LINE
8
Layer 1
10
168.767371
20
182.222146
11
168.869859
21
182.437096
0
LINE
8
Layer 1
10
168.869859
20
182.437096
11
168.858717
21
182.880714
0
LINE
8
Layer 1
10
168.858717
20
182.880714
11
168.964111
21
183.560312
0
LINE
8
Layer 1
10
168.964111
20
183.560312
11
169.648296
21
183.828634
0
LINE
8
Layer 1
10
169.648296
20
183.828634
11
170.331122
21
184.101988
0
LINE
8
Layer 1
10
170.331122
20
184.101988
11
170.592561
21
184.685237
0
LINE
8
Layer 1
10
170.592561
20
184.685237
11
170.997747
21
185.763267
0
LINE
8
Layer 1
10
170.997747
20
185.763267
11
171.112387
21
186.091812
0
LINE
8
Layer 1
10
171.112387
20
186.091812
11
170.932633
21
186.375534
0
LINE
8
Layer 1
10
170.932633
20
186.375534
11
170.506613
21
186.575970
0
LINE
8
Layer 1
10
170.506613
20
186.575970
11
169.882450
21
186.654657
0
LINE
8
Layer 1
10
169.882450
20
186.654657
11
168.077300
21
187.079408
0
LINE
8
Layer 1
10
168.077300
20
187.079408
11
165.260503
21
188.088510
0
LINE
8
Layer 1
10
165.260503
20
188.088510
11
162.394722
21
189.304943
0
LINE
8
Layer 1
10
162.394722
20
189.304943
11
160.442619
21
190.351689
0
LINE
8
Layer 1
10
160.442619
20
190.351689
11
159.358691
21
190.892311
0
LINE
8
Layer 1
10
159.358691
20
190.892311
11
157.850036
21
191.418049
0
LINE
8
Layer 1
10
157.850036
20
191.418049
11
155.158694
21
192.559219
0
LINE
8
Layer 1
10
155.158694
20
192.559219
11
153.171705
21
193.210644
0
LINE
8
Layer 1
10
153.171705
20
193.210644
11
151.358168
21
193.504350
0
LINE
8
Layer 1
10
151.358168
20
193.504350
11
149.187185
21
193.572364
0
LINE
8
Layer 1
10
149.187185
20
193.572364
11
146.189198
21
193.451423
0
LINE
8
Layer 1
10
146.189198
20
193.451423
11
145.418809
21
193.178547
0
LINE
8
Layer 1
10
145.418809
20
193.178547
11
144.586489
21
192.654846
0
LINE
8
Layer 1
10
144.586489
20
192.654846
11
142.340144
21
191.293621
0
LINE
8
Layer 1
10
142.340144
20
191.293621
11
141.567452
21
190.986131
0
LINE
8
Layer 1
10
141.567452
20
190.986131
11
140.946200
21
190.887474
0
LINE
8
Layer 1
10
140.946200
20
190.887474
11
139.327195
21
191.470130
0
LINE
8
Layer 1
10
139.327195
20
191.470130
11
136.346074
21
192.877779
0
LINE
8
Layer 1
10
136.346074
20
192.877779
11
132.394963
21
194.872920
0
LINE
8
Layer 1
10
132.394963
20
194.872920
11
128.703386
21
194.418133
0
LINE
8
Layer 1
10
128.703386
20
194.418133
11
125.349701
21
194.109518
0
LINE
8
Layer 1
10
125.349701
20
194.109518
11
124.317737
21
194.166916
0
LINE
8
Layer 1
10
124.317737
20
194.166916
11
123.290686
21
194.360964
0
LINE
8
Layer 1
10
123.290686
20
194.360964
11
121.801498
21
194.549027
0
LINE
8
Layer 1
10
121.801498
20
194.549027
11
120.134456
21
194.537508
0
LINE
8
Layer 1
10
120.134456
20
194.537508
11
118.652710
21
194.349427
0
LINE
8
Layer 1
10
118.652710
20
194.349427
11
117.719407
21
194.007805
0
LINE
8
Layer 1
10
117.719407
20
194.007805
11
116.680717
21
193.611889
0
LINE
8
Layer 1
10
116.680717
20
193.611889
11
113.717383
21
192.407879
0
LINE
8
Layer 1
10
113.717383
20
192.407879
11
110.386422
21
190.904943
0
LINE
8
Layer 1
10
110.386422
20
190.904943
11
108.116320
21
190.017268
0
LINE
8
Layer 1
10
108.116320
20
190.017268
11
106.454617
21
189.593992
0
LINE
8
Layer 1
10
106.454617
20
189.593992
11
104.948852
21
189.484254
0
LINE
8
Layer 1
10
104.948852
20
189.484254
11
103.923454
21
189.570684
0
LINE
8
Layer 1
10
103.923454
20
189.570684
11
103.480565
21
189.836334
0
LINE
8
Layer 1
10
103.480565
20
189.836334
11
103.619588
21
190.282600
0
LINE
8
Layer 1
10
103.619588
20
190.282600
11
104.339926
21
190.910879
0
LINE
8
Layer 1
10
104.339926
20
190.910879
11
104.903646
21
191.437988
0
LINE
8
Layer 1
10
104.903646
20
191.437988
11
104.932534
21
191.629243
0
LINE
8
Layer 1
10
104.932534
20
191.629243
11
104.783083
21
191.777444
0
LINE
8
Layer 1
10
104.783083
20
191.777444
11
103.920084
21
191.960118
0
LINE
8
Layer 1
10
103.920084
20
191.960118
11
102.256497
21
192.016880
0
LINE
8
Layer 1
10
102.256497
20
192.016880
11
100.264533
21
191.892116
0
LINE
8
Layer 1
10
100.264533
20
191.892116
11
98.869830
21
191.394001
0
LINE
8
Layer 1
10
98.869830
20
191.394001
11
98.095434
21
191.059813
0
LINE
8
Layer 1
10
98.095434
20
191.059813
11
97.107911
21
190.848875
0
LINE
8
Layer 1
10
97.107911
20
190.848875
11
93.166074
21
190.615587
0
LINE
8
Layer 1
10
93.166074
20
190.615587
11
89.265411
21
190.385234
0
LINE
8
Layer 1
10
89.265411
20
190.385234
11
88.268769
21
190.184905
0
LINE
8
Layer 1
10
88.268769
20
190.184905
11
87.521629
21
189.877279
0
LINE
8
Layer 1
10
87.521629
20
189.877279
11
86.627350
21
189.222510
0
LINE
8
Layer 1
10
86.627350
20
189.222510
11
85.864016
21
188.319474
0
LINE
8
Layer 1
10
85.864016
20
188.319474
11
85.330927
21
187.314330
0
LINE
8
Layer 1
10
85.330927
20
187.314330
11
85.127383
21
186.353238
0
LINE
8
Layer 1
10
85.127383
20
186.353238
11
85.176230
21
185.740304
0
LINE
8
Layer 1
10
85.176230
20
185.740304
11
85.376233
21
185.465230
0
LINE
8
Layer 1
10
85.376233
20
185.465230
11
85.792489
21
185.502942
0
LINE
8
Layer 1
10
85.792489
20
185.502942
11
86.490096
21
185.828367
0
LINE
8
Layer 1
10
86.490096
20
185.828367
11
87.709426
21
186.376756
0
LINE
8
Layer 1
10
87.709426
20
186.376756
11
89.734808
21
187.223423
0
LINE
8
Layer 1
10
89.734808
20
187.223423
11
91.073595
21
187.798886
0
LINE
8
Layer 1
10
91.073595
20
187.798886
11
91.909125
21
188.029380
0
LINE
8
Layer 1
10
91.909125
20
188.029380
11
92.338924
21
187.924594
0
LINE
8
Layer 1
10
92.338924
20
187.924594
11
92.460518
21
187.494218
0
LINE
8
Layer 1
10
92.460518
20
187.494218
11
92.252591
21
186.739202
0
LINE
8
Layer 1
10
92.252591
20
186.739202
11
91.647341
21
185.881884
0
LINE
8
Layer 1
10
91.647341
20
185.881884
11
90.672569
21
184.953679
0
LINE
8
Layer 1
10
90.672569
20
184.953679
11
89.356074
21
183.986003
0
LINE
8
Layer 1
10
89.356074
20
183.986003
11
86.942040
21
182.565241
0
LINE
8
Layer 1
10
86.942040
20
182.565241
11
83.076629
21
180.874707
0
LINE
8
Layer 1
10
83.076629
20
180.874707
11
81.691363
21
180.183578
0
LINE
8
Layer 1
10
81.691363
20
180.183578
11
81.171629
21
179.659630
0
LINE
8
Layer 1
10
81.171629
20
179.659630
11
81.270325
21
179.448458
0
LINE
8
Layer 1
10
81.270325
20
179.448458
11
81.656842
21
179.345079
0
LINE
8
Layer 1
10
81.656842
20
179.345079
11
83.835917
21
179.411080
0
LINE
8
Layer 1
10
83.835917
20
179.411080
11
85.724933
21
179.618842
0
LINE
8
Layer 1
10
85.724933
20
179.618842
11
87.545017
21
179.995033
0
LINE
8
Layer 1
10
87.545017
20
179.995033
11
89.339907
21
180.550931
0
LINE
8
Layer 1
10
89.339907
20
180.550931
11
91.153338
21
181.297811
0
LINE
8
Layer 1
10
91.153338
20
181.297811
11
93.188548
21
182.185367
0
LINE
8
Layer 1
10
93.188548
20
182.185367
11
94.728584
21
182.702371
0
LINE
8
Layer 1
10
94.728584
20
182.702371
11
96.090187
21
182.930122
0
LINE
8
Layer 1
10
96.090187
20
182.930122
11
97.590099
21
182.949915
0
LINE
8
Layer 1
10
97.590099
20
182.949915
11
99.572749
21
182.999386
0
LINE
8
Layer 1
10
99.572749
20
182.999386
11
100.085013
21
183.212946
0
LINE
8
Layer 1
10
100.085013
20
183.212946
11
100.569443
21
183.617740
0
LINE
8
Layer 1
10
100.569443
20
183.617740
11
101.696348
21
184.433907
0
LINE
8
Layer 1
10
101.696348
20
184.433907
11
103.079446
21
185.044936
0
LINE
8
Layer 1
10
103.079446
20
185.044936
11
104.566978
21
185.399767
0
LINE
8
Layer 1
10
104.566978
20
185.399767
11
106.007185
21
185.447339
0
LINE
8
Layer 1
10
106.007185
20
185.447339
11
107.502687
21
185.208356
0
LINE
8
Layer 1
10
107.502687
20
185.208356
11
108.763310
21
184.815335
0
LINE
8
Layer 1
10
108.763310
20
184.815335
11
109.633649
21
184.332173
0
LINE
8
Layer 1
10
109.633649
20
184.332173
11
109.958296
21
183.822769
0
LINE
8
Layer 1
10
109.958296
20
183.822769
11
109.732792
21
183.166255
0
LINE
8
Layer 1
10
109.732792
20
183.166255
11
105.640570
21
182.826330
0
LINE
8
Layer 1
10
105.640570
20
182.826330
11
102.909701
21
182.623898
0
LINE
8
Layer 1
10
102.909701
20
182.623898
11
101.773852
21
182.418838
0
LINE
8
Layer 1
10
101.773852
20
182.418838
11
102.641908
21
181.852341
0
LINE
8
Layer 1
10
102.641908
20
181.852341
11
103.842960
21
181.120748
0
LINE
8
Layer 1
10
103.842960
20
181.120748
11
104.736803
21
180.169016
0
LINE
8
Layer 1
10
104.736803
20
180.169016
11
105.145803
21
179.251942
0
LINE
8
Layer 1
10
105.145803
20
179.251942
11
105.112978
21
178.886025
0
LINE
8
Layer 1
10
105.112978
20
178.886025
11
104.892331
21
178.624320
0
LINE
8
Layer 1
10
104.892331
20
178.624320
11
104.187091
21
178.716860
0
LINE
8
Layer 1
10
104.187091
20
178.716860
11
102.868118
21
179.172108
0
LINE
8
Layer 1
10
102.868118
20
179.172108
11
101.693986
21
179.559536
0
LINE
8
Layer 1
10
101.693986
20
179.559536
11
100.458986
21
179.788735
0
LINE
8
Layer 1
10
100.458986
20
179.788735
11
99.152756
21
179.858460
0
LINE
8
Layer 1
10
99.152756
20
179.858460
11
97.764936
21
179.767470
0
LINE
8
Layer 1
10
97.764936
20
179.767470
11
94.703077
21
179.098372
0
LINE
8
Layer 1
10
94.703077
20
179.098372
11
91.190518
21
177.771498
0
LINE
8
Layer 1
10
91.190518
20
177.771498
11
88.789387
21
176.992936
0
LINE
8
Layer 1
10
88.789387
20
176.992936
11
85.987753
21
176.562454
0
LINE
8
Layer 1
10
85.987753
20
176.562454
11
82.930001
21
176.492388
0
LINE
8
Layer 1
10
82.930001
20
176.492388
11
79.760518
21
176.795072
0
LINE
8
Layer 1
10
79.760518
20
176.795072
11
77.151360
21
177.177386
0
LINE
8
Layer 1
10
77.151360
20
177.177386
11
75.605922
21
177.292840
0
LINE
8
Layer 1
10
75.605922
20
177.292840
11
74.635109
21
177.132758
0
LINE
8
Layer 1
10
74.635109
20
177.132758
11
73.749826
21
176.688465
0
LINE
8
Layer 1
10
73.749826
20
176.688465
11
72.852313
21
176.015770
0
LINE
8
Layer 1
10
72.852313
20
176.015770
11
72.239306
21
175.236987
0
LINE
8
Layer 1
10
72.239306
20
175.236987
11
71.936987
21
174.398380
0
LINE
8
Layer 1
10
71.936987
20
174.398380
11
71.971538
21
173.546211
0
LINE
8
Layer 1
10
71.971538
20
173.546211
11
72.783177
21
172.512299
0
LINE
8
Layer 1
10
72.783177
20
172.512299
11
74.803460
21
170.853619
0
LINE
8
Layer 1
10
74.803460
20
170.853619
11
76.974808
21
168.998589
0
LINE
8
Layer 1
10
76.974808
20
168.998589
11
78.247362
21
167.351639
0
LINE
8
Layer 1
10
78.247362
20
167.351639
11
78.548368
21
166.602863
0
LINE
8
Layer 1
10
78.548368
20
166.602863
11
78.626807
21
165.902109
0
LINE
8
Layer 1
10
78.626807
20
165.902109
11
78.483392
21
165.248046
0
LINE
8
Layer 1
10
78.483392
20
165.248046
11
78.118832
21
164.639340
0
LINE
8
Layer 1
10
78.118832
20
164.639340
11
77.634952
21
164.253293
0
LINE
8
Layer 1
10
77.634952
20
164.253293
11
77.099930
21
164.275974
0
LINE
8
Layer 1
10
77.099930
20
164.275974
11
76.469085
21
164.725481
0
LINE
8
Layer 1
10
76.469085
20
164.725481
11
75.697738
21
165.619910
0
LINE
8
Layer 1
10
75.697738
20
165.619910
11
74.769900
21
166.524377
0
LINE
8
Layer 1
10
74.769900
20
166.524377
11
74.401541
21
166.602867
0
LINE
8
Layer 1
10
74.401541
20
166.602867
11
74.091516
21
166.426378
0
LINE
8
Layer 1
10
74.091516
20
166.426378
11
73.630347
21
165.291022
0
LINE
8
Layer 1
10
73.630347
20
165.291022
11
73.354156
21
163.083418
0
LINE
8
Layer 1
10
73.354156
20
163.083418
11
73.316530
21
160.933992
0
LINE
8
Layer 1
10
73.316530
20
160.933992
11
73.696291
21
159.557768
0
LINE
8
Layer 1
10
73.696291
20
159.557768
11
74.058147
21
158.919757
0
LINE
8
Layer 1
10
74.058147
20
158.919757
11
74.495657
21
158.473151
0
LINE
8
Layer 1
10
74.495657
20
158.473151
11
75.028850
21
158.218970
0
LINE
8
Layer 1
10
75.028850
20
158.218970
11
75.677754
21
158.158234
0
LINE
8
Layer 1
10
75.677754
20
158.158234
11
77.402815
21
158.621174
0
LINE
8
Layer 1
10
77.402815
20
158.621174
11
79.831074
21
159.870132
0
LINE
8
Layer 1
10
79.831074
20
159.870132
11
82.300518
21
161.303623
0
LINE
8
Layer 1
10
82.300518
20
161.303623
11
82.300518
21
163.256855
0
LINE
8
Layer 1
10
82.300518
20
163.256855
11
82.384786
21
164.776483
0
LINE
8
Layer 1
10
82.384786
20
164.776483
11
82.502079
21
165.108525
0
LINE
8
Layer 1
10
82.502079
20
165.108525
11
82.680110
21
165.210089
0
LINE
8
Layer 1
10
82.680110
20
165.210089
11
83.061733
21
165.079484
0
LINE
8
Layer 1
10
83.061733
20
165.079484
11
83.479837
21
164.708938
0
LINE
8
Layer 1
10
83.479837
20
164.708938
11
84.311961
21
163.375645
0
LINE
8
Layer 1
10
84.311961
20
163.375645
11
84.575365
21
162.910389
0
LINE
8
Layer 1
10
84.575365
20
162.910389
11
84.929210
21
162.631400
0
LINE
8
Layer 1
10
84.929210
20
162.631400
11
86.536660
21
162.339539
0
LINE
8
Layer 1
10
86.536660
20
162.339539
11
92.871377
21
161.750474
0
LINE
8
Layer 1
10
92.871377
20
161.750474
11
96.728384
21
161.545792
0
LINE
8
Layer 1
10
96.728384
20
161.545792
11
98.686192
21
161.358670
0
LINE
8
Layer 1
10
98.686192
20
161.358670
11
100.820607
21
160.808670
0
LINE
8
Layer 1
10
100.820607
20
160.808670
11
102.608961
21
160.306397
0
LINE
8
Layer 1
10
102.608961
20
160.306397
11
104.330688
21
159.979495
0
LINE
8
Layer 1
10
104.330688
20
159.979495
11
105.821940
21
159.851179
0
LINE
8
Layer 1
10
105.821940
20
159.851179
11
106.918870
21
159.944661
0
LINE
8
Layer 1
10
106.918870
20
159.944661
11
107.670502
21
160.340417
0
LINE
8
Layer 1
10
107.670502
20
160.340417
11
108.606099
21
161.110435
0
LINE
8
Layer 1
10
108.606099
20
161.110435
11
109.535809
21
162.077874
0
LINE
8
Layer 1
10
109.535809
20
162.077874
11
110.269776
21
163.065892
0
LINE
8
Layer 1
10
110.269776
20
163.065892
11
110.615553
21
163.783167
0
LINE
8
Layer 1
10
110.615553
20
163.783167
11
110.777486
21
164.508056
0
LINE
8
Layer 1
10
110.777486
20
164.508056
11
110.752443
21
165.248386
0
LINE
8
Layer 1
10
110.752443
20
165.248386
11
110.537294
21
166.011980
0
LINE
8
Layer 1
10
110.537294
20
166.011980
11
109.524151
21
167.640262
0
LINE
8
Layer 1
10
109.524151
20
167.640262
11
107.713010
21
169.455502
0
LINE
8
Layer 1
10
107.713010
20
169.455502
11
106.283953
21
170.799534
0
LINE
8
Layer 1
10
106.283953
20
170.799534
11
105.419090
21
171.929286
0
LINE
8
Layer 1
10
105.419090
20
171.929286
11
104.992509
21
173.065703
0
LINE
8
Layer 1
10
104.992509
20
173.065703
11
104.878296
21
174.429733
0
LINE
8
Layer 1
10
104.878296
20
174.429733
11
104.971301
21
175.705095
0
LINE
8
Layer 1
10
104.971301
20
175.705095
11
105.194910
21
176.420481
0
LINE
8
Layer 1
10
105.194910
20
176.420481
11
105.583838
21
176.636763
0
LINE
8
Layer 1
10
105.583838
20
176.636763
11
105.935859
21
176.540978
0
LINE
8
Layer 1
10
105.935859
20
176.540978
11
106.191030
21
176.178377
0
LINE
8
Layer 1
10
106.191030
20
176.178377
11
106.289407
21
175.594213
0
LINE
8
Layer 1
10
106.289407
20
175.594213
11
106.450046
21
174.492370
0
LINE
8
Layer 1
10
106.450046
20
174.492370
11
107.006499
21
173.497674
0
LINE
8
Layer 1
10
107.006499
20
173.497674
11
108.070570
21
172.470638
0
LINE
8
Layer 1
10
108.070570
20
172.470638
11
109.754066
21
171.271777
0
LINE
8
Layer 1
10
109.754066
20
171.271777
11
111.746774
21
169.836803
0
LINE
8
Layer 1
10
111.746774
20
169.836803
11
112.920637
21
168.559041
0
LINE
8
Layer 1
10
112.920637
20
168.559041
11
113.263507
21
167.880282
0
LINE
8
Layer 1
10
113.263507
20
167.880282
11
113.477271
21
167.122226
0
LINE
8
Layer 1
10
113.477271
20
167.122226
11
113.618292
21
165.210089
0
LINE
8
Layer 1
10
113.618292
20
165.210089
11
113.524039
21
163.552901
0
LINE
8
Layer 1
10
113.524039
20
163.552901
11
113.233620
21
162.121231
0
LINE
8
Layer 1
10
113.233620
20
162.121231
11
112.736537
21
160.903408
0
LINE
8
Layer 1
10
112.736537
20
160.903408
11
112.022290
21
159.887765
0
LINE
8
Layer 1
10
112.022290
20
159.887765
11
111.080380
21
159.062631
0
LINE
8
Layer 1
10
111.080380
20
159.062631
11
109.900310
21
158.416338
0
LINE
8
Layer 1
10
109.900310
20
158.416338
11
108.471579
21
157.937216
0
LINE
8
Layer 1
10
108.471579
20
157.937216
11
106.783688
21
157.613596
0
LINE
8
Layer 1
10
106.783688
20
157.613596
11
104.804663
21
157.456564
0
LINE
8
Layer 1
10
104.804663
20
157.456564
11
103.255911
21
157.595435
0
LINE
8
Layer 1
10
103.255911
20
157.595435
11
98.858181
21
158.237314
0
LINE
8
Layer 1
10
98.858181
20
158.237314
11
93.500722
21
158.632739
0
LINE
8
Layer 1
10
93.500722
20
158.632739
11
90.386854
21
158.635771
0
LINE
8
Layer 1
10
90.386854
20
158.635771
11
89.437255
21
158.421272
0
LINE
8
Layer 1
10
89.437255
20
158.421272
11
88.351970
21
157.995899
0
LINE
8
Layer 1
10
88.351970
20
157.995899
11
87.291362
21
157.579032
0
LINE
8
Layer 1
10
87.291362
20
157.579032
11
86.408401
21
157.367486
0
LINE
8
Layer 1
10
86.408401
20
157.367486
11
83.882651
21
157.383110
0
LINE
8
Layer 1
10
83.882651
20
157.383110
11
82.109637
21
157.416674
0
LINE
8
Layer 1
10
82.109637
20
157.416674
11
80.920004
21
157.256710
0
LINE
8
Layer 1
10
80.920004
20
157.256710
11
80.251717
21
156.885483
0
LINE
8
Layer 1
10
80.251717
20
156.885483
11
80.042741
21
156.285255
0
LINE
8
Layer 1
10
80.042741
20
156.285255
11
80.150030
21
155.822001
0
LINE
8
Layer 1
10
80.150030
20
155.822001
11
80.450906
21
155.290476
0
LINE
8
Layer 1
10
80.450906
20
155.290476
11
81.507477
21
154.135298
0
LINE
8
Layer 1
10
81.507477
20
154.135298
11
82.960570
21
153.045082
0
LINE
8
Layer 1
10
82.960570
20
153.045082
11
84.558296
21
152.245190
0
LINE
8
Layer 1
10
84.558296
20
152.245190
11
87.055773
21
151.709179
0
LINE
8
Layer 1
10
87.055773
20
151.709179
11
90.337327
21
151.498041
0
LINE
8
Layer 1
10
90.337327
20
151.498041
11
93.798533
21
151.619788
0
LINE
8
Layer 1
10
93.798533
20
151.619788
11
96.834963
21
152.082432
0
LINE
8
Layer 1
10
96.834963
20
152.082432
11
96.834963
21
152.082432
0
LINE
8
Layer 1
10
84.115399
20
153.542969
11
83.464480
21
153.962948
0
LINE
8
Layer 1
10
83.464480
20
153.962948
11
82.970544
21
154.459274
0
LINE
8
Layer 1
10
82.970544
20
154.459274
11
82.701233
21
154.944920
0
LINE
8
Layer 1
10
82.701233
20
154.944920
11
82.724190
21
155.332859
0
LINE
8
Layer 1
10
82.724190
20
155.332859
11
83.104121
21
155.555508
0
LINE
8
Layer 1
10
83.104121
20
155.555508
11
83.792085
21
155.725969
0
LINE
8
Layer 1
10
83.792085
20
155.725969
11
92.540475
21
157.077636
0
LINE
8
Layer 1
10
92.540475
20
157.077636
11
94.115609
21
157.261457
0
LINE
8
Layer 1
10
94.115609
20
157.261457
11
94.786156
21
157.070673
0
LINE
8
Layer 1
10
94.786156
20
157.070673
11
94.932137
21
156.696889
0
LINE
8
Layer 1
10
94.932137
20
156.696889
11
94.536011
21
156.225485
0
LINE
8
Layer 1
10
94.536011
20
156.225485
11
91.496713
21
154.505821
0
LINE
8
Layer 1
10
91.496713
20
154.505821
11
88.846962
21
153.303537
0
LINE
8
Layer 1
10
88.846962
20
153.303537
11
87.923794
21
153.122897
0
LINE
8
Layer 1
10
87.923794
20
153.122897
11
86.840046
21
153.092582
0
LINE
8
Layer 1
10
86.840046
20
153.092582
11
85.263755
21
153.228433
0
LINE
8
Layer 1
10
85.263755
20
153.228433
11
84.115399
21
153.542969
0
LINE
8
Layer 1
10
84.115399
20
153.542969
11
84.115399
21
153.542969
0
LINE
8
Layer 1
10
116.202793
20
156.707815
11
115.732059
21
157.299788
0
LINE
8
Layer 1
10
115.732059
20
157.299788
11
115.676451
21
157.770289
0
LINE
8
Layer 1
10
115.676451
20
157.770289
11
116.056733
21
158.175314
0
LINE
8
Layer 1
10
116.056733
20
158.175314
11
116.893670
21
158.570859
0
LINE
8
Layer 1
10
116.893670
20
158.570859
11
118.062701
21
159.219694
0
LINE
8
Layer 1
10
118.062701
20
159.219694
11
118.990697
21
160.176656
0
LINE
8
Layer 1
10
118.990697
20
160.176656
11
119.939503
21
161.303497
0
LINE
8
Layer 1
10
119.939503
20
161.303497
11
121.027276
21
162.214776
0
LINE
8
Layer 1
10
121.027276
20
162.214776
11
122.344750
21
162.973488
0
LINE
8
Layer 1
10
122.344750
20
162.973488
11
123.982658
21
163.642633
0
LINE
8
Layer 1
10
123.982658
20
163.642633
11
127.700998
21
164.997083
0
LINE
8
Layer 1
10
127.700998
20
164.997083
11
129.968928
21
165.952098
0
LINE
8
Layer 1
10
129.968928
20
165.952098
11
131.099855
21
166.661120
0
LINE
8
Layer 1
10
131.099855
20
166.661120
11
131.336882
21
166.971333
0
LINE
8
Layer 1
10
131.336882
20
166.971333
11
131.407185
21
167.277587
0
LINE
8
Layer 1
10
131.407185
20
167.277587
11
130.419407
21
169.000114
0
LINE
8
Layer 1
10
130.419407
20
169.000114
11
129.763192
21
170.014607
0
LINE
8
Layer 1
10
129.763192
20
170.014607
11
129.488391
21
170.759297
0
LINE
8
Layer 1
10
129.488391
20
170.759297
11
129.573539
21
171.389825
0
LINE
8
Layer 1
10
129.573539
20
171.389825
11
129.997172
21
172.061830
0
LINE
8
Layer 1
10
129.997172
20
172.061830
11
130.758922
21
172.759419
0
LINE
8
Layer 1
10
130.758922
20
172.759419
11
131.933834
21
173.418796
0
LINE
8
Layer 1
10
131.933834
20
173.418796
11
133.562435
21
174.058744
0
LINE
8
Layer 1
10
133.562435
20
174.058744
11
135.685253
21
174.698045
0
LINE
8
Layer 1
10
135.685253
20
174.698045
11
137.596119
21
175.295786
0
LINE
8
Layer 1
10
137.596119
20
175.295786
11
139.131976
21
176.000154
0
LINE
8
Layer 1
10
139.131976
20
176.000154
11
140.536357
21
176.948000
0
LINE
8
Layer 1
10
140.536357
20
176.948000
11
142.052799
21
178.276174
0
LINE
8
Layer 1
10
142.052799
20
178.276174
11
143.121124
21
179.183305
0
LINE
8
Layer 1
10
143.121124
20
179.183305
11
143.853703
21
179.459271
0
LINE
8
Layer 1
10
143.853703
20
179.459271
11
144.143520
21
179.357100
0
LINE
8
Layer 1
10
144.143520
20
179.357100
11
144.408722
21
179.092977
0
LINE
8
Layer 1
10
144.408722
20
179.092977
11
144.944369
21
178.073324
0
LINE
8
Layer 1
10
144.944369
20
178.073324
11
145.597385
21
176.973912
0
LINE
8
Layer 1
10
145.597385
20
176.973912
11
146.541546
21
175.814160
0
LINE
8
Layer 1
10
146.541546
20
175.814160
11
147.499870
21
174.896515
0
LINE
8
Layer 1
10
147.499870
20
174.896515
11
148.195377
21
174.523423
0
LINE
8
Layer 1
10
148.195377
20
174.523423
11
149.290236
21
173.938494
0
LINE
8
Layer 1
10
149.290236
20
173.938494
11
149.755142
21
173.376773
0
LINE
8
Layer 1
10
149.755142
20
173.376773
11
149.981619
21
172.646392
0
LINE
8
Layer 1
10
149.981619
20
172.646392
11
149.983441
21
171.790286
0
LINE
8
Layer 1
10
149.983441
20
171.790286
11
149.774382
21
170.851387
0
LINE
8
Layer 1
10
149.774382
20
170.851387
11
149.368216
21
169.872630
0
LINE
8
Layer 1
10
149.368216
20
169.872630
11
148.778718
21
168.896948
0
LINE
8
Layer 1
10
148.778718
20
168.896948
11
148.019661
21
167.967275
0
LINE
8
Layer 1
10
148.019661
20
167.967275
11
147.104820
21
167.126545
0
LINE
8
Layer 1
10
147.104820
20
167.126545
11
145.748653
21
166.193398
0
LINE
8
Layer 1
10
145.748653
20
166.193398
11
144.060036
21
165.225170
0
LINE
8
Layer 1
10
144.060036
20
165.225170
11
142.339449
21
164.381555
0
LINE
8
Layer 1
10
142.339449
20
164.381555
11
140.887368
21
163.822242
0
LINE
8
Layer 1
10
140.887368
20
163.822242
11
136.468186
21
162.167285
0
LINE
8
Layer 1
10
136.468186
20
162.167285
11
133.918153
21
160.477443
0
LINE
8
Layer 1
10
133.918153
20
160.477443
11
132.465894
21
159.411517
0
LINE
8
Layer 1
10
132.465894
20
159.411517
11
131.276135
21
158.693236
0
LINE
8
Layer 1
10
131.276135
20
158.693236
11
130.038810
21
158.163112
0
LINE
8
Layer 1
10
130.038810
20
158.163112
11
128.443852
21
157.661658
0
LINE
8
Layer 1
10
128.443852
20
157.661658
11
125.339407
21
156.752713
0
LINE
8
Layer 1
10
125.339407
20
156.752713
11
123.454128
21
156.467612
0
LINE
8
Layer 1
10
123.454128
20
156.467612
11
120.506682
21
156.260069
0
LINE
8
Layer 1
10
120.506682
20
156.260069
11
117.252546
21
156.216770
0
LINE
8
Layer 1
10
117.252546
20
156.216770
11
116.621768
21
156.377850
0
LINE
8
Layer 1
10
116.621768
20
156.377850
11
116.202793
21
156.707815
0
LINE
8
Layer 1
10
116.202793
20
156.707815
11
116.202793
21
156.707815
0
LINE
8
Layer 1
10
91.139058
20
166.148783
11
90.210818
21
166.601996
0
LINE
8
Layer 1
10
90.210818
20
166.601996
11
89.450843
21
167.208697
0
LINE
8
Layer 1
10
89.450843
20
167.208697
11
88.873230
21
167.954633
0
LINE
8
Layer 1
10
88.873230
20
167.954633
11
88.492070
21
168.825551
0
LINE
8
Layer 1
10
88.492070
20
168.825551
11
88.346684
21
169.791838
0
LINE
8
Layer 1
10
88.346684
20
169.791838
11
88.500360
21
170.655220
0
LINE
8
Layer 1
10
88.500360
20
170.655220
11
88.936449
21
171.371107
0
LINE
8
Layer 1
10
88.936449
20
171.371107
11
89.638296
21
171.894909
0
LINE
8
Layer 1
10
89.638296
20
171.894909
11
91.631378
21
173.354814
0
LINE
8
Layer 1
10
91.631378
20
173.354814
11
94.343694
21
175.314548
0
LINE
8
Layer 1
10
94.343694
20
175.314548
11
95.611748
21
175.989730
0
LINE
8
Layer 1
10
95.611748
20
175.989730
11
96.641937
21
176.354548
0
LINE
8
Layer 1
10
96.641937
20
176.354548
11
97.917509
21
176.335732
0
LINE
8
Layer 1
10
97.917509
20
176.335732
11
99.017489
21
175.804512
0
LINE
8
Layer 1
10
99.017489
20
175.804512
11
99.789338
21
174.879555
0
LINE
8
Layer 1
10
99.789338
20
174.879555
11
100.004545
21
174.306508
0
LINE
8
Layer 1
10
100.004545
20
174.306508
11
100.080518
21
173.679527
0
LINE
8
Layer 1
10
100.080518
20
173.679527
11
99.593484
21
172.202883
0
LINE
8
Layer 1
10
99.593484
20
172.202883
11
98.574095
21
170.501756
0
LINE
8
Layer 1
10
98.574095
20
170.501756
11
98.162416
21
170.178313
0
LINE
8
Layer 1
10
98.162416
20
170.178313
11
97.649967
21
170.024831
0
LINE
8
Layer 1
10
97.649967
20
170.024831
11
97.164799
21
170.056895
0
LINE
8
Layer 1
10
97.164799
20
170.056895
11
96.834963
21
170.290089
0
LINE
8
Layer 1
10
96.834963
20
170.290089
11
96.370110
21
170.570222
0
LINE
8
Layer 1
10
96.370110
20
170.570222
11
95.629633
21
170.548256
0
LINE
8
Layer 1
10
95.629633
20
170.548256
11
94.775486
21
170.256096
0
LINE
8
Layer 1
10
94.775486
20
170.256096
11
93.969623
21
169.725645
0
LINE
8
Layer 1
10
93.969623
20
169.725645
11
92.787749
21
168.878978
0
LINE
8
Layer 1
10
92.787749
20
168.878978
11
91.626560
21
169.575158
0
LINE
8
Layer 1
10
91.626560
20
169.575158
11
90.956948
21
170.000908
0
LINE
8
Layer 1
10
90.956948
20
170.000908
11
90.517192
21
170.101227
0
LINE
8
Layer 1
10
90.517192
20
170.101227
11
90.276166
21
169.870138
0
LINE
8
Layer 1
10
90.276166
20
169.870138
11
90.202741
21
169.301660
0
LINE
8
Layer 1
10
90.202741
20
169.301660
11
90.378058
21
168.687121
0
LINE
8
Layer 1
10
90.378058
20
168.687121
11
90.861711
21
168.195113
0
LINE
8
Layer 1
10
90.861711
20
168.195113
11
91.590252
21
167.868487
0
LINE
8
Layer 1
10
91.590252
20
167.868487
11
92.500233
21
167.750089
0
LINE
8
Layer 1
10
92.500233
20
167.750089
11
93.993967
21
167.552100
0
LINE
8
Layer 1
10
93.993967
20
167.552100
11
94.330779
21
167.283526
0
LINE
8
Layer 1
10
94.330779
20
167.283526
11
94.436074
21
166.883156
0
LINE
8
Layer 1
10
94.436074
20
166.883156
11
94.365517
21
166.530868
0
LINE
8
Layer 1
10
94.365517
20
166.530868
11
94.164727
21
166.245735
0
LINE
8
Layer 1
10
94.164727
20
166.245735
11
93.437731
21
165.891478
0
LINE
8
Layer 1
10
93.437731
20
165.891478
11
92.385652
21
165.849466
0
LINE
8
Layer 1
10
92.385652
20
165.849466
11
91.139058
21
166.148783
0
LINE
8
Layer 1
10
91.139058
20
166.148783
11
91.139058
21
166.148783
0
LINE
8
Layer 1
10
118.129662
20
178.608349
11
116.608479
21
179.429317
0
LINE
8
Layer 1
10
116.608479
20
179.429317
11
115.112518
21
180.026279
0
LINE
8
Layer 1
10
115.112518
20
180.026279
11
113.896357
21
180.520627
0
LINE
8
Layer 1
10
113.896357
20
180.520627
11
113.608408
21
180.809953
0
LINE
8
Layer 1
10
113.608408
20
180.809953
11
113.453957
21
181.183125
0
LINE
8
Layer 1
10
113.453957
20
181.183125
11
113.391404
21
181.830442
0
LINE
8
Layer 1
10
113.391404
20
181.830442
11
113.608040
21
182.204193
0
LINE
8
Layer 1
10
113.608040
20
182.204193
11
114.117621
21
182.313530
0
LINE
8
Layer 1
10
114.117621
20
182.313530
11
114.933905
21
182.167603
0
LINE
8
Layer 1
10
114.933905
20
182.167603
11
116.521599
21
181.941238
0
LINE
8
Layer 1
10
116.521599
20
181.941238
11
118.636225
21
181.886887
0
LINE
8
Layer 1
10
118.636225
20
181.886887
11
120.707460
21
181.996958
0
LINE
8
Layer 1
10
120.707460
20
181.996958
11
122.164980
21
182.263861
0
LINE
8
Layer 1
10
122.164980
20
182.263861
11
123.218601
21
182.754882
0
LINE
8
Layer 1
10
123.218601
20
182.754882
11
124.196896
21
183.399267
0
LINE
8
Layer 1
10
124.196896
20
183.399267
11
124.917562
21
184.057266
0
LINE
8
Layer 1
10
124.917562
20
184.057266
11
125.198296
21
184.589132
0
LINE
8
Layer 1
10
125.198296
20
184.589132
11
125.171878
21
184.802564
0
LINE
8
Layer 1
10
125.171878
20
184.802564
11
125.063173
21
184.864791
0
LINE
8
Layer 1
10
125.063173
20
184.864791
11
124.422185
21
184.519849
0
LINE
8
Layer 1
10
124.422185
20
184.519849
11
123.219343
21
183.795070
0
LINE
8
Layer 1
10
123.219343
20
183.795070
11
122.154193
21
183.381170
0
LINE
8
Layer 1
10
122.154193
20
183.381170
11
120.900122
21
183.193419
0
LINE
8
Layer 1
10
120.900122
20
183.193419
11
119.130518
21
183.147089
0
LINE
8
Layer 1
10
119.130518
20
183.147089
11
116.469041
21
183.279199
0
LINE
8
Layer 1
10
116.469041
20
183.279199
11
115.592547
21
183.552071
0
LINE
8
Layer 1
10
115.592547
20
183.552071
11
114.560237
21
184.053813
0
LINE
8
Layer 1
10
114.560237
20
184.053813
11
113.161575
21
184.697795
0
LINE
8
Layer 1
10
113.161575
20
184.697795
11
112.253556
21
184.965645
0
LINE
8
Layer 1
10
112.253556
20
184.965645
11
111.595101
21
185.187727
0
LINE
8
Layer 1
10
111.595101
20
185.187727
11
110.796454
21
185.721667
0
LINE
8
Layer 1
10
110.796454
20
185.721667
11
110.269052
21
186.132999
0
LINE
8
Layer 1
10
110.269052
20
186.132999
11
109.847521
21
186.318666
0
LINE
8
Layer 1
10
109.847521
20
186.318666
11
108.654085
21
186.145001
0
LINE
8
Layer 1
10
108.654085
20
186.145001
11
107.452247
21
185.896352
0
LINE
8
Layer 1
10
107.452247
20
185.896352
11
106.429709
21
185.829605
0
LINE
8
Layer 1
10
106.429709
20
185.829605
11
105.645967
21
185.943217
0
LINE
8
Layer 1
10
105.645967
20
185.943217
11
105.160518
21
186.235645
0
LINE
8
Layer 1
10
105.160518
20
186.235645
11
104.977132
21
186.704603
0
LINE
8
Layer 1
10
104.977132
20
186.704603
11
105.185411
21
187.111707
0
LINE
8
Layer 1
10
105.185411
20
187.111707
11
105.725021
21
187.400793
0
LINE
8
Layer 1
10
105.725021
20
187.400793
11
106.535629
21
187.515698
0
LINE
8
Layer 1
10
106.535629
20
187.515698
11
108.084947
21
187.671752
0
LINE
8
Layer 1
10
108.084947
20
187.671752
11
109.889640
21
188.129795
0
LINE
8
Layer 1
10
109.889640
20
188.129795
11
112.037161
21
188.917390
0
LINE
8
Layer 1
10
112.037161
20
188.917390
11
114.614963
21
190.062101
0
LINE
8
Layer 1
10
114.614963
20
190.062101
11
116.079172
21
190.577164
0
LINE
8
Layer 1
10
116.079172
20
190.577164
11
117.879091
21
190.940826
0
LINE
8
Layer 1
10
117.879091
20
190.940826
11
119.880890
21
191.153839
0
LINE
8
Layer 1
10
119.880890
20
191.153839
11
121.950741
21
191.216956
0
LINE
8
Layer 1
10
121.950741
20
191.216956
11
123.954815
21
191.130929
0
LINE
8
Layer 1
10
123.954815
20
191.130929
11
125.759282
21
190.896512
0
LINE
8
Layer 1
10
125.759282
20
190.896512
11
127.230314
21
190.514456
0
LINE
8
Layer 1
10
127.230314
20
190.514456
11
128.234082
21
189.985515
0
LINE
8
Layer 1
10
128.234082
20
189.985515
11
129.087548
21
189.738424
0
LINE
8
Layer 1
10
129.087548
20
189.738424
11
130.635194
21
189.562887
0
LINE
8
Layer 1
10
130.635194
20
189.562887
11
132.393952
21
189.424007
0
LINE
8
Layer 1
10
132.393952
20
189.424007
11
133.116038
21
189.178061
0
LINE
8
Layer 1
10
133.116038
20
189.178061
11
133.123982
21
188.962537
0
LINE
8
Layer 1
10
133.123982
20
188.962537
11
132.915540
21
188.657364
0
LINE
8
Layer 1
10
132.915540
20
188.657364
11
131.906543
21
187.694229
0
LINE
8
Layer 1
10
131.906543
20
187.694229
11
130.975900
21
186.833438
0
LINE
8
Layer 1
10
130.975900
20
186.833438
11
130.525292
21
186.276881
0
LINE
8
Layer 1
10
130.525292
20
186.276881
11
130.428487
21
185.782130
0
LINE
8
Layer 1
10
130.428487
20
185.782130
11
130.559254
21
185.106756
0
LINE
8
Layer 1
10
130.559254
20
185.106756
11
130.797022
21
183.844029
0
LINE
8
Layer 1
10
130.797022
20
183.844029
11
130.774438
21
182.907672
0
LINE
8
Layer 1
10
130.774438
20
182.907672
11
130.455027
21
182.113080
0
LINE
8
Layer 1
10
130.455027
20
182.113080
11
129.802317
21
181.275646
0
LINE
8
Layer 1
10
129.802317
20
181.275646
11
128.123966
21
179.863321
0
LINE
8
Layer 1
10
128.123966
20
179.863321
11
125.982384
21
178.709192
0
LINE
8
Layer 1
10
125.982384
20
178.709192
11
123.643994
21
177.928332
0
LINE
8
Layer 1
10
123.643994
20
177.928332
11
121.375218
21
177.635814
0
LINE
8
Layer 1
10
121.375218
20
177.635814
11
119.698345
21
177.802411
0
LINE
8
Layer 1
10
119.698345
20
177.802411
11
118.129662
21
178.608349
0
LINE
8
Layer 1
10
118.129662
20
178.608349
11
118.129662
21
178.608349
0
LINE
8
Layer 1
10
123.734294
20
187.768653
11
123.721112
21
188.681793
0
LINE
8
Layer 1
10
123.721112
20
188.681793
11
123.621634
21
188.848624
0
LINE
8
Layer 1
10
123.621634
20
188.848624
11
123.452072
21
188.853674
0
LINE
8
Layer 1
10
123.452072
20
188.853674
11
123.163201
21
188.418170
0
LINE
8
Layer 1
10
123.163201
20
188.418170
11
122.993410
21
187.524858
0
LINE
8
Layer 1
10
122.993410
20
187.524858
11
123.006592
21
186.611719
0
LINE
8
Layer 1
10
123.006592
20
186.611719
11
123.106069
21
186.444887
0
LINE
8
Layer 1
10
123.106069
20
186.444887
11
123.275632
21
186.439838
0
LINE
8
Layer 1
10
123.275632
20
186.439838
11
123.564503
21
186.875342
0
LINE
8
Layer 1
10
123.564503
20
186.875342
11
123.734294
21
187.768653
0
LINE
8
Layer 1
10
123.734294
20
187.768653
11
123.734294
21
187.768653
0
LINE
8
Layer 1
10
120.400518
20
187.630099
11
120.313645
21
187.971006
0
LINE
8
Layer 1
10
120.313645
20
187.971006
11
120.104781
21
188.219554
0
LINE
8
Layer 1
10
120.104781
20
188.219554
11
119.730445
21
188.323184
0
LINE
8
Layer 1
10
119.730445
20
188.323184
11
119.387399
21
188.227109
0
LINE
8
Layer 1
10
119.387399
20
188.227109
11
119.168216
21
187.986727
0
LINE
8
Layer 1
10
119.168216
20
187.986727
11
119.165472
21
187.657438
0
LINE
8
Layer 1
10
119.165472
20
187.657438
11
119.447349
21
187.344922
0
LINE
8
Layer 1
10
119.447349
20
187.344922
11
119.862019
21
187.233651
0
LINE
8
Layer 1
10
119.862019
20
187.233651
11
120.237176
21
187.327438
0
LINE
8
Layer 1
10
120.237176
20
187.327438
11
120.400518
21
187.630099
0
LINE
8
Layer 1
10
120.400518
20
187.630099
11
120.400518
21
187.630099
0
LINE
8
Layer 1
10
148.763852
20
179.523396
11
147.894275
21
179.959337
0
LINE
8
Layer 1
10
147.894275
20
179.959337
11
146.707316
21
180.786554
0
LINE
8
Layer 1
10
146.707316
20
180.786554
11
145.597522
21
181.705145
0
LINE
8
Layer 1
10
145.597522
20
181.705145
11
144.959440
21
182.415205
0
LINE
8
Layer 1
10
144.959440
20
182.415205
11
144.773694
21
183.072421
0
LINE
8
Layer 1
10
144.773694
20
183.072421
11
144.739320
21
183.882329
0
LINE
8
Layer 1
10
144.739320
20
183.882329
11
144.753371
21
184.396337
0
LINE
8
Layer 1
10
144.753371
20
184.396337
11
144.636891
21
184.696914
0
LINE
8
Layer 1
10
144.636891
20
184.696914
11
143.683852
21
185.008156
0
LINE
8
Layer 1
10
143.683852
20
185.008156
11
140.812782
21
185.231603
0
LINE
8
Layer 1
10
140.812782
20
185.231603
11
139.211382
21
185.389091
0
LINE
8
Layer 1
10
139.211382
20
185.389091
11
138.713375
21
185.656911
0
LINE
8
Layer 1
10
138.713375
20
185.656911
11
138.190015
21
186.128454
0
LINE
8
Layer 1
10
138.190015
20
186.128454
11
137.598908
21
186.844034
0
LINE
8
Layer 1
10
137.598908
20
186.844034
11
137.414302
21
187.327898
0
LINE
8
Layer 1
10
137.414302
20
187.327898
11
137.709007
21
187.630561
0
LINE
8
Layer 1
10
137.709007
20
187.630561
11
138.229406
21
187.729013
0
LINE
8
Layer 1
10
138.229406
20
187.729013
11
138.829589
21
187.624099
0
LINE
8
Layer 1
10
138.829589
20
187.624099
11
139.363648
21
187.316658
0
LINE
8
Layer 1
10
139.363648
20
187.316658
11
140.177631
21
186.919541
0
LINE
8
Layer 1
10
140.177631
20
186.919541
11
141.618185
21
186.831899
0
LINE
8
Layer 1
10
141.618185
20
186.831899
11
142.582269
21
186.900248
0
LINE
8
Layer 1
10
142.582269
20
186.900248
11
143.493646
21
187.111652
0
LINE
8
Layer 1
10
143.493646
20
187.111652
11
146.032217
21
188.243010
0
LINE
8
Layer 1
10
146.032217
20
188.243010
11
148.671298
21
189.414725
0
LINE
8
Layer 1
10
148.671298
20
189.414725
11
149.648741
21
189.587570
0
LINE
8
Layer 1
10
149.648741
20
189.587570
11
150.880518
21
189.622311
0
LINE
8
Layer 1
10
150.880518
20
189.622311
11
152.927278
21
189.463192
0
LINE
8
Layer 1
10
152.927278
20
189.463192
11
154.690518
21
188.658740
0
LINE
8
Layer 1
10
154.690518
20
188.658740
11
159.401467
21
186.190122
0
LINE
8
Layer 1
10
159.401467
20
186.190122
11
161.143268
21
185.503164
0
LINE
8
Layer 1
10
161.143268
20
185.503164
11
162.759881
21
185.054280
0
LINE
8
Layer 1
10
162.759881
20
185.054280
11
164.678127
21
184.457799
0
LINE
8
Layer 1
10
164.678127
20
184.457799
11
165.158848
21
184.160777
0
LINE
8
Layer 1
10
165.158848
20
184.160777
11
165.320480
21
183.884194
0
LINE
8
Layer 1
10
165.320480
20
183.884194
11
165.162907
21
183.642769
0
LINE
8
Layer 1
10
165.162907
20
183.642769
11
164.686015
21
183.451221
0
LINE
8
Layer 1
10
164.686015
20
183.451221
11
162.773812
21
183.276632
0
LINE
8
Layer 1
10
162.773812
20
183.276632
11
161.243251
21
183.182393
0
LINE
8
Layer 1
10
161.243251
20
183.182393
11
161.086782
21
182.981228
0
LINE
8
Layer 1
10
161.086782
20
182.981228
11
161.148308
21
182.599048
0
LINE
8
Layer 1
10
161.148308
20
182.599048
11
161.161190
21
181.890275
0
LINE
8
Layer 1
10
161.161190
20
181.890275
11
160.923684
21
181.608783
0
LINE
8
Layer 1
10
160.923684
20
181.608783
11
160.441854
21
181.340492
0
LINE
8
Layer 1
10
160.441854
20
181.340492
11
158.500150
21
180.737329
0
LINE
8
Layer 1
10
158.500150
20
180.737329
11
154.845927
21
179.868421
0
LINE
8
Layer 1
10
154.845927
20
179.868421
11
151.451057
21
179.386226
0
LINE
8
Layer 1
10
151.451057
20
179.386226
11
149.944775
21
179.373180
0
LINE
8
Layer 1
10
149.944775
20
179.373180
11
148.763852
21
179.523396
0
LINE
8
Layer 1
10
148.763852
20
179.523396
11
148.763852
21
179.523396
0
LINE
8
Layer 1
10
97.471786
20
194.739559
11
97.795658
21
194.897951
0
LINE
8
Layer 1
10
97.795658
20
194.897951
11
98.066929
21
195.207852
0
LINE
8
Layer 1
10
98.066929
20
195.207852
11
98.554529
21
196.444114
0
LINE
8
Layer 1
10
98.554529
20
196.444114
11
98.813495
21
197.535648
0
LINE
8
Layer 1
10
98.813495
20
197.535648
11
98.836897
21
198.263129
0
LINE
8
Layer 1
10
98.836897
20
198.263129
11
98.617441
21
198.668708
0
LINE
8
Layer 1
10
98.617441
20
198.668708
11
98.147832
21
198.794534
0
LINE
8
Layer 1
10
98.147832
20
198.794534
11
95.625632
21
199.255284
0
LINE
8
Layer 1
10
95.625632
20
199.255284
11
91.540858
21
200.354211
0
LINE
8
Layer 1
10
91.540858
20
200.354211
11
87.351893
21
201.666330
0
LINE
8
Layer 1
10
87.351893
20
201.666330
11
84.517117
21
202.766654
0
LINE
8
Layer 1
10
84.517117
20
202.766654
11
83.296835
21
203.573735
0
LINE
8
Layer 1
10
83.296835
20
203.573735
11
82.025461
21
204.708708
0
LINE
8
Layer 1
10
82.025461
20
204.708708
11
80.908294
21
205.965958
0
LINE
8
Layer 1
10
80.908294
20
205.965958
11
80.150631
21
207.139871
0
LINE
8
Layer 1
10
80.150631
20
207.139871
11
79.762662
21
208.414500
0
LINE
8
Layer 1
10
79.762662
20
208.414500
11
79.632890
21
209.912669
0
LINE
8
Layer 1
10
79.632890
20
209.912669
11
79.761421
21
211.384246
0
LINE
8
Layer 1
10
79.761421
20
211.384246
11
80.148359
21
212.579095
0
LINE
8
Layer 1
10
80.148359
20
212.579095
11
80.466236
21
213.297046
0
LINE
8
Layer 1
10
80.466236
20
213.297046
11
80.445804
21
213.646901
0
LINE
8
Layer 1
10
80.445804
20
213.646901
11
80.069497
21
213.644022
0
LINE
8
Layer 1
10
80.069497
20
213.644022
11
79.319747
21
213.303774
0
LINE
8
Layer 1
10
79.319747
20
213.303774
11
77.378502
21
211.966091
0
LINE
8
Layer 1
10
77.378502
20
211.966091
11
75.594986
21
210.165903
0
LINE
8
Layer 1
10
75.594986
20
210.165903
11
74.089675
21
208.046779
0
LINE
8
Layer 1
10
74.089675
20
208.046779
11
72.983042
21
205.752292
0
LINE
8
Layer 1
10
72.983042
20
205.752292
11
72.529686
21
204.197937
0
LINE
8
Layer 1
10
72.529686
20
204.197937
11
72.157247
21
202.375170
0
LINE
8
Layer 1
10
72.157247
20
202.375170
11
71.950781
21
200.785389
0
LINE
8
Layer 1
10
71.950781
20
200.785389
11
71.995346
21
199.929993
0
LINE
8
Layer 1
10
71.995346
20
199.929993
11
72.264974
21
199.687325
0
LINE
8
Layer 1
10
72.264974
20
199.687325
11
72.616346
21
199.678920
0
LINE
8
Layer 1
10
72.616346
20
199.678920
11
73.033098
21
199.900242
0
LINE
8
Layer 1
10
73.033098
20
199.900242
11
73.498868
21
200.346756
0
LINE
8
Layer 1
10
73.498868
20
200.346756
11
74.402736
21
201.052311
0
LINE
8
Layer 1
10
74.402736
20
201.052311
11
75.886268
21
199.973582
0
LINE
8
Layer 1
10
75.886268
20
199.973582
11
78.377208
21
197.993381
0
LINE
8
Layer 1
10
78.377208
20
197.993381
11
80.981454
21
196.427017
0
LINE
8
Layer 1
10
80.981454
20
196.427017
11
83.594170
21
195.328052
0
LINE
8
Layer 1
10
83.594170
20
195.328052
11
86.110518
21
194.750047
0
LINE
8
Layer 1
10
86.110518
20
194.750047
11
92.091067
21
194.610095
0
LINE
8
Layer 1
10
92.091067
20
194.610095
11
97.471786
21
194.739559
0
LINE
8
Layer 1
10
97.471786
20
194.739559
11
97.471786
21
194.739559
0
LINE
8
Layer 1
10
104.036213
20
198.020991
11
105.238941
21
198.522057
0
LINE
8
Layer 1
10
105.238941
20
198.522057
11
106.651721
21
198.715921
0
LINE
8
Layer 1
10
106.651721
20
198.715921
11
108.836987
21
198.617504
0
LINE
8
Layer 1
10
108.836987
20
198.617504
11
112.357177
21
198.241725
0
LINE
8
Layer 1
10
112.357177
20
198.241725
11
114.945427
21
198.052119
0
LINE
8
Layer 1
10
114.945427
20
198.052119
11
116.731621
21
198.339168
0
LINE
8
Layer 1
10
116.731621
20
198.339168
11
120.964963
21
199.081890
0
LINE
8
Layer 1
10
120.964963
20
199.081890
11
126.891629
21
199.824224
0
LINE
8
Layer 1
10
126.891629
20
199.824224
11
132.741591
21
200.421662
0
LINE
8
Layer 1
10
132.741591
20
200.421662
11
134.306863
21
200.359330
0
LINE
8
Layer 1
10
134.306863
20
200.359330
11
135.445568
21
200.070093
0
LINE
8
Layer 1
10
135.445568
20
200.070093
11
136.609563
21
199.720608
0
LINE
8
Layer 1
10
136.609563
20
199.720608
11
137.453173
21
199.730183
0
LINE
8
Layer 1
10
137.453173
20
199.730183
11
138.082551
21
200.128192
0
LINE
8
Layer 1
10
138.082551
20
200.128192
11
138.603852
21
200.944009
0
LINE
8
Layer 1
10
138.603852
20
200.944009
11
139.581859
21
202.567088
0
LINE
8
Layer 1
10
139.581859
20
202.567088
11
140.017989
21
202.920196
0
LINE
8
Layer 1
10
140.017989
20
202.920196
11
140.472851
21
203.027868
0
LINE
8
Layer 1
10
140.472851
20
203.027868
11
140.761179
21
202.940312
0
LINE
8
Layer 1
10
140.761179
20
202.940312
11
140.925217
21
202.529801
0
LINE
8
Layer 1
10
140.925217
20
202.529801
11
141.038442
21
199.852867
0
LINE
8
Layer 1
10
141.038442
20
199.852867
11
141.074140
21
196.677867
0
LINE
8
Layer 1
10
141.074140
20
196.677867
11
141.323974
21
198.624656
0
LINE
8
Layer 1
10
141.323974
20
198.624656
11
141.753379
21
200.548757
0
LINE
8
Layer 1
10
141.753379
20
200.548757
11
142.558273
21
202.425419
0
LINE
8
Layer 1
10
142.558273
20
202.425419
11
143.542741
21
204.601703
0
LINE
8
Layer 1
10
143.542741
20
204.601703
11
143.386622
21
204.832004
0
LINE
8
Layer 1
10
143.386622
20
204.832004
11
142.956994
21
205.082623
0
LINE
8
Layer 1
10
142.956994
20
205.082623
11
141.509588
21
205.581907
0
LINE
8
Layer 1
10
141.509588
20
205.581907
11
139.665273
21
205.973742
0
LINE
8
Layer 1
10
139.665273
20
205.973742
11
137.888797
21
206.132312
0
LINE
8
Layer 1
10
137.888797
20
206.132312
11
135.882218
21
205.980712
0
LINE
8
Layer 1
10
135.882218
20
205.980712
11
133.686849
21
205.478965
0
LINE
8
Layer 1
10
133.686849
20
205.478965
11
131.064461
21
204.556657
0
LINE
8
Layer 1
10
131.064461
20
204.556657
11
127.776825
21
203.143370
0
LINE
8
Layer 1
10
127.776825
20
203.143370
11
122.657283
21
200.930665
0
LINE
8
Layer 1
10
122.657283
20
200.930665
11
121.094778
21
200.433588
0
LINE
8
Layer 1
10
121.094778
20
200.433588
11
119.472687
21
200.075021
0
LINE
8
Layer 1
10
119.472687
20
200.075021
11
117.823081
21
199.841674
0
LINE
8
Layer 1
10
117.823081
20
199.841674
11
117.426102
21
199.914068
0
LINE
8
Layer 1
10
117.426102
20
199.914068
11
117.144354
21
200.115458
0
LINE
8
Layer 1
10
117.144354
20
200.115458
11
116.795626
21
200.714344
0
LINE
8
Layer 1
10
116.795626
20
200.714344
11
116.856266
21
201.290444
0
LINE
8
Layer 1
10
116.856266
20
201.290444
11
117.271740
21
201.727693
0
LINE
8
Layer 1
10
117.271740
20
201.727693
11
117.987518
21
201.910025
0
LINE
8
Layer 1
10
117.987518
20
201.910025
11
118.219936
21
202.023696
0
LINE
8
Layer 1
10
118.219936
20
202.023696
11
117.578296
21
202.396506
0
LINE
8
Layer 1
10
117.578296
20
202.396506
11
116.906339
21
202.631775
0
LINE
8
Layer 1
10
116.906339
20
202.631775
11
115.947996
21
202.775231
0
LINE
8
Layer 1
10
115.947996
20
202.775231
11
112.357185
21
202.858876
0
LINE
8
Layer 1
10
112.357185
20
202.858876
11
108.488806
21
202.733183
0
LINE
8
Layer 1
10
108.488806
20
202.733183
11
107.409299
21
202.504215
0
LINE
8
Layer 1
10
107.409299
20
202.504215
11
106.302138
21
202.088486
0
LINE
8
Layer 1
10
106.302138
20
202.088486
11
104.778785
21
201.384692
0
LINE
8
Layer 1
10
104.778785
20
201.384692
11
103.533405
21
200.651867
0
LINE
8
Layer 1
10
103.533405
20
200.651867
11
102.545247
21
199.875995
0
LINE
8
Layer 1
10
102.545247
20
199.875995
11
101.793562
21
199.043059
0
LINE
8
Layer 1
10
101.793562
20
199.043059
11
101.342609
21
198.213739
0
LINE
8
Layer 1
10
101.342609
20
198.213739
11
101.044162
21
197.233197
0
LINE
8
Layer 1
10
101.044162
20
197.233197
11
100.934054
21
196.271766
0
LINE
8
Layer 1
10
100.934054
20
196.271766
11
101.048123
21
195.499781
0
LINE
8
Layer 1
10
101.048123
20
195.499781
11
101.169920
21
195.294134
0
LINE
8
Layer 1
10
101.169920
20
195.294134
11
101.322896
21
195.310099
0
LINE
8
Layer 1
10
101.322896
20
195.310099
11
101.864174
21
196.113496
0
LINE
8
Layer 1
10
101.864174
20
196.113496
11
102.705195
21
197.151842
0
LINE
8
Layer 1
10
102.705195
20
197.151842
11
104.036213
21
198.020991
0
LINE
8
Layer 1
10
104.036213
20
198.020991
11
104.036213
21
198.020991
0
LINE
8
Layer 1
10
145.659407
20
199.935993
11
149.187185
21
200.643284
0
LINE
8
Layer 1
10
149.187185
20
200.643284
11
156.720183
21
202.107060
0
LINE
8
Layer 1
10
156.720183
20
202.107060
11
158.886747
21
202.713746
0
LINE
8
Layer 1
10
158.886747
20
202.713746
11
160.899407
21
203.456168
0
LINE
8
Layer 1
10
160.899407
20
203.456168
11
162.687124
21
204.239451
0
LINE
8
Layer 1
10
162.687124
20
204.239451
11
164.018471
21
204.998360
0
LINE
8
Layer 1
10
164.018471
20
204.998360
11
165.006657
21
205.809524
0
LINE
8
Layer 1
10
165.006657
20
205.809524
11
165.764887
21
206.749572
0
LINE
8
Layer 1
10
165.764887
20
206.749572
11
166.181155
21
207.452244
0
LINE
8
Layer 1
10
166.181155
20
207.452244
11
166.416196
21
208.131029
0
LINE
8
Layer 1
10
166.416196
20
208.131029
11
166.543852
21
210.346164
0
LINE
8
Layer 1
10
166.543852
20
210.346164
11
166.400726
21
212.633223
0
LINE
8
Layer 1
10
166.400726
20
212.633223
11
165.707356
21
214.415451
0
LINE
8
Layer 1
10
165.707356
20
214.415451
11
164.866919
21
215.757714
0
LINE
8
Layer 1
10
164.866919
20
215.757714
11
163.707440
21
217.066925
0
LINE
8
Layer 1
10
163.707440
20
217.066925
11
162.183842
21
218.387262
0
LINE
8
Layer 1
10
162.183842
20
218.387262
11
160.251044
21
219.762907
0
LINE
8
Layer 1
10
160.251044
20
219.762907
11
158.087963
21
221.385510
0
LINE
8
Layer 1
10
158.087963
20
221.385510
11
157.740373
21
221.913995
0
LINE
8
Layer 1
10
157.740373
20
221.913995
11
157.763162
21
222.378984
0
LINE
8
Layer 1
10
157.763162
20
222.378984
11
158.007210
21
222.610346
0
LINE
8
Layer 1
10
158.007210
20
222.610346
11
158.488596
21
222.725112
0
LINE
8
Layer 1
10
158.488596
20
222.725112
11
160.002788
21
222.631266
0
LINE
8
Layer 1
10
160.002788
20
222.631266
11
161.984554
21
222.150260
0
LINE
8
Layer 1
10
161.984554
20
222.150260
11
164.112708
21
221.334907
0
LINE
8
Layer 1
10
164.112708
20
221.334907
11
167.917769
21
219.291112
0
LINE
8
Layer 1
10
167.917769
20
219.291112
11
171.181003
21
216.971629
0
LINE
8
Layer 1
10
171.181003
20
216.971629
11
172.536653
21
215.768274
0
LINE
8
Layer 1
10
172.536653
20
215.768274
11
173.669508
21
214.567720
0
LINE
8
Layer 1
10
173.669508
20
214.567720
11
174.550455
21
213.393875
0
LINE
8
Layer 1
10
174.550455
20
213.393875
11
175.150382
21
212.270646
0
LINE
8
Layer 1
10
175.150382
20
212.270646
11
175.690905
21
211.124559
0
LINE
8
Layer 1
10
175.690905
20
211.124559
11
176.050228
21
210.647868
0
LINE
8
Layer 1
10
176.050228
20
210.647868
11
176.248408
21
210.779401
0
LINE
8
Layer 1
10
176.248408
20
210.779401
11
176.223938
21
211.198531
0
LINE
8
Layer 1
10
176.223938
20
211.198531
11
175.471545
21
213.046757
0
LINE
8
Layer 1
10
175.471545
20
213.046757
11
174.315631
21
214.999140
0
LINE
8
Layer 1
10
174.315631
20
214.999140
11
172.786235
21
216.802760
0
LINE
8
Layer 1
10
172.786235
20
216.802760
11
170.889339
21
218.454142
0
LINE
8
Layer 1
10
170.889339
20
218.454142
11
168.630921
21
219.949808
0
LINE
8
Layer 1
10
168.630921
20
219.949808
11
166.016961
21
221.286284
0
LINE
8
Layer 1
10
166.016961
20
221.286284
11
163.053440
21
222.460094
0
LINE
8
Layer 1
10
163.053440
20
222.460094
11
159.746336
21
223.467762
0
LINE
8
Layer 1
10
159.746336
20
223.467762
11
156.101629
21
224.305812
0
LINE
8
Layer 1
10
156.101629
20
224.305812
11
151.440733
21
225.046732
0
LINE
8
Layer 1
10
151.440733
20
225.046732
11
146.404320
21
225.603774
0
LINE
8
Layer 1
10
146.404320
20
225.603774
11
142.371284
21
225.854175
0
LINE
8
Layer 1
10
142.371284
20
225.854175
11
141.161937
21
225.826023
0
LINE
8
Layer 1
10
141.161937
20
225.826023
11
140.720518
21
225.675175
0
LINE
8
Layer 1
10
140.720518
20
225.675175
11
141.011176
21
225.396141
0
LINE
8
Layer 1
10
141.011176
20
225.396141
11
141.760411
21
225.024531
0
LINE
8
Layer 1
10
141.760411
20
225.024531
11
143.898185
21
224.318091
0
LINE
8
Layer 1
10
143.898185
20
224.318091
11
144.832064
21
223.881049
0
LINE
8
Layer 1
10
144.832064
20
223.881049
11
145.409325
21
223.630091
0
LINE
8
Layer 1
10
145.409325
20
223.630091
11
147.156557
21
223.051100
0
LINE
8
Layer 1
10
147.156557
20
223.051100
11
149.314955
21
222.014504
0
LINE
8
Layer 1
10
149.314955
20
222.014504
11
151.196094
21
220.908676
0
LINE
8
Layer 1
10
151.196094
20
220.908676
11
152.807988
21
219.724988
0
LINE
8
Layer 1
10
152.807988
20
219.724988
11
154.158651
21
218.454811
0
LINE
8
Layer 1
10
154.158651
20
218.454811
11
155.256098
21
217.089518
0
LINE
8
Layer 1
10
155.256098
20
217.089518
11
156.108343
21
215.620482
0
LINE
8
Layer 1
10
156.108343
20
215.620482
11
156.723401
21
214.039074
0
LINE
8
Layer 1
10
156.723401
20
214.039074
11
157.109287
21
212.336666
0
LINE
8
Layer 1
10
157.109287
20
212.336666
11
157.253604
21
210.651541
0
LINE
8
Layer 1
10
157.253604
20
210.651541
11
157.088406
21
209.271642
0
LINE
8
Layer 1
10
157.088406
20
209.271642
11
156.587478
21
208.096410
0
LINE
8
Layer 1
10
156.587478
20
208.096410
11
155.724606
21
207.025289
0
LINE
8
Layer 1
10
155.724606
20
207.025289
11
154.730328
21
206.165472
0
LINE
8
Layer 1
10
154.730328
20
206.165472
11
153.571915
21
205.480695
0
LINE
8
Layer 1
10
153.571915
20
205.480695
11
152.046131
21
204.873108
0
LINE
8
Layer 1
10
152.046131
20
204.873108
11
149.949741
21
204.244858
0
LINE
8
Layer 1
10
149.949741
20
204.244858
11
147.371330
21
203.333071
0
LINE
8
Layer 1
10
147.371330
20
203.333071
11
145.366332
21
202.228720
0
LINE
8
Layer 1
10
145.366332
20
202.228720
11
144.149474
21
201.081844
0
LINE
8
Layer 1
10
144.149474
20
201.081844
11
143.903700
21
200.539346
0
LINE
8
Layer 1
10
143.903700
20
200.539346
11
143.935484
21
200.042481
0
LINE
8
Layer 1
10
143.935484
20
200.042481
11
144.073185
21
199.775373
0
LINE
8
Layer 1
10
144.073185
20
199.775373
11
144.310822
21
199.674493
0
LINE
8
Layer 1
10
144.310822
20
199.674493
11
145.659407
21
199.935993
0
LINE
8
Layer 1
10
145.659407
20
199.935993
11
145.659407
21
199.935993
0
LINE
8
Layer 1
10
107.381904
20
43.574002
11
106.470905
21
44.187553
0
LINE
8
Layer 1
10
106.470905
20
44.187553
11
105.668046
21
44.958609
0
LINE
8
Layer 1
10
105.668046
20
44.958609
11
105.096215
21
45.747704
0
LINE
8
Layer 1
10
105.096215
20
45.747704
11
104.878296
21
46.415373
0
LINE
8
Layer 1
10
104.878296
20
46.415373
11
105.180731
21
47.132904
0
LINE
8
Layer 1
10
105.180731
20
47.132904
11
105.907860
21
48.096955
0
LINE
8
Layer 1
10
105.907860
20
48.096955
11
106.937423
21
49.236559
0
LINE
8
Layer 1
10
106.937423
20
49.236559
11
106.744750
21
52.645781
0
LINE
8
Layer 1
10
106.744750
20
52.645781
11
106.463538
21
55.505032
0
LINE
8
Layer 1
10
106.463538
20
55.505032
11
105.913838
21
57.402411
0
LINE
8
Layer 1
10
105.913838
20
57.402411
11
105.493921
21
58.082315
0
LINE
8
Layer 1
10
105.493921
20
58.082315
11
104.953623
21
58.632052
0
LINE
8
Layer 1
10
104.953623
20
58.632052
11
103.440868
21
59.488093
0
LINE
8
Layer 1
10
103.440868
20
59.488093
11
102.547096
21
59.940086
0
LINE
8
Layer 1
10
102.547096
20
59.940086
11
102.033650
21
60.441700
0
LINE
8
Layer 1
10
102.033650
20
60.441700
11
101.836810
21
61.096692
0
LINE
8
Layer 1
10
101.836810
20
61.096692
11
101.892856
21
62.008822
0
LINE
8
Layer 1
10
101.892856
20
62.008822
11
102.076718
21
63.234906
0
LINE
8
Layer 1
10
102.076718
20
63.234906
11
100.573642
21
63.110260
0
LINE
8
Layer 1
10
100.573642
20
63.110260
11
99.475637
21
63.116060
0
LINE
8
Layer 1
10
99.475637
20
63.116060
11
98.771693
21
63.336968
0
LINE
8
Layer 1
10
98.771693
20
63.336968
11
98.484966
21
63.757978
0
LINE
8
Layer 1
10
98.484966
20
63.757978
11
98.638614
21
64.364085
0
LINE
8
Layer 1
10
98.638614
20
64.364085
11
99.886818
21
66.996756
0
LINE
8
Layer 1
10
99.886818
20
66.996756
11
100.495857
21
68.200651
0
LINE
8
Layer 1
10
100.495857
20
68.200651
11
101.225179
21
69.266259
0
LINE
8
Layer 1
10
101.225179
20
69.266259
11
103.923073
21
72.091344
0
LINE
8
Layer 1
10
103.923073
20
72.091344
11
107.014097
21
74.832688
0
LINE
8
Layer 1
10
107.014097
20
74.832688
11
110.154122
21
76.968144
0
LINE
8
Layer 1
10
110.154122
20
76.968144
11
116.157788
21
80.193918
0
LINE
8
Layer 1
10
116.157788
20
80.193918
11
119.097513
21
81.635336
0
LINE
8
Layer 1
10
119.097513
20
81.635336
11
120.562243
21
82.236756
0
LINE
8
Layer 1
10
120.562243
20
82.236756
11
123.303304
21
83.489560
0
LINE
8
Layer 1
10
123.303304
20
83.489560
11
125.660616
21
84.813490
0
LINE
8
Layer 1
10
125.660616
20
84.813490
11
127.421646
21
86.311782
0
LINE
8
Layer 1
10
127.421646
20
86.311782
11
128.415566
21
87.226883
0
LINE
8
Layer 1
10
128.415566
20
87.226883
11
129.234785
21
87.768413
0
LINE
8
Layer 1
10
129.234785
20
87.768413
11
129.791041
21
87.893592
0
LINE
8
Layer 1
10
129.791041
20
87.893592
11
129.942977
21
87.786679
0
LINE
8
Layer 1
10
129.942977
20
87.786679
11
129.996074
21
87.559636
0
LINE
8
Layer 1
10
129.996074
20
87.559636
11
129.149407
21
85.862064
0
LINE
8
Layer 1
10
129.149407
20
85.862064
11
128.595332
21
84.876355
0
LINE
8
Layer 1
10
128.595332
20
84.876355
11
128.351188
21
84.171715
0
LINE
8
Layer 1
10
128.351188
20
84.171715
11
128.400320
21
83.642787
0
LINE
8
Layer 1
10
128.400320
20
83.642787
11
128.726074
21
83.184215
0
LINE
8
Layer 1
10
128.726074
20
83.184215
11
128.930578
21
82.823774
0
LINE
8
Layer 1
10
128.930578
20
82.823774
11
129.060766
21
82.159048
0
LINE
8
Layer 1
10
129.060766
20
82.159048
11
129.149644
21
79.464930
0
LINE
8
Layer 1
10
129.149644
20
79.464930
11
129.435843
21
73.153420
0
LINE
8
Layer 1
10
129.435843
20
73.153420
11
129.565971
21
70.051031
0
LINE
8
Layer 1
10
129.565971
20
70.051031
11
129.251934
21
67.332797
0
LINE
8
Layer 1
10
129.251934
20
67.332797
11
128.411208
21
64.609874
0
LINE
8
Layer 1
10
128.411208
20
64.609874
11
126.961271
21
61.493423
0
LINE
8
Layer 1
10
126.961271
20
61.493423
11
123.321600
21
54.149117
0
LINE
8
Layer 1
10
123.321600
20
54.149117
11
122.422395
21
51.832060
0
LINE
8
Layer 1
10
122.422395
20
51.832060
11
121.674972
21
49.357867
0
LINE
8
Layer 1
10
121.674972
20
49.357867
11
121.090752
21
47.396112
0
LINE
8
Layer 1
10
121.090752
20
47.396112
11
120.515691
21
45.883625
0
LINE
8
Layer 1
10
120.515691
20
45.883625
11
119.868162
21
44.762852
0
LINE
8
Layer 1
10
119.868162
20
44.762852
11
119.066539
21
43.976240
0
LINE
8
Layer 1
10
119.066539
20
43.976240
11
118.029194
21
43.466237
0
LINE
8
Layer 1
10
118.029194
20
43.466237
11
116.674501
21
43.175288
0
LINE
8
Layer 1
10
116.674501
20
43.175288
11
112.686564
21
43.020341
0
LINE
8
Layer 1
10
112.686564
20
43.020341
11
108.990315
21
43.127674
0
LINE
8
Layer 1
10
108.990315
20
43.127674
11
108.065535
21
43.293809
0
LINE
8
Layer 1
10
108.065535
20
43.293809
11
107.381904
21
43.574002
0
LINE
8
Layer 1
10
107.381904
20
43.574002
11
107.381904
21
43.574002
0
LINE
8
Layer 1
10
134.864407
20
52.638243
11
134.591599
21
53.033075
0
LINE
8
Layer 1
10
134.591599
20
53.033075
11
134.562715
21
53.515933
0
LINE
8
Layer 1
10
134.562715
20
53.515933
11
135.330746
21
55.277966
0
LINE
8
Layer 1
10
135.330746
20
55.277966
11
136.149097
21
57.059421
0
LINE
8
Layer 1
10
136.149097
20
57.059421
11
136.981001
21
59.295724
0
LINE
8
Layer 1
10
136.981001
20
59.295724
11
138.311201
21
64.033423
0
LINE
8
Layer 1
10
138.311201
20
64.033423
11
140.122759
21
71.672740
0
LINE
8
Layer 1
10
140.122759
20
71.672740
11
140.822187
21
73.654435
0
LINE
8
Layer 1
10
140.822187
20
73.654435
11
141.480509
21
74.736582
0
LINE
8
Layer 1
10
141.480509
20
74.736582
11
142.013199
21
75.219250
0
LINE
8
Layer 1
10
142.013199
20
75.219250
11
142.514592
21
75.423131
0
LINE
8
Layer 1
10
142.514592
20
75.423131
11
143.082078
21
75.361154
0
LINE
8
Layer 1
10
143.082078
20
75.361154
11
143.813050
21
75.046250
0
LINE
8
Layer 1
10
143.813050
20
75.046250
11
144.619774
21
74.629078
0
LINE
8
Layer 1
10
144.619774
20
74.629078
11
147.063395
21
78.009583
0
LINE
8
Layer 1
10
147.063395
20
78.009583
11
149.735879
21
81.390089
0
LINE
8
Layer 1
10
149.735879
20
81.390089
11
150.236877
21
81.037311
0
LINE
8
Layer 1
10
150.236877
20
81.037311
11
150.363313
21
80.565521
0
LINE
8
Layer 1
10
150.363313
20
80.565521
11
150.317448
21
79.107746
0
LINE
8
Layer 1
10
150.317448
20
79.107746
11
149.487244
21
69.960089
0
LINE
8
Layer 1
10
149.487244
20
69.960089
11
149.344177
21
67.637992
0
LINE
8
Layer 1
10
149.344177
20
67.637992
11
149.366774
21
65.466908
0
LINE
8
Layer 1
10
149.366774
20
65.466908
11
149.550771
21
63.531580
0
LINE
8
Layer 1
10
149.550771
20
63.531580
11
149.891905
21
61.916756
0
LINE
8
Layer 1
10
149.891905
20
61.916756
11
150.442506
21
59.430006
0
LINE
8
Layer 1
10
150.442506
20
59.430006
11
150.359852
21
58.738544
0
LINE
8
Layer 1
10
150.359852
20
58.738544
11
150.047760
21
58.195396
0
LINE
8
Layer 1
10
150.047760
20
58.195396
11
149.691211
21
57.842993
0
LINE
8
Layer 1
10
149.691211
20
57.842993
11
149.205675
21
57.646313
0
LINE
8
Layer 1
10
149.205675
20
57.646313
11
147.024544
21
57.542311
0
LINE
8
Layer 1
10
147.024544
20
57.542311
11
145.121004
21
57.441320
0
LINE
8
Layer 1
10
145.121004
20
57.441320
11
143.534876
21
57.009149
0
LINE
8
Layer 1
10
143.534876
20
57.009149
11
141.803382
21
56.052001
0
LINE
8
Layer 1
10
141.803382
20
56.052001
11
139.463746
21
54.376080
0
LINE
8
Layer 1
10
139.463746
20
54.376080
11
137.797659
21
53.229914
0
LINE
8
Layer 1
10
137.797659
20
53.229914
11
136.486023
21
52.562105
0
LINE
8
Layer 1
10
136.486023
20
52.562105
11
135.513413
21
52.366824
0
LINE
8
Layer 1
10
135.513413
20
52.366824
11
134.864407
21
52.638243
0
LINE
8
Layer 1
10
134.864407
20
52.638243
11
134.864407
21
52.638243
0
LINE
8
Layer 1
10
148.497544
20
83.904339
11
148.634947
21
86.288327
0
LINE
8
Layer 1
10
148.634947
20
86.288327
11
148.790883
21
88.265241
0
LINE
8
Layer 1
10
148.790883
20
88.265241
11
148.623177
21
88.844746
0
LINE
8
Layer 1
10
148.623177
20
88.844746
11
148.250738
21
89.493220
0
LINE
8
Layer 1
10
148.250738
20
89.493220
11
147.108903
21
90.953788
0
LINE
8
Layer 1
10
147.108903
20
90.953788
11
146.817501
21
91.370195
0
LINE
8
Layer 1
10
146.817501
20
91.370195
11
146.663370
21
91.923185
0
LINE
8
Layer 1
10
146.663370
20
91.923185
11
146.669493
21
92.445749
0
LINE
8
Layer 1
10
146.669493
20
92.445749
11
146.858852
21
92.770878
0
LINE
8
Layer 1
10
146.858852
20
92.770878
11
148.274030
21
93.095250
0
LINE
8
Layer 1
10
148.274030
20
93.095250
11
149.408833
21
93.130074
0
LINE
8
Layer 1
10
149.408833
20
93.130074
11
149.798727
21
92.905305
0
LINE
8
Layer 1
10
149.798727
20
92.905305
11
150.249585
21
92.461568
0
LINE
8
Layer 1
10
150.249585
20
92.461568
11
150.827282
21
91.653709
0
LINE
8
Layer 1
10
150.827282
20
91.653709
11
151.296671
21
90.642304
0
LINE
8
Layer 1
10
151.296671
20
90.642304
11
151.611917
21
89.550231
0
LINE
8
Layer 1
10
151.611917
20
89.550231
11
151.727185
21
88.500365
0
LINE
8
Layer 1
10
151.727185
20
88.500365
11
151.622094
21
87.531349
0
LINE
8
Layer 1
10
151.622094
20
87.531349
11
151.338037
21
86.541783
0
LINE
8
Layer 1
10
151.338037
20
86.541783
11
150.420320
21
84.767538
0
LINE
8
Layer 1
10
150.420320
20
84.767538
11
149.880308
21
84.116126
0
LINE
8
Layer 1
10
149.880308
20
84.116126
11
149.348626
21
83.710700
0
LINE
8
Layer 1
10
149.348626
20
83.710700
11
148.872096
21
83.617893
0
LINE
8
Layer 1
10
148.872096
20
83.617893
11
148.497544
21
83.904339
0
LINE
8
Layer 1
10
148.497544
20
83.904339
11
148.497544
21
83.904339
0
LINE
8
Layer 1
10
125.281436
20
96.841756
11
124.204755
21
98.574301
0
LINE
8
Layer 1
10
124.204755
20
98.574301
11
122.162121
21
100.943575
0
LINE
8
Layer 1
10
122.162121
20
100.943575
11
119.519826
21
103.559787
0
LINE
8
Layer 1
10
119.519826
20
103.559787
11
116.644163
21
106.033144
0
LINE
8
Layer 1
10
116.644163
20
106.033144
11
113.670341
21
108.242821
0
LINE
8
Layer 1
10
113.670341
20
108.242821
11
110.198204
21
110.342582
0
LINE
8
Layer 1
10
110.198204
20
110.342582
11
104.890913
21
113.067000
0
LINE
8
Layer 1
10
104.890913
20
113.067000
11
96.411629
21
117.150653
0
LINE
8
Layer 1
10
96.411629
20
117.150653
11
94.104393
21
118.292595
0
LINE
8
Layer 1
10
94.104393
20
118.292595
11
92.809371
21
119.068644
0
LINE
8
Layer 1
10
92.809371
20
119.068644
11
92.356727
21
119.606480
0
LINE
8
Layer 1
10
92.356727
20
119.606480
11
92.576627
21
120.033785
0
LINE
8
Layer 1
10
92.576627
20
120.033785
11
93.212593
21
120.229102
0
LINE
8
Layer 1
10
93.212593
20
120.229102
11
94.485107
21
120.035204
0
LINE
8
Layer 1
10
94.485107
20
120.035204
11
98.246074
21
119.584955
0
LINE
8
Layer 1
10
98.246074
20
119.584955
11
100.261975
21
119.593110
0
LINE
8
Layer 1
10
100.261975
20
119.593110
11
100.793139
21
119.772368
0
LINE
8
Layer 1
10
100.793139
20
119.772368
11
101.271674
21
120.114867
0
LINE
8
Layer 1
10
101.271674
20
120.114867
11
101.711626
21
120.526895
0
LINE
8
Layer 1
10
101.711626
20
120.526895
11
101.913682
21
120.991556
0
LINE
8
Layer 1
10
101.913682
20
120.991556
11
101.802895
21
123.253170
0
LINE
8
Layer 1
10
101.802895
20
123.253170
11
101.704408
21
126.971614
0
LINE
8
Layer 1
10
101.704408
20
126.971614
11
101.610111
21
128.428218
0
LINE
8
Layer 1
10
101.610111
20
128.428218
11
100.820412
21
130.576709
0
LINE
8
Layer 1
10
100.820412
20
130.576709
11
100.200551
21
132.168517
0
LINE
8
Layer 1
10
100.200551
20
132.168517
11
99.877057
21
133.416021
0
LINE
8
Layer 1
10
99.877057
20
133.416021
11
99.830829
21
134.436370
0
LINE
8
Layer 1
10
99.830829
20
134.436370
11
100.042771
21
135.346717
0
LINE
8
Layer 1
10
100.042771
20
135.346717
11
100.107215
21
136.238805
0
LINE
8
Layer 1
10
100.107215
20
136.238805
11
99.994634
21
137.867379
0
LINE
8
Layer 1
10
99.994634
20
137.867379
11
99.347951
21
142.246113
0
LINE
8
Layer 1
10
99.347951
20
142.246113
11
99.313305
21
142.922973
0
LINE
8
Layer 1
10
99.313305
20
142.922973
11
99.467365
21
143.307765
0
LINE
8
Layer 1
10
99.467365
20
143.307765
11
99.850802
21
143.213043
0
LINE
8
Layer 1
10
99.850802
20
143.213043
11
100.381858
21
142.554059
0
LINE
8
Layer 1
10
100.381858
20
142.554059
11
101.865029
21
139.577233
0
LINE
8
Layer 1
10
101.865029
20
139.577233
11
103.072259
21
137.115804
0
LINE
8
Layer 1
10
103.072259
20
137.115804
11
104.552225
21
134.497233
0
LINE
8
Layer 1
10
104.552225
20
134.497233
11
106.717897
21
130.778978
0
LINE
8
Layer 1
10
106.717897
20
130.778978
11
107.733402
21
129.002979
0
LINE
8
Layer 1
10
107.733402
20
129.002979
11
109.136758
21
126.908718
0
LINE
8
Layer 1
10
109.136758
20
126.908718
11
112.419285
21
122.735645
0
LINE
8
Layer 1
10
112.419285
20
122.735645
11
115.641379
21
119.418121
0
LINE
8
Layer 1
10
115.641379
20
119.418121
11
119.165457
21
116.390346
0
LINE
8
Layer 1
10
119.165457
20
116.390346
11
122.934536
21
113.697021
0
LINE
8
Layer 1
10
122.934536
20
113.697021
11
126.891629
21
111.382847
0
LINE
8
Layer 1
10
126.891629
20
111.382847
11
131.286795
21
108.891231
0
LINE
8
Layer 1
10
131.286795
20
108.891231
11
134.597211
21
106.612917
0
LINE
8
Layer 1
10
134.597211
20
106.612917
11
135.792451
21
105.595475
0
LINE
8
Layer 1
10
135.792451
20
105.595475
11
136.652682
21
104.681431
0
LINE
8
Layer 1
10
136.652682
20
104.681431
11
137.156628
21
103.887475
0
LINE
8
Layer 1
10
137.156628
20
103.887475
11
137.283015
21
103.230299
0
LINE
8
Layer 1
10
137.283015
20
103.230299
11
137.094904
21
102.626599
0
LINE
8
Layer 1
10
137.094904
20
102.626599
11
136.769407
21
102.239185
0
LINE
8
Layer 1
10
136.769407
20
102.239185
11
131.357491
21
99.176832
0
LINE
8
Layer 1
10
131.357491
20
99.176832
11
127.701220
21
97.178875
0
LINE
8
Layer 1
10
127.701220
20
97.178875
11
125.915855
21
96.347867
0
LINE
8
Layer 1
10
125.915855
20
96.347867
11
125.542611
21
96.492947
0
LINE
8
Layer 1
10
125.542611
20
96.492947
11
125.281436
21
96.841756
0
LINE
8
Layer 1
10
125.281436
20
96.841756
11
125.281436
21
96.841756
 0 
ENDSEC
 0 
EOF
