  0
SECTION
  2
HEADER
  9
$ACADVER
  1
AC1006
  0
ENDSEC
  0
SECTION
  2
TABLES
  0
TABLE
  2
LTYPE
 70
    25
  0
LTYPE
  2
CONTINUOUS
 70
    64
  3
Solid line
 72
    64
 73
     0
 40
0.000000
  0
LTYPE
  2
DASHDOT
 70
    64
  3
__ . __ . __ . __ . __ . __ . __ . __ . __ . __
 72
    65
 73
     4
 40
1.000000
 49
0.500000
 49
-0.250000
 49
0.000000
 49
-0.250000
  0
LTYPE
  2
DASHED
 70
    64
  3
__ __ __ __ __ __ __ __ __ __ __ __ __ __ __ __
 72
    65
 73
     2
 40
0.750000
 49
0.500000
 49
-0.250000
  0
LTYPE
  2
DIVIDE
 70
    64
  3
____ . . ____ . . ____ . . ____ . . ____ . . __
 72
    65
 73
     6
 40
1.250000
 49
0.500000
 49
-0.250000
 49
0.000000
 49
-0.250000
 49
0.000000
 49
-0.250000
  0
LTYPE
  2
DOT
 70
    64
  3
. . . . . . . . . . . . . . . . . . . . . . . . 
 72
    65
 73
     2
 40
0.250000
 49
0.000000
 49
-0.250000
  0
ENDTAB
  0
ENDSEC
  0
SECTION
  2
ENTITIES
  0
LINE
  8
0
 62
     5
  6
CONTINUOUS
 10
-6.657757
 20
-1.526723
 30
0.000000
 11
-8.338621
 21
-0.823106
 31
0.000000
  0
LINE
  8
0
 62
     5
  6
CONTINUOUS
 10
-5.920988
 20
-1.519512
 30
0.000000
 11
-5.920988
 21
-1.377419
 31
0.000000
  0
ARC
  8
0
 62
     5
  6
CONTINUOUS
 10
-6.303604
 20
-0.069131
 30
0.000000
 40
1.500000
 50
256.343420
 51
284.778181
  0
ARC
  8
0
 62
     5
  6
CONTINUOUS
 10
-6.303604
 20
-0.069131
 30
0.000000
 40
1.500000
 50
299.285629
 51
330.867717
  0
LINE
  8
0
 62
     5
  6
CONTINUOUS
 10
-5.920988
 20
-1.377419
 30
0.000000
 11
-5.569859
 21
-1.377419
 31
0.000000
  0
ARC
  8
0
 62
     5
  6
CONTINUOUS
 10
-4.371392
 20
-0.860887
 30
0.000000
 40
0.625000
 50
25.020726
 51
174.351621
  0
ARC
  8
0
 62
     5
  6
CONTINUOUS
 10
-3.351967
 20
-0.385072
 30
0.000000
 40
0.500000
 50
205.020726
 51
247.094230
  0
LINE
  8
0
 62
     5
  6
CONTINUOUS
 10
-3.546576
 20
-0.845646
 30
0.000000
 11
-2.152217
 21
-1.434811
 31
0.000000
  0
LINE
  8
0
 62
     5
  6
CONTINUOUS
 10
-2.152217
 20
-1.434811
 30
0.000000
 11
-2.048745
 21
-1.477334
 31
0.000000
  0
ARC
  8
0
 62
     5
  6
CONTINUOUS
 10
-1.482638
 20
-0.088262
 30
0.000000
 40
1.500000
 50
247.826981
 51
284.778181
  0
LINE
  8
0
 62
     5
  6
CONTINUOUS
 10
-1.100022
 20
-1.377419
 30
0.000000
 11
-1.100022
 21
-1.538643
 31
0.000000
  0
LINE
  8
0
 62
     5
  6
CONTINUOUS
 10
-1.100022
 20
-1.377419
 30
0.000000
 11
-0.715779
 21
-1.377419
 31
0.000000
  0
ARC
  8
0
 62
     5
  6
CONTINUOUS
 10
-1.482638
 20
-0.088262
 30
0.000000
 40
1.500000
 50
300.746447
 51
344.199775
  0
ARC
  8
0
 62
     5
  6
CONTINUOUS
 10
0.468608
 20
-0.860887
 30
0.000000
 40
0.625000
 50
25.020726
 51
144.358021
  0
ARC
  8
0
 62
     5
  6
CONTINUOUS
 10
1.488033
 20
-0.385072
 30
0.000000
 40
0.500000
 50
205.020726
 51
247.094230
  0
LINE
  8
0
 62
     5
  6
CONTINUOUS
 10
1.293424
 20
-0.845646
 30
0.000000
 11
2.687783
 21
-1.434811
 31
0.000000
  0
LINE
  8
0
 62
     5
  6
CONTINUOUS
 10
2.687783
 20
-1.434811
 30
0.000000
 11
2.791255
 21
-1.477334
 31
0.000000
  0
ARC
  8
0
 62
     5
  6
CONTINUOUS
 10
3.357362
 20
-0.088262
 30
0.000000
 40
1.500000
 50
247.826981
 51
284.778181
  0
LINE
  8
0
 62
     5
  6
CONTINUOUS
 10
3.739978
 20
-1.377419
 30
0.000000
 11
3.739978
 21
-1.538643
 31
0.000000
  0
LINE
  8
0
 62
     5
  6
CONTINUOUS
 10
3.739978
 20
-1.377419
 30
0.000000
 11
4.124221
 21
-1.377419
 31
0.000000
  0
ARC
  8
0
 62
     5
  6
CONTINUOUS
 10
3.357458
 20
-0.088262
 30
0.000000
 40
1.500000
 50
300.806719
 51
345.755484
  0
ARC
  8
0
 62
     5
  6
CONTINUOUS
 10
5.288608
 20
-0.860887
 30
0.000000
 40
0.625000
 50
12.812421
 51
139.785202
  0
ARC
  8
0
 62
     5
  6
CONTINUOUS
 10
6.019934
 20
-0.694567
 30
0.000000
 40
0.125000
 50
192.812421
 51
247.651892
  0
LINE
  8
0
 62
     5
  6
CONTINUOUS
 10
5.972405
 20
-0.810178
 30
0.000000
 11
7.507783
 21
-1.434811
 31
0.000000
  0
LINE
  8
0
 62
     5
  6
CONTINUOUS
 10
7.507783
 20
-1.434811
 30
0.000000
 11
7.611255
 21
-1.477334
 31
0.000000
  0
ARC
  8
0
 62
     5
  6
CONTINUOUS
 10
8.177362
 20
-0.088262
 30
0.000000
 40
1.500000
 50
247.826981
 51
284.778181
  0
LINE
  8
0
 62
     5
  6
CONTINUOUS
 10
8.559978
 20
-1.377419
 30
0.000000
 11
8.559978
 21
-1.538643
 31
0.000000
  0
LINE
  8
0
 62
     5
  6
CONTINUOUS
 10
8.559978
 20
-1.377419
 30
0.000000
 11
8.944221
 21
-1.377419
 31
0.000000
  0
ARC
  8
0
 62
     5
  6
CONTINUOUS
 10
8.177362
 20
-0.088262
 30
0.000000
 40
1.500000
 50
300.746447
 51
325.504381
  0
LINE
  8
0
 62
     5
  6
CONTINUOUS
 10
10.145474
 20
0.052384
 30
0.000000
 11
9.340301
 21
-1.036967
 31
0.000000
  0
ARC
  8
0
 62
     5
  6
CONTINUOUS
 10
9.743386
 20
0.349580
 30
0.000000
 40
0.500000
 50
323.530766
 51
427.442753
  0
LINE
  8
0
 62
     5
  6
CONTINUOUS
 10
9.935189
 20
0.811328
 30
0.000000
 11
8.572353
 21
1.377429
 31
0.000000
  0
ARC
  8
0
 62
     5
  6
CONTINUOUS
 10
8.380550
 20
0.915680
 30
0.000000
 40
0.500000
 50
67.442753
 51
90.000000
  0
LINE
  8
0
 62
     5
  6
CONTINUOUS
 10
2.190571
 20
1.415680
 30
0.000000
 11
8.380550
 21
1.415680
 31
0.000000
  0
ARC
  8
0
 62
     5
  6
CONTINUOUS
 10
2.190571
 20
0.915680
 30
0.000000
 40
0.500000
 50
90.000000
 51
142.125016
  0
LINE
  8
0
 62
     5
  6
CONTINUOUS
 10
1.795895
 20
1.222651
 30
0.000000
 11
1.440703
 21
0.765975
 31
0.000000
  0
ARC
  8
0
 62
     5
  6
CONTINUOUS
 10
1.046027
 20
1.072945
 30
0.000000
 40
0.500000
 50
248.749494
 51
322.125016
  0
LINE
  8
0
 62
     5
  6
CONTINUOUS
 10
0.864804
 20
0.606943
 30
0.000000
 11
-1.218723
 21
1.417203
 31
0.000000
  0
ARC
  8
0
 62
     5
  6
CONTINUOUS
 10
-1.399946
 20
0.951201
 30
0.000000
 40
0.500000
 50
68.749494
 51
97.808992
  0
LINE
  8
0
 62
     5
  6
CONTINUOUS
 10
-1.467882
 20
1.446564
 30
0.000000
 11
-4.951538
 21
0.968806
 31
0.000000
  0
ARC
  8
0
 62
     5
  6
CONTINUOUS
 10
-5.019474
 20
1.464169
 30
0.000000
 40
0.500000
 50
230.054004
 51
277.808992
  0
ARC
  8
0
 62
     5
  6
CONTINUOUS
 10
-6.303604
 20
-0.069131
 30
0.000000
 40
1.500000
 50
50.054004
 51
136.308700
  0
LINE
  8
0
 62
     5
  6
CONTINUOUS
 10
-7.388212
 20
0.967028
 30
0.000000
 11
-7.808132
 21
0.575268
 31
0.000000
  0
LINE
  8
0
 62
     5
  6
CONTINUOUS
 10
-7.808132
 20
0.575268
 30
0.000000
 11
-8.475609
 21
-0.011303
 31
0.000000
  0
ARC
  8
0
 62
     5
  6
CONTINUOUS
 10
-8.145552
 20
-0.386885
 30
0.000000
 40
0.500000
 50
131.308614
 51
247.285588
  0
CIRCLE
  8
0
 62
     5
  6
CONTINUOUS
 10
-8.140163
 20
-0.420878
 30
0.000000
 40
0.200000
  0
CIRCLE
  8
0
 62
     5
  6
CONTINUOUS
 10
-6.303604
 20
-0.069131
 30
0.000000
 40
1.150000
  0
CIRCLE
  8
0
 62
     5
  6
CONTINUOUS
 10
-4.754008
 20
0.363486
 30
0.000000
 40
0.200000
  0
CIRCLE
  8
0
 62
     5
  6
CONTINUOUS
 10
-3.338328
 20
-0.401747
 30
0.000000
 40
0.200000
  0
CIRCLE
  8
0
 62
     5
  6
CONTINUOUS
 10
0.047827
 20
0.382616
 30
0.000000
 40
0.200000
  0
CIRCLE
  8
0
 62
     5
  6
CONTINUOUS
 10
-1.482638
 20
-0.088262
 30
0.000000
 40
1.150000
  0
CIRCLE
  8
0
 62
     5
  6
CONTINUOUS
 10
1.482638
 20
-0.420878
 30
0.000000
 40
0.200000
  0
CIRCLE
  8
0
 62
     5
  6
CONTINUOUS
 10
3.357458
 20
-0.088262
 30
0.000000
 40
1.150000
  0
CIRCLE
  8
0
 62
     5
  6
CONTINUOUS
 10
4.868793
 20
0.382616
 30
0.000000
 40
0.200000
  0
CIRCLE
  8
0
 62
     5
  6
CONTINUOUS
 10
6.322735
 20
-0.420878
 30
0.000000
 40
0.200000
  0
CIRCLE
  8
0
 62
     5
  6
CONTINUOUS
 10
8.178424
 20
-0.088262
 30
0.000000
 40
1.150000
  0
ARC
  8
0
 62
     5
  6
CONTINUOUS
 10
8.178424
 20
-0.088262
 30
0.000000
 40
1.500000
 50
10.535194
 51
24.075152
  0
ARC
  8
0
 62
     5
  6
CONTINUOUS
 10
9.689759
 20
0.382616
 30
0.000000
 40
0.200000
 50
259.449520
 51
495.160826
  0
ENDSEC
  0
EOF
